  0
SECTION
  2
HEADER
  9
$ACADVER
  1
AC1009
  9
$DWGCODEPAGE
  3
dos932
  9
$INSBASE
 10
0.0
 20
0.0
 30
0.0
  9
$EXTMIN
 10
-481.283553
 20
-588.31786
 30
0.0
  9
$EXTMAX
 10
1109.399426
 20
573.898323
 30
0.0
  9
$LIMMIN
 10
-2970.0
 20
-2100.0
  9
$LIMMAX
 10
2970.0
 20
2100.0
  9
$ORTHOMODE
 70
     1
  9
$REGENMODE
 70
     1
  9
$FILLMODE
 70
     1
  9
$QTEXTMODE
 70
     0
  9
$MIRRTEXT
 70
     0
  9
$DRAGMODE
 70
     2
  9
$LTSCALE
 40
20.0
  9
$OSMODE
 70
    33
  9
$ATTMODE
 70
     1
  9
$TEXTSIZE
 40
64.0
  9
$TRACEWID
 40
0.05
  9
$TEXTSTYLE
  7
STANDARD
  9
$CLAYER
  8
ETC
  9
$CELTYPE
  6
CONTINUOUS
  9
$CECOLOR
 62
     7
  9
$DIMSCALE
 40
1.0
  9
$DIMASZ
 40
12.0
  9
$DIMEXO
 40
20.0
  9
$DIMDLI
 40
200.0
  9
$DIMRND
 40
0.0
  9
$DIMDLE
 40
0.0
  9
$DIMEXE
 40
20.0
  9
$DIMTP
 40
0.0
  9
$DIMTM
 40
0.0
  9
$DIMTXT
 40
64.0
  9
$DIMCEN
 40
0.09
  9
$DIMTSZ
 40
0.0
  9
$DIMTOL
 70
     0
  9
$DIMLIM
 70
     0
  9
$DIMTIH
 70
     0
  9
$DIMTOH
 70
     0
  9
$DIMSE1
 70
     0
  9
$DIMSE2
 70
     0
  9
$DIMTAD
 70
     1
  9
$DIMZIN
 70
     8
  9
$DIMBLK
  1
DOT1
  9
$DIMASO
 70
     1
  9
$DIMSHO
 70
     0
  9
$DIMPOST
  1

  9
$DIMAPOST
  1

  9
$DIMALT
 70
     0
  9
$DIMALTD
 70
     2
  9
$DIMALTF
 40
25.4
  9
$DIMLFAC
 40
1.0
  9
$DIMTOFL
 70
     1
  9
$DIMTVP
 40
0.0
  9
$DIMTIX
 70
     1
  9
$DIMSOXD
 70
     0
  9
$DIMSAH
 70
     1
  9
$DIMBLK1
  1
_ORIGIN
  9
$DIMBLK2
  1
_ORIGIN
  9
$DIMSTYLE
  2
STANDARD
  9
$DIMCLRD
 70
     7
  9
$DIMCLRE
 70
     7
  9
$DIMCLRT
 70
     7
  9
$DIMTFAC
 40
1.0
  9
$DIMGAP
 40
25.0
  9
$LUNITS
 70
     2
  9
$LUPREC
 70
     4
  9
$SKETCHINC
 40
0.1
  9
$FILLETRAD
 40
4.0
  9
$AUNITS
 70
     1
  9
$AUPREC
 70
     3
  9
$MENU
  1
ACAD
  9
$ELEVATION
 40
0.0
  9
$PELEVATION
 40
0.0
  9
$THICKNESS
 40
50.0
  9
$LIMCHECK
 70
     0
  9
$BLIPMODE
 70
     0
  9
$CHAMFERA
 40
0.0
  9
$CHAMFERB
 40
0.0
  9
$SKPOLY
 70
     0
  9
$TDCREATE
 40
2452321.396199653
  9
$TDUPDATE
 40
2453580.620938009
  9
$TDINDWG
 40
0.1974865509
  9
$TDUSRTIMER
 40
0.1974865509
  9
$USRTIMER
 70
     1
  9
$ANGBASE
 50
0.0
  9
$ANGDIR
 70
     0
  9
$PDMODE
 70
     3
  9
$PDSIZE
 40
-2.0
  9
$PLINEWID
 40
0.0
  9
$COORDS
 70
     2
  9
$SPLFRAME
 70
     0
  9
$SPLINETYPE
 70
     6
  9
$SPLINESEGS
 70
     8
  9
$ATTDIA
 70
     0
  9
$ATTREQ
 70
     1
  9
$HANDLING
 70
     0
  9
$HANDSEED
  5
20E7
  9
$SURFTAB1
 70
     6
  9
$SURFTAB2
 70
     6
  9
$SURFTYPE
 70
     6
  9
$SURFU
 70
     6
  9
$SURFV
 70
     6
  9
$UCSNAME
  2

  9
$UCSORG
 10
0.0
 20
0.0
 30
0.0
  9
$UCSXDIR
 10
1.0
 20
0.0
 30
0.0
  9
$UCSYDIR
 10
0.0
 20
1.0
 30
0.0
  9
$PUCSNAME
  2

  9
$PUCSORG
 10
0.0
 20
0.0
 30
0.0
  9
$PUCSXDIR
 10
1.0
 20
0.0
 30
0.0
  9
$PUCSYDIR
 10
0.0
 20
1.0
 30
0.0
  9
$USERI1
 70
     0
  9
$USERI2
 70
     0
  9
$USERI3
 70
     0
  9
$USERI4
 70
     0
  9
$USERI5
 70
     0
  9
$USERR1
 40
20.0
  9
$USERR2
 40
0.0
  9
$USERR3
 40
0.0
  9
$USERR4
 40
0.0
  9
$USERR5
 40
0.0
  9
$WORLDVIEW
 70
     1
  9
$SHADEDGE
 70
     3
  9
$SHADEDIF
 70
    70
  9
$TILEMODE
 70
     1
  9
$MAXACTVP
 70
    48
  9
$PINSBASE
 10
0.0
 20
0.0
 30
0.0
  9
$PLIMCHECK
 70
     0
  9
$PEXTMIN
 10
-100000000000000000000.0
 20
-100000000000000000000.0
 30
-100000000000000000000.0
  9
$PEXTMAX
 10
100000000000000000000.0
 20
100000000000000000000.0
 30
100000000000000000000.0
  9
$PLIMMIN
 10
0.0
 20
0.0
  9
$PLIMMAX
 10
12.0
 20
9.0
  9
$UNITMODE
 70
     0
  9
$VISRETAIN
 70
     0
  9
$PLINEGEN
 70
     0
  9
$PSLTSCALE
 70
     0
  9
$TREEDEPTH
 70
  3020
  0
ENDSEC
  0
SECTION
  2
TABLES
  0
TABLE
  2
LTYPE
 70
     3
  0
LTYPE
  2
CONTINUOUS
 70
     0
  3
実線
 72
    65
 73
     0
 40
0.0
  0
LTYPE
  2
DASHDOT
 70
     0
  3
____ _ ____ _ ____ _ ____ _ ____ _ ____ _ ____
 72
    65
 73
     4
 40
5.5
 49
4.0
 49
-0.6
 49
0.3
 49
-0.6
  0
LTYPE
  2
DASHED
 70
     0
  3
-- -- -- -- -- -- -- -- -- -- -- -- -- -- --
 72
    65
 73
     2
 40
0.75
 49
0.5
 49
-0.25
  0
ENDTAB
  0
TABLE
  2
LAYER
 70
    12
  0
LAYER
  2
0
 70
     0
 62
     7
  6
CONTINUOUS
  0
LAYER
  2
BASIS
 70
     0
 62
     6
  6
DASHDOT
  0
LAYER
  2
OUTLINE
 70
     0
 62
     3
  6
CONTINUOUS
  0
LAYER
  2
DETAIL
 70
     0
 62
     5
  6
CONTINUOUS
  0
LAYER
  2
SIZE
 70
     0
 62
    30
  6
CONTINUOUS
  0
LAYER
  2
ARRANGE
 70
     0
 62
     1
  6
CONTINUOUS
  0
LAYER
  2
DEFPOINTS
 70
     0
 62
     7
  6
CONTINUOUS
  0
LAYER
  2
ETC
 70
     0
 62
    61
  6
CONTINUOUS
  0
LAYER
  2
FIX
 70
     0
 62
    11
  6
CONTINUOUS
  0
LAYER
  2
NOTE
 70
     0
 62
     4
  6
CONTINUOUS
  0
LAYER
  2
SERVICESPACE
 70
    64
 62
     2
  6
DASHDOT
  0
LAYER
  2
SYMBOLLINE
 70
    64
 62
    15
  6
CONTINUOUS
  0
ENDTAB
  0
TABLE
  2
STYLE
 70
     1
  0
STYLE
  2
STANDARD
 70
     0
 40
64.0
 41
0.9
 50
0.0
 71
     0
 42
64.0
  3
SIMPLEX.shx
  4
BIGFONT.shx
  0
ENDTAB
  0
TABLE
  2
APPID
 70
     2
  0
APPID
  2
ACAD
 70
     0
  0
APPID
  2
AUTOCAD_POSTSCRIPT_FIGURE
 70
     0
  0
ENDTAB
  0
TABLE
  2
DIMSTYLE
 70
     1
  0
DIMSTYLE
  2
STANDARD
 70
     0
  3

  4

  5

  6

  7

 40
1.0
 41
0.18
 42
0.0625
 43
0.38
 44
0.18
 45
0.0
 46
0.0
 47
0.0
 48
0.0
140
0.18
141
0.09
142
0.0
143
25.4
144
1.0
145
0.0
146
1.0
147
0.09
 71
     0
 72
     0
 73
     1
 74
     1
 75
     0
 76
     0
 77
     0
 78
     0
170
     0
171
     2
172
     0
173
     0
174
     0
175
     0
176
     7
177
     7
178
     7
  0
ENDTAB
  0
TABLE
  2
VIEW
 70
     1
  0
VIEW
  2
ALL
 70
     0
 40
4282.619808
 10
0.0
 20
41.309904
 41
5940.0
 11
0.0
 21
0.0
 31
1.0
 12
0.0
 22
0.0
 32
0.0
 42
50.0
 43
0.0
 44
0.0
 50
0.0
 71
     0
  0
ENDTAB
  0
TABLE
  2
UCS
 70
     0
  0
ENDTAB
  0
TABLE
  2
VPORT
 70
     1
  0
VPORT
  2
*ACTIVE
 70
     0
 10
0.0
 20
0.0
 11
1.0
 21
1.0
 12
314.057937
 22
-7.209768
 13
0.0
 23
0.0
 14
1.0
 24
1.0
 15
0.0
 25
0.0
 16
0.0
 26
0.0
 36
1.0
 17
0.0
 27
0.0
 37
0.0
 40
1172.425988
 41
1.718475
 42
50.0
 43
0.0
 44
0.0
 50
0.0
 51
0.0
 71
     0
 72
   100
 73
     1
 74
     0
 75
     0
 76
     0
 77
     0
 78
     0
  0
ENDTAB
  0
ENDSEC
  0
SECTION
  2
BLOCKS
  0
BLOCK
  8
0
  2
DOT1
 70
     0
 10
0.0
 20
0.0
 30
0.0
  3
DOT1
  1

  0
CIRCLE
  8
SIZE
  6
CONTINUOUS
 62
     7
 10
0.0
 20
0.0
 30
0.0
 40
3.0
  0
ENDBLK
  8
0
  0
BLOCK
  8
0
  2
_ORIGIN
 70
     0
 10
0.0
 20
0.0
 30
0.0
  3
_ORIGIN
  1

  0
CIRCLE
  8
0
  6
CONTINUOUS
 62
     7
 10
0.0
 20
0.0
 30
0.0
 40
0.5
  0
LINE
  8
0
  6
CONTINUOUS
 62
     7
 10
0.0
 20
0.0
 30
0.0
 11
-1.0
 21
0.0
 31
0.0
  0
ENDBLK
  8
0
  0
ENDSEC
  0
SECTION
  2
ENTITIES
  0
TEXT
  8
ETC
  6
CONTINUOUS
 62
    61
 10
710.367711
 20
383.758785
 30
0.0
 40
40.0
  1
システム部材
 41
0.9
  0
LINE
  8
DETAIL
  6
CONTINUOUS
 62
     5
 10
215.5
 20
-215.0
 30
0.0
 11
245.0
 21
-215.0
 31
0.0
  0
LINE
  8
DETAIL
  6
CONTINUOUS
 62
     5
 10
0.0
 20
67.5
 30
0.0
 11
-113.5
 21
67.5
 31
0.0
  0
LINE
  8
DETAIL
  6
CONTINUOUS
 62
     5
 10
0.0
 20
215.5
 30
0.0
 11
-125.0
 21
215.5
 31
0.0
  0
LINE
  8
DETAIL
  6
CONTINUOUS
 62
     5
 10
-111.0
 20
62.5
 30
0.0
 11
0.0
 21
62.5
 31
0.0
  0
ARC
  8
DETAIL
  6
CONTINUOUS
 62
     5
 10
-203.5
 20
79.5
 30
0.0
 40
12.0
 50
189.946992
 51
270.0
  0
ARC
  8
DETAIL
  6
CONTINUOUS
 62
     5
 10
203.5
 20
79.5
 30
0.0
 40
12.0
 50
270.0
 51
350.053008
  0
LINE
  8
DETAIL
  6
CONTINUOUS
 62
     5
 10
203.5
 20
67.5
 30
0.0
 11
-203.5
 21
67.5
 31
0.0
  0
LINE
  8
DETAIL
  6
CONTINUOUS
 62
     5
 10
245.0
 20
215.5
 30
0.0
 11
-245.0
 21
215.5
 31
0.0
  0
LINE
  8
DETAIL
  6
CONTINUOUS
 62
     5
 10
-201.0
 20
62.5
 30
0.0
 11
201.0
 21
62.5
 31
0.0
  0
ARC
  8
DETAIL
  6
CONTINUOUS
 62
     5
 10
-201.0
 20
77.5
 30
0.0
 40
15.0
 50
194.835112
 51
270.0
  0
ARC
  8
DETAIL
  6
CONTINUOUS
 62
     5
 10
-203.5
 20
79.5
 30
0.0
 40
12.0
 50
189.946992
 51
270.0
  0
ARC
  8
DETAIL
  6
CONTINUOUS
 62
     5
 10
203.5
 20
79.5
 30
0.0
 40
12.0
 50
270.0
 51
350.053008
  0
ARC
  8
DETAIL
  6
CONTINUOUS
 62
     5
 10
201.0
 20
77.5
 30
0.0
 40
15.0
 50
270.0
 51
345.164888
  0
ARC
  8
DETAIL
  6
CONTINUOUS
 62
     5
 10
-235.0
 20
-235.0
 30
0.0
 40
10.0
 50
180.0
 51
270.0
  0
ARC
  8
DETAIL
  6
CONTINUOUS
 62
     5
 10
235.0
 20
-235.0
 30
0.0
 40
10.0
 50
270.0
 51
0.0
  0
ARC
  8
DETAIL
  6
CONTINUOUS
 62
     5
 10
235.0
 20
235.000469
 30
0.0
 40
10.0
 50
0.0
 51
89.444923
  0
ARC
  8
DETAIL
  6
CONTINUOUS
 62
     5
 10
-186.0
 20
244.000469
 30
0.0
 40
1.0
 50
0.0
 51
90.0
  0
ARC
  8
DETAIL
  6
DASHED
 62
     5
 10
186.0
 20
244.000469
 30
0.0
 40
1.0
 50
90.0
 51
180.0
  0
LINE
  8
DETAIL
  6
CONTINUOUS
 62
     5
 10
-185.0
 20
217.000469
 30
0.0
 11
-185.0
 21
244.000469
 31
0.0
  0
LINE
  8
DETAIL
  6
CONTINUOUS
 62
     5
 10
-217.0
 20
185.000469
 30
0.0
 11
-244.0
 21
185.000469
 31
0.0
  0
LINE
  8
DETAIL
  6
CONTINUOUS
 62
     5
 10
185.0
 20
217.000469
 30
0.0
 11
185.0
 21
244.000469
 31
0.0
  0
LINE
  8
DETAIL
  6
CONTINUOUS
 62
     5
 10
-217.0
 20
-185.0
 30
0.0
 11
-244.0
 21
-185.0
 31
0.0
  0
LINE
  8
DETAIL
  6
CONTINUOUS
 62
     5
 10
-245.0
 20
-186.0
 30
0.0
 11
-245.0
 21
-235.0
 31
0.0
  0
ARC
  8
DETAIL
  6
CONTINUOUS
 62
     5
 10
-235.0
 20
-235.0
 30
0.0
 40
10.0
 50
180.0
 51
270.0
  0
ARC
  8
DETAIL
  6
CONTINUOUS
 62
     5
 10
235.0
 20
-235.0
 30
0.0
 40
10.0
 50
270.0
 51
0.0
  0
ARC
  8
DETAIL
  6
CONTINUOUS
 62
     5
 10
235.0
 20
235.000469
 30
0.0
 40
10.0
 50
0.0
 51
89.444923
  0
ARC
  8
DETAIL
  6
CONTINUOUS
 62
     5
 10
-235.0
 20
235.000469
 30
0.0
 40
10.0
 50
90.555077
 51
180.0
  0
ARC
  8
DETAIL
  6
CONTINUOUS
 62
     5
 10
-186.0
 20
244.000469
 30
0.0
 40
1.0
 50
0.0
 51
90.0
  0
ARC
  8
DETAIL
  6
DASHED
 62
     5
 10
186.0
 20
244.000469
 30
0.0
 40
1.0
 50
90.0
 51
180.0
  0
LINE
  8
DETAIL
  6
CONTINUOUS
 62
     5
 10
-185.0
 20
215.5
 30
0.0
 11
-185.0
 21
244.000469
 31
0.0
  0
LINE
  8
DETAIL
  6
CONTINUOUS
 62
     5
 10
-215.5
 20
185.000469
 30
0.0
 11
-245.0
 21
185.000469
 31
0.0
  0
LINE
  8
DETAIL
  6
CONTINUOUS
 62
     5
 10
-215.5
 20
-360.5
 30
0.0
 11
-215.5
 21
245.0
 31
0.0
  0
LINE
  8
DETAIL
  6
CONTINUOUS
 62
     5
 10
185.0
 20
215.5
 30
0.0
 11
185.0
 21
244.000469
 31
0.0
  0
LINE
  8
DETAIL
  6
CONTINUOUS
 62
     5
 10
-216.0
 20
-215.0
 30
0.0
 11
-245.0
 21
-215.0
 31
0.0
  0
LINE
  8
DETAIL
  6
CONTINUOUS
 62
     5
 10
-215.5
 20
-185.0
 30
0.0
 11
-245.0
 21
-185.0
 31
0.0
  0
LINE
  8
DETAIL
  6
CONTINUOUS
 62
     5
 10
215.5
 20
-360.5
 30
0.0
 11
215.5
 21
245.0
 31
0.0
  0
LINE
  8
DETAIL
  6
CONTINUOUS
 62
     5
 10
-215.5
 20
-215.0
 30
0.0
 11
-245.0
 21
-215.0
 31
0.0
  0
LINE
  8
BASIS
  6
DASHDOT
 62
     6
 10
300.315694
 20
0.0
 30
0.0
 11
-297.304078
 21
0.0
 31
0.0
  0
LINE
  8
BASIS
  6
DASHDOT
 62
     6
 10
0.0
 20
-415.76606
 30
0.0
 11
0.0
 21
305.565751
 31
0.0
  0
LINE
  8
DETAIL
  6
CONTINUOUS
 62
     5
 10
-245.0
 20
235.000469
 30
0.0
 11
-245.0
 21
-185.0
 31
0.0
  0
LINE
  8
DETAIL
  6
CONTINUOUS
 62
     5
 10
245.0
 20
235.000469
 30
0.0
 11
245.0
 21
-235.0
 31
0.0
  0
LINE
  8
DETAIL
  6
CONTINUOUS
 62
     5
 10
215.5
 20
185.000469
 30
0.0
 11
245.0
 21
185.000469
 31
0.0
  0
LINE
  8
DETAIL
  6
CONTINUOUS
 62
     5
 10
215.5
 20
-185.0
 30
0.0
 11
245.0
 21
-185.0
 31
0.0
  0
LINE
  8
NOTE
  6
CONTINUOUS
 62
     4
 10
326.749779
 20
358.576931
 30
0.0
 11
626.188325
 21
358.576931
 31
0.0
  0
CIRCLE
  8
ARRANGE
  6
CONTINUOUS
 62
     1
 10
0.0
 20
0.0
 30
0.0
 40
40.0
  0
POINT
  8
ARRANGE
  6
CONTINUOUS
 62
     1
 10
0.0
 20
0.0
 30
0.0
  0
LINE
  8
DETAIL
  6
CONTINUOUS
 62
     5
 10
235.096878
 20
245.0
 30
0.0
 11
-235.096878
 21
245.0
 31
0.0
  0
LINE
  8
DETAIL
  6
CONTINUOUS
 62
     5
 10
235.0
 20
-245.0
 30
0.0
 11
215.5
 21
-245.0
 31
0.0
  0
LINE
  8
DETAIL
  6
CONTINUOUS
 62
     5
 10
-215.5
 20
-245.0
 30
0.0
 11
-235.0
 21
-245.0
 31
0.0
  0
LINE
  8
NOTE
  6
CONTINUOUS
 62
     4
 10
230.0
 20
230.0
 30
0.0
 11
326.749779
 21
358.576931
 31
0.0
  0
LINE
  8
OUTLINE
  6
CONTINUOUS
 62
     3
 10
-215.5
 20
-245.0
 30
0.0
 11
-235.0
 21
-245.0
 31
0.0
  0
LINE
  8
OUTLINE
  6
CONTINUOUS
 62
     3
 10
235.0
 20
-245.0
 30
0.0
 11
215.5
 21
-245.0
 31
0.0
  0
LINE
  8
OUTLINE
  6
CONTINUOUS
 62
     3
 10
235.096878
 20
245.0
 30
0.0
 11
-235.096878
 21
245.0
 31
0.0
  0
LINE
  8
OUTLINE
  6
CONTINUOUS
 62
     3
 10
245.0
 20
235.000469
 30
0.0
 11
245.0
 21
-234.999999
 31
0.0
  0
LINE
  8
OUTLINE
  6
CONTINUOUS
 62
     3
 10
-245.0
 20
235.000469
 30
0.0
 11
-245.0
 21
-210.0
 31
0.0
  0
ARC
  8
OUTLINE
  6
CONTINUOUS
 62
     3
 10
-235.0
 20
235.000469
 30
0.0
 40
10.0
 50
90.555077
 51
180.0
  0
ARC
  8
OUTLINE
  6
CONTINUOUS
 62
     3
 10
235.0
 20
235.000469
 30
0.0
 40
10.0
 50
0.0
 51
89.444923
  0
ARC
  8
OUTLINE
  6
CONTINUOUS
 62
     3
 10
235.0
 20
-235.0
 30
0.0
 40
10.0
 50
270.0
 51
0.0
  0
ARC
  8
OUTLINE
  6
CONTINUOUS
 62
     3
 10
-235.0
 20
-235.0
 30
0.0
 40
10.0
 50
180.0
 51
270.0
  0
LINE
  8
OUTLINE
  6
CONTINUOUS
 62
     3
 10
-245.0
 20
-186.0
 30
0.0
 11
-245.0
 21
-235.0
 31
0.0
  0
ARC
  8
OUTLINE
  6
CONTINUOUS
 62
     3
 10
235.0
 20
235.000469
 30
0.0
 40
10.0
 50
0.0
 51
89.444923
  0
ARC
  8
OUTLINE
  6
CONTINUOUS
 62
     3
 10
235.0
 20
-235.0
 30
0.0
 40
10.0
 50
270.0
 51
0.0
  0
ARC
  8
OUTLINE
  6
CONTINUOUS
 62
     3
 10
-235.0
 20
-235.0
 30
0.0
 40
10.0
 50
180.0
 51
270.0
  0
LINE
  8
OUTLINE
  6
CONTINUOUS
 62
     3
 10
215.5
 20
215.5
 30
0.0
 11
-215.5
 21
215.5
 31
0.0
  0
LINE
  8
OUTLINE
  6
CONTINUOUS
 62
     3
 10
215.5
 20
-360.5
 30
0.0
 11
215.5
 21
215.5
 31
0.0
  0
LINE
  8
OUTLINE
  6
CONTINUOUS
 62
     3
 10
-215.5
 20
-360.5
 30
0.0
 11
-215.5
 21
215.5
 31
0.0
  0
LINE
  8
OUTLINE
  6
CONTINUOUS
 62
     3
 10
215.5
 20
-360.5
 30
0.0
 11
-215.5
 21
-360.5
 31
0.0
  0
LINE
  8
DETAIL
  6
CONTINUOUS
 62
     5
 10
215.5
 20
-360.5
 30
0.0
 11
-215.5
 21
-360.5
 31
0.0
  0
TEXT
  8
ETC
  6
CONTINUOUS
 62
    61
 10
716.399148
 20
500.97353
 30
0.0
 40
40.0
  1
PS-40CSD_2
 41
0.9
  0
LINE
  8
SIZE
  6
CONTINUOUS
 62
    30
 10
270.0
 20
230.0
 30
0.0
 11
478.398281
 21
230.0
 31
0.0
  0
LINE
  8
SIZE
  6
CONTINUOUS
 62
    30
 10
270.0
 20
-230.0
 30
0.0
 11
478.398281
 21
-230.0
 31
0.0
  0
LINE
  8
SIZE
  6
CONTINUOUS
 62
    30
 10
458.398281
 20
218.0
 30
0.0
 11
458.398281
 21
-218.0
 31
0.0
  0
CIRCLE
  8
SIZE
  6
CONTINUOUS
 62
    30
 10
458.398281
 20
230.0
 30
0.0
 40
6.0
  0
LINE
  8
SIZE
  6
CONTINUOUS
 62
    30
 10
458.398281
 20
230.0
 30
0.0
 11
458.398281
 21
218.0
 31
0.0
  0
CIRCLE
  8
SIZE
  6
CONTINUOUS
 62
    30
 10
458.398281
 20
-230.0
 30
0.0
 40
6.0
  0
LINE
  8
SIZE
  6
CONTINUOUS
 62
    30
 10
458.398281
 20
-230.0
 30
0.0
 11
458.398281
 21
-218.0
 31
0.0
  0
TEXT
  8
SIZE
  6
CONTINUOUS
 62
    30
 10
433.398281
 20
-81.504
 30
0.0
 40
64.0
  1
460
 50
90.0
 41
0.9
 51
0.0
  7
STANDARD
 71
     0
 72
     1
 11
433.398281
 21
0.0
 31
0.0
210
0.0
220
0.0
230
1.0
  0
POINT
  8
DEFPOINTS
  6
CONTINUOUS
 62
    30
 10
250.0
 20
230.0
 30
0.0
  0
POINT
  8
DEFPOINTS
  6
CONTINUOUS
 62
    30
 10
250.0
 20
-230.0
 30
0.0
  0
POINT
  8
DEFPOINTS
  6
CONTINUOUS
 62
    30
 10
458.398281
 20
-230.0
 30
0.0
  0
TEXT
  8
NOTE
  6
CONTINUOUS
 62
     4
 10
328.905605
 20
377.051489
 30
0.0
 40
64.0
  1
4×φ15
 41
0.9
  0
CIRCLE
  8
FIX
  6
CONTINUOUS
 62
    11
 10
-230.0
 20
230.0
 30
0.0
 40
7.5
  0
CIRCLE
  8
DETAIL
  6
CONTINUOUS
 62
     5
 10
-230.0
 20
230.0
 30
0.0
 40
7.5
  0
CIRCLE
  8
FIX
  6
CONTINUOUS
 62
    11
 10
-230.0
 20
230.000469
 30
0.0
 40
7.5
  0
CIRCLE
  8
DETAIL
  6
CONTINUOUS
 62
     5
 10
-230.0
 20
230.000469
 30
0.0
 40
7.5
  0
CIRCLE
  8
DETAIL
  6
CONTINUOUS
 62
     5
 10
-230.0
 20
-230.0
 30
0.0
 40
7.5
  0
CIRCLE
  8
FIX
  6
CONTINUOUS
 62
    11
 10
-230.0
 20
-230.0
 30
0.0
 40
7.5
  0
CIRCLE
  8
DETAIL
  6
CONTINUOUS
 62
     5
 10
-230.0
 20
-230.000469
 30
0.0
 40
7.5
  0
CIRCLE
  8
FIX
  6
CONTINUOUS
 62
    11
 10
-230.0
 20
-230.000469
 30
0.0
 40
7.5
  0
CIRCLE
  8
DETAIL
  6
CONTINUOUS
 62
     5
 10
230.0
 20
230.0
 30
0.0
 40
7.5
  0
CIRCLE
  8
FIX
  6
CONTINUOUS
 62
    11
 10
230.0
 20
230.0
 30
0.0
 40
7.5
  0
CIRCLE
  8
DETAIL
  6
CONTINUOUS
 62
     5
 10
230.0
 20
229.999531
 30
0.0
 40
7.5
  0
CIRCLE
  8
FIX
  6
CONTINUOUS
 62
    11
 10
230.0
 20
229.999531
 30
0.0
 40
7.5
  0
CIRCLE
  8
FIX
  6
CONTINUOUS
 62
    11
 10
230.0
 20
-230.000469
 30
0.0
 40
7.5
  0
CIRCLE
  8
DETAIL
  6
CONTINUOUS
 62
     5
 10
230.0
 20
-230.000469
 30
0.0
 40
7.5
  0
CIRCLE
  8
FIX
  6
CONTINUOUS
 62
    11
 10
230.0
 20
-230.0
 30
0.0
 40
7.5
  0
CIRCLE
  8
DETAIL
  6
CONTINUOUS
 62
     5
 10
230.0
 20
-230.0
 30
0.0
 40
7.5
  0
LINE
  8
SIZE
  6
CONTINUOUS
 62
    30
 10
215.5
 20
-380.5
 30
0.0
 11
215.5
 21
-588.160052
 31
0.0
  0
LINE
  8
SIZE
  6
CONTINUOUS
 62
    30
 10
-215.5
 20
-380.5
 30
0.0
 11
-215.5
 21
-588.160052
 31
0.0
  0
LINE
  8
SIZE
  6
CONTINUOUS
 62
    30
 10
203.5
 20
-568.160052
 30
0.0
 11
-203.5
 21
-568.160052
 31
0.0
  0
CIRCLE
  8
SIZE
  6
CONTINUOUS
 62
    30
 10
215.5
 20
-568.160052
 30
0.0
 40
6.0
  0
LINE
  8
SIZE
  6
CONTINUOUS
 62
    30
 10
215.5
 20
-568.160052
 30
0.0
 11
203.5
 21
-568.160052
 31
0.0
  0
CIRCLE
  8
SIZE
  6
CONTINUOUS
 62
    30
 10
-215.5
 20
-568.160052
 30
0.0
 40
6.0
  0
LINE
  8
SIZE
  6
CONTINUOUS
 62
    30
 10
-215.5
 20
-568.160052
 30
0.0
 11
-203.5
 21
-568.160052
 31
0.0
  0
TEXT
  8
SIZE
  6
CONTINUOUS
 62
    30
 10
-75.168
 20
-543.160052
 30
0.0
 40
64.0
  1
431
 50
0.0
 41
0.9
 51
0.0
  7
STANDARD
 71
     0
 72
     1
 11
0.0
 21
-543.160052
 31
0.0
210
0.0
220
0.0
230
1.0
  0
POINT
  8
DEFPOINTS
  6
CONTINUOUS
 62
    30
 10
215.5
 20
-360.5
 30
0.0
  0
POINT
  8
DEFPOINTS
  6
CONTINUOUS
 62
    30
 10
-215.5
 20
-360.5
 30
0.0
  0
POINT
  8
DEFPOINTS
  6
CONTINUOUS
 62
    30
 10
-215.5
 20
-568.160052
 30
0.0
  0
LINE
  8
SIZE
  6
CONTINUOUS
 62
    30
 10
-235.5
 20
-360.5
 30
0.0
 11
-412.077366
 21
-360.5
 31
0.0
  0
LINE
  8
SIZE
  6
CONTINUOUS
 62
    30
 10
-235.5
 20
215.5
 30
0.0
 11
-412.077366
 21
215.5
 31
0.0
  0
LINE
  8
SIZE
  6
CONTINUOUS
 62
    30
 10
-392.077366
 20
-348.5
 30
0.0
 11
-392.077366
 21
203.5
 31
0.0
  0
CIRCLE
  8
SIZE
  6
CONTINUOUS
 62
    30
 10
-392.077366
 20
-360.5
 30
0.0
 40
6.0
  0
LINE
  8
SIZE
  6
CONTINUOUS
 62
    30
 10
-392.077366
 20
-360.5
 30
0.0
 11
-392.077366
 21
-348.5
 31
0.0
  0
CIRCLE
  8
SIZE
  6
CONTINUOUS
 62
    30
 10
-392.077366
 20
215.5
 30
0.0
 40
6.0
  0
LINE
  8
SIZE
  6
CONTINUOUS
 62
    30
 10
-392.077366
 20
215.5
 30
0.0
 11
-392.077366
 21
203.5
 31
0.0
  0
TEXT
  8
SIZE
  6
CONTINUOUS
 62
    30
 10
-417.077366
 20
-152.852
 30
0.0
 40
64.0
  1
576
 50
90.0
 41
0.9
 51
0.0
  7
STANDARD
 71
     0
 72
     1
 11
-417.077366
 21
-72.5
 31
0.0
210
0.0
220
0.0
230
1.0
  0
POINT
  8
DEFPOINTS
  6
CONTINUOUS
 62
    30
 10
-215.5
 20
-360.5
 30
0.0
  0
POINT
  8
DEFPOINTS
  6
CONTINUOUS
 62
    30
 10
-215.5
 20
215.5
 30
0.0
  0
POINT
  8
DEFPOINTS
  6
CONTINUOUS
 62
    30
 10
-392.077366
 20
215.5
 30
0.0
  0
LINE
  8
SIZE
  6
CONTINUOUS
 62
    30
 10
-235.5
 20
215.5
 30
0.0
 11
-412.077366
 21
215.5
 31
0.0
  0
LINE
  8
SIZE
  6
CONTINUOUS
 62
    30
 10
-250.0
 20
245.0
 30
0.0
 11
-412.077366
 21
245.0
 31
0.0
  0
LINE
  8
SIZE
  6
CONTINUOUS
 62
    30
 10
-392.077366
 20
203.5
 30
0.0
 11
-392.077366
 21
191.5
 31
0.0
  0
LINE
  8
SIZE
  6
CONTINUOUS
 62
    30
 10
-392.077366
 20
257.0
 30
0.0
 11
-392.077366
 21
269.0
 31
0.0
  0
LINE
  8
SIZE
  6
CONTINUOUS
 62
    30
 10
-392.077366
 20
494.932676
 30
0.0
 11
-392.077366
 21
245.0
 31
0.0
  0
TEXT
  8
SIZE
  6
CONTINUOUS
 62
    30
 10
-417.077366
 20
287.985248
 30
0.0
 40
64.0
  1
29.5
 50
90.0
 41
0.9
 51
0.0
  7
STANDARD
 71
     0
 72
     1
 11
-417.077366
 21
382.161248
 31
0.0
210
0.0
220
0.0
230
1.0
  0
LINE
  8
SIZE
  6
CONTINUOUS
 62
    30
 10
-392.077366
 20
215.5
 30
0.0
 11
-392.077366
 21
245.0
 31
0.0
  0
LINE
  8
SIZE
  6
CONTINUOUS
 62
    30
 10
-392.077366
 20
215.5
 30
0.0
 11
-392.077366
 21
245.0
 31
0.0
  0
CIRCLE
  8
SIZE
  6
CONTINUOUS
 62
    30
 10
-392.077366
 20
215.5
 30
0.0
 40
6.0
  0
LINE
  8
SIZE
  6
CONTINUOUS
 62
    30
 10
-392.077366
 20
215.5
 30
0.0
 11
-392.077366
 21
203.5
 31
0.0
  0
CIRCLE
  8
SIZE
  6
CONTINUOUS
 62
    30
 10
-392.077366
 20
245.0
 30
0.0
 40
6.0
  0
LINE
  8
SIZE
  6
CONTINUOUS
 62
    30
 10
-392.077366
 20
245.0
 30
0.0
 11
-392.077366
 21
257.0
 31
0.0
  0
POINT
  8
DEFPOINTS
  6
CONTINUOUS
 62
    30
 10
-215.5
 20
215.5
 30
0.0
  0
POINT
  8
DEFPOINTS
  6
CONTINUOUS
 62
    30
 10
-230.0
 20
245.0
 30
0.0
  0
POINT
  8
DEFPOINTS
  6
CONTINUOUS
 62
    30
 10
-392.077366
 20
245.0
 30
0.0
  0
LINE
  8
SIZE
  6
CONTINUOUS
 62
    30
 10
230.0
 20
270.0
 30
0.0
 11
230.0
 21
372.759798
 31
0.0
  0
LINE
  8
SIZE
  6
CONTINUOUS
 62
    30
 10
-230.0
 20
270.000469
 30
0.0
 11
-230.0
 21
372.759798
 31
0.0
  0
LINE
  8
SIZE
  6
CONTINUOUS
 62
    30
 10
218.0
 20
352.759798
 30
0.0
 11
-218.0
 21
352.759798
 31
0.0
  0
CIRCLE
  8
SIZE
  6
CONTINUOUS
 62
    30
 10
230.0
 20
352.759798
 30
0.0
 40
6.0
  0
LINE
  8
SIZE
  6
CONTINUOUS
 62
    30
 10
230.0
 20
352.759798
 30
0.0
 11
218.0
 21
352.759798
 31
0.0
  0
CIRCLE
  8
SIZE
  6
CONTINUOUS
 62
    30
 10
-230.0
 20
352.759798
 30
0.0
 40
6.0
  0
LINE
  8
SIZE
  6
CONTINUOUS
 62
    30
 10
-230.0
 20
352.759798
 30
0.0
 11
-218.0
 21
352.759798
 31
0.0
  0
TEXT
  8
SIZE
  6
CONTINUOUS
 62
    30
 10
-81.504
 20
377.759798
 30
0.0
 40
64.0
  1
460
 50
0.0
 41
0.9
 51
0.0
  7
STANDARD
 71
     0
 72
     1
 11
0.0
 21
377.759798
 31
0.0
210
0.0
220
0.0
230
1.0
  0
POINT
  8
DEFPOINTS
  6
CONTINUOUS
 62
    30
 10
230.0
 20
250.0
 30
0.0
  0
POINT
  8
DEFPOINTS
  6
CONTINUOUS
 62
    30
 10
-230.0
 20
250.000469
 30
0.0
  0
POINT
  8
DEFPOINTS
  6
CONTINUOUS
 62
    30
 10
-230.0
 20
352.759798
 30
0.0
  0
LINE
  8
SIZE
  6
CONTINUOUS
 62
    30
 10
270.0
 20
-230.0
 30
0.0
 11
478.398281
 21
-230.0
 31
0.0
  0
LINE
  8
SIZE
  6
CONTINUOUS
 62
    30
 10
270.0
 20
230.0
 30
0.0
 11
478.398281
 21
230.0
 31
0.0
  0
LINE
  8
SIZE
  6
CONTINUOUS
 62
    30
 10
458.398281
 20
-218.0
 30
0.0
 11
458.398281
 21
218.0
 31
0.0
  0
CIRCLE
  8
SIZE
  6
CONTINUOUS
 62
    30
 10
458.398281
 20
-230.0
 30
0.0
 40
6.0
  0
LINE
  8
SIZE
  6
CONTINUOUS
 62
    30
 10
458.398281
 20
-230.0
 30
0.0
 11
458.398281
 21
-218.0
 31
0.0
  0
CIRCLE
  8
SIZE
  6
CONTINUOUS
 62
    30
 10
458.398281
 20
230.0
 30
0.0
 40
6.0
  0
LINE
  8
SIZE
  6
CONTINUOUS
 62
    30
 10
458.398281
 20
230.0
 30
0.0
 11
458.398281
 21
218.0
 31
0.0
  0
TEXT
  8
SIZE
  6
CONTINUOUS
 62
    30
 10
433.398281
 20
-81.504
 30
0.0
 40
64.0
  1
460
 50
90.0
 41
0.9
 51
0.0
  7
STANDARD
 71
     0
 72
     1
 11
433.398281
 21
0.0
 31
0.0
210
0.0
220
0.0
230
1.0
  0
POINT
  8
DEFPOINTS
  6
CONTINUOUS
 62
    30
 10
250.0
 20
-230.0
 30
0.0
  0
POINT
  8
DEFPOINTS
  6
CONTINUOUS
 62
    30
 10
250.0
 20
230.0
 30
0.0
  0
POINT
  8
DEFPOINTS
  6
CONTINUOUS
 62
    30
 10
458.398281
 20
230.0
 30
0.0
  0
LINE
  8
SIZE
  6
CONTINUOUS
 62
    30
 10
255.0
 20
-245.0
 30
0.0
 11
615.317854
 21
-245.0
 31
0.0
  0
LINE
  8
SIZE
  6
CONTINUOUS
 62
    30
 10
255.096878
 20
245.0
 30
0.0
 11
615.317854
 21
245.0
 31
0.0
  0
LINE
  8
SIZE
  6
CONTINUOUS
 62
    30
 10
595.317854
 20
-233.0
 30
0.0
 11
595.317854
 21
233.0
 31
0.0
  0
CIRCLE
  8
SIZE
  6
CONTINUOUS
 62
    30
 10
595.317854
 20
-245.0
 30
0.0
 40
6.0
  0
LINE
  8
SIZE
  6
CONTINUOUS
 62
    30
 10
595.317854
 20
-245.0
 30
0.0
 11
595.317854
 21
-233.0
 31
0.0
  0
CIRCLE
  8
SIZE
  6
CONTINUOUS
 62
    30
 10
595.317854
 20
245.0
 30
0.0
 40
6.0
  0
LINE
  8
SIZE
  6
CONTINUOUS
 62
    30
 10
595.317854
 20
245.0
 30
0.0
 11
595.317854
 21
233.0
 31
0.0
  0
TEXT
  8
SIZE
  6
CONTINUOUS
 62
    30
 10
570.317854
 20
-81.504
 30
0.0
 40
64.0
  1
490
 50
90.0
 41
0.9
 51
0.0
  7
STANDARD
 71
     0
 72
     1
 11
570.317854
 21
0.0
 31
0.0
210
0.0
220
0.0
230
1.0
  0
POINT
  8
DEFPOINTS
  6
CONTINUOUS
 62
    30
 10
235.0
 20
-245.0
 30
0.0
  0
POINT
  8
DEFPOINTS
  6
CONTINUOUS
 62
    30
 10
235.096878
 20
245.0
 30
0.0
  0
POINT
  8
DEFPOINTS
  6
CONTINUOUS
 62
    30
 10
595.317854
 20
245.0
 30
0.0
  0
LINE
  8
SIZE
  6
CONTINUOUS
 62
    30
 10
245.0
 20
255.000469
 30
0.0
 11
245.0
 21
504.578798
 31
0.0
  0
LINE
  8
SIZE
  6
CONTINUOUS
 62
    30
 10
-245.0
 20
255.000469
 30
0.0
 11
-245.0
 21
504.578798
 31
0.0
  0
LINE
  8
SIZE
  6
CONTINUOUS
 62
    30
 10
233.0
 20
484.578798
 30
0.0
 11
-233.0
 21
484.578798
 31
0.0
  0
CIRCLE
  8
SIZE
  6
CONTINUOUS
 62
    30
 10
245.0
 20
484.578798
 30
0.0
 40
6.0
  0
LINE
  8
SIZE
  6
CONTINUOUS
 62
    30
 10
245.0
 20
484.578798
 30
0.0
 11
233.0
 21
484.578798
 31
0.0
  0
CIRCLE
  8
SIZE
  6
CONTINUOUS
 62
    30
 10
-245.0
 20
484.578798
 30
0.0
 40
6.0
  0
LINE
  8
SIZE
  6
CONTINUOUS
 62
    30
 10
-245.0
 20
484.578798
 30
0.0
 11
-233.0
 21
484.578798
 31
0.0
  0
TEXT
  8
SIZE
  6
CONTINUOUS
 62
    30
 10
-81.504
 20
509.578798
 30
0.0
 40
64.0
  1
490
 50
0.0
 41
0.9
 51
0.0
  7
STANDARD
 71
     0
 72
     1
 11
0.0
 21
509.578798
 31
0.0
210
0.0
220
0.0
230
1.0
  0
POINT
  8
DEFPOINTS
  6
CONTINUOUS
 62
    30
 10
245.0
 20
235.000469
 30
0.0
  0
POINT
  8
DEFPOINTS
  6
CONTINUOUS
 62
    30
 10
-245.0
 20
235.000469
 30
0.0
  0
POINT
  8
DEFPOINTS
  6
CONTINUOUS
 62
    30
 10
-245.0
 20
484.578798
 30
0.0
  0
LINE
  8
NOTE
  6
CONTINUOUS
 62
     4
 10
244.508262
 20
267.276136
 30
0.0
 11
230.0
 21
230.0
 31
0.0
  0
LINE
  8
NOTE
  6
CONTINUOUS
 62
     4
 10
230.0
 20
230.0
 30
0.0
 11
261.202591
 21
255.02795
 31
0.0
  0
LINE
  8
NOTE
  6
CONTINUOUS
 62
     4
 10
230.0
 20
210.0
 30
0.0
 11
230.0
 21
250.0
 31
0.0
  0
LINE
  8
NOTE
  6
CONTINUOUS
 62
     4
 10
250.0
 20
230.0
 30
0.0
 11
210.0
 21
230.0
 31
0.0
  0
LINE
  8
NOTE
  6
CONTINUOUS
 62
     4
 10
-230.0
 20
210.000469
 30
0.0
 11
-230.0
 21
250.000469
 31
0.0
  0
LINE
  8
NOTE
  6
CONTINUOUS
 62
     4
 10
-250.0
 20
230.000469
 30
0.0
 11
-210.0
 21
230.000469
 31
0.0
  0
LINE
  8
NOTE
  6
CONTINUOUS
 62
     4
 10
-230.0
 20
-210.0
 30
0.0
 11
-230.0
 21
-250.0
 31
0.0
  0
LINE
  8
NOTE
  6
CONTINUOUS
 62
     4
 10
-250.0
 20
-230.0
 30
0.0
 11
-210.0
 21
-230.0
 31
0.0
  0
LINE
  8
NOTE
  6
CONTINUOUS
 62
     4
 10
230.0
 20
-210.0
 30
0.0
 11
230.0
 21
-250.0
 31
0.0
  0
LINE
  8
NOTE
  6
CONTINUOUS
 62
     4
 10
250.0
 20
-230.0
 30
0.0
 11
210.0
 21
-230.0
 31
0.0
  0
TEXT
  8
ETC
  6
CONTINUOUS
 62
    61
 10
718.345867
 20
438.917111
 30
0.0
 40
40.0
  1
PS-40CSDK_2
 41
0.9
  0
ENDSEC
  0
EOF
