  0
SECTION
  2
HEADER
  9
$ACADVER
  1
AC1009
  9
$DWGCODEPAGE
  3
dos932
  9
$INSBASE
 10
0.0
 20
0.0
 30
0.0
  9
$EXTMIN
 10
-1056.376632
 20
-301.208484
 30
-0.001526
  9
$EXTMAX
 10
715.127575
 20
788.589486
 30
50.001526
  9
$LIMMIN
 10
-2970.0
 20
-2100.0
  9
$LIMMAX
 10
2970.0
 20
2100.0
  9
$ORTHOMODE
 70
     1
  9
$REGENMODE
 70
     1
  9
$FILLMODE
 70
     1
  9
$QTEXTMODE
 70
     0
  9
$MIRRTEXT
 70
     0
  9
$DRAGMODE
 70
     2
  9
$LTSCALE
 40
20.0
  9
$OSMODE
 70
  3071
  9
$ATTMODE
 70
     1
  9
$TEXTSIZE
 40
64.0
  9
$TRACEWID
 40
0.05
  9
$TEXTSTYLE
  7
STANDARD
  9
$CLAYER
  8
ETC
  9
$CELTYPE
  6
CONTINUOUS
  9
$CECOLOR
 62
     7
  9
$DIMSCALE
 40
1.0
  9
$DIMASZ
 40
12.0
  9
$DIMEXO
 40
20.0
  9
$DIMDLI
 40
200.0
  9
$DIMRND
 40
0.0
  9
$DIMDLE
 40
0.0
  9
$DIMEXE
 40
20.0
  9
$DIMTP
 40
0.0
  9
$DIMTM
 40
0.0
  9
$DIMTXT
 40
64.0
  9
$DIMCEN
 40
0.09
  9
$DIMTSZ
 40
0.0
  9
$DIMTOL
 70
     0
  9
$DIMLIM
 70
     0
  9
$DIMTIH
 70
     0
  9
$DIMTOH
 70
     0
  9
$DIMSE1
 70
     0
  9
$DIMSE2
 70
     0
  9
$DIMTAD
 70
     1
  9
$DIMZIN
 70
     8
  9
$DIMBLK
  1
DOT1
  9
$DIMASO
 70
     1
  9
$DIMSHO
 70
     0
  9
$DIMPOST
  1

  9
$DIMAPOST
  1

  9
$DIMALT
 70
     0
  9
$DIMALTD
 70
     2
  9
$DIMALTF
 40
25.4
  9
$DIMLFAC
 40
1.0
  9
$DIMTOFL
 70
     1
  9
$DIMTVP
 40
0.0
  9
$DIMTIX
 70
     1
  9
$DIMSOXD
 70
     0
  9
$DIMSAH
 70
     1
  9
$DIMBLK1
  1
_ORIGIN
  9
$DIMBLK2
  1
_ORIGIN
  9
$DIMSTYLE
  2
STANDARD
  9
$DIMCLRD
 70
     7
  9
$DIMCLRE
 70
     7
  9
$DIMCLRT
 70
     7
  9
$DIMTFAC
 40
1.0
  9
$DIMGAP
 40
25.0
  9
$LUNITS
 70
     2
  9
$LUPREC
 70
     4
  9
$SKETCHINC
 40
0.1
  9
$FILLETRAD
 40
3.0
  9
$AUNITS
 70
     1
  9
$AUPREC
 70
     3
  9
$MENU
  1
ACAD
  9
$ELEVATION
 40
0.0
  9
$PELEVATION
 40
0.0
  9
$THICKNESS
 40
50.0
  9
$LIMCHECK
 70
     0
  9
$BLIPMODE
 70
     0
  9
$CHAMFERA
 40
0.0
  9
$CHAMFERB
 40
0.0
  9
$SKPOLY
 70
     0
  9
$TDCREATE
 40
2453019.62301037
  9
$TDUPDATE
 40
2454204.500380798
  9
$TDINDWG
 40
1.0642072106
  9
$TDUSRTIMER
 40
1.0642072106
  9
$USRTIMER
 70
     1
  9
$ANGBASE
 50
0.0
  9
$ANGDIR
 70
     0
  9
$PDMODE
 70
     3
  9
$PDSIZE
 40
-2.0
  9
$PLINEWID
 40
0.0
  9
$COORDS
 70
     1
  9
$SPLFRAME
 70
     0
  9
$SPLINETYPE
 70
     6
  9
$SPLINESEGS
 70
     8
  9
$ATTDIA
 70
     0
  9
$ATTREQ
 70
     1
  9
$HANDLING
 70
     0
  9
$HANDSEED
  5
AD60
  9
$SURFTAB1
 70
     6
  9
$SURFTAB2
 70
     6
  9
$SURFTYPE
 70
     6
  9
$SURFU
 70
     6
  9
$SURFV
 70
     6
  9
$UCSNAME
  2

  9
$UCSORG
 10
0.0
 20
0.0
 30
0.0
  9
$UCSXDIR
 10
1.0
 20
0.0
 30
0.0
  9
$UCSYDIR
 10
0.0
 20
1.0
 30
0.0
  9
$PUCSNAME
  2

  9
$PUCSORG
 10
0.0
 20
0.0
 30
0.0
  9
$PUCSXDIR
 10
1.0
 20
0.0
 30
0.0
  9
$PUCSYDIR
 10
0.0
 20
1.0
 30
0.0
  9
$USERI1
 70
     0
  9
$USERI2
 70
     0
  9
$USERI3
 70
     0
  9
$USERI4
 70
     0
  9
$USERI5
 70
     0
  9
$USERR1
 40
20.0
  9
$USERR2
 40
0.0
  9
$USERR3
 40
0.0
  9
$USERR4
 40
0.0
  9
$USERR5
 40
0.0
  9
$WORLDVIEW
 70
     1
  9
$SHADEDGE
 70
     3
  9
$SHADEDIF
 70
    70
  9
$TILEMODE
 70
     1
  9
$MAXACTVP
 70
    48
  9
$PINSBASE
 10
0.0
 20
0.0
 30
0.0
  9
$PLIMCHECK
 70
     0
  9
$PEXTMIN
 10
-100000000000000000000.0
 20
-100000000000000000000.0
 30
-100000000000000000000.0
  9
$PEXTMAX
 10
100000000000000000000.0
 20
100000000000000000000.0
 30
100000000000000000000.0
  9
$PLIMMIN
 10
0.0
 20
0.0
  9
$PLIMMAX
 10
12.0
 20
9.0
  9
$UNITMODE
 70
     0
  9
$VISRETAIN
 70
     0
  9
$PLINEGEN
 70
     0
  9
$PSLTSCALE
 70
     0
  9
$TREEDEPTH
 70
  3020
  0
ENDSEC
  0
SECTION
  2
TABLES
  0
TABLE
  2
LTYPE
 70
     2
  0
LTYPE
  2
CONTINUOUS
 70
     0
  3
実線
 72
    65
 73
     0
 40
0.0
  0
LTYPE
  2
DASHDOT
 70
     0
  3
____ _ ____ _ ____ _ ____ _ ____ _ ____ _ ____
 72
    65
 73
     4
 40
5.5
 49
4.0
 49
-0.6
 49
0.3
 49
-0.6
  0
ENDTAB
  0
TABLE
  2
LAYER
 70
    12
  0
LAYER
  2
0
 70
     0
 62
     7
  6
CONTINUOUS
  0
LAYER
  2
BASIS
 70
     0
 62
     6
  6
DASHDOT
  0
LAYER
  2
OUTLINE
 70
     0
 62
     3
  6
CONTINUOUS
  0
LAYER
  2
DETAIL
 70
     0
 62
     5
  6
CONTINUOUS
  0
LAYER
  2
SIZE
 70
     0
 62
    30
  6
CONTINUOUS
  0
LAYER
  2
ARRANGE
 70
     0
 62
     1
  6
CONTINUOUS
  0
LAYER
  2
DEFPOINTS
 70
     0
 62
     7
  6
CONTINUOUS
  0
LAYER
  2
ETC
 70
     0
 62
    61
  6
CONTINUOUS
  0
LAYER
  2
FIX
 70
     0
 62
    11
  6
CONTINUOUS
  0
LAYER
  2
NOTE
 70
     0
 62
     4
  6
CONTINUOUS
  0
LAYER
  2
SERVICESPACE
 70
    64
 62
     2
  6
DASHDOT
  0
LAYER
  2
SYMBOLLINE
 70
    64
 62
    15
  6
CONTINUOUS
  0
ENDTAB
  0
TABLE
  2
STYLE
 70
     1
  0
STYLE
  2
STANDARD
 70
     0
 40
64.0
 41
0.9
 50
0.0
 71
     0
 42
64.0
  3
SIMPLEX.shx
  4
BIGFONT.shx
  0
ENDTAB
  0
TABLE
  2
APPID
 70
     5
  0
APPID
  2
ACAD
 70
     0
  0
APPID
  2
AUTOCAD_POSTSCRIPT_FIGURE
 70
     0
  0
APPID
  2
ACAD_EXEMPT_FROM_CAD_STANDARDS
 70
     0
  0
APPID
  2
ACAD_PSEXT
 70
     0
  0
APPID
  2
ACAUTHENVIRON
 70
     0
  0
ENDTAB
  0
TABLE
  2
DIMSTYLE
 70
     1
  0
DIMSTYLE
  2
STANDARD
 70
     0
  3

  4

  5

  6

  7

 40
1.0
 41
0.18
 42
0.0625
 43
0.38
 44
0.18
 45
0.0
 46
0.0
 47
0.0
 48
0.0
140
0.18
141
0.09
142
0.0
143
25.4
144
1.0
145
0.0
146
1.0
147
0.09
 71
     0
 72
     0
 73
     1
 74
     1
 75
     0
 76
     0
 77
     0
 78
     0
170
     0
171
     2
172
     0
173
     0
174
     0
175
     0
176
     7
177
     7
178
     7
  0
ENDTAB
  0
TABLE
  2
VIEW
 70
     1
  0
VIEW
  2
ALL
 70
     0
 40
4282.619808
 10
0.0
 20
41.309904
 41
5940.0
 11
0.0
 21
0.0
 31
1.0
 12
0.0
 22
0.0
 32
0.0
 42
50.0
 43
0.0
 44
0.0
 50
0.0
 71
     0
  0
ENDTAB
  0
TABLE
  2
UCS
 70
     0
  0
ENDTAB
  0
TABLE
  2
VPORT
 70
     1
  0
VPORT
  2
*ACTIVE
 70
     0
 10
0.0
 20
0.0
 11
1.0
 21
1.0
 12
-170.624529
 22
243.690501
 13
0.0
 23
0.0
 14
1.0
 24
1.0
 15
0.0
 25
0.0
 16
0.0
 26
0.0
 36
1.0
 17
0.0
 27
0.0
 37
0.0
 40
1099.982998
 41
1.822153
 42
50.0
 43
0.0
 44
0.0
 50
0.0
 51
0.0
 71
     0
 72
  1000
 73
     1
 74
     0
 75
     0
 76
     0
 77
     0
 78
     0
  0
ENDTAB
  0
ENDSEC
  0
SECTION
  2
BLOCKS
  0
BLOCK
  8
0
  2
DOT1
 70
     0
 10
0.0
 20
0.0
 30
0.0
  3
DOT1
  1

  0
CIRCLE
  8
SIZE
  6
CONTINUOUS
 62
     7
 10
0.0
 20
0.0
 30
0.0
 40
3.0
  0
ENDBLK
  8
0
  0
BLOCK
  8
0
  2
_ORIGIN
 70
     0
 10
0.0
 20
0.0
 30
0.0
  3
_ORIGIN
  1

  0
CIRCLE
  8
0
  6
CONTINUOUS
 62
     7
 10
0.0
 20
0.0
 30
0.0
 40
0.5
  0
LINE
  8
0
  6
CONTINUOUS
 62
     7
 10
0.0
 20
0.0
 30
0.0
 11
-1.0
 21
0.0
 31
0.0
  0
ENDBLK
  8
0
  0
ENDSEC
  0
SECTION
  2
ENTITIES
  0
TEXT
  8
ETC
  6
CONTINUOUS
 62
    61
 10
358.114041
 20
485.982519
 30
0.0
 40
40.0
  1
PS-40CTW3_3
 41
0.9
  0
TEXT
  8
ETC
  6
CONTINUOUS
 62
    61
 10
353.928047
 20
425.28624
 30
0.0
 40
40.0
  1
システム部材
 41
0.9
  0
TEXT
  8
ETC
  6
CONTINUOUS
 62
    61
 10
404.53555
 20
343.41613
 30
0.0
 40
40.0
  1
PS-40CTW3
 41
0.9
  0
CIRCLE
  8
ARRANGE
  6
CONTINUOUS
 62
     1
 10
0.0
 20
0.0
 30
0.0
 40
40.0
  0
LINE
  8
BASIS
  6
DASHDOT
 62
     6
 10
-283.655051
 20
0.0
 30
0.0
 11
301.858993
 21
0.0
 31
0.0
  0
LINE
  8
BASIS
  6
DASHDOT
 62
     6
 10
0.0
 20
312.909454
 30
0.0
 11
0.0
 21
-289.791678
 31
0.0
  0
POINT
  8
ARRANGE
  6
CONTINUOUS
 62
     1
 10
0.0
 20
0.0
 30
0.0
 39
50.0
  0
LINE
  8
DETAIL
  6
CONTINUOUS
 62
     5
 10
-253.2
 20
213.25
 30
0.0
 11
-262.75
 21
213.25
 31
0.0
  0
LINE
  8
DETAIL
  6
CONTINUOUS
 62
     5
 10
-253.2
 20
225.25
 30
0.0
 11
-262.75
 21
225.25
 31
0.0
  0
LINE
  8
DETAIL
  6
CONTINUOUS
 62
     5
 10
-249.5
 20
233.75
 30
0.0
 11
-249.5
 21
248.5
 31
0.0
  0
LINE
  8
DETAIL
  6
CONTINUOUS
 62
     5
 10
-250.5
 20
233.75
 30
0.0
 11
-250.5
 21
248.5
 31
0.0
  0
LINE
  8
DETAIL
  6
CONTINUOUS
 62
     5
 10
-233.75
 20
249.5
 30
0.0
 11
-247.5
 21
249.5
 31
0.0
  0
LINE
  8
DETAIL
  6
CONTINUOUS
 62
     5
 10
-205.0
 20
250.5
 30
0.0
 11
-197.0
 21
250.5
 31
0.0
  0
LINE
  8
DETAIL
  6
CONTINUOUS
 62
     5
 10
-250.5
 20
197.0
 30
0.0
 11
-250.5
 21
205.0
 31
0.0
  0
LINE
  8
DETAIL
  6
CONTINUOUS
 62
     5
 10
-249.5
 20
196.0
 30
0.0
 11
-249.5
 21
205.0
 31
0.0
  0
LINE
  8
DETAIL
  6
CONTINUOUS
 62
     5
 10
-252.0
 20
248.5
 30
0.0
 11
-262.75
 21
248.5
 31
0.0
  0
LINE
  8
DETAIL
  6
CONTINUOUS
 62
     5
 10
-196.0
 20
249.5
 30
0.0
 11
-205.0
 21
249.5
 31
0.0
  0
LINE
  8
DETAIL
  6
CONTINUOUS
 62
     5
 10
-247.5
 20
251.0
 30
0.0
 11
-247.5
 21
250.5
 31
0.0
  0
LINE
  8
BASIS
  6
DASHDOT
 62
     6
 10
0.0
 20
312.909454
 30
0.0
 11
0.0
 21
-289.791678
 31
0.0
  0
LINE
  8
BASIS
  6
DASHDOT
 62
     6
 10
301.858993
 20
0.0
 30
0.0
 11
-283.655051
 21
0.0
 31
0.0
  0
LINE
  8
DETAIL
  6
CONTINUOUS
 62
     5
 10
-248.5
 20
247.5
 30
0.0
 11
-248.5
 21
248.5
 31
0.0
  0
LINE
  8
DETAIL
  6
CONTINUOUS
 62
     5
 10
-249.5
 20
235.5
 30
0.0
 11
-249.0
 21
235.5
 31
0.0
  0
LINE
  8
DETAIL
  6
CONTINUOUS
 62
     5
 10
-249.5
 20
237.5
 30
0.0
 11
-249.0
 21
237.5
 31
0.0
  0
LINE
  8
DETAIL
  6
CONTINUOUS
 62
     5
 10
-247.5
 20
262.75
 30
0.0
 11
-247.5
 21
253.0
 31
0.0
  0
LINE
  8
DETAIL
  6
CONTINUOUS
 62
     5
 10
-248.5
 20
235.5
 30
0.0
 11
-248.5
 21
235.75
 31
0.0
  0
LINE
  8
DETAIL
  6
CONTINUOUS
 62
     5
 10
-250.5
 20
246.5
 30
0.0
 11
-249.5
 21
246.5
 31
0.0
  0
LINE
  8
DETAIL
  6
CONTINUOUS
 62
     5
 10
-249.5
 20
248.5
 30
0.0
 11
-251.0
 21
248.5
 31
0.0
  0
LINE
  8
DETAIL
  6
CONTINUOUS
 62
     5
 10
-247.5
 20
250.5
 30
0.0
 11
-233.75
 21
250.5
 31
0.0
  0
LINE
  8
DETAIL
  6
CONTINUOUS
 62
     5
 10
-262.75
 20
248.5
 30
0.0
 11
-262.75
 21
225.25
 31
0.0
  0
LINE
  8
DETAIL
  6
CONTINUOUS
 62
     5
 10
-262.75
 20
213.25
 30
0.0
 11
-262.75
 21
0.0
 31
0.0
  0
LINE
  8
DETAIL
  6
CONTINUOUS
 62
     5
 10
0.0
 20
262.75
 30
0.0
 11
-247.5
 21
262.75
 31
0.0
  0
ARC
  8
DETAIL
  6
CONTINUOUS
 62
     5
 10
-247.5
 20
248.5
 30
0.0
 40
1.0
 50
150.0
 51
180.0
  0
ARC
  8
DETAIL
  6
CONTINUOUS
 62
     5
 10
-247.5
 20
248.5
 30
0.0
 40
2.0
 50
90.0
 51
180.0
  0
LINE
  8
DETAIL
  6
CONTINUOUS
 62
     5
 10
-249.0
 20
235.5
 30
0.0
 11
-248.5
 21
235.5
 31
0.0
  0
ARC
  8
DETAIL
  6
CONTINUOUS
 62
     5
 10
-247.5
 20
248.5
 30
0.0
 40
1.0
 50
90.0
 51
150.0
  0
LINE
  8
BASIS
  6
DASHDOT
 62
     6
 10
0.0
 20
312.909454
 30
0.0
 11
0.0
 21
-289.791678
 31
0.0
  0
LINE
  8
BASIS
  6
DASHDOT
 62
     6
 10
301.858993
 20
0.0
 30
0.0
 11
-283.655051
 21
0.0
 31
0.0
  0
LINE
  8
DETAIL
  6
CONTINUOUS
 62
     5
 10
-195.5
 20
249.0
 30
0.0
 11
-205.0
 21
249.0
 31
0.0
  0
LINE
  8
DETAIL
  6
CONTINUOUS
 62
     5
 10
-233.75
 20
249.0
 30
0.0
 11
-248.366025
 21
249.0
 31
0.0
  0
LINE
  8
DETAIL
  6
CONTINUOUS
 62
     5
 10
-249.436492
 20
249.0
 30
0.0
 11
-263.0
 21
249.0
 31
0.0
  0
LINE
  8
DETAIL
  6
CONTINUOUS
 62
     5
 10
0.0
 20
295.0
 30
0.0
 11
-285.0
 21
295.0
 31
0.0
  0
ARC
  8
DETAIL
  6
CONTINUOUS
 62
     5
 10
-285.0
 20
285.0
 30
0.0
 40
10.0
 50
90.0
 51
180.0
  0
LINE
  8
DETAIL
  6
CONTINUOUS
 62
     5
 10
-295.0
 20
285.0
 30
0.0
 11
-295.0
 21
265.0
 31
0.0
  0
LINE
  8
DETAIL
  6
CONTINUOUS
 62
     5
 10
0.0
 20
263.0
 30
0.0
 11
-263.0
 21
263.0
 31
0.0
  0
LINE
  8
DETAIL
  6
CONTINUOUS
 62
     5
 10
-263.0
 20
249.0
 30
0.0
 11
-263.0
 21
265.0
 31
0.0
  0
LINE
  8
DETAIL
  6
CONTINUOUS
 62
     5
 10
-263.0
 20
265.0
 30
0.0
 11
-265.0
 21
265.0
 31
0.0
  0
LINE
  8
DETAIL
  6
CONTINUOUS
 62
     5
 10
-265.0
 20
265.0
 30
0.0
 11
-295.0
 21
265.0
 31
0.0
  0
LINE
  8
DETAIL
  6
CONTINUOUS
 62
     5
 10
-252.0
 20
249.0
 30
0.0
 11
-263.0
 21
249.0
 31
0.0
  0
LINE
  8
DETAIL
  6
CONTINUOUS
 62
     5
 10
-249.0
 20
205.0
 30
0.0
 11
-249.0
 21
195.5
 31
0.0
  0
LINE
  8
DETAIL
  6
CONTINUOUS
 62
     5
 10
-249.0
 20
235.5
 30
0.0
 11
-249.0
 21
233.75
 31
0.0
  0
LINE
  8
DETAIL
  6
CONTINUOUS
 62
     5
 10
-249.436492
 20
249.0
 30
0.0
 11
-251.0
 21
249.0
 31
0.0
  0
LINE
  8
DETAIL
  6
CONTINUOUS
 62
     5
 10
-295.0
 20
265.0
 30
0.0
 11
-295.0
 21
0.0
 31
0.0
  0
LINE
  8
DETAIL
  6
CONTINUOUS
 62
     5
 10
-265.0
 20
265.0
 30
0.0
 11
-265.0
 21
263.5
 31
0.0
  0
ARC
  8
DETAIL
  6
CONTINUOUS
 62
     5
 10
-285.0
 20
285.0
 30
0.0
 40
10.0
 50
90.0
 51
180.0
  0
LINE
  8
DETAIL
  6
CONTINUOUS
 62
     5
 10
-295.0
 20
285.0
 30
0.0
 11
-295.0
 21
265.0
 31
0.0
  0
LINE
  8
DETAIL
  6
CONTINUOUS
 62
     5
 10
-263.8
 20
263.5
 30
0.0
 11
-263.8
 21
0.0
 31
0.0
  0
LINE
  8
DETAIL
  6
CONTINUOUS
 62
     5
 10
-263.0
 20
249.0
 30
0.0
 11
-263.0
 21
0.0
 31
0.0
  0
LINE
  8
DETAIL
  6
CONTINUOUS
 62
     5
 10
-263.0
 20
263.5
 30
0.0
 11
-263.0
 21
249.0
 31
0.0
  0
LINE
  8
DETAIL
  6
CONTINUOUS
 62
     5
 10
-263.0
 20
263.5
 30
0.0
 11
-265.0
 21
263.5
 31
0.0
  0
LINE
  8
DETAIL
  6
CONTINUOUS
 62
     5
 10
-265.0
 20
264.5
 30
0.0
 11
-295.0
 21
264.5
 31
0.0
  0
LINE
  8
DETAIL
  6
CONTINUOUS
 62
     5
 10
-265.0
 20
295.0
 30
0.0
 11
-285.0
 21
295.0
 31
0.0
  0
LINE
  8
DETAIL
  6
CONTINUOUS
 62
     5
 10
-251.0
 20
233.75
 30
0.0
 11
-251.0
 21
251.0
 31
0.0
  0
LINE
  8
DETAIL
  6
CONTINUOUS
 62
     5
 10
-252.0
 20
233.75
 30
0.0
 11
-252.0
 21
251.0
 31
0.0
  0
LINE
  8
DETAIL
  6
CONTINUOUS
 62
     5
 10
-252.0
 20
0.0
 30
0.0
 11
-252.0
 21
205.0
 31
0.0
  0
LINE
  8
DETAIL
  6
CONTINUOUS
 62
     5
 10
-237.0
 20
253.0
 30
0.0
 11
-237.0
 21
252.0
 31
0.0
  0
LINE
  8
DETAIL
  6
CONTINUOUS
 62
     5
 10
-239.0
 20
253.0
 30
0.0
 11
-239.0
 21
252.0
 31
0.0
  0
LINE
  8
DETAIL
  6
CONTINUOUS
 62
     5
 10
-248.0
 20
194.5
 30
0.0
 11
-248.0
 21
0.0
 31
0.0
  0
LINE
  8
DETAIL
  6
CONTINUOUS
 62
     5
 10
-251.0
 20
197.5
 30
0.0
 11
-251.0
 21
205.0
 31
0.0
  0
LINE
  8
DETAIL
  6
CONTINUOUS
 62
     5
 10
-248.0
 20
194.5
 30
0.0
 11
-251.0
 21
197.5
 31
0.0
  0
LINE
  8
DETAIL
  6
CONTINUOUS
 62
     5
 10
-252.0
 20
197.5
 30
0.0
 11
-251.0
 21
197.5
 31
0.0
  0
LINE
  8
DETAIL
  6
CONTINUOUS
 62
     5
 10
-237.0
 20
252.0
 30
0.0
 11
-250.0
 21
252.0
 31
0.0
  0
LINE
  8
DETAIL
  6
CONTINUOUS
 62
     5
 10
-237.0
 20
253.0
 30
0.0
 11
-250.0
 21
253.0
 31
0.0
  0
ARC
  8
DETAIL
  6
CONTINUOUS
 62
     5
 10
-250.0
 20
251.0
 30
0.0
 40
2.0
 50
90.0
 51
180.0
  0
ARC
  8
DETAIL
  6
CONTINUOUS
 62
     5
 10
-250.0
 20
251.0
 30
0.0
 40
1.0
 50
90.0
 51
180.0
  0
LINE
  8
DETAIL
  6
CONTINUOUS
 62
     5
 10
-232.598617
 20
223.901204
 30
0.0
 11
-236.098796
 21
227.401383
 31
0.0
  0
ARC
  8
DETAIL
  6
CONTINUOUS
 62
     5
 10
-228.249911
 20
228.249911
 30
0.0
 40
6.15
 50
225.0
 51
45.0
  0
LINE
  8
DETAIL
  6
CONTINUOUS
 62
     5
 10
-223.901204
 20
232.598617
 30
0.0
 11
-227.401383
 21
236.098796
 31
0.0
  0
ARC
  8
DETAIL
  6
CONTINUOUS
 62
     5
 10
-231.750089
 20
231.750089
 30
0.0
 40
6.15
 50
45.0
 51
225.0
  0
LINE
  8
DETAIL
  6
CONTINUOUS
 62
     5
 10
-242.964466
 20
201.464466
 30
0.0
 11
-246.5
 21
205.0
 31
0.0
  0
LINE
  8
DETAIL
  6
CONTINUOUS
 62
     5
 10
-205.0
 20
246.5
 30
0.0
 11
-201.464466
 21
242.964466
 31
0.0
  0
LINE
  8
DETAIL
  6
CONTINUOUS
 62
     5
 10
-246.5
 20
205.0
 30
0.0
 11
-253.2
 21
205.0
 31
0.0
  0
LINE
  8
DETAIL
  6
CONTINUOUS
 62
     5
 10
-205.0
 20
253.2
 30
0.0
 11
-205.0
 21
246.5
 31
0.0
  0
LINE
  8
DETAIL
  6
CONTINUOUS
 62
     5
 10
-253.2
 20
233.75
 30
0.0
 11
-246.5
 21
233.75
 31
0.0
  0
LINE
  8
DETAIL
  6
CONTINUOUS
 62
     5
 10
-246.5
 20
235.75
 30
0.0
 11
-249.0
 21
235.75
 31
0.0
  0
LINE
  8
DETAIL
  6
CONTINUOUS
 62
     5
 10
-233.75
 20
246.5
 30
0.0
 11
-233.75
 21
253.2
 31
0.0
  0
LINE
  8
DETAIL
  6
CONTINUOUS
 62
     5
 10
-235.75
 20
249.0
 30
0.0
 11
-235.75
 21
246.5
 31
0.0
  0
LINE
  8
DETAIL
  6
CONTINUOUS
 62
     5
 10
-247.0
 20
249.0
 30
0.0
 11
-235.75
 21
249.0
 31
0.0
  0
LINE
  8
DETAIL
  6
CONTINUOUS
 62
     5
 10
-205.0
 20
253.2
 30
0.0
 11
-233.75
 21
253.2
 31
0.0
  0
LINE
  8
DETAIL
  6
CONTINUOUS
 62
     5
 10
-249.0
 20
235.75
 30
0.0
 11
-249.0
 21
247.0
 31
0.0
  0
LINE
  8
DETAIL
  6
CONTINUOUS
 62
     5
 10
-253.2
 20
233.75
 30
0.0
 11
-253.2
 21
205.0
 31
0.0
  0
LINE
  8
DETAIL
  6
CONTINUOUS
 62
     5
 10
-242.964466
 20
201.464466
 30
0.0
 11
-201.464466
 21
242.964466
 31
0.0
  0
LINE
  8
DETAIL
  6
CONTINUOUS
 62
     5
 10
-247.0
 20
249.0
 30
0.0
 11
-249.0
 21
247.0
 31
0.0
  0
CIRCLE
  8
DETAIL
  6
CONTINUOUS
 62
     5
 10
-230.0
 20
230.0
 30
0.0
 40
6.0
  0
ARC
  8
DETAIL
  6
CONTINUOUS
 62
     5
 10
-246.5
 20
234.75
 30
0.0
 40
1.0
 50
270.0
 51
90.0
  0
ARC
  8
DETAIL
  6
CONTINUOUS
 62
     5
 10
-234.75
 20
246.5
 30
0.0
 40
1.0
 50
180.0
 51
0.0
  0
ARC
  8
DETAIL
  6
CONTINUOUS
 62
     5
 10
-228.249911
 20
228.249911
 30
0.0
 40
6.15
 50
225.0
 51
45.0
  0
ARC
  8
DETAIL
  6
CONTINUOUS
 62
     5
 10
-231.750089
 20
231.750089
 30
0.0
 40
6.15
 50
45.0
 51
225.0
  0
LINE
  8
DETAIL
  6
CONTINUOUS
 62
     5
 10
-232.598617
 20
223.901204
 30
0.0
 11
-236.098796
 21
227.401383
 31
0.0
  0
LINE
  8
DETAIL
  6
CONTINUOUS
 62
     5
 10
-223.901204
 20
232.598617
 30
0.0
 11
-227.401383
 21
236.098796
 31
0.0
  0
LINE
  8
DETAIL
  6
CONTINUOUS
 62
     5
 10
-248.5
 20
247.5
 30
0.0
 11
-247.0
 21
249.0
 31
0.0
  0
LINE
  8
DETAIL
  6
CONTINUOUS
 62
     5
 10
-248.5
 20
235.75
 30
0.0
 11
-246.5
 21
235.75
 31
0.0
  0
LINE
  8
DETAIL
  6
CONTINUOUS
 62
     5
 10
-201.464466
 20
242.964466
 30
0.0
 11
-205.0
 21
246.5
 31
0.0
  0
LINE
  8
DETAIL
  6
CONTINUOUS
 62
     5
 10
-246.5
 20
205.0
 30
0.0
 11
-242.964466
 21
201.464466
 31
0.0
  0
LINE
  8
DETAIL
  6
CONTINUOUS
 62
     5
 10
-205.0
 20
246.5
 30
0.0
 11
-205.0
 21
249.0
 31
0.0
  0
LINE
  8
DETAIL
  6
CONTINUOUS
 62
     5
 10
-249.5
 20
205.0
 30
0.0
 11
-249.0
 21
205.0
 31
0.0
  0
LINE
  8
DETAIL
  6
CONTINUOUS
 62
     5
 10
-233.75
 20
249.5
 30
0.0
 11
-233.75
 21
249.0
 31
0.0
  0
LINE
  8
DETAIL
  6
CONTINUOUS
 62
     5
 10
-235.75
 20
246.5
 30
0.0
 11
-235.75
 21
249.0
 31
0.0
  0
LINE
  8
DETAIL
  6
CONTINUOUS
 62
     5
 10
-246.5
 20
233.75
 30
0.0
 11
-249.0
 21
233.75
 31
0.0
  0
LINE
  8
DETAIL
  6
CONTINUOUS
 62
     5
 10
-201.464466
 20
242.964466
 30
0.0
 11
-242.964466
 21
201.464466
 31
0.0
  0
ARC
  8
DETAIL
  6
CONTINUOUS
 62
     5
 10
-234.75
 20
246.5
 30
0.0
 40
1.0
 50
180.0
 51
0.0
  0
ARC
  8
DETAIL
  6
CONTINUOUS
 62
     5
 10
-246.5
 20
234.75
 30
0.0
 40
1.0
 50
270.0
 51
90.0
  0
LINE
  8
DETAIL
  6
CONTINUOUS
 62
     5
 10
-235.75
 20
249.0
 30
0.0
 11
-247.0
 21
249.0
 31
0.0
  0
LINE
  8
DETAIL
  6
CONTINUOUS
 62
     5
 10
-249.0
 20
205.0
 30
0.0
 11
-246.5
 21
205.0
 31
0.0
  0
LINE
  8
DETAIL
  6
CONTINUOUS
 62
     5
 10
-249.0
 20
233.75
 30
0.0
 11
-249.5
 21
233.75
 31
0.0
  0
LINE
  8
DETAIL
  6
CONTINUOUS
 62
     5
 10
-233.75
 20
249.0
 30
0.0
 11
-233.75
 21
246.5
 31
0.0
  0
LINE
  8
DETAIL
  6
CONTINUOUS
 62
     5
 10
-205.0
 20
249.0
 30
0.0
 11
-205.0
 21
249.5
 31
0.0
  0
CIRCLE
  8
DETAIL
  6
CONTINUOUS
 62
     5
 10
-230.0
 20
230.0
 30
0.0
 40
6.0
  0
LINE
  8
DETAIL
  6
CONTINUOUS
 62
     5
 10
-222.25
 20
254.5
 30
0.0
 11
-216.25
 21
254.5
 31
0.0
  0
LINE
  8
DETAIL
  6
CONTINUOUS
 62
     5
 10
-250.0
 20
252.0
 30
0.0
 11
-233.75
 21
252.0
 31
0.0
  0
LINE
  8
DETAIL
  6
CONTINUOUS
 62
     5
 10
-250.0
 20
251.0
 30
0.0
 11
-233.75
 21
251.0
 31
0.0
  0
LINE
  8
DETAIL
  6
CONTINUOUS
 62
     5
 10
0.0
 20
248.0
 30
0.0
 11
-194.5
 21
248.0
 31
0.0
  0
LINE
  8
DETAIL
  6
CONTINUOUS
 62
     5
 10
-205.0
 20
252.0
 30
0.0
 11
0.0
 21
252.0
 31
0.0
  0
LINE
  8
DETAIL
  6
CONTINUOUS
 62
     5
 10
-205.0
 20
251.0
 30
0.0
 11
-197.5
 21
251.0
 31
0.0
  0
LINE
  8
DETAIL
  6
CONTINUOUS
 62
     5
 10
-194.5
 20
248.0
 30
0.0
 11
-197.5
 21
251.0
 31
0.0
  0
LINE
  8
DETAIL
  6
CONTINUOUS
 62
     5
 10
-197.5
 20
251.0
 30
0.0
 11
-197.5
 21
255.0
 31
0.0
  0
LINE
  8
DETAIL
  6
CONTINUOUS
 62
     5
 10
-215.25
 20
253.5
 30
0.0
 11
-215.25
 21
253.2
 31
0.0
  0
LINE
  8
DETAIL
  6
CONTINUOUS
 62
     5
 10
-223.25
 20
253.5
 30
0.0
 11
-223.25
 21
253.2
 31
0.0
  0
LINE
  8
DETAIL
  6
CONTINUOUS
 62
     5
 10
-248.0
 20
252.0
 30
0.0
 11
-248.0
 21
251.0
 31
0.0
  0
LINE
  8
DETAIL
  6
CONTINUOUS
 62
     5
 10
-250.0
 20
252.0
 30
0.0
 11
-250.0
 21
251.0
 31
0.0
  0
LINE
  8
DETAIL
  6
CONTINUOUS
 62
     5
 10
-216.25
 20
254.5
 30
0.0
 11
-215.25
 21
253.5
 31
0.0
  0
LINE
  8
DETAIL
  6
CONTINUOUS
 62
     5
 10
-222.25
 20
254.5
 30
0.0
 11
-223.25
 21
253.5
 31
0.0
  0
LINE
  8
DETAIL
  6
CONTINUOUS
 62
     5
 10
-252.0
 20
176.0
 30
0.0
 11
-252.8
 21
176.0
 31
0.0
  0
LINE
  8
DETAIL
  6
CONTINUOUS
 62
     5
 10
-252.8
 20
158.9
 30
0.0
 11
-252.8
 21
176.0
 31
0.0
  0
LINE
  8
DETAIL
  6
CONTINUOUS
 62
     5
 10
-252.0
 20
158.9
 30
0.0
 11
-252.8
 21
158.9
 31
0.0
  0
LINE
  8
DETAIL
  6
CONTINUOUS
 62
     5
 10
-252.0
 20
158.9
 30
0.0
 11
-252.0
 21
176.0
 31
0.0
  0
ARC
  8
DETAIL
  6
CONTINUOUS
 62
     5
 10
-249.2
 20
168.5
 30
0.0
 40
6.1
 50
129.601965
 51
230.398017
  0
LINE
  8
DETAIL
  6
CONTINUOUS
 62
     5
 10
-252.8
 20
173.2
 30
0.0
 11
-252.8
 21
163.8
 31
0.0
  0
LINE
  8
DETAIL
  6
CONTINUOUS
 62
     5
 10
-252.8
 20
163.8
 30
0.0
 11
-253.088445
 21
163.8
 31
0.0
  0
LINE
  8
DETAIL
  6
CONTINUOUS
 62
     5
 10
-252.8
 20
173.2
 30
0.0
 11
-253.088445
 21
173.2
 31
0.0
  0
LINE
  8
DETAIL
  6
CONTINUOUS
 62
     5
 10
-253.088445
 20
163.8
 30
0.0
 11
-253.088445
 21
173.2
 31
0.0
  0
LINE
  8
DETAIL
  6
CONTINUOUS
 62
     5
 10
-233.75
 20
246.821782
 30
0.0
 11
-235.75
 21
246.821782
 31
0.0
  0
LINE
  8
DETAIL
  6
CONTINUOUS
 62
     5
 10
-246.821782
 20
233.75
 30
0.0
 11
-246.821782
 21
235.75
 31
0.0
  0
LINE
  8
NOTE
  6
CONTINUOUS
 62
     4
 10
-280.0
 20
260.0
 30
0.0
 11
-280.0
 21
300.0
 31
0.0
  0
LINE
  8
NOTE
  6
CONTINUOUS
 62
     4
 10
-300.0
 20
280.0
 30
0.0
 11
-260.0
 21
280.0
 31
0.0
  0
LINE
  8
NOTE
  6
CONTINUOUS
 62
     4
 10
280.0
 20
260.0
 30
0.0
 11
280.0
 21
300.0
 31
0.0
  0
LINE
  8
NOTE
  6
CONTINUOUS
 62
     4
 10
260.0
 20
280.0
 30
0.0
 11
300.0
 21
280.0
 31
0.0
  0
LINE
  8
NOTE
  6
CONTINUOUS
 62
     4
 10
280.0
 20
-300.0
 30
0.0
 11
280.0
 21
-260.0
 31
0.0
  0
LINE
  8
NOTE
  6
CONTINUOUS
 62
     4
 10
260.0
 20
-280.0
 30
0.0
 11
300.0
 21
-280.0
 31
0.0
  0
LINE
  8
NOTE
  6
CONTINUOUS
 62
     4
 10
-280.0
 20
-300.0
 30
0.0
 11
-280.0
 21
-260.0
 31
0.0
  0
LINE
  8
NOTE
  6
CONTINUOUS
 62
     4
 10
-300.0
 20
-280.0
 30
0.0
 11
-260.0
 21
-280.0
 31
0.0
  0
LINE
  8
SIZE
  6
CONTINUOUS
 62
    30
 10
280.0
 20
320.0
 30
0.0
 11
280.0
 21
600.625825
 31
0.0
  0
LINE
  8
SIZE
  6
CONTINUOUS
 62
    30
 10
-280.0
 20
320.0
 30
0.0
 11
-280.0
 21
600.625825
 31
0.0
  0
LINE
  8
SIZE
  6
CONTINUOUS
 62
    30
 10
268.0
 20
580.625825
 30
0.0
 11
-268.0
 21
580.625825
 31
0.0
  0
CIRCLE
  8
SIZE
  6
CONTINUOUS
 62
    30
 10
280.0
 20
580.625825
 30
0.0
 40
6.0
  0
LINE
  8
SIZE
  6
CONTINUOUS
 62
    30
 10
280.0
 20
580.625825
 30
0.0
 11
268.0
 21
580.625825
 31
0.0
  0
CIRCLE
  8
SIZE
  6
CONTINUOUS
 62
    30
 10
-280.0
 20
580.625825
 30
0.0
 40
6.0
  0
LINE
  8
SIZE
  6
CONTINUOUS
 62
    30
 10
-280.0
 20
580.625825
 30
0.0
 11
-268.0
 21
580.625825
 31
0.0
  0
TEXT
  8
SIZE
  6
CONTINUOUS
 62
    30
 10
-78.806162
 20
605.625825
 30
0.0
 40
64.0
  1
560
 50
0.0
 41
0.9
 51
0.0
  7
STANDARD
 71
     0
 72
     1
 11
2.121838
 21
605.625825
 31
0.0
210
0.0
220
0.0
230
1.0
  0
POINT
  8
DEFPOINTS
  6
CONTINUOUS
 62
    30
 10
280.0
 20
300.0
 30
0.0
  0
POINT
  8
DEFPOINTS
  6
CONTINUOUS
 62
    30
 10
-280.0
 20
300.0
 30
0.0
  0
POINT
  8
DEFPOINTS
  6
CONTINUOUS
 62
    30
 10
-280.0
 20
580.625825
 30
0.0
  0
LINE
  8
SIZE
  6
CONTINUOUS
 62
    30
 10
-295.0
 20
305.0
 30
0.0
 11
-295.0
 21
719.484005
 31
0.0
  0
LINE
  8
SIZE
  6
CONTINUOUS
 62
    30
 10
295.0
 20
305.0
 30
0.0
 11
295.0
 21
719.484005
 31
0.0
  0
LINE
  8
SIZE
  6
CONTINUOUS
 62
    30
 10
-283.0
 20
699.484005
 30
0.0
 11
283.0
 21
699.484005
 31
0.0
  0
CIRCLE
  8
SIZE
  6
CONTINUOUS
 62
    30
 10
-295.0
 20
699.484005
 30
0.0
 40
6.0
  0
LINE
  8
SIZE
  6
CONTINUOUS
 62
    30
 10
-295.0
 20
699.484005
 30
0.0
 11
-283.0
 21
699.484005
 31
0.0
  0
CIRCLE
  8
SIZE
  6
CONTINUOUS
 62
    30
 10
295.0
 20
699.484005
 30
0.0
 40
6.0
  0
LINE
  8
SIZE
  6
CONTINUOUS
 62
    30
 10
295.0
 20
699.484005
 30
0.0
 11
283.0
 21
699.484005
 31
0.0
  0
TEXT
  8
SIZE
  6
CONTINUOUS
 62
    30
 10
-80.928
 20
724.484005
 30
0.0
 40
64.0
  1
590
 50
0.0
 41
0.9
 51
0.0
  7
STANDARD
 71
     0
 72
     1
 11
0.0
 21
724.484005
 31
0.0
210
0.0
220
0.0
230
1.0
  0
POINT
  8
DEFPOINTS
  6
CONTINUOUS
 62
    30
 10
-295.0
 20
285.0
 30
0.0
  0
POINT
  8
DEFPOINTS
  6
CONTINUOUS
 62
    30
 10
295.0
 20
285.0
 30
0.0
  0
POINT
  8
DEFPOINTS
  6
CONTINUOUS
 62
    30
 10
295.0
 20
699.484005
 30
0.0
  0
LINE
  8
DETAIL
  6
CONTINUOUS
 62
     5
 10
0.0
 20
255.0
 30
0.0
 11
-255.0
 21
255.0
 31
0.0
  0
LINE
  8
DETAIL
  6
CONTINUOUS
 62
     5
 10
-255.0
 20
255.0
 30
0.0
 11
-255.0
 21
0.0
 31
0.0
  0
LINE
  8
NOTE
  6
CONTINUOUS
 62
     4
 10
-230.0
 20
210.0
 30
0.0
 11
-230.0
 21
250.0
 31
0.0
  0
LINE
  8
NOTE
  6
CONTINUOUS
 62
     4
 10
-250.0
 20
230.0
 30
0.0
 11
-210.0
 21
230.0
 31
0.0
  0
LINE
  8
NOTE
  6
CONTINUOUS
 62
     4
 10
230.0
 20
210.0
 30
0.0
 11
230.0
 21
250.0
 31
0.0
  0
LINE
  8
NOTE
  6
CONTINUOUS
 62
     4
 10
210.0
 20
230.0
 30
0.0
 11
250.0
 21
230.0
 31
0.0
  0
LINE
  8
NOTE
  6
CONTINUOUS
 62
     4
 10
230.0
 20
-250.0
 30
0.0
 11
230.0
 21
-210.0
 31
0.0
  0
LINE
  8
NOTE
  6
CONTINUOUS
 62
     4
 10
210.0
 20
-230.0
 30
0.0
 11
250.0
 21
-230.0
 31
0.0
  0
LINE
  8
NOTE
  6
CONTINUOUS
 62
     4
 10
-230.0
 20
-250.0
 30
0.0
 11
-230.0
 21
-210.0
 31
0.0
  0
LINE
  8
NOTE
  6
CONTINUOUS
 62
     4
 10
-250.0
 20
-230.0
 30
0.0
 11
-210.0
 21
-230.0
 31
0.0
  0
LINE
  8
SIZE
  6
CONTINUOUS
 62
    30
 10
-230.0
 20
270.0
 30
0.0
 11
-230.0
 21
364.031404
 31
0.0
  0
LINE
  8
SIZE
  6
CONTINUOUS
 62
    30
 10
230.0
 20
270.0
 30
0.0
 11
230.0
 21
364.031404
 31
0.0
  0
LINE
  8
SIZE
  6
CONTINUOUS
 62
    30
 10
-218.0
 20
344.031404
 30
0.0
 11
218.0
 21
344.031404
 31
0.0
  0
CIRCLE
  8
SIZE
  6
CONTINUOUS
 62
    30
 10
-230.0
 20
344.031404
 30
0.0
 40
6.0
  0
LINE
  8
SIZE
  6
CONTINUOUS
 62
    30
 10
-230.0
 20
344.031404
 30
0.0
 11
-218.0
 21
344.031404
 31
0.0
  0
CIRCLE
  8
SIZE
  6
CONTINUOUS
 62
    30
 10
230.0
 20
344.031404
 30
0.0
 40
6.0
  0
LINE
  8
SIZE
  6
CONTINUOUS
 62
    30
 10
230.0
 20
344.031404
 30
0.0
 11
218.0
 21
344.031404
 31
0.0
  0
TEXT
  8
SIZE
  6
CONTINUOUS
 62
    30
 10
-81.504
 20
369.031404
 30
0.0
 40
64.0
  1
460
 50
0.0
 41
0.9
 51
0.0
  7
STANDARD
 71
     0
 72
     1
 11
0.0
 21
369.031404
 31
0.0
210
0.0
220
0.0
230
1.0
  0
POINT
  8
DEFPOINTS
  6
CONTINUOUS
 62
    30
 10
-230.0
 20
250.0
 30
0.0
  0
POINT
  8
DEFPOINTS
  6
CONTINUOUS
 62
    30
 10
230.0
 20
250.0
 30
0.0
  0
POINT
  8
DEFPOINTS
  6
CONTINUOUS
 62
    30
 10
230.0
 20
344.031404
 30
0.0
  0
LINE
  8
SIZE
  6
CONTINUOUS
 62
    30
 10
-270.0
 20
230.0
 30
0.0
 11
-416.55964
 21
230.0
 31
0.0
  0
LINE
  8
SIZE
  6
CONTINUOUS
 62
    30
 10
-270.0
 20
-230.0
 30
0.0
 11
-416.55964
 21
-230.0
 31
0.0
  0
LINE
  8
SIZE
  6
CONTINUOUS
 62
    30
 10
-396.55964
 20
218.0
 30
0.0
 11
-396.55964
 21
-218.0
 31
0.0
  0
CIRCLE
  8
SIZE
  6
CONTINUOUS
 62
    30
 10
-396.55964
 20
230.0
 30
0.0
 40
6.0
  0
LINE
  8
SIZE
  6
CONTINUOUS
 62
    30
 10
-396.55964
 20
230.0
 30
0.0
 11
-396.55964
 21
218.0
 31
0.0
  0
CIRCLE
  8
SIZE
  6
CONTINUOUS
 62
    30
 10
-396.55964
 20
-230.0
 30
0.0
 40
6.0
  0
LINE
  8
SIZE
  6
CONTINUOUS
 62
    30
 10
-396.55964
 20
-230.0
 30
0.0
 11
-396.55964
 21
-218.0
 31
0.0
  0
TEXT
  8
SIZE
  6
CONTINUOUS
 62
    30
 10
-421.55964
 20
-81.504
 30
0.0
 40
64.0
  1
460
 50
90.0
 41
0.9
 51
0.0
  7
STANDARD
 71
     0
 72
     1
 11
-421.55964
 21
0.0
 31
0.0
210
0.0
220
0.0
230
1.0
  0
POINT
  8
DEFPOINTS
  6
CONTINUOUS
 62
    30
 10
-250.0
 20
230.0
 30
0.0
  0
POINT
  8
DEFPOINTS
  6
CONTINUOUS
 62
    30
 10
-250.0
 20
-230.0
 30
0.0
  0
POINT
  8
DEFPOINTS
  6
CONTINUOUS
 62
    30
 10
-396.55964
 20
-230.0
 30
0.0
  0
LINE
  8
SIZE
  6
CONTINUOUS
 62
    30
 10
-275.0
 20
255.0
 30
0.0
 11
-696.366512
 21
255.0
 31
0.0
  0
LINE
  8
SIZE
  6
CONTINUOUS
 62
    30
 10
-275.0
 20
-255.0
 30
0.0
 11
-696.366512
 21
-255.0
 31
0.0
  0
LINE
  8
SIZE
  6
CONTINUOUS
 62
    30
 10
-676.366512
 20
243.0
 30
0.0
 11
-676.366512
 21
-243.0
 31
0.0
  0
CIRCLE
  8
SIZE
  6
CONTINUOUS
 62
    30
 10
-676.366512
 20
255.0
 30
0.0
 40
6.0
  0
LINE
  8
SIZE
  6
CONTINUOUS
 62
    30
 10
-676.366512
 20
255.0
 30
0.0
 11
-676.366512
 21
243.0
 31
0.0
  0
CIRCLE
  8
SIZE
  6
CONTINUOUS
 62
    30
 10
-676.366512
 20
-255.0
 30
0.0
 40
6.0
  0
LINE
  8
SIZE
  6
CONTINUOUS
 62
    30
 10
-676.366512
 20
-255.0
 30
0.0
 11
-676.366512
 21
-243.0
 31
0.0
  0
TEXT
  8
SIZE
  6
CONTINUOUS
 62
    30
 10
-701.366512
 20
-84.728
 30
0.0
 40
64.0
  1
□510
 50
90.0
 41
0.9
 51
0.0
  7
STANDARD
 71
     0
 72
     1
 11
-701.366512
 21
25.0
 31
0.0
210
0.0
220
0.0
230
1.0
  0
POINT
  8
DEFPOINTS
  6
CONTINUOUS
 62
    30
 10
-255.0
 20
255.0
 30
0.0
  0
POINT
  8
DEFPOINTS
  6
CONTINUOUS
 62
    30
 10
-255.0
 20
-255.0
 30
0.0
  0
POINT
  8
DEFPOINTS
  6
CONTINUOUS
 62
    30
 10
-676.366512
 20
-255.0
 30
0.0
  0
LINE
  8
SIZE
  6
CONTINUOUS
 62
    30
 10
-320.0
 20
280.0
 30
0.0
 11
-861.619281
 21
280.0
 31
0.0
  0
LINE
  8
SIZE
  6
CONTINUOUS
 62
    30
 10
-320.0
 20
-280.0
 30
0.0
 11
-861.619281
 21
-280.0
 31
0.0
  0
LINE
  8
SIZE
  6
CONTINUOUS
 62
    30
 10
-841.619281
 20
268.0
 30
0.0
 11
-841.619281
 21
-268.0
 31
0.0
  0
CIRCLE
  8
SIZE
  6
CONTINUOUS
 62
    30
 10
-841.619281
 20
280.0
 30
0.0
 40
6.0
  0
LINE
  8
SIZE
  6
CONTINUOUS
 62
    30
 10
-841.619281
 20
280.0
 30
0.0
 11
-841.619281
 21
268.0
 31
0.0
  0
CIRCLE
  8
SIZE
  6
CONTINUOUS
 62
    30
 10
-841.619281
 20
-280.0
 30
0.0
 40
6.0
  0
LINE
  8
SIZE
  6
CONTINUOUS
 62
    30
 10
-841.619281
 20
-280.0
 30
0.0
 11
-841.619281
 21
-268.0
 31
0.0
  0
TEXT
  8
SIZE
  6
CONTINUOUS
 62
    30
 10
-866.619281
 20
-80.928
 30
0.0
 40
64.0
  1
560
 50
90.0
 41
0.9
 51
0.0
  7
STANDARD
 71
     0
 72
     1
 11
-866.619281
 21
0.0
 31
0.0
210
0.0
220
0.0
230
1.0
  0
POINT
  8
DEFPOINTS
  6
CONTINUOUS
 62
    30
 10
-300.0
 20
280.0
 30
0.0
  0
POINT
  8
DEFPOINTS
  6
CONTINUOUS
 62
    30
 10
-300.0
 20
-280.0
 30
0.0
  0
POINT
  8
DEFPOINTS
  6
CONTINUOUS
 62
    30
 10
-841.619281
 20
-280.0
 30
0.0
  0
LINE
  8
SIZE
  6
CONTINUOUS
 62
    30
 10
-305.0
 20
295.0
 30
0.0
 11
-987.325908
 21
295.0
 31
0.0
  0
LINE
  8
SIZE
  6
CONTINUOUS
 62
    30
 10
-305.0
 20
-295.0
 30
0.0
 11
-987.325908
 21
-295.0
 31
0.0
  0
LINE
  8
SIZE
  6
CONTINUOUS
 62
    30
 10
-967.325908
 20
283.0
 30
0.0
 11
-967.325908
 21
-283.0
 31
0.0
  0
CIRCLE
  8
SIZE
  6
CONTINUOUS
 62
    30
 10
-967.325908
 20
295.0
 30
0.0
 40
6.0
  0
LINE
  8
SIZE
  6
CONTINUOUS
 62
    30
 10
-967.325908
 20
295.0
 30
0.0
 11
-967.325908
 21
283.0
 31
0.0
  0
CIRCLE
  8
SIZE
  6
CONTINUOUS
 62
    30
 10
-967.325908
 20
-295.0
 30
0.0
 40
6.0
  0
LINE
  8
SIZE
  6
CONTINUOUS
 62
    30
 10
-967.325908
 20
-295.0
 30
0.0
 11
-967.325908
 21
-283.0
 31
0.0
  0
TEXT
  8
SIZE
  6
CONTINUOUS
 62
    30
 10
-992.325908
 20
-80.928
 30
0.0
 40
64.0
  1
590
 50
90.0
 41
0.9
 51
0.0
  7
STANDARD
 71
     0
 72
     1
 11
-992.325908
 21
0.0
 31
0.0
210
0.0
220
0.0
230
1.0
  0
POINT
  8
DEFPOINTS
  6
CONTINUOUS
 62
    30
 10
-285.0
 20
295.0
 30
0.0
  0
POINT
  8
DEFPOINTS
  6
CONTINUOUS
 62
    30
 10
-285.0
 20
-295.0
 30
0.0
  0
POINT
  8
DEFPOINTS
  6
CONTINUOUS
 62
    30
 10
-967.325908
 20
-295.0
 30
0.0
  0
TEXT
  8
NOTE
  6
CONTINUOUS
 62
     4
 10
-629.233308
 20
426.590741
 30
0.0
 40
64.0
  1
4-φ16
 41
0.9
  0
LINE
  8
NOTE
  6
CONTINUOUS
 62
     4
 39
50.0
 10
-632.182079
 20
402.847312
 30
0.0
 11
-383.995644
 21
402.847312
 31
0.0
  0
LINE
  8
NOTE
  6
CONTINUOUS
 62
     4
 39
50.0
 10
-383.995644
 20
402.847312
 30
0.0
 11
-282.760752
 21
284.756916
 31
0.0
  0
LINE
  8
NOTE
  6
CONTINUOUS
 62
     4
 10
-316.933331
 20
305.547174
 30
0.0
 11
-282.760752
 21
284.756916
 31
0.0
  0
LINE
  8
NOTE
  6
CONTINUOUS
 62
     4
 10
-282.760752
 20
284.756916
 30
0.0
 11
-301.959945
 21
319.848097
 31
0.0
  0
TEXT
  8
NOTE
  6
CONTINUOUS
 62
     4
 10
354.039876
 20
-133.943873
 30
0.0
 40
64.0
  1
4-M12
 41
0.9
  0
LINE
  8
NOTE
  6
CONTINUOUS
 62
     4
 39
50.0
 10
351.091105
 20
-157.687302
 30
0.0
 11
599.277541
 21
-157.687302
 31
0.0
  0
LINE
  8
NOTE
  6
CONTINUOUS
 62
     4
 10
261.494586
 20
-199.133914
 30
0.0
 11
233.63033
 21
-227.832054
 31
0.0
  0
LINE
  8
NOTE
  6
CONTINUOUS
 62
     4
 10
233.63033
 20
-227.832054
 30
0.0
 11
272.110554
 21
-216.910865
 31
0.0
  0
LINE
  8
NOTE
  6
CONTINUOUS
 62
     4
 39
50.0
 10
351.091105
 20
-157.687302
 30
0.0
 11
233.63033
 21
-227.832054
 31
0.0
  0
LINE
  8
DETAIL
  6
CONTINUOUS
 62
     5
 10
-253.2
 20
-213.25
 30
0.0
 11
-262.75
 21
-213.25
 31
0.0
  0
LINE
  8
DETAIL
  6
CONTINUOUS
 62
     5
 10
-253.2
 20
-225.25
 30
0.0
 11
-262.75
 21
-225.25
 31
0.0
  0
LINE
  8
DETAIL
  6
CONTINUOUS
 62
     5
 10
-249.5
 20
-233.75
 30
0.0
 11
-249.5
 21
-248.5
 31
0.0
  0
LINE
  8
DETAIL
  6
CONTINUOUS
 62
     5
 10
-250.5
 20
-233.75
 30
0.0
 11
-250.5
 21
-248.5
 31
0.0
  0
LINE
  8
DETAIL
  6
CONTINUOUS
 62
     5
 10
-233.75
 20
-249.5
 30
0.0
 11
-247.5
 21
-249.5
 31
0.0
  0
LINE
  8
DETAIL
  6
CONTINUOUS
 62
     5
 10
-205.0
 20
-250.5
 30
0.0
 11
-197.0
 21
-250.5
 31
0.0
  0
LINE
  8
DETAIL
  6
CONTINUOUS
 62
     5
 10
-250.5
 20
-197.0
 30
0.0
 11
-250.5
 21
-205.0
 31
0.0
  0
LINE
  8
DETAIL
  6
CONTINUOUS
 62
     5
 10
-249.5
 20
-196.0
 30
0.0
 11
-249.5
 21
-205.0
 31
0.0
  0
LINE
  8
DETAIL
  6
CONTINUOUS
 62
     5
 10
-252.0
 20
-248.5
 30
0.0
 11
-262.75
 21
-248.5
 31
0.0
  0
LINE
  8
DETAIL
  6
CONTINUOUS
 62
     5
 10
-196.0
 20
-249.5
 30
0.0
 11
-205.0
 21
-249.5
 31
0.0
  0
LINE
  8
DETAIL
  6
CONTINUOUS
 62
     5
 10
-247.5
 20
-251.0
 30
0.0
 11
-247.5
 21
-250.5
 31
0.0
  0
LINE
  8
DETAIL
  6
CONTINUOUS
 62
     5
 10
-248.5
 20
-247.5
 30
0.0
 11
-248.5
 21
-248.5
 31
0.0
  0
LINE
  8
DETAIL
  6
CONTINUOUS
 62
     5
 10
-249.5
 20
-235.5
 30
0.0
 11
-249.0
 21
-235.5
 31
0.0
  0
LINE
  8
DETAIL
  6
CONTINUOUS
 62
     5
 10
-249.5
 20
-237.5
 30
0.0
 11
-249.0
 21
-237.5
 31
0.0
  0
LINE
  8
DETAIL
  6
CONTINUOUS
 62
     5
 10
-247.5
 20
-262.75
 30
0.0
 11
-247.5
 21
-253.0
 31
0.0
  0
LINE
  8
DETAIL
  6
CONTINUOUS
 62
     5
 10
-248.5
 20
-235.5
 30
0.0
 11
-248.5
 21
-235.75
 31
0.0
  0
LINE
  8
DETAIL
  6
CONTINUOUS
 62
     5
 10
-250.5
 20
-246.5
 30
0.0
 11
-249.5
 21
-246.5
 31
0.0
  0
LINE
  8
DETAIL
  6
CONTINUOUS
 62
     5
 10
-249.5
 20
-248.5
 30
0.0
 11
-251.0
 21
-248.5
 31
0.0
  0
LINE
  8
DETAIL
  6
CONTINUOUS
 62
     5
 10
-247.5
 20
-250.5
 30
0.0
 11
-233.75
 21
-250.5
 31
0.0
  0
LINE
  8
DETAIL
  6
CONTINUOUS
 62
     5
 10
-262.75
 20
-248.5
 30
0.0
 11
-262.75
 21
-225.25
 31
0.0
  0
LINE
  8
DETAIL
  6
CONTINUOUS
 62
     5
 10
-262.75
 20
-213.25
 30
0.0
 11
-262.75
 21
0.0
 31
0.0
  0
LINE
  8
DETAIL
  6
CONTINUOUS
 62
     5
 10
0.0
 20
-262.75
 30
0.0
 11
-247.5
 21
-262.75
 31
0.0
  0
ARC
  8
DETAIL
  6
CONTINUOUS
 62
     5
 10
-247.5
 20
-248.5
 30
0.0
 40
1.0
 50
180.0
 51
210.0
  0
ARC
  8
DETAIL
  6
CONTINUOUS
 62
     5
 10
-247.5
 20
-248.5
 30
0.0
 40
2.0
 50
180.0
 51
270.0
  0
LINE
  8
DETAIL
  6
CONTINUOUS
 62
     5
 10
-249.0
 20
-235.5
 30
0.0
 11
-248.5
 21
-235.5
 31
0.0
  0
ARC
  8
DETAIL
  6
CONTINUOUS
 62
     5
 10
-247.5
 20
-248.5
 30
0.0
 40
1.0
 50
210.0
 51
270.0
  0
LINE
  8
DETAIL
  6
CONTINUOUS
 62
     5
 10
-195.5
 20
-249.0
 30
0.0
 11
-205.0
 21
-249.0
 31
0.0
  0
LINE
  8
DETAIL
  6
CONTINUOUS
 62
     5
 10
-233.75
 20
-249.0
 30
0.0
 11
-248.366025
 21
-249.0
 31
0.0
  0
LINE
  8
DETAIL
  6
CONTINUOUS
 62
     5
 10
-249.436492
 20
-249.0
 30
0.0
 11
-263.0
 21
-249.0
 31
0.0
  0
LINE
  8
DETAIL
  6
CONTINUOUS
 62
     5
 10
0.0
 20
-295.0
 30
0.0
 11
-285.0
 21
-295.0
 31
0.0
  0
ARC
  8
DETAIL
  6
CONTINUOUS
 62
     5
 10
-285.0
 20
-285.0
 30
0.0
 40
10.0
 50
180.0
 51
270.0
  0
LINE
  8
DETAIL
  6
CONTINUOUS
 62
     5
 10
-295.0
 20
-285.0
 30
0.0
 11
-295.0
 21
-265.0
 31
0.0
  0
LINE
  8
DETAIL
  6
CONTINUOUS
 62
     5
 10
0.0
 20
-263.0
 30
0.0
 11
-263.0
 21
-263.0
 31
0.0
  0
LINE
  8
DETAIL
  6
CONTINUOUS
 62
     5
 10
-263.0
 20
-249.0
 30
0.0
 11
-263.0
 21
-265.0
 31
0.0
  0
LINE
  8
DETAIL
  6
CONTINUOUS
 62
     5
 10
-263.0
 20
-265.0
 30
0.0
 11
-265.0
 21
-265.0
 31
0.0
  0
LINE
  8
DETAIL
  6
CONTINUOUS
 62
     5
 10
-265.0
 20
-265.0
 30
0.0
 11
-295.0
 21
-265.0
 31
0.0
  0
LINE
  8
DETAIL
  6
CONTINUOUS
 62
     5
 10
-252.0
 20
-249.0
 30
0.0
 11
-263.0
 21
-249.0
 31
0.0
  0
LINE
  8
DETAIL
  6
CONTINUOUS
 62
     5
 10
-249.0
 20
-205.0
 30
0.0
 11
-249.0
 21
-195.5
 31
0.0
  0
LINE
  8
DETAIL
  6
CONTINUOUS
 62
     5
 10
-249.0
 20
-235.5
 30
0.0
 11
-249.0
 21
-233.75
 31
0.0
  0
LINE
  8
DETAIL
  6
CONTINUOUS
 62
     5
 10
-249.436492
 20
-249.0
 30
0.0
 11
-251.0
 21
-249.0
 31
0.0
  0
LINE
  8
DETAIL
  6
CONTINUOUS
 62
     5
 10
-295.0
 20
-265.0
 30
0.0
 11
-295.0
 21
0.0
 31
0.0
  0
LINE
  8
DETAIL
  6
CONTINUOUS
 62
     5
 10
-265.0
 20
-265.0
 30
0.0
 11
-265.0
 21
-263.5
 31
0.0
  0
ARC
  8
DETAIL
  6
CONTINUOUS
 62
     5
 10
-285.0
 20
-285.0
 30
0.0
 40
10.0
 50
180.0
 51
270.0
  0
LINE
  8
DETAIL
  6
CONTINUOUS
 62
     5
 10
-295.0
 20
-285.0
 30
0.0
 11
-295.0
 21
-265.0
 31
0.0
  0
LINE
  8
DETAIL
  6
CONTINUOUS
 62
     5
 10
-263.8
 20
-263.5
 30
0.0
 11
-263.8
 21
0.0
 31
0.0
  0
LINE
  8
DETAIL
  6
CONTINUOUS
 62
     5
 10
-263.0
 20
-249.0
 30
0.0
 11
-263.0
 21
0.0
 31
0.0
  0
LINE
  8
DETAIL
  6
CONTINUOUS
 62
     5
 10
-263.0
 20
-263.5
 30
0.0
 11
-263.0
 21
-249.0
 31
0.0
  0
LINE
  8
DETAIL
  6
CONTINUOUS
 62
     5
 10
-263.0
 20
-263.5
 30
0.0
 11
-265.0
 21
-263.5
 31
0.0
  0
LINE
  8
DETAIL
  6
CONTINUOUS
 62
     5
 10
-265.0
 20
-264.5
 30
0.0
 11
-295.0
 21
-264.5
 31
0.0
  0
LINE
  8
DETAIL
  6
CONTINUOUS
 62
     5
 10
-265.0
 20
-295.0
 30
0.0
 11
-285.0
 21
-295.0
 31
0.0
  0
LINE
  8
DETAIL
  6
CONTINUOUS
 62
     5
 10
-251.0
 20
-233.75
 30
0.0
 11
-251.0
 21
-251.0
 31
0.0
  0
LINE
  8
DETAIL
  6
CONTINUOUS
 62
     5
 10
-252.0
 20
-233.75
 30
0.0
 11
-252.0
 21
-251.0
 31
0.0
  0
LINE
  8
DETAIL
  6
CONTINUOUS
 62
     5
 10
-252.0
 20
0.0
 30
0.0
 11
-252.0
 21
-205.0
 31
0.0
  0
LINE
  8
DETAIL
  6
CONTINUOUS
 62
     5
 10
-237.0
 20
-253.0
 30
0.0
 11
-237.0
 21
-252.0
 31
0.0
  0
LINE
  8
DETAIL
  6
CONTINUOUS
 62
     5
 10
-239.0
 20
-253.0
 30
0.0
 11
-239.0
 21
-252.0
 31
0.0
  0
LINE
  8
DETAIL
  6
CONTINUOUS
 62
     5
 10
-248.0
 20
-194.5
 30
0.0
 11
-248.0
 21
0.0
 31
0.0
  0
LINE
  8
DETAIL
  6
CONTINUOUS
 62
     5
 10
-251.0
 20
-197.5
 30
0.0
 11
-251.0
 21
-205.0
 31
0.0
  0
LINE
  8
DETAIL
  6
CONTINUOUS
 62
     5
 10
-248.0
 20
-194.5
 30
0.0
 11
-251.0
 21
-197.5
 31
0.0
  0
LINE
  8
DETAIL
  6
CONTINUOUS
 62
     5
 10
-252.0
 20
-197.5
 30
0.0
 11
-251.0
 21
-197.5
 31
0.0
  0
LINE
  8
DETAIL
  6
CONTINUOUS
 62
     5
 10
-237.0
 20
-252.0
 30
0.0
 11
-250.0
 21
-252.0
 31
0.0
  0
LINE
  8
DETAIL
  6
CONTINUOUS
 62
     5
 10
-237.0
 20
-253.0
 30
0.0
 11
-250.0
 21
-253.0
 31
0.0
  0
ARC
  8
DETAIL
  6
CONTINUOUS
 62
     5
 10
-250.0
 20
-251.0
 30
0.0
 40
2.0
 50
180.0
 51
270.0
  0
ARC
  8
DETAIL
  6
CONTINUOUS
 62
     5
 10
-250.0
 20
-251.0
 30
0.0
 40
1.0
 50
180.0
 51
270.0
  0
LINE
  8
DETAIL
  6
CONTINUOUS
 62
     5
 10
-232.598617
 20
-223.901204
 30
0.0
 11
-236.098796
 21
-227.401383
 31
0.0
  0
ARC
  8
DETAIL
  6
CONTINUOUS
 62
     5
 10
-228.249911
 20
-228.249911
 30
0.0
 40
6.15
 50
315.0
 51
135.0
  0
LINE
  8
DETAIL
  6
CONTINUOUS
 62
     5
 10
-223.901204
 20
-232.598617
 30
0.0
 11
-227.401383
 21
-236.098796
 31
0.0
  0
ARC
  8
DETAIL
  6
CONTINUOUS
 62
     5
 10
-231.750089
 20
-231.750089
 30
0.0
 40
6.15
 50
135.0
 51
315.0
  0
LINE
  8
DETAIL
  6
CONTINUOUS
 62
     5
 10
-242.964466
 20
-201.464466
 30
0.0
 11
-246.5
 21
-205.0
 31
0.0
  0
LINE
  8
DETAIL
  6
CONTINUOUS
 62
     5
 10
-205.0
 20
-246.5
 30
0.0
 11
-201.464466
 21
-242.964466
 31
0.0
  0
LINE
  8
DETAIL
  6
CONTINUOUS
 62
     5
 10
-246.5
 20
-205.0
 30
0.0
 11
-253.2
 21
-205.0
 31
0.0
  0
LINE
  8
DETAIL
  6
CONTINUOUS
 62
     5
 10
-205.0
 20
-253.2
 30
0.0
 11
-205.0
 21
-246.5
 31
0.0
  0
LINE
  8
DETAIL
  6
CONTINUOUS
 62
     5
 10
-253.2
 20
-233.75
 30
0.0
 11
-246.5
 21
-233.75
 31
0.0
  0
LINE
  8
DETAIL
  6
CONTINUOUS
 62
     5
 10
-246.5
 20
-235.75
 30
0.0
 11
-249.0
 21
-235.75
 31
0.0
  0
LINE
  8
DETAIL
  6
CONTINUOUS
 62
     5
 10
-233.75
 20
-246.5
 30
0.0
 11
-233.75
 21
-253.2
 31
0.0
  0
LINE
  8
DETAIL
  6
CONTINUOUS
 62
     5
 10
-235.75
 20
-249.0
 30
0.0
 11
-235.75
 21
-246.5
 31
0.0
  0
LINE
  8
DETAIL
  6
CONTINUOUS
 62
     5
 10
-247.0
 20
-249.0
 30
0.0
 11
-235.75
 21
-249.0
 31
0.0
  0
LINE
  8
DETAIL
  6
CONTINUOUS
 62
     5
 10
-205.0
 20
-253.2
 30
0.0
 11
-233.75
 21
-253.2
 31
0.0
  0
LINE
  8
DETAIL
  6
CONTINUOUS
 62
     5
 10
-249.0
 20
-235.75
 30
0.0
 11
-249.0
 21
-247.0
 31
0.0
  0
LINE
  8
DETAIL
  6
CONTINUOUS
 62
     5
 10
-253.2
 20
-233.75
 30
0.0
 11
-253.2
 21
-205.0
 31
0.0
  0
LINE
  8
DETAIL
  6
CONTINUOUS
 62
     5
 10
-242.964466
 20
-201.464466
 30
0.0
 11
-201.464466
 21
-242.964466
 31
0.0
  0
LINE
  8
DETAIL
  6
CONTINUOUS
 62
     5
 10
-247.0
 20
-249.0
 30
0.0
 11
-249.0
 21
-247.0
 31
0.0
  0
CIRCLE
  8
DETAIL
  6
CONTINUOUS
 62
     5
 10
-230.0
 20
-230.0
 30
0.0
 40
6.0
  0
ARC
  8
DETAIL
  6
CONTINUOUS
 62
     5
 10
-246.5
 20
-234.75
 30
0.0
 40
1.0
 50
270.0
 51
90.0
  0
ARC
  8
DETAIL
  6
CONTINUOUS
 62
     5
 10
-234.75
 20
-246.5
 30
0.0
 40
1.0
 50
0.0
 51
180.0
  0
ARC
  8
DETAIL
  6
CONTINUOUS
 62
     5
 10
-228.249911
 20
-228.249911
 30
0.0
 40
6.15
 50
315.0
 51
135.0
  0
ARC
  8
DETAIL
  6
CONTINUOUS
 62
     5
 10
-231.750089
 20
-231.750089
 30
0.0
 40
6.15
 50
135.0
 51
315.0
  0
LINE
  8
DETAIL
  6
CONTINUOUS
 62
     5
 10
-232.598617
 20
-223.901204
 30
0.0
 11
-236.098796
 21
-227.401383
 31
0.0
  0
LINE
  8
DETAIL
  6
CONTINUOUS
 62
     5
 10
-223.901204
 20
-232.598617
 30
0.0
 11
-227.401383
 21
-236.098796
 31
0.0
  0
LINE
  8
DETAIL
  6
CONTINUOUS
 62
     5
 10
-248.5
 20
-247.5
 30
0.0
 11
-247.0
 21
-249.0
 31
0.0
  0
LINE
  8
DETAIL
  6
CONTINUOUS
 62
     5
 10
-248.5
 20
-235.75
 30
0.0
 11
-246.5
 21
-235.75
 31
0.0
  0
LINE
  8
DETAIL
  6
CONTINUOUS
 62
     5
 10
-201.464466
 20
-242.964466
 30
0.0
 11
-205.0
 21
-246.5
 31
0.0
  0
LINE
  8
DETAIL
  6
CONTINUOUS
 62
     5
 10
-246.5
 20
-205.0
 30
0.0
 11
-242.964466
 21
-201.464466
 31
0.0
  0
LINE
  8
DETAIL
  6
CONTINUOUS
 62
     5
 10
-205.0
 20
-246.5
 30
0.0
 11
-205.0
 21
-249.0
 31
0.0
  0
LINE
  8
DETAIL
  6
CONTINUOUS
 62
     5
 10
-249.5
 20
-205.0
 30
0.0
 11
-249.0
 21
-205.0
 31
0.0
  0
LINE
  8
DETAIL
  6
CONTINUOUS
 62
     5
 10
-233.75
 20
-249.5
 30
0.0
 11
-233.75
 21
-249.0
 31
0.0
  0
LINE
  8
DETAIL
  6
CONTINUOUS
 62
     5
 10
-235.75
 20
-246.5
 30
0.0
 11
-235.75
 21
-249.0
 31
0.0
  0
LINE
  8
DETAIL
  6
CONTINUOUS
 62
     5
 10
-246.5
 20
-233.75
 30
0.0
 11
-249.0
 21
-233.75
 31
0.0
  0
LINE
  8
DETAIL
  6
CONTINUOUS
 62
     5
 10
-201.464466
 20
-242.964466
 30
0.0
 11
-242.964466
 21
-201.464466
 31
0.0
  0
ARC
  8
DETAIL
  6
CONTINUOUS
 62
     5
 10
-234.75
 20
-246.5
 30
0.0
 40
1.0
 50
0.0
 51
180.0
  0
ARC
  8
DETAIL
  6
CONTINUOUS
 62
     5
 10
-246.5
 20
-234.75
 30
0.0
 40
1.0
 50
270.0
 51
90.0
  0
LINE
  8
DETAIL
  6
CONTINUOUS
 62
     5
 10
-235.75
 20
-249.0
 30
0.0
 11
-247.0
 21
-249.0
 31
0.0
  0
LINE
  8
DETAIL
  6
CONTINUOUS
 62
     5
 10
-249.0
 20
-205.0
 30
0.0
 11
-246.5
 21
-205.0
 31
0.0
  0
LINE
  8
DETAIL
  6
CONTINUOUS
 62
     5
 10
-249.0
 20
-233.75
 30
0.0
 11
-249.5
 21
-233.75
 31
0.0
  0
LINE
  8
DETAIL
  6
CONTINUOUS
 62
     5
 10
-233.75
 20
-249.0
 30
0.0
 11
-233.75
 21
-246.5
 31
0.0
  0
LINE
  8
DETAIL
  6
CONTINUOUS
 62
     5
 10
-205.0
 20
-249.0
 30
0.0
 11
-205.0
 21
-249.5
 31
0.0
  0
CIRCLE
  8
DETAIL
  6
CONTINUOUS
 62
     5
 10
-230.0
 20
-230.0
 30
0.0
 40
6.0
  0
LINE
  8
DETAIL
  6
CONTINUOUS
 62
     5
 10
-222.25
 20
-254.5
 30
0.0
 11
-216.25
 21
-254.5
 31
0.0
  0
LINE
  8
DETAIL
  6
CONTINUOUS
 62
     5
 10
-250.0
 20
-252.0
 30
0.0
 11
-233.75
 21
-252.0
 31
0.0
  0
LINE
  8
DETAIL
  6
CONTINUOUS
 62
     5
 10
-250.0
 20
-251.0
 30
0.0
 11
-233.75
 21
-251.0
 31
0.0
  0
LINE
  8
DETAIL
  6
CONTINUOUS
 62
     5
 10
0.0
 20
-248.0
 30
0.0
 11
-194.5
 21
-248.0
 31
0.0
  0
LINE
  8
DETAIL
  6
CONTINUOUS
 62
     5
 10
-205.0
 20
-252.0
 30
0.0
 11
0.0
 21
-252.0
 31
0.0
  0
LINE
  8
DETAIL
  6
CONTINUOUS
 62
     5
 10
-205.0
 20
-251.0
 30
0.0
 11
-197.5
 21
-251.0
 31
0.0
  0
LINE
  8
DETAIL
  6
CONTINUOUS
 62
     5
 10
-194.5
 20
-248.0
 30
0.0
 11
-197.5
 21
-251.0
 31
0.0
  0
LINE
  8
DETAIL
  6
CONTINUOUS
 62
     5
 10
-197.5
 20
-251.0
 30
0.0
 11
-197.5
 21
-255.0
 31
0.0
  0
LINE
  8
DETAIL
  6
CONTINUOUS
 62
     5
 10
-215.25
 20
-253.5
 30
0.0
 11
-215.25
 21
-253.2
 31
0.0
  0
LINE
  8
DETAIL
  6
CONTINUOUS
 62
     5
 10
-223.25
 20
-253.5
 30
0.0
 11
-223.25
 21
-253.2
 31
0.0
  0
LINE
  8
DETAIL
  6
CONTINUOUS
 62
     5
 10
-248.0
 20
-252.0
 30
0.0
 11
-248.0
 21
-251.0
 31
0.0
  0
LINE
  8
DETAIL
  6
CONTINUOUS
 62
     5
 10
-250.0
 20
-252.0
 30
0.0
 11
-250.0
 21
-251.0
 31
0.0
  0
LINE
  8
DETAIL
  6
CONTINUOUS
 62
     5
 10
-216.25
 20
-254.5
 30
0.0
 11
-215.25
 21
-253.5
 31
0.0
  0
LINE
  8
DETAIL
  6
CONTINUOUS
 62
     5
 10
-222.25
 20
-254.5
 30
0.0
 11
-223.25
 21
-253.5
 31
0.0
  0
LINE
  8
DETAIL
  6
CONTINUOUS
 62
     5
 10
-252.0
 20
-176.0
 30
0.0
 11
-252.8
 21
-176.0
 31
0.0
  0
LINE
  8
DETAIL
  6
CONTINUOUS
 62
     5
 10
-252.8
 20
-158.9
 30
0.0
 11
-252.8
 21
-176.0
 31
0.0
  0
LINE
  8
DETAIL
  6
CONTINUOUS
 62
     5
 10
-252.0
 20
-158.9
 30
0.0
 11
-252.8
 21
-158.9
 31
0.0
  0
LINE
  8
DETAIL
  6
CONTINUOUS
 62
     5
 10
-252.0
 20
-158.9
 30
0.0
 11
-252.0
 21
-176.0
 31
0.0
  0
ARC
  8
DETAIL
  6
CONTINUOUS
 62
     5
 10
-249.2
 20
-168.5
 30
0.0
 40
6.1
 50
129.601983
 51
230.398035
  0
LINE
  8
DETAIL
  6
CONTINUOUS
 62
     5
 10
-252.8
 20
-173.2
 30
0.0
 11
-252.8
 21
-163.8
 31
0.0
  0
LINE
  8
DETAIL
  6
CONTINUOUS
 62
     5
 10
-252.8
 20
-163.8
 30
0.0
 11
-253.088445
 21
-163.8
 31
0.0
  0
LINE
  8
DETAIL
  6
CONTINUOUS
 62
     5
 10
-252.8
 20
-173.2
 30
0.0
 11
-253.088445
 21
-173.2
 31
0.0
  0
LINE
  8
DETAIL
  6
CONTINUOUS
 62
     5
 10
-253.088445
 20
-163.8
 30
0.0
 11
-253.088445
 21
-173.2
 31
0.0
  0
LINE
  8
DETAIL
  6
CONTINUOUS
 62
     5
 10
-237.320623
 20
-229.144009
 30
0.0
 11
-235.980431
 21
-230.484201
 31
0.0
  0
LINE
  8
DETAIL
  6
CONTINUOUS
 62
     5
 10
-229.144009
 20
-237.320623
 30
0.0
 11
-230.484201
 21
-235.980431
 31
0.0
  0
LINE
  8
DETAIL
  6
CONTINUOUS
 62
     5
 10
-233.75
 20
-246.821782
 30
0.0
 11
-235.75
 21
-246.821782
 31
0.0
  0
LINE
  8
DETAIL
  6
CONTINUOUS
 62
     5
 10
-246.821782
 20
-233.75
 30
0.0
 11
-246.821782
 21
-235.75
 31
0.0
  0
LINE
  8
DETAIL
  6
CONTINUOUS
 62
     5
 10
0.0
 20
-255.0
 30
0.0
 11
-255.0
 21
-255.0
 31
0.0
  0
LINE
  8
DETAIL
  6
CONTINUOUS
 62
     5
 10
-255.0
 20
-255.0
 30
0.0
 11
-255.0
 21
0.0
 31
0.0
  0
LINE
  8
DETAIL
  6
CONTINUOUS
 62
     5
 10
253.2
 20
213.25
 30
0.0
 11
262.75
 21
213.25
 31
0.0
  0
LINE
  8
DETAIL
  6
CONTINUOUS
 62
     5
 10
253.2
 20
225.25
 30
0.0
 11
262.75
 21
225.25
 31
0.0
  0
LINE
  8
DETAIL
  6
CONTINUOUS
 62
     5
 10
249.5
 20
233.75
 30
0.0
 11
249.5
 21
248.5
 31
0.0
  0
LINE
  8
DETAIL
  6
CONTINUOUS
 62
     5
 10
250.5
 20
233.75
 30
0.0
 11
250.5
 21
248.5
 31
0.0
  0
LINE
  8
DETAIL
  6
CONTINUOUS
 62
     5
 10
233.75
 20
249.5
 30
0.0
 11
247.5
 21
249.5
 31
0.0
  0
LINE
  8
DETAIL
  6
CONTINUOUS
 62
     5
 10
205.0
 20
250.5
 30
0.0
 11
197.0
 21
250.5
 31
0.0
  0
LINE
  8
DETAIL
  6
CONTINUOUS
 62
     5
 10
250.5
 20
197.0
 30
0.0
 11
250.5
 21
205.0
 31
0.0
  0
LINE
  8
DETAIL
  6
CONTINUOUS
 62
     5
 10
249.5
 20
196.0
 30
0.0
 11
249.5
 21
205.0
 31
0.0
  0
LINE
  8
DETAIL
  6
CONTINUOUS
 62
     5
 10
252.0
 20
248.5
 30
0.0
 11
262.75
 21
248.5
 31
0.0
  0
LINE
  8
DETAIL
  6
CONTINUOUS
 62
     5
 10
196.0
 20
249.5
 30
0.0
 11
205.0
 21
249.5
 31
0.0
  0
LINE
  8
DETAIL
  6
CONTINUOUS
 62
     5
 10
247.5
 20
251.0
 30
0.0
 11
247.5
 21
250.5
 31
0.0
  0
LINE
  8
DETAIL
  6
CONTINUOUS
 62
     5
 10
248.5
 20
247.5
 30
0.0
 11
248.5
 21
248.5
 31
0.0
  0
LINE
  8
DETAIL
  6
CONTINUOUS
 62
     5
 10
249.5
 20
235.5
 30
0.0
 11
249.0
 21
235.5
 31
0.0
  0
LINE
  8
DETAIL
  6
CONTINUOUS
 62
     5
 10
249.5
 20
237.5
 30
0.0
 11
249.0
 21
237.5
 31
0.0
  0
LINE
  8
DETAIL
  6
CONTINUOUS
 62
     5
 10
247.5
 20
262.75
 30
0.0
 11
247.5
 21
253.0
 31
0.0
  0
LINE
  8
DETAIL
  6
CONTINUOUS
 62
     5
 10
248.5
 20
235.5
 30
0.0
 11
248.5
 21
235.75
 31
0.0
  0
LINE
  8
DETAIL
  6
CONTINUOUS
 62
     5
 10
250.5
 20
246.5
 30
0.0
 11
249.5
 21
246.5
 31
0.0
  0
LINE
  8
DETAIL
  6
CONTINUOUS
 62
     5
 10
249.5
 20
248.5
 30
0.0
 11
251.0
 21
248.5
 31
0.0
  0
LINE
  8
DETAIL
  6
CONTINUOUS
 62
     5
 10
247.5
 20
250.5
 30
0.0
 11
233.75
 21
250.5
 31
0.0
  0
LINE
  8
DETAIL
  6
CONTINUOUS
 62
     5
 10
262.75
 20
248.5
 30
0.0
 11
262.75
 21
225.25
 31
0.0
  0
LINE
  8
DETAIL
  6
CONTINUOUS
 62
     5
 10
262.75
 20
213.25
 30
0.0
 11
262.75
 21
0.0
 31
0.0
  0
LINE
  8
DETAIL
  6
CONTINUOUS
 62
     5
 10
0.0
 20
262.75
 30
0.0
 11
247.5
 21
262.75
 31
0.0
  0
ARC
  8
DETAIL
  6
CONTINUOUS
 62
     5
 10
247.5
 20
248.5
 30
0.0
 40
1.0
 50
0.0
 51
30.0
  0
ARC
  8
DETAIL
  6
CONTINUOUS
 62
     5
 10
247.5
 20
248.5
 30
0.0
 40
2.0
 50
0.0
 51
90.0
  0
LINE
  8
DETAIL
  6
CONTINUOUS
 62
     5
 10
249.0
 20
235.5
 30
0.0
 11
248.5
 21
235.5
 31
0.0
  0
ARC
  8
DETAIL
  6
CONTINUOUS
 62
     5
 10
247.5
 20
248.5
 30
0.0
 40
1.0
 50
30.0
 51
90.0
  0
LINE
  8
DETAIL
  6
CONTINUOUS
 62
     5
 10
195.5
 20
249.0
 30
0.0
 11
205.0
 21
249.0
 31
0.0
  0
LINE
  8
DETAIL
  6
CONTINUOUS
 62
     5
 10
233.75
 20
249.0
 30
0.0
 11
248.366025
 21
249.0
 31
0.0
  0
LINE
  8
DETAIL
  6
CONTINUOUS
 62
     5
 10
249.436492
 20
249.0
 30
0.0
 11
263.0
 21
249.0
 31
0.0
  0
LINE
  8
DETAIL
  6
CONTINUOUS
 62
     5
 10
0.0
 20
295.0
 30
0.0
 11
285.0
 21
295.0
 31
0.0
  0
ARC
  8
DETAIL
  6
CONTINUOUS
 62
     5
 10
285.0
 20
285.0
 30
0.0
 40
10.0
 50
0.0
 51
90.0
  0
LINE
  8
DETAIL
  6
CONTINUOUS
 62
     5
 10
295.0
 20
285.0
 30
0.0
 11
295.0
 21
265.0
 31
0.0
  0
LINE
  8
DETAIL
  6
CONTINUOUS
 62
     5
 10
0.0
 20
263.0
 30
0.0
 11
263.0
 21
263.0
 31
0.0
  0
LINE
  8
DETAIL
  6
CONTINUOUS
 62
     5
 10
263.0
 20
249.0
 30
0.0
 11
263.0
 21
265.0
 31
0.0
  0
LINE
  8
DETAIL
  6
CONTINUOUS
 62
     5
 10
263.0
 20
265.0
 30
0.0
 11
265.0
 21
265.0
 31
0.0
  0
LINE
  8
DETAIL
  6
CONTINUOUS
 62
     5
 10
265.0
 20
265.0
 30
0.0
 11
295.0
 21
265.0
 31
0.0
  0
LINE
  8
DETAIL
  6
CONTINUOUS
 62
     5
 10
252.0
 20
249.0
 30
0.0
 11
263.0
 21
249.0
 31
0.0
  0
LINE
  8
DETAIL
  6
CONTINUOUS
 62
     5
 10
249.0
 20
205.0
 30
0.0
 11
249.0
 21
195.5
 31
0.0
  0
LINE
  8
DETAIL
  6
CONTINUOUS
 62
     5
 10
249.0
 20
235.5
 30
0.0
 11
249.0
 21
233.75
 31
0.0
  0
LINE
  8
DETAIL
  6
CONTINUOUS
 62
     5
 10
249.436492
 20
249.0
 30
0.0
 11
251.0
 21
249.0
 31
0.0
  0
LINE
  8
DETAIL
  6
CONTINUOUS
 62
     5
 10
295.0
 20
265.0
 30
0.0
 11
295.0
 21
0.0
 31
0.0
  0
LINE
  8
DETAIL
  6
CONTINUOUS
 62
     5
 10
265.0
 20
265.0
 30
0.0
 11
265.0
 21
263.5
 31
0.0
  0
ARC
  8
DETAIL
  6
CONTINUOUS
 62
     5
 10
285.0
 20
285.0
 30
0.0
 40
10.0
 50
0.0
 51
90.0
  0
LINE
  8
DETAIL
  6
CONTINUOUS
 62
     5
 10
295.0
 20
285.0
 30
0.0
 11
295.0
 21
265.0
 31
0.0
  0
LINE
  8
DETAIL
  6
CONTINUOUS
 62
     5
 10
263.8
 20
263.5
 30
0.0
 11
263.8
 21
0.0
 31
0.0
  0
LINE
  8
DETAIL
  6
CONTINUOUS
 62
     5
 10
263.0
 20
249.0
 30
0.0
 11
263.0
 21
0.0
 31
0.0
  0
LINE
  8
DETAIL
  6
CONTINUOUS
 62
     5
 10
263.0
 20
263.5
 30
0.0
 11
263.0
 21
249.0
 31
0.0
  0
LINE
  8
DETAIL
  6
CONTINUOUS
 62
     5
 10
263.0
 20
263.5
 30
0.0
 11
265.0
 21
263.5
 31
0.0
  0
LINE
  8
DETAIL
  6
CONTINUOUS
 62
     5
 10
265.0
 20
264.5
 30
0.0
 11
295.0
 21
264.5
 31
0.0
  0
LINE
  8
DETAIL
  6
CONTINUOUS
 62
     5
 10
265.0
 20
295.0
 30
0.0
 11
285.0
 21
295.0
 31
0.0
  0
LINE
  8
DETAIL
  6
CONTINUOUS
 62
     5
 10
251.0
 20
233.75
 30
0.0
 11
251.0
 21
251.0
 31
0.0
  0
LINE
  8
DETAIL
  6
CONTINUOUS
 62
     5
 10
252.0
 20
233.75
 30
0.0
 11
252.0
 21
251.0
 31
0.0
  0
LINE
  8
DETAIL
  6
CONTINUOUS
 62
     5
 10
252.0
 20
0.0
 30
0.0
 11
252.0
 21
205.0
 31
0.0
  0
LINE
  8
DETAIL
  6
CONTINUOUS
 62
     5
 10
237.0
 20
253.0
 30
0.0
 11
237.0
 21
252.0
 31
0.0
  0
LINE
  8
DETAIL
  6
CONTINUOUS
 62
     5
 10
239.0
 20
253.0
 30
0.0
 11
239.0
 21
252.0
 31
0.0
  0
LINE
  8
DETAIL
  6
CONTINUOUS
 62
     5
 10
248.0
 20
194.5
 30
0.0
 11
248.0
 21
0.0
 31
0.0
  0
LINE
  8
DETAIL
  6
CONTINUOUS
 62
     5
 10
251.0
 20
197.5
 30
0.0
 11
251.0
 21
205.0
 31
0.0
  0
LINE
  8
DETAIL
  6
CONTINUOUS
 62
     5
 10
248.0
 20
194.5
 30
0.0
 11
251.0
 21
197.5
 31
0.0
  0
LINE
  8
DETAIL
  6
CONTINUOUS
 62
     5
 10
252.0
 20
197.5
 30
0.0
 11
251.0
 21
197.5
 31
0.0
  0
LINE
  8
DETAIL
  6
CONTINUOUS
 62
     5
 10
237.0
 20
252.0
 30
0.0
 11
250.0
 21
252.0
 31
0.0
  0
LINE
  8
DETAIL
  6
CONTINUOUS
 62
     5
 10
237.0
 20
253.0
 30
0.0
 11
250.0
 21
253.0
 31
0.0
  0
ARC
  8
DETAIL
  6
CONTINUOUS
 62
     5
 10
250.0
 20
251.0
 30
0.0
 40
2.0
 50
0.0
 51
90.0
  0
ARC
  8
DETAIL
  6
CONTINUOUS
 62
     5
 10
250.0
 20
251.0
 30
0.0
 40
1.0
 50
0.0
 51
90.0
  0
LINE
  8
DETAIL
  6
CONTINUOUS
 62
     5
 10
232.598617
 20
223.901204
 30
0.0
 11
236.098796
 21
227.401383
 31
0.0
  0
ARC
  8
DETAIL
  6
CONTINUOUS
 62
     5
 10
228.249911
 20
228.249911
 30
0.0
 40
6.15
 50
135.0
 51
315.0
  0
LINE
  8
DETAIL
  6
CONTINUOUS
 62
     5
 10
223.901204
 20
232.598617
 30
0.0
 11
227.401383
 21
236.098796
 31
0.0
  0
ARC
  8
DETAIL
  6
CONTINUOUS
 62
     5
 10
231.750089
 20
231.750089
 30
0.0
 40
6.15
 50
315.0
 51
135.0
  0
LINE
  8
DETAIL
  6
CONTINUOUS
 62
     5
 10
242.964466
 20
201.464466
 30
0.0
 11
246.5
 21
205.0
 31
0.0
  0
LINE
  8
DETAIL
  6
CONTINUOUS
 62
     5
 10
205.0
 20
246.5
 30
0.0
 11
201.464466
 21
242.964466
 31
0.0
  0
LINE
  8
DETAIL
  6
CONTINUOUS
 62
     5
 10
246.5
 20
205.0
 30
0.0
 11
253.2
 21
205.0
 31
0.0
  0
LINE
  8
DETAIL
  6
CONTINUOUS
 62
     5
 10
205.0
 20
253.2
 30
0.0
 11
205.0
 21
246.5
 31
0.0
  0
LINE
  8
DETAIL
  6
CONTINUOUS
 62
     5
 10
253.2
 20
233.75
 30
0.0
 11
246.5
 21
233.75
 31
0.0
  0
LINE
  8
DETAIL
  6
CONTINUOUS
 62
     5
 10
246.5
 20
235.75
 30
0.0
 11
249.0
 21
235.75
 31
0.0
  0
LINE
  8
DETAIL
  6
CONTINUOUS
 62
     5
 10
233.75
 20
246.5
 30
0.0
 11
233.75
 21
253.2
 31
0.0
  0
LINE
  8
DETAIL
  6
CONTINUOUS
 62
     5
 10
235.75
 20
249.0
 30
0.0
 11
235.75
 21
246.5
 31
0.0
  0
LINE
  8
DETAIL
  6
CONTINUOUS
 62
     5
 10
247.0
 20
249.0
 30
0.0
 11
235.75
 21
249.0
 31
0.0
  0
LINE
  8
DETAIL
  6
CONTINUOUS
 62
     5
 10
205.0
 20
253.2
 30
0.0
 11
233.75
 21
253.2
 31
0.0
  0
LINE
  8
DETAIL
  6
CONTINUOUS
 62
     5
 10
249.0
 20
235.75
 30
0.0
 11
249.0
 21
247.0
 31
0.0
  0
LINE
  8
DETAIL
  6
CONTINUOUS
 62
     5
 10
253.2
 20
233.75
 30
0.0
 11
253.2
 21
205.0
 31
0.0
  0
LINE
  8
DETAIL
  6
CONTINUOUS
 62
     5
 10
242.964466
 20
201.464466
 30
0.0
 11
201.464466
 21
242.964466
 31
0.0
  0
LINE
  8
DETAIL
  6
CONTINUOUS
 62
     5
 10
247.0
 20
249.0
 30
0.0
 11
249.0
 21
247.0
 31
0.0
  0
CIRCLE
  8
DETAIL
  6
CONTINUOUS
 62
     5
 10
230.0
 20
230.0
 30
0.0
 40
6.0
  0
ARC
  8
DETAIL
  6
CONTINUOUS
 62
     5
 10
246.5
 20
234.75
 30
0.0
 40
1.0
 50
90.0
 51
270.0
  0
ARC
  8
DETAIL
  6
CONTINUOUS
 62
     5
 10
234.75
 20
246.5
 30
0.0
 40
1.0
 50
180.0
 51
0.0
  0
ARC
  8
DETAIL
  6
CONTINUOUS
 62
     5
 10
228.249911
 20
228.249911
 30
0.0
 40
6.15
 50
135.0
 51
315.0
  0
ARC
  8
DETAIL
  6
CONTINUOUS
 62
     5
 10
231.750089
 20
231.750089
 30
0.0
 40
6.15
 50
315.0
 51
135.0
  0
LINE
  8
DETAIL
  6
CONTINUOUS
 62
     5
 10
232.598617
 20
223.901204
 30
0.0
 11
236.098796
 21
227.401383
 31
0.0
  0
LINE
  8
DETAIL
  6
CONTINUOUS
 62
     5
 10
223.901204
 20
232.598617
 30
0.0
 11
227.401383
 21
236.098796
 31
0.0
  0
LINE
  8
DETAIL
  6
CONTINUOUS
 62
     5
 10
248.5
 20
247.5
 30
0.0
 11
247.0
 21
249.0
 31
0.0
  0
LINE
  8
DETAIL
  6
CONTINUOUS
 62
     5
 10
248.5
 20
235.75
 30
0.0
 11
246.5
 21
235.75
 31
0.0
  0
LINE
  8
DETAIL
  6
CONTINUOUS
 62
     5
 10
201.464466
 20
242.964466
 30
0.0
 11
205.0
 21
246.5
 31
0.0
  0
LINE
  8
DETAIL
  6
CONTINUOUS
 62
     5
 10
246.5
 20
205.0
 30
0.0
 11
242.964466
 21
201.464466
 31
0.0
  0
LINE
  8
DETAIL
  6
CONTINUOUS
 62
     5
 10
205.0
 20
246.5
 30
0.0
 11
205.0
 21
249.0
 31
0.0
  0
LINE
  8
DETAIL
  6
CONTINUOUS
 62
     5
 10
249.5
 20
205.0
 30
0.0
 11
249.0
 21
205.0
 31
0.0
  0
LINE
  8
DETAIL
  6
CONTINUOUS
 62
     5
 10
233.75
 20
249.5
 30
0.0
 11
233.75
 21
249.0
 31
0.0
  0
LINE
  8
DETAIL
  6
CONTINUOUS
 62
     5
 10
235.75
 20
246.5
 30
0.0
 11
235.75
 21
249.0
 31
0.0
  0
LINE
  8
DETAIL
  6
CONTINUOUS
 62
     5
 10
246.5
 20
233.75
 30
0.0
 11
249.0
 21
233.75
 31
0.0
  0
LINE
  8
DETAIL
  6
CONTINUOUS
 62
     5
 10
201.464466
 20
242.964466
 30
0.0
 11
242.964466
 21
201.464466
 31
0.0
  0
ARC
  8
DETAIL
  6
CONTINUOUS
 62
     5
 10
234.75
 20
246.5
 30
0.0
 40
1.0
 50
180.0
 51
0.0
  0
ARC
  8
DETAIL
  6
CONTINUOUS
 62
     5
 10
246.5
 20
234.75
 30
0.0
 40
1.0
 50
90.0
 51
270.0
  0
LINE
  8
DETAIL
  6
CONTINUOUS
 62
     5
 10
235.75
 20
249.0
 30
0.0
 11
247.0
 21
249.0
 31
0.0
  0
LINE
  8
DETAIL
  6
CONTINUOUS
 62
     5
 10
249.0
 20
205.0
 30
0.0
 11
246.5
 21
205.0
 31
0.0
  0
LINE
  8
DETAIL
  6
CONTINUOUS
 62
     5
 10
249.0
 20
233.75
 30
0.0
 11
249.5
 21
233.75
 31
0.0
  0
LINE
  8
DETAIL
  6
CONTINUOUS
 62
     5
 10
233.75
 20
249.0
 30
0.0
 11
233.75
 21
246.5
 31
0.0
  0
LINE
  8
DETAIL
  6
CONTINUOUS
 62
     5
 10
205.0
 20
249.0
 30
0.0
 11
205.0
 21
249.5
 31
0.0
  0
CIRCLE
  8
DETAIL
  6
CONTINUOUS
 62
     5
 10
230.0
 20
230.0
 30
0.0
 40
6.0
  0
LINE
  8
DETAIL
  6
CONTINUOUS
 62
     5
 10
222.25
 20
254.5
 30
0.0
 11
216.25
 21
254.5
 31
0.0
  0
LINE
  8
DETAIL
  6
CONTINUOUS
 62
     5
 10
250.0
 20
252.0
 30
0.0
 11
233.75
 21
252.0
 31
0.0
  0
LINE
  8
DETAIL
  6
CONTINUOUS
 62
     5
 10
250.0
 20
251.0
 30
0.0
 11
233.75
 21
251.0
 31
0.0
  0
LINE
  8
DETAIL
  6
CONTINUOUS
 62
     5
 10
0.0
 20
248.0
 30
0.0
 11
194.5
 21
248.0
 31
0.0
  0
LINE
  8
DETAIL
  6
CONTINUOUS
 62
     5
 10
205.0
 20
252.0
 30
0.0
 11
0.0
 21
252.0
 31
0.0
  0
LINE
  8
DETAIL
  6
CONTINUOUS
 62
     5
 10
205.0
 20
251.0
 30
0.0
 11
197.5
 21
251.0
 31
0.0
  0
LINE
  8
DETAIL
  6
CONTINUOUS
 62
     5
 10
194.5
 20
248.0
 30
0.0
 11
197.5
 21
251.0
 31
0.0
  0
LINE
  8
DETAIL
  6
CONTINUOUS
 62
     5
 10
197.5
 20
251.0
 30
0.0
 11
197.5
 21
252.0
 31
0.0
  0
LINE
  8
DETAIL
  6
CONTINUOUS
 62
     5
 10
215.25
 20
253.5
 30
0.0
 11
215.25
 21
253.2
 31
0.0
  0
LINE
  8
DETAIL
  6
CONTINUOUS
 62
     5
 10
223.25
 20
253.5
 30
0.0
 11
223.25
 21
253.2
 31
0.0
  0
LINE
  8
DETAIL
  6
CONTINUOUS
 62
     5
 10
248.0
 20
252.0
 30
0.0
 11
248.0
 21
251.0
 31
0.0
  0
LINE
  8
DETAIL
  6
CONTINUOUS
 62
     5
 10
250.0
 20
252.0
 30
0.0
 11
250.0
 21
251.0
 31
0.0
  0
LINE
  8
DETAIL
  6
CONTINUOUS
 62
     5
 10
216.25
 20
254.5
 30
0.0
 11
215.25
 21
253.5
 31
0.0
  0
LINE
  8
DETAIL
  6
CONTINUOUS
 62
     5
 10
222.25
 20
254.5
 30
0.0
 11
223.25
 21
253.5
 31
0.0
  0
LINE
  8
DETAIL
  6
CONTINUOUS
 62
     5
 10
252.0
 20
176.0
 30
0.0
 11
252.8
 21
176.0
 31
0.0
  0
LINE
  8
DETAIL
  6
CONTINUOUS
 62
     5
 10
252.8
 20
158.9
 30
0.0
 11
252.8
 21
176.0
 31
0.0
  0
LINE
  8
DETAIL
  6
CONTINUOUS
 62
     5
 10
252.0
 20
158.9
 30
0.0
 11
252.8
 21
158.9
 31
0.0
  0
LINE
  8
DETAIL
  6
CONTINUOUS
 62
     5
 10
252.0
 20
158.9
 30
0.0
 11
252.0
 21
176.0
 31
0.0
  0
ARC
  8
DETAIL
  6
CONTINUOUS
 62
     5
 10
249.2
 20
168.5
 30
0.0
 40
6.1
 50
309.601983
 51
50.398035
  0
LINE
  8
DETAIL
  6
CONTINUOUS
 62
     5
 10
252.8
 20
173.2
 30
0.0
 11
252.8
 21
163.8
 31
0.0
  0
LINE
  8
DETAIL
  6
CONTINUOUS
 62
     5
 10
252.8
 20
163.8
 30
0.0
 11
253.088445
 21
163.8
 31
0.0
  0
LINE
  8
DETAIL
  6
CONTINUOUS
 62
     5
 10
252.8
 20
173.2
 30
0.0
 11
253.088445
 21
173.2
 31
0.0
  0
LINE
  8
DETAIL
  6
CONTINUOUS
 62
     5
 10
253.088445
 20
163.8
 30
0.0
 11
253.088445
 21
173.2
 31
0.0
  0
LINE
  8
DETAIL
  6
CONTINUOUS
 62
     5
 10
233.75
 20
246.821782
 30
0.0
 11
235.75
 21
246.821782
 31
0.0
  0
LINE
  8
DETAIL
  6
CONTINUOUS
 62
     5
 10
246.821782
 20
233.75
 30
0.0
 11
246.821782
 21
235.75
 31
0.0
  0
LINE
  8
DETAIL
  6
CONTINUOUS
 62
     5
 10
0.0
 20
255.0
 30
0.0
 11
255.0
 21
255.0
 31
0.0
  0
LINE
  8
DETAIL
  6
CONTINUOUS
 62
     5
 10
255.0
 20
255.0
 30
0.0
 11
255.0
 21
0.0
 31
0.0
  0
LINE
  8
DETAIL
  6
CONTINUOUS
 62
     5
 10
253.2
 20
-213.25
 30
0.0
 11
262.75
 21
-213.25
 31
0.0
  0
LINE
  8
DETAIL
  6
CONTINUOUS
 62
     5
 10
253.2
 20
-225.25
 30
0.0
 11
262.75
 21
-225.25
 31
0.0
  0
LINE
  8
DETAIL
  6
CONTINUOUS
 62
     5
 10
249.5
 20
-233.75
 30
0.0
 11
249.5
 21
-248.5
 31
0.0
  0
LINE
  8
DETAIL
  6
CONTINUOUS
 62
     5
 10
250.5
 20
-233.75
 30
0.0
 11
250.5
 21
-248.5
 31
0.0
  0
LINE
  8
DETAIL
  6
CONTINUOUS
 62
     5
 10
233.75
 20
-249.5
 30
0.0
 11
247.5
 21
-249.5
 31
0.0
  0
LINE
  8
DETAIL
  6
CONTINUOUS
 62
     5
 10
205.0
 20
-250.5
 30
0.0
 11
197.0
 21
-250.5
 31
0.0
  0
LINE
  8
DETAIL
  6
CONTINUOUS
 62
     5
 10
250.5
 20
-197.0
 30
0.0
 11
250.5
 21
-205.0
 31
0.0
  0
LINE
  8
DETAIL
  6
CONTINUOUS
 62
     5
 10
249.5
 20
-196.0
 30
0.0
 11
249.5
 21
-205.0
 31
0.0
  0
LINE
  8
DETAIL
  6
CONTINUOUS
 62
     5
 10
252.0
 20
-248.5
 30
0.0
 11
262.75
 21
-248.5
 31
0.0
  0
LINE
  8
DETAIL
  6
CONTINUOUS
 62
     5
 10
196.0
 20
-249.5
 30
0.0
 11
205.0
 21
-249.5
 31
0.0
  0
LINE
  8
DETAIL
  6
CONTINUOUS
 62
     5
 10
247.5
 20
-251.0
 30
0.0
 11
247.5
 21
-250.5
 31
0.0
  0
LINE
  8
DETAIL
  6
CONTINUOUS
 62
     5
 10
248.5
 20
-247.5
 30
0.0
 11
248.5
 21
-248.5
 31
0.0
  0
LINE
  8
DETAIL
  6
CONTINUOUS
 62
     5
 10
249.5
 20
-235.5
 30
0.0
 11
249.0
 21
-235.5
 31
0.0
  0
LINE
  8
DETAIL
  6
CONTINUOUS
 62
     5
 10
249.5
 20
-237.5
 30
0.0
 11
249.0
 21
-237.5
 31
0.0
  0
LINE
  8
DETAIL
  6
CONTINUOUS
 62
     5
 10
247.5
 20
-262.75
 30
0.0
 11
247.5
 21
-253.0
 31
0.0
  0
LINE
  8
DETAIL
  6
CONTINUOUS
 62
     5
 10
248.5
 20
-235.5
 30
0.0
 11
248.5
 21
-235.75
 31
0.0
  0
LINE
  8
DETAIL
  6
CONTINUOUS
 62
     5
 10
250.5
 20
-246.5
 30
0.0
 11
249.5
 21
-246.5
 31
0.0
  0
LINE
  8
DETAIL
  6
CONTINUOUS
 62
     5
 10
249.5
 20
-248.5
 30
0.0
 11
251.0
 21
-248.5
 31
0.0
  0
LINE
  8
DETAIL
  6
CONTINUOUS
 62
     5
 10
247.5
 20
-250.5
 30
0.0
 11
233.75
 21
-250.5
 31
0.0
  0
LINE
  8
DETAIL
  6
CONTINUOUS
 62
     5
 10
262.75
 20
-248.5
 30
0.0
 11
262.75
 21
-225.25
 31
0.0
  0
LINE
  8
DETAIL
  6
CONTINUOUS
 62
     5
 10
262.75
 20
-213.25
 30
0.0
 11
262.75
 21
0.0
 31
0.0
  0
LINE
  8
DETAIL
  6
CONTINUOUS
 62
     5
 10
0.0
 20
-262.75
 30
0.0
 11
247.5
 21
-262.75
 31
0.0
  0
ARC
  8
DETAIL
  6
CONTINUOUS
 62
     5
 10
247.5
 20
-248.5
 30
0.0
 40
1.0
 50
330.0
 51
0.0
  0
ARC
  8
DETAIL
  6
CONTINUOUS
 62
     5
 10
247.5
 20
-248.5
 30
0.0
 40
2.0
 50
270.0
 51
0.0
  0
LINE
  8
DETAIL
  6
CONTINUOUS
 62
     5
 10
249.0
 20
-235.5
 30
0.0
 11
248.5
 21
-235.5
 31
0.0
  0
ARC
  8
DETAIL
  6
CONTINUOUS
 62
     5
 10
247.5
 20
-248.5
 30
0.0
 40
1.0
 50
270.0
 51
330.0
  0
LINE
  8
DETAIL
  6
CONTINUOUS
 62
     5
 10
195.5
 20
-249.0
 30
0.0
 11
205.0
 21
-249.0
 31
0.0
  0
LINE
  8
DETAIL
  6
CONTINUOUS
 62
     5
 10
233.75
 20
-249.0
 30
0.0
 11
248.366025
 21
-249.0
 31
0.0
  0
LINE
  8
DETAIL
  6
CONTINUOUS
 62
     5
 10
249.436492
 20
-249.0
 30
0.0
 11
263.0
 21
-249.0
 31
0.0
  0
LINE
  8
DETAIL
  6
CONTINUOUS
 62
     5
 10
0.0
 20
-295.0
 30
0.0
 11
285.0
 21
-295.0
 31
0.0
  0
ARC
  8
DETAIL
  6
CONTINUOUS
 62
     5
 10
285.0
 20
-285.0
 30
0.0
 40
10.0
 50
270.0
 51
0.0
  0
LINE
  8
DETAIL
  6
CONTINUOUS
 62
     5
 10
295.0
 20
-285.0
 30
0.0
 11
295.0
 21
-265.0
 31
0.0
  0
LINE
  8
DETAIL
  6
CONTINUOUS
 62
     5
 10
0.0
 20
-263.0
 30
0.0
 11
263.0
 21
-263.0
 31
0.0
  0
LINE
  8
DETAIL
  6
CONTINUOUS
 62
     5
 10
263.0
 20
-249.0
 30
0.0
 11
263.0
 21
-265.0
 31
0.0
  0
LINE
  8
DETAIL
  6
CONTINUOUS
 62
     5
 10
263.0
 20
-265.0
 30
0.0
 11
265.0
 21
-265.0
 31
0.0
  0
LINE
  8
DETAIL
  6
CONTINUOUS
 62
     5
 10
265.0
 20
-265.0
 30
0.0
 11
295.0
 21
-265.0
 31
0.0
  0
LINE
  8
DETAIL
  6
CONTINUOUS
 62
     5
 10
252.0
 20
-249.0
 30
0.0
 11
263.0
 21
-249.0
 31
0.0
  0
LINE
  8
DETAIL
  6
CONTINUOUS
 62
     5
 10
249.0
 20
-205.0
 30
0.0
 11
249.0
 21
-195.5
 31
0.0
  0
LINE
  8
DETAIL
  6
CONTINUOUS
 62
     5
 10
249.0
 20
-235.5
 30
0.0
 11
249.0
 21
-233.75
 31
0.0
  0
LINE
  8
DETAIL
  6
CONTINUOUS
 62
     5
 10
249.436492
 20
-249.0
 30
0.0
 11
251.0
 21
-249.0
 31
0.0
  0
LINE
  8
DETAIL
  6
CONTINUOUS
 62
     5
 10
295.0
 20
-265.0
 30
0.0
 11
295.0
 21
0.0
 31
0.0
  0
LINE
  8
DETAIL
  6
CONTINUOUS
 62
     5
 10
265.0
 20
-265.0
 30
0.0
 11
265.0
 21
-263.5
 31
0.0
  0
ARC
  8
DETAIL
  6
CONTINUOUS
 62
     5
 10
285.0
 20
-285.0
 30
0.0
 40
10.0
 50
270.0
 51
0.0
  0
LINE
  8
DETAIL
  6
CONTINUOUS
 62
     5
 10
295.0
 20
-285.0
 30
0.0
 11
295.0
 21
-265.0
 31
0.0
  0
LINE
  8
DETAIL
  6
CONTINUOUS
 62
     5
 10
263.8
 20
-263.5
 30
0.0
 11
263.8
 21
0.0
 31
0.0
  0
LINE
  8
DETAIL
  6
CONTINUOUS
 62
     5
 10
263.0
 20
-249.0
 30
0.0
 11
263.0
 21
0.0
 31
0.0
  0
LINE
  8
DETAIL
  6
CONTINUOUS
 62
     5
 10
263.0
 20
-263.5
 30
0.0
 11
263.0
 21
-249.0
 31
0.0
  0
LINE
  8
DETAIL
  6
CONTINUOUS
 62
     5
 10
263.0
 20
-263.5
 30
0.0
 11
265.0
 21
-263.5
 31
0.0
  0
LINE
  8
DETAIL
  6
CONTINUOUS
 62
     5
 10
265.0
 20
-264.5
 30
0.0
 11
295.0
 21
-264.5
 31
0.0
  0
LINE
  8
DETAIL
  6
CONTINUOUS
 62
     5
 10
265.0
 20
-295.0
 30
0.0
 11
285.0
 21
-295.0
 31
0.0
  0
LINE
  8
DETAIL
  6
CONTINUOUS
 62
     5
 10
251.0
 20
-233.75
 30
0.0
 11
251.0
 21
-251.0
 31
0.0
  0
LINE
  8
DETAIL
  6
CONTINUOUS
 62
     5
 10
252.0
 20
-233.75
 30
0.0
 11
252.0
 21
-251.0
 31
0.0
  0
LINE
  8
DETAIL
  6
CONTINUOUS
 62
     5
 10
252.0
 20
0.0
 30
0.0
 11
252.0
 21
-205.0
 31
0.0
  0
LINE
  8
DETAIL
  6
CONTINUOUS
 62
     5
 10
237.0
 20
-253.0
 30
0.0
 11
237.0
 21
-252.0
 31
0.0
  0
LINE
  8
DETAIL
  6
CONTINUOUS
 62
     5
 10
239.0
 20
-253.0
 30
0.0
 11
239.0
 21
-252.0
 31
0.0
  0
LINE
  8
DETAIL
  6
CONTINUOUS
 62
     5
 10
248.0
 20
-194.5
 30
0.0
 11
248.0
 21
0.0
 31
0.0
  0
LINE
  8
DETAIL
  6
CONTINUOUS
 62
     5
 10
251.0
 20
-197.5
 30
0.0
 11
251.0
 21
-205.0
 31
0.0
  0
LINE
  8
DETAIL
  6
CONTINUOUS
 62
     5
 10
248.0
 20
-194.5
 30
0.0
 11
251.0
 21
-197.5
 31
0.0
  0
LINE
  8
DETAIL
  6
CONTINUOUS
 62
     5
 10
252.0
 20
-197.5
 30
0.0
 11
251.0
 21
-197.5
 31
0.0
  0
LINE
  8
DETAIL
  6
CONTINUOUS
 62
     5
 10
237.0
 20
-252.0
 30
0.0
 11
250.0
 21
-252.0
 31
0.0
  0
LINE
  8
DETAIL
  6
CONTINUOUS
 62
     5
 10
237.0
 20
-253.0
 30
0.0
 11
250.0
 21
-253.0
 31
0.0
  0
ARC
  8
DETAIL
  6
CONTINUOUS
 62
     5
 10
250.0
 20
-251.0
 30
0.0
 40
2.0
 50
270.0
 51
0.0
  0
ARC
  8
DETAIL
  6
CONTINUOUS
 62
     5
 10
250.0
 20
-251.0
 30
0.0
 40
1.0
 50
270.0
 51
0.0
  0
LINE
  8
DETAIL
  6
CONTINUOUS
 62
     5
 10
232.598617
 20
-223.901204
 30
0.0
 11
236.098796
 21
-227.401383
 31
0.0
  0
ARC
  8
DETAIL
  6
CONTINUOUS
 62
     5
 10
228.249911
 20
-228.249911
 30
0.0
 40
6.15
 50
45.0
 51
225.0
  0
LINE
  8
DETAIL
  6
CONTINUOUS
 62
     5
 10
223.901204
 20
-232.598617
 30
0.0
 11
227.401383
 21
-236.098796
 31
0.0
  0
ARC
  8
DETAIL
  6
CONTINUOUS
 62
     5
 10
231.750089
 20
-231.750089
 30
0.0
 40
6.15
 50
225.0
 51
45.0
  0
LINE
  8
DETAIL
  6
CONTINUOUS
 62
     5
 10
242.964466
 20
-201.464466
 30
0.0
 11
246.5
 21
-205.0
 31
0.0
  0
LINE
  8
DETAIL
  6
CONTINUOUS
 62
     5
 10
205.0
 20
-246.5
 30
0.0
 11
201.464466
 21
-242.964466
 31
0.0
  0
LINE
  8
DETAIL
  6
CONTINUOUS
 62
     5
 10
246.5
 20
-205.0
 30
0.0
 11
253.2
 21
-205.0
 31
0.0
  0
LINE
  8
DETAIL
  6
CONTINUOUS
 62
     5
 10
205.0
 20
-253.2
 30
0.0
 11
205.0
 21
-246.5
 31
0.0
  0
LINE
  8
DETAIL
  6
CONTINUOUS
 62
     5
 10
253.2
 20
-233.75
 30
0.0
 11
246.5
 21
-233.75
 31
0.0
  0
LINE
  8
DETAIL
  6
CONTINUOUS
 62
     5
 10
246.5
 20
-235.75
 30
0.0
 11
249.0
 21
-235.75
 31
0.0
  0
LINE
  8
DETAIL
  6
CONTINUOUS
 62
     5
 10
233.75
 20
-246.5
 30
0.0
 11
233.75
 21
-253.2
 31
0.0
  0
LINE
  8
DETAIL
  6
CONTINUOUS
 62
     5
 10
235.75
 20
-249.0
 30
0.0
 11
235.75
 21
-246.5
 31
0.0
  0
LINE
  8
DETAIL
  6
CONTINUOUS
 62
     5
 10
247.0
 20
-249.0
 30
0.0
 11
235.75
 21
-249.0
 31
0.0
  0
LINE
  8
DETAIL
  6
CONTINUOUS
 62
     5
 10
205.0
 20
-253.2
 30
0.0
 11
233.75
 21
-253.2
 31
0.0
  0
LINE
  8
DETAIL
  6
CONTINUOUS
 62
     5
 10
249.0
 20
-235.75
 30
0.0
 11
249.0
 21
-247.0
 31
0.0
  0
LINE
  8
DETAIL
  6
CONTINUOUS
 62
     5
 10
253.2
 20
-233.75
 30
0.0
 11
253.2
 21
-205.0
 31
0.0
  0
LINE
  8
DETAIL
  6
CONTINUOUS
 62
     5
 10
242.964466
 20
-201.464466
 30
0.0
 11
201.464466
 21
-242.964466
 31
0.0
  0
LINE
  8
DETAIL
  6
CONTINUOUS
 62
     5
 10
247.0
 20
-249.0
 30
0.0
 11
249.0
 21
-247.0
 31
0.0
  0
CIRCLE
  8
DETAIL
  6
CONTINUOUS
 62
     5
 10
230.0
 20
-230.0
 30
0.0
 40
6.0
  0
ARC
  8
DETAIL
  6
CONTINUOUS
 62
     5
 10
246.5
 20
-234.75
 30
0.0
 40
1.0
 50
90.0
 51
270.0
  0
ARC
  8
DETAIL
  6
CONTINUOUS
 62
     5
 10
234.75
 20
-246.5
 30
0.0
 40
1.0
 50
0.0
 51
180.0
  0
ARC
  8
DETAIL
  6
CONTINUOUS
 62
     5
 10
228.249911
 20
-228.249911
 30
0.0
 40
6.15
 50
45.0
 51
225.0
  0
ARC
  8
DETAIL
  6
CONTINUOUS
 62
     5
 10
231.750089
 20
-231.750089
 30
0.0
 40
6.15
 50
225.0
 51
45.0
  0
LINE
  8
DETAIL
  6
CONTINUOUS
 62
     5
 10
232.598617
 20
-223.901204
 30
0.0
 11
236.098796
 21
-227.401383
 31
0.0
  0
LINE
  8
DETAIL
  6
CONTINUOUS
 62
     5
 10
223.901204
 20
-232.598617
 30
0.0
 11
227.401383
 21
-236.098796
 31
0.0
  0
LINE
  8
DETAIL
  6
CONTINUOUS
 62
     5
 10
248.5
 20
-247.5
 30
0.0
 11
247.0
 21
-249.0
 31
0.0
  0
LINE
  8
DETAIL
  6
CONTINUOUS
 62
     5
 10
248.5
 20
-235.75
 30
0.0
 11
246.5
 21
-235.75
 31
0.0
  0
LINE
  8
DETAIL
  6
CONTINUOUS
 62
     5
 10
201.464466
 20
-242.964466
 30
0.0
 11
205.0
 21
-246.5
 31
0.0
  0
LINE
  8
DETAIL
  6
CONTINUOUS
 62
     5
 10
246.5
 20
-205.0
 30
0.0
 11
242.964466
 21
-201.464466
 31
0.0
  0
LINE
  8
DETAIL
  6
CONTINUOUS
 62
     5
 10
205.0
 20
-246.5
 30
0.0
 11
205.0
 21
-249.0
 31
0.0
  0
LINE
  8
DETAIL
  6
CONTINUOUS
 62
     5
 10
249.5
 20
-205.0
 30
0.0
 11
249.0
 21
-205.0
 31
0.0
  0
LINE
  8
DETAIL
  6
CONTINUOUS
 62
     5
 10
233.75
 20
-249.5
 30
0.0
 11
233.75
 21
-249.0
 31
0.0
  0
LINE
  8
DETAIL
  6
CONTINUOUS
 62
     5
 10
235.75
 20
-246.5
 30
0.0
 11
235.75
 21
-249.0
 31
0.0
  0
LINE
  8
DETAIL
  6
CONTINUOUS
 62
     5
 10
246.5
 20
-233.75
 30
0.0
 11
249.0
 21
-233.75
 31
0.0
  0
LINE
  8
DETAIL
  6
CONTINUOUS
 62
     5
 10
201.464466
 20
-242.964466
 30
0.0
 11
242.964466
 21
-201.464466
 31
0.0
  0
ARC
  8
DETAIL
  6
CONTINUOUS
 62
     5
 10
234.75
 20
-246.5
 30
0.0
 40
1.0
 50
0.0
 51
180.0
  0
ARC
  8
DETAIL
  6
CONTINUOUS
 62
     5
 10
246.5
 20
-234.75
 30
0.0
 40
1.0
 50
90.0
 51
270.0
  0
LINE
  8
DETAIL
  6
CONTINUOUS
 62
     5
 10
235.75
 20
-249.0
 30
0.0
 11
247.0
 21
-249.0
 31
0.0
  0
LINE
  8
DETAIL
  6
CONTINUOUS
 62
     5
 10
249.0
 20
-205.0
 30
0.0
 11
246.5
 21
-205.0
 31
0.0
  0
LINE
  8
DETAIL
  6
CONTINUOUS
 62
     5
 10
249.0
 20
-233.75
 30
0.0
 11
249.5
 21
-233.75
 31
0.0
  0
LINE
  8
DETAIL
  6
CONTINUOUS
 62
     5
 10
233.75
 20
-249.0
 30
0.0
 11
233.75
 21
-246.5
 31
0.0
  0
LINE
  8
DETAIL
  6
CONTINUOUS
 62
     5
 10
205.0
 20
-249.0
 30
0.0
 11
205.0
 21
-249.5
 31
0.0
  0
CIRCLE
  8
DETAIL
  6
CONTINUOUS
 62
     5
 10
230.0
 20
-230.0
 30
0.0
 40
6.0
  0
LINE
  8
DETAIL
  6
CONTINUOUS
 62
     5
 10
222.25
 20
-254.5
 30
0.0
 11
216.25
 21
-254.5
 31
0.0
  0
LINE
  8
DETAIL
  6
CONTINUOUS
 62
     5
 10
250.0
 20
-252.0
 30
0.0
 11
233.75
 21
-252.0
 31
0.0
  0
LINE
  8
DETAIL
  6
CONTINUOUS
 62
     5
 10
250.0
 20
-251.0
 30
0.0
 11
233.75
 21
-251.0
 31
0.0
  0
LINE
  8
DETAIL
  6
CONTINUOUS
 62
     5
 10
0.0
 20
-248.0
 30
0.0
 11
194.5
 21
-248.0
 31
0.0
  0
LINE
  8
DETAIL
  6
CONTINUOUS
 62
     5
 10
205.0
 20
-252.0
 30
0.0
 11
0.0
 21
-252.0
 31
0.0
  0
LINE
  8
DETAIL
  6
CONTINUOUS
 62
     5
 10
205.0
 20
-251.0
 30
0.0
 11
197.5
 21
-251.0
 31
0.0
  0
LINE
  8
DETAIL
  6
CONTINUOUS
 62
     5
 10
194.5
 20
-248.0
 30
0.0
 11
197.5
 21
-251.0
 31
0.0
  0
LINE
  8
DETAIL
  6
CONTINUOUS
 62
     5
 10
197.5
 20
-251.0
 30
0.0
 11
197.5
 21
-252.0
 31
0.0
  0
LINE
  8
DETAIL
  6
CONTINUOUS
 62
     5
 10
215.25
 20
-253.5
 30
0.0
 11
215.25
 21
-253.2
 31
0.0
  0
LINE
  8
DETAIL
  6
CONTINUOUS
 62
     5
 10
223.25
 20
-253.5
 30
0.0
 11
223.25
 21
-253.2
 31
0.0
  0
LINE
  8
DETAIL
  6
CONTINUOUS
 62
     5
 10
248.0
 20
-252.0
 30
0.0
 11
248.0
 21
-251.0
 31
0.0
  0
LINE
  8
DETAIL
  6
CONTINUOUS
 62
     5
 10
250.0
 20
-252.0
 30
0.0
 11
250.0
 21
-251.0
 31
0.0
  0
LINE
  8
DETAIL
  6
CONTINUOUS
 62
     5
 10
216.25
 20
-254.5
 30
0.0
 11
215.25
 21
-253.5
 31
0.0
  0
LINE
  8
DETAIL
  6
CONTINUOUS
 62
     5
 10
222.25
 20
-254.5
 30
0.0
 11
223.25
 21
-253.5
 31
0.0
  0
LINE
  8
DETAIL
  6
CONTINUOUS
 62
     5
 10
252.0
 20
-176.0
 30
0.0
 11
252.8
 21
-176.0
 31
0.0
  0
LINE
  8
DETAIL
  6
CONTINUOUS
 62
     5
 10
252.8
 20
-158.9
 30
0.0
 11
252.8
 21
-176.0
 31
0.0
  0
LINE
  8
DETAIL
  6
CONTINUOUS
 62
     5
 10
252.0
 20
-158.9
 30
0.0
 11
252.8
 21
-158.9
 31
0.0
  0
LINE
  8
DETAIL
  6
CONTINUOUS
 62
     5
 10
252.0
 20
-158.9
 30
0.0
 11
252.0
 21
-176.0
 31
0.0
  0
ARC
  8
DETAIL
  6
CONTINUOUS
 62
     5
 10
249.2
 20
-168.5
 30
0.0
 40
6.1
 50
309.601965
 51
50.398017
  0
LINE
  8
DETAIL
  6
CONTINUOUS
 62
     5
 10
252.8
 20
-173.2
 30
0.0
 11
252.8
 21
-163.8
 31
0.0
  0
LINE
  8
DETAIL
  6
CONTINUOUS
 62
     5
 10
252.8
 20
-163.8
 30
0.0
 11
253.088445
 21
-163.8
 31
0.0
  0
LINE
  8
DETAIL
  6
CONTINUOUS
 62
     5
 10
252.8
 20
-173.2
 30
0.0
 11
253.088445
 21
-173.2
 31
0.0
  0
LINE
  8
DETAIL
  6
CONTINUOUS
 62
     5
 10
253.088445
 20
-163.8
 30
0.0
 11
253.088445
 21
-173.2
 31
0.0
  0
LINE
  8
DETAIL
  6
CONTINUOUS
 62
     5
 10
237.320623
 20
-229.144009
 30
0.0
 11
235.980431
 21
-230.484201
 31
0.0
  0
LINE
  8
DETAIL
  6
CONTINUOUS
 62
     5
 10
229.144009
 20
-237.320623
 30
0.0
 11
230.484201
 21
-235.980431
 31
0.0
  0
LINE
  8
DETAIL
  6
CONTINUOUS
 62
     5
 10
233.75
 20
-246.821782
 30
0.0
 11
235.75
 21
-246.821782
 31
0.0
  0
LINE
  8
DETAIL
  6
CONTINUOUS
 62
     5
 10
246.821782
 20
-233.75
 30
0.0
 11
246.821782
 21
-235.75
 31
0.0
  0
LINE
  8
DETAIL
  6
CONTINUOUS
 62
     5
 10
0.0
 20
-255.0
 30
0.0
 11
255.0
 21
-255.0
 31
0.0
  0
LINE
  8
DETAIL
  6
CONTINUOUS
 62
     5
 10
255.0
 20
-255.0
 30
0.0
 11
255.0
 21
0.0
 31
0.0
  0
CIRCLE
  8
FIX
  6
CONTINUOUS
 62
    11
 39
50.0
 10
230.0
 20
-230.0
 30
0.0
 40
6.0
  0
CIRCLE
  8
FIX
  6
CONTINUOUS
 62
    11
 39
50.0
 10
-230.0
 20
-230.0
 30
0.0
 40
6.0
  0
CIRCLE
  8
FIX
  6
CONTINUOUS
 62
    11
 39
50.0
 10
-230.0
 20
230.0
 30
0.0
 40
6.0
  0
CIRCLE
  8
FIX
  6
CONTINUOUS
 62
    11
 39
50.0
 10
230.0
 20
230.0
 30
0.0
 40
6.0
  0
LINE
  8
OUTLINE
  6
CONTINUOUS
 62
     3
 10
0.0
 20
295.0
 30
0.0
 11
-285.0
 21
295.0
 31
0.0
  0
ARC
  8
OUTLINE
  6
CONTINUOUS
 62
     3
 10
-285.0
 20
285.0
 30
0.0
 40
10.0
 50
90.0
 51
180.0
  0
LINE
  8
OUTLINE
  6
CONTINUOUS
 62
     3
 10
-295.0
 20
285.0
 30
0.0
 11
-295.0
 21
265.0
 31
0.0
  0
LINE
  8
OUTLINE
  6
CONTINUOUS
 62
     3
 10
-295.0
 20
265.0
 30
0.0
 11
-295.0
 21
0.0
 31
0.0
  0
ARC
  8
OUTLINE
  6
CONTINUOUS
 62
     3
 10
-285.0
 20
285.0
 30
0.0
 40
10.0
 50
90.0
 51
180.0
  0
LINE
  8
OUTLINE
  6
CONTINUOUS
 62
     3
 10
-295.0
 20
285.0
 30
0.0
 11
-295.0
 21
265.0
 31
0.0
  0
LINE
  8
OUTLINE
  6
CONTINUOUS
 62
     3
 10
-265.0
 20
295.0
 30
0.0
 11
-285.0
 21
295.0
 31
0.0
  0
LINE
  8
OUTLINE
  6
CONTINUOUS
 62
     3
 10
0.0
 20
-295.0
 30
0.0
 11
-285.0
 21
-295.0
 31
0.0
  0
ARC
  8
OUTLINE
  6
CONTINUOUS
 62
     3
 10
-285.0
 20
-285.0
 30
0.0
 40
10.0
 50
180.0
 51
270.0
  0
LINE
  8
OUTLINE
  6
CONTINUOUS
 62
     3
 10
-295.0
 20
-285.0
 30
0.0
 11
-295.0
 21
-265.0
 31
0.0
  0
LINE
  8
OUTLINE
  6
CONTINUOUS
 62
     3
 10
-295.0
 20
-265.0
 30
0.0
 11
-295.0
 21
0.0
 31
0.0
  0
ARC
  8
OUTLINE
  6
CONTINUOUS
 62
     3
 10
-285.0
 20
-285.0
 30
0.0
 40
10.0
 50
180.0
 51
270.0
  0
LINE
  8
OUTLINE
  6
CONTINUOUS
 62
     3
 10
-295.0
 20
-285.0
 30
0.0
 11
-295.0
 21
-265.0
 31
0.0
  0
LINE
  8
OUTLINE
  6
CONTINUOUS
 62
     3
 10
-265.0
 20
-295.0
 30
0.0
 11
-285.0
 21
-295.0
 31
0.0
  0
LINE
  8
OUTLINE
  6
CONTINUOUS
 62
     3
 10
0.0
 20
295.0
 30
0.0
 11
285.0
 21
295.0
 31
0.0
  0
ARC
  8
OUTLINE
  6
CONTINUOUS
 62
     3
 10
285.0
 20
285.0
 30
0.0
 40
10.0
 50
0.0
 51
90.0
  0
LINE
  8
OUTLINE
  6
CONTINUOUS
 62
     3
 10
295.0
 20
285.0
 30
0.0
 11
295.0
 21
265.0
 31
0.0
  0
LINE
  8
OUTLINE
  6
CONTINUOUS
 62
     3
 10
295.0
 20
265.0
 30
0.0
 11
295.0
 21
0.0
 31
0.0
  0
ARC
  8
OUTLINE
  6
CONTINUOUS
 62
     3
 10
285.0
 20
285.0
 30
0.0
 40
10.0
 50
0.0
 51
90.0
  0
LINE
  8
OUTLINE
  6
CONTINUOUS
 62
     3
 10
295.0
 20
285.0
 30
0.0
 11
295.0
 21
265.0
 31
0.0
  0
LINE
  8
OUTLINE
  6
CONTINUOUS
 62
     3
 10
265.0
 20
295.0
 30
0.0
 11
285.0
 21
295.0
 31
0.0
  0
LINE
  8
OUTLINE
  6
CONTINUOUS
 62
     3
 10
0.0
 20
-295.0
 30
0.0
 11
285.0
 21
-295.0
 31
0.0
  0
ARC
  8
OUTLINE
  6
CONTINUOUS
 62
     3
 10
285.0
 20
-285.0
 30
0.0
 40
10.0
 50
270.0
 51
0.0
  0
LINE
  8
OUTLINE
  6
CONTINUOUS
 62
     3
 10
295.0
 20
-285.0
 30
0.0
 11
295.0
 21
-265.0
 31
0.0
  0
LINE
  8
OUTLINE
  6
CONTINUOUS
 62
     3
 10
295.0
 20
-265.0
 30
0.0
 11
295.0
 21
0.0
 31
0.0
  0
ARC
  8
OUTLINE
  6
CONTINUOUS
 62
     3
 10
285.0
 20
-285.0
 30
0.0
 40
10.0
 50
270.0
 51
0.0
  0
LINE
  8
OUTLINE
  6
CONTINUOUS
 62
     3
 10
295.0
 20
-285.0
 30
0.0
 11
295.0
 21
-265.0
 31
0.0
  0
LINE
  8
OUTLINE
  6
CONTINUOUS
 62
     3
 10
265.0
 20
-295.0
 30
0.0
 11
285.0
 21
-295.0
 31
0.0
  0
CIRCLE
  8
DETAIL
  6
CONTINUOUS
 62
     5
 39
50.0
 10
-280.0
 20
280.0
 30
0.0
 40
8.0
  0
CIRCLE
  8
DETAIL
  6
CONTINUOUS
 62
     5
 39
50.0
 10
280.0
 20
280.0
 30
0.0
 40
8.0
  0
CIRCLE
  8
DETAIL
  6
CONTINUOUS
 62
     5
 39
50.0
 10
280.0
 20
-280.0
 30
0.0
 40
8.0
  0
CIRCLE
  8
DETAIL
  6
CONTINUOUS
 62
     5
 39
50.0
 10
-280.0
 20
-280.0
 30
0.0
 40
8.0
  0
CIRCLE
  8
FIX
  6
CONTINUOUS
 62
    11
 39
50.0
 10
-280.0
 20
-280.0
 30
0.0
 40
8.0
  0
CIRCLE
  8
FIX
  6
CONTINUOUS
 62
    11
 39
50.0
 10
280.0
 20
-280.0
 30
0.0
 40
8.0
  0
CIRCLE
  8
FIX
  6
CONTINUOUS
 62
    11
 39
50.0
 10
280.0
 20
280.0
 30
0.0
 40
8.0
  0
CIRCLE
  8
FIX
  6
CONTINUOUS
 62
    11
 39
50.0
 10
-280.0
 20
280.0
 30
0.0
 40
8.0
  0
LINE
  8
SIZE
  6
CONTINUOUS
 62
    30
 10
-214.5
 20
248.0
 30
0.0
 11
-552.628713
 21
248.0
 31
0.0
  0
LINE
  8
SIZE
  6
CONTINUOUS
 62
    30
 10
-214.5
 20
-248.0
 30
0.0
 11
-552.628713
 21
-248.0
 31
0.0
  0
LINE
  8
SIZE
  6
CONTINUOUS
 62
    30
 10
-532.628713
 20
236.0
 30
0.0
 11
-532.628713
 21
-236.0
 31
0.0
  0
CIRCLE
  8
SIZE
  6
CONTINUOUS
 62
    30
 10
-532.628713
 20
248.0
 30
0.0
 40
6.0
  0
LINE
  8
SIZE
  6
CONTINUOUS
 62
    30
 10
-532.628713
 20
248.0
 30
0.0
 11
-532.628713
 21
236.0
 31
0.0
  0
CIRCLE
  8
SIZE
  6
CONTINUOUS
 62
    30
 10
-532.628713
 20
-248.0
 30
0.0
 40
6.0
  0
LINE
  8
SIZE
  6
CONTINUOUS
 62
    30
 10
-532.628713
 20
-248.0
 30
0.0
 11
-532.628713
 21
-236.0
 31
0.0
  0
TEXT
  8
SIZE
  6
CONTINUOUS
 62
    30
 10
-557.628713
 20
-80.928
 30
0.0
 40
64.0
  1
496
 50
90.0
 41
0.9
 51
0.0
  7
STANDARD
 71
     0
 72
     1
 11
-557.628713
 21
0.0
 31
0.0
210
0.0
220
0.0
230
1.0
  0
POINT
  8
DEFPOINTS
  6
CONTINUOUS
 62
    30
 10
-194.5
 20
248.0
 30
0.0
  0
POINT
  8
DEFPOINTS
  6
CONTINUOUS
 62
    30
 10
-194.5
 20
-248.0
 30
0.0
  0
POINT
  8
DEFPOINTS
  6
CONTINUOUS
 62
    30
 10
-532.628713
 20
-248.0
 30
0.0
  0
LINE
  8
SIZE
  6
CONTINUOUS
 62
    30
 10
248.0
 20
214.5
 30
0.0
 11
248.0
 21
483.843023
 31
0.0
  0
LINE
  8
SIZE
  6
CONTINUOUS
 62
    30
 10
-248.0
 20
214.5
 30
0.0
 11
-248.0
 21
483.843023
 31
0.0
  0
LINE
  8
SIZE
  6
CONTINUOUS
 62
    30
 10
236.0
 20
463.843023
 30
0.0
 11
-236.0
 21
463.843023
 31
0.0
  0
CIRCLE
  8
SIZE
  6
CONTINUOUS
 62
    30
 10
248.0
 20
463.843023
 30
0.0
 40
6.0
  0
LINE
  8
SIZE
  6
CONTINUOUS
 62
    30
 10
248.0
 20
463.843023
 30
0.0
 11
236.0
 21
463.843023
 31
0.0
  0
CIRCLE
  8
SIZE
  6
CONTINUOUS
 62
    30
 10
-248.0
 20
463.843023
 30
0.0
 40
6.0
  0
LINE
  8
SIZE
  6
CONTINUOUS
 62
    30
 10
-248.0
 20
463.843023
 30
0.0
 11
-236.0
 21
463.843023
 31
0.0
  0
TEXT
  8
SIZE
  6
CONTINUOUS
 62
    30
 10
-80.928
 20
488.843023
 30
0.0
 40
64.0
  1
496
 50
0.0
 41
0.9
 51
0.0
  7
STANDARD
 71
     0
 72
     1
 11
0.0
 21
488.843023
 31
0.0
210
0.0
220
0.0
230
1.0
  0
POINT
  8
DEFPOINTS
  6
CONTINUOUS
 62
    30
 10
248.0
 20
194.5
 30
0.0
  0
POINT
  8
DEFPOINTS
  6
CONTINUOUS
 62
    30
 10
-248.0
 20
194.5
 30
0.0
  0
POINT
  8
DEFPOINTS
  6
CONTINUOUS
 62
    30
 10
-248.0
 20
463.843023
 30
0.0
  0
ENDSEC
  0
EOF
