  0
SECTION
  2
HEADER
  9
$ACADVER
  1
AC1009
  9
$DWGCODEPAGE
  3
dos932
  9
$INSBASE
 10
0.0
 20
0.0
 30
0.0
  9
$EXTMIN
 10
-712.86161684298713
 20
-486.41966607703398
 30
-0.000000034918195
  9
$EXTMAX
 10
1178.2837031505569
 20
690.21607259080702
 30
0.000000081493575
  9
$LIMMIN
 10
-2970.0
 20
-2100.0
  9
$LIMMAX
 10
2970.0
 20
2100.0
  9
$ORTHOMODE
 70
     1
  9
$REGENMODE
 70
     1
  9
$FILLMODE
 70
     1
  9
$QTEXTMODE
 70
     0
  9
$MIRRTEXT
 70
     0
  9
$LTSCALE
 40
20.0
  9
$ATTMODE
 70
     1
  9
$TEXTSIZE
 40
64.0
  9
$TRACEWID
 40
0.05
  9
$TEXTSTYLE
  7
STANDARD
  9
$CLAYER
  8
SIZE
  9
$CELTYPE
  6
CONTINUOUS
  9
$CECOLOR
 62
     7
  9
$DIMSCALE
 40
1.0
  9
$DIMASZ
 40
12.0
  9
$DIMEXO
 40
20.0
  9
$DIMDLI
 40
200.0
  9
$DIMRND
 40
0.0
  9
$DIMDLE
 40
0.0
  9
$DIMEXE
 40
20.0
  9
$DIMTP
 40
0.0
  9
$DIMTM
 40
0.0
  9
$DIMTXT
 40
64.0
  9
$DIMCEN
 40
0.09
  9
$DIMTSZ
 40
0.0
  9
$DIMTOL
 70
     0
  9
$DIMLIM
 70
     0
  9
$DIMTIH
 70
     0
  9
$DIMTOH
 70
     0
  9
$DIMSE1
 70
     0
  9
$DIMSE2
 70
     0
  9
$DIMTAD
 70
     1
  9
$DIMZIN
 70
     8
  9
$DIMBLK
  1

  9
$DIMASO
 70
     1
  9
$DIMSHO
 70
     0
  9
$DIMPOST
  1

  9
$DIMAPOST
  1

  9
$DIMALT
 70
     0
  9
$DIMALTD
 70
     2
  9
$DIMALTF
 40
25.399999999999999
  9
$DIMLFAC
 40
1.0
  9
$DIMTOFL
 70
     1
  9
$DIMTVP
 40
0.0
  9
$DIMTIX
 70
     1
  9
$DIMSOXD
 70
     0
  9
$DIMSAH
 70
     0
  9
$DIMBLK1
  1

  9
$DIMBLK2
  1

  9
$DIMSTYLE
  2
STANDARD
  9
$DIMCLRD
 70
     7
  9
$DIMCLRE
 70
     7
  9
$DIMCLRT
 70
     7
  9
$DIMTFAC
 40
1.0
  9
$DIMGAP
 40
25.0
  9
$LUNITS
 70
     2
  9
$LUPREC
 70
     4
  9
$SKETCHINC
 40
0.1
  9
$FILLETRAD
 40
3.0
  9
$AUNITS
 70
     1
  9
$AUPREC
 70
     3
  9
$MENU
  1
ACAD
  9
$ELEVATION
 40
0.0
  9
$PELEVATION
 40
0.0
  9
$THICKNESS
 40
0.0
  9
$LIMCHECK
 70
     0
  9
$CHAMFERA
 40
0.0
  9
$CHAMFERB
 40
0.0
  9
$SKPOLY
 70
     0
  9
$TDCREATE
 40
2453019.62301037
  9
$TDUPDATE
 40
2459389.500297743
  9
$TDINDWG
 40
1.7373307986
  9
$TDUSRTIMER
 40
1.7373307986
  9
$USRTIMER
 70
     1
  9
$ANGBASE
 50
0.0
  9
$ANGDIR
 70
     0
  9
$PDMODE
 70
     3
  9
$PDSIZE
 40
-2.0
  9
$PLINEWID
 40
0.0
  9
$SPLFRAME
 70
     0
  9
$SPLINETYPE
 70
     6
  9
$SPLINESEGS
 70
     8
  9
$SURFTAB1
 70
     6
  9
$SURFTAB2
 70
     6
  9
$SURFTYPE
 70
     6
  9
$SURFU
 70
     6
  9
$SURFV
 70
     6
  9
$UCSNAME
  2

  9
$UCSORG
 10
0.0
 20
0.0
 30
0.0
  9
$UCSXDIR
 10
1.0
 20
0.0
 30
0.0
  9
$UCSYDIR
 10
0.0
 20
1.0
 30
0.0
  9
$PUCSNAME
  2

  9
$PUCSORG
 10
0.0
 20
0.0
 30
0.0
  9
$PUCSXDIR
 10
1.0
 20
0.0
 30
0.0
  9
$PUCSYDIR
 10
0.0
 20
1.0
 30
0.0
  9
$USERI1
 70
     0
  9
$USERI2
 70
     0
  9
$USERI3
 70
     0
  9
$USERI4
 70
     0
  9
$USERI5
 70
     0
  9
$USERR1
 40
20.0
  9
$USERR2
 40
0.0
  9
$USERR3
 40
0.0
  9
$USERR4
 40
0.0
  9
$USERR5
 40
0.0
  9
$WORLDVIEW
 70
     1
  9
$SHADEDGE
 70
     3
  9
$SHADEDIF
 70
    70
  9
$TILEMODE
 70
     1
  9
$MAXACTVP
 70
    48
  9
$PINSBASE
 10
0.0
 20
0.0
 30
0.0
  9
$PLIMCHECK
 70
     0
  9
$PEXTMIN
 10
-100000000000000000000.0
 20
-100000000000000000000.0
 30
-100000000000000000000.0
  9
$PEXTMAX
 10
100000000000000000000.0
 20
100000000000000000000.0
 30
100000000000000000000.0
  9
$PLIMMIN
 10
0.0
 20
0.0
  9
$PLIMMAX
 10
12.0
 20
9.0
  9
$UNITMODE
 70
     0
  9
$VISRETAIN
 70
     0
  9
$PLINEGEN
 70
     0
  9
$PSLTSCALE
 70
     0
  9
$TREEDEPTH
 70
  3020
  9
$ATTDIA
 70
     0
  9
$ATTREQ
 70
     1
  9
$BLIPMODE
 70
     1
  9
$COORDS
 70
     1
  9
$DRAGMODE
 70
     2
  9
$OSMODE
 70
     0
  9
$HANDLING
 70
     0
  9
$HANDSEED
  5
EFBC
  0
ENDSEC
  0
SECTION
  2
TABLES
  0
TABLE
  2
LTYPE
 70
     2
  0
LTYPE
  2
CONTINUOUS
 70
     0
  3
実線
 72
    65
 73
     0
 40
0.0
  0
LTYPE
  2
DASHDOT
 70
     0
  3
____ _ ____ _ ____ _ ____ _ ____ _ ____ _ ____
 72
    65
 73
     4
 40
5.5
 49
4.0
 49
-0.6
 49
0.3
 49
-0.6
  0
ENDTAB
  0
TABLE
  2
LAYER
 70
    12
  0
LAYER
  2
0
 70
     0
 62
     7
  6
CONTINUOUS
  0
LAYER
  2
BASIS
 70
     0
 62
     6
  6
DASHDOT
  0
LAYER
  2
OUTLINE
 70
     0
 62
     3
  6
CONTINUOUS
  0
LAYER
  2
DETAIL
 70
     0
 62
     5
  6
CONTINUOUS
  0
LAYER
  2
SIZE
 70
     0
 62
    30
  6
CONTINUOUS
  0
LAYER
  2
ARRANGE
 70
     0
 62
     1
  6
CONTINUOUS
  0
LAYER
  2
ETC
 70
     0
 62
    61
  6
CONTINUOUS
  0
LAYER
  2
FIX
 70
     0
 62
    11
  6
CONTINUOUS
  0
LAYER
  2
NOTE
 70
     0
 62
     4
  6
CONTINUOUS
  0
LAYER
  2
DEFPOINTS
 70
    64
 62
     7
  6
CONTINUOUS
  0
LAYER
  2
SERVICESPACE
 70
    64
 62
     2
  6
DASHDOT
  0
LAYER
  2
SYMBOLLINE
 70
    64
 62
    15
  6
CONTINUOUS
  0
ENDTAB
  0
TABLE
  2
STYLE
 70
     1
  0
STYLE
  2
STANDARD
 70
     0
 40
64.0
 41
0.9
 50
0.0
 71
     0
 42
64.0
  3
SIMPLEX.shx
  4
BIGFONT.shx
  0
ENDTAB
  0
TABLE
  2
APPID
 70
    19
  0
APPID
  2
ACAD
 70
     0
  0
APPID
  2
AUTOCAD_POSTSCRIPT_FIGURE
 70
     0
  0
APPID
  2
ACAD_EXEMPT_FROM_CAD_STANDARDS
 70
     0
  0
APPID
  2
ACAD_PSEXT
 70
     0
  0
APPID
  2
ACAUTHENVIRON
 70
     0
  0
APPID
  2
GENIUS_GENOENT_13
 70
     0
  0
APPID
  2
GENIUS_GENCFG_13
 70
     0
  0
APPID
  2
GENIUS_GENCFG0_13
 70
     0
  0
APPID
  2
GENIUS_GENCFG1_13
 70
     0
  0
APPID
  2
GENIUS_GENCFG2_13
 70
     0
  0
APPID
  2
GENIUS_GENCFG3_13
 70
     0
  0
APPID
  2
GENIUS_GENCFG4_13
 70
     0
  0
APPID
  2
GENIUS_GEVCFG0_13
 70
     0
  0
APPID
  2
CONTENTBLOCKICON
 70
     0
  0
APPID
  2
CONTENTBLOCKDESCRIPTION
 70
     0
  0
APPID
  2
ACAD_NAV_VCDISPLAY
 70
     0
  0
APPID
  2
ACAD_MLEADERVER
 70
     0
  0
APPID
  2
ACDBDYNAMICBLOCKTRUENAME
 70
     0
  0
APPID
  2
ACDBDYNAMICBLOCKGUID
 70
     0
  0
ENDTAB
  0
TABLE
  2
DIMSTYLE
 70
     1
  0
DIMSTYLE
  2
STANDARD
 70
     0
  3

  4

  5
_ORIGIN
  6

  7

 40
1.0
 41
12.0
 42
20.0
 43
200.0
 44
20.0
 45
0.0
 46
0.0
 47
0.0
 48
0.0
140
64.0
141
0.09
142
0.0
143
25.399999999999999
144
1.0
145
0.0
146
1.0
147
25.0
 71
     0
 72
     0
 73
     0
 74
     0
 75
     0
 76
     0
 77
     1
 78
     8
170
     0
171
     2
172
     1
173
     0
174
     1
175
     0
176
     7
177
     7
178
     7
  0
ENDTAB
  0
TABLE
  2
VIEW
 70
     1
  0
VIEW
  2
ALL
 70
     0
 40
4282.6198079999986
 10
0.0
 20
41.309904000000003
 41
5940.0
 11
0.0
 21
0.0
 31
1.0
 12
0.0
 22
0.0
 32
0.0
 42
50.0
 43
0.0
 44
0.0
 50
0.0
 71
     0
  0
ENDTAB
  0
TABLE
  2
UCS
 70
     0
  0
ENDTAB
  0
TABLE
  2
VPORT
 70
     1
  0
VPORT
  2
*ACTIVE
 70
     0
 10
0.0
 20
0.0
 11
1.0
 21
1.0
 12
232.711043153785
 22
101.8982032568865
 13
0.0
 23
0.0
 14
1.0
 24
1.0
 15
0.0
 25
0.0
 16
0.0
 26
0.0
 36
1.0
 17
0.0
 27
0.0
 37
0.0
 40
1184.5237994857259
 41
1.767337807606264
 42
50.0
 43
0.0
 44
0.0
 50
0.0
 51
0.0
 71
     0
 72
  1000
 73
     1
 74
     3
 75
     0
 76
     0
 77
     0
 78
     0
  0
ENDTAB
  0
ENDSEC
  0
SECTION
  2
BLOCKS
  0
BLOCK
  8
0
  2
_ORIGIN
 70
     0
 10
0.0
 20
0.0
 30
0.0
  3
_ORIGIN
  1
_ORIGIN
  0
CIRCLE
  8
SIZE
  6
CONTINUOUS
 62
    30
 10
0.0
 20
0.0
 30
0.0
 40
0.5
  0
LINE
  8
SIZE
  6
CONTINUOUS
 62
    30
 10
0.0
 20
0.0
 30
0.0
 11
-1.0
 21
0.0
 31
0.0
  0
ENDBLK
  8
0
  0
ENDSEC
  0
SECTION
  2
ENTITIES
  0
CIRCLE
  8
ARRANGE
  6
CONTINUOUS
 62
     1
 10
0.0
 20
0.0
 30
0.0
 40
40.0
  0
POINT
  8
ARRANGE
  6
CONTINUOUS
 62
     1
 10
0.0
 20
0.0
 30
0.0
  0
LINE
  8
BASIS
  6
DASHDOT
 62
     6
 10
0.0
 20
-278.68215700000002
 30
0.0
 11
0.0
 21
281.40188499999999
 31
0.0
  0
TEXT
  8
NOTE
  6
CONTINUOUS
 62
     4
 10
380.33960200000001
 20
151.40955800000009
 30
0.0
 40
40.0
  1
4-φ14
 41
0.9
  0
TEXT
  8
NOTE
  6
CONTINUOUS
 62
     4
 10
382.20871099999999
 20
-215.779763
 30
0.0
 40
40.0
  1
8-φ8
 41
0.9
  0
TEXT
  8
NOTE
  6
CONTINUOUS
 62
     4
 10
-339.97788000000003
 20
-395.57689900000003
 30
0.0
 40
40.0
  1
EL
 41
0.9
  0
LINE
  8
NOTE
  6
CONTINUOUS
 62
     4
 10
-271.126079
 20
-402.29710499999999
 30
0.0
 11
-355.94183600000002
 21
-402.29710499999999
 31
0.0
  0
LINE
  8
NOTE
  6
CONTINUOUS
 62
     4
 10
578.04612199999997
 20
143.05913699999999
 30
0.0
 11
367.63779399999999
 21
143.05913699999999
 31
0.0
  0
LINE
  8
NOTE
  6
CONTINUOUS
 62
     4
 10
547.29378799999995
 20
-220.869744
 30
0.0
 11
362.98261600000001
 21
-220.869744
 31
0.0
  0
LINE
  8
NOTE
  6
CONTINUOUS
 62
     4
 10
367.63779399999999
 20
143.05913699999999
 30
0.0
 11
230.0
 21
230.0
 31
0.0
  0
LINE
  8
NOTE
  6
CONTINUOUS
 62
     4
 10
362.98261600000001
 20
-220.869744
 30
0.0
 11
230.0
 21
-130.0
 31
0.0
  0
LINE
  8
NOTE
  6
CONTINUOUS
 62
     4
 10
-271.126079
 20
-402.29710499999999
 30
0.0
 11
-193.0
 21
-255.0
 31
0.0
  0
LINE
  8
OUTLINE
  6
CONTINUOUS
 62
     3
 10
240.0
 20
-255.0
 30
0.0
 11
-240.0
 21
-255.0
 31
0.0
  0
LINE
  8
OUTLINE
  6
CONTINUOUS
 62
     3
 10
240.0
 20
255.0
 30
0.0
 11
-240.0
 21
255.0
 31
0.0
  0
LINE
  8
BASIS
  6
DASHDOT
 62
     6
 10
283.80919899999998
 20
0.0
 30
0.0
 11
-283.507092
 21
0.0
 31
0.0
  0
LINE
  8
OUTLINE
  6
CONTINUOUS
 62
     3
 10
-255.0
 20
240.0
 30
0.0
 11
-255.0
 21
-240.0
 31
0.0
  0
CIRCLE
  8
FIX
  6
CONTINUOUS
 62
    11
 10
-230.0
 20
-230.0
 30
0.0
 40
7.0
  0
CIRCLE
  8
FIX
  6
CONTINUOUS
 62
    11
 10
-230.0
 20
-230.0
 30
0.0
 40
7.0
  0
LINE
  8
NOTE
  6
CONTINUOUS
 62
     4
 10
-250.0
 20
-230.0
 30
0.0
 11
-210.0
 21
-230.0
 31
0.0
  0
CIRCLE
  8
FIX
  6
CONTINUOUS
 62
    11
 10
-230.0
 20
-130.0
 30
0.0
 40
4.0
  0
CIRCLE
  8
FIX
  6
CONTINUOUS
 62
    11
 10
-230.0
 20
-130.0
 30
0.0
 40
4.0
  0
LINE
  8
NOTE
  6
CONTINUOUS
 62
     4
 10
-210.0
 20
-130.0
 30
0.0
 11
-250.0
 21
-130.0
 31
0.0
  0
ARC
  8
OUTLINE
  6
CONTINUOUS
 62
     3
 10
-240.0
 20
-240.0
 30
0.0
 40
15.0
 50
180.0
 51
270.0
  0
LINE
  8
NOTE
  6
CONTINUOUS
 62
     4
 10
-110.0
 20
-230.0
 30
0.0
 11
-150.0
 21
-230.0
 31
0.0
  0
LINE
  8
NOTE
  6
CONTINUOUS
 62
     4
 10
-230.0
 20
-250.0
 30
0.0
 11
-230.0
 21
-210.0
 31
0.0
  0
LINE
  8
NOTE
  6
CONTINUOUS
 62
     4
 10
-130.0
 20
-210.0
 30
0.0
 11
-130.0
 21
-250.0
 31
0.0
  0
CIRCLE
  8
FIX
  6
CONTINUOUS
 62
    11
 10
-130.0
 20
-230.0
 30
0.0
 40
4.0
  0
CIRCLE
  8
FIX
  6
CONTINUOUS
 62
    11
 10
-130.0
 20
-230.0
 30
0.0
 40
4.0
  0
LINE
  8
NOTE
  6
CONTINUOUS
 62
     4
 10
-230.0
 20
-150.0
 30
0.0
 11
-230.0
 21
-110.0
 31
0.0
  0
LINE
  8
NOTE
  6
CONTINUOUS
 62
     4
 10
-250.0
 20
230.0
 30
0.0
 11
-210.0
 21
230.0
 31
0.0
  0
CIRCLE
  8
FIX
  6
CONTINUOUS
 62
    11
 10
-230.0
 20
230.0
 30
0.0
 40
7.0
  0
CIRCLE
  8
FIX
  6
CONTINUOUS
 62
    11
 10
-230.0
 20
230.0
 30
0.0
 40
7.0
  0
CIRCLE
  8
FIX
  6
CONTINUOUS
 62
    11
 10
-230.0
 20
130.0
 30
0.0
 40
4.0
  0
CIRCLE
  8
FIX
  6
CONTINUOUS
 62
    11
 10
-230.0
 20
130.0
 30
0.0
 40
4.0
  0
LINE
  8
NOTE
  6
CONTINUOUS
 62
     4
 10
-210.0
 20
130.0
 30
0.0
 11
-250.0
 21
130.0
 31
0.0
  0
ARC
  8
OUTLINE
  6
CONTINUOUS
 62
     3
 10
-240.0
 20
240.0
 30
0.0
 40
15.0
 50
90.0
 51
180.0
  0
LINE
  8
NOTE
  6
CONTINUOUS
 62
     4
 10
-230.0
 20
110.0
 30
0.0
 11
-230.0
 21
150.0
 31
0.0
  0
LINE
  8
NOTE
  6
CONTINUOUS
 62
     4
 10
-110.0
 20
230.0
 30
0.0
 11
-150.0
 21
230.0
 31
0.0
  0
LINE
  8
NOTE
  6
CONTINUOUS
 62
     4
 10
-230.0
 20
250.0
 30
0.0
 11
-230.0
 21
210.0
 31
0.0
  0
LINE
  8
NOTE
  6
CONTINUOUS
 62
     4
 10
-130.0
 20
210.0
 30
0.0
 11
-130.0
 21
250.0
 31
0.0
  0
CIRCLE
  8
FIX
  6
CONTINUOUS
 62
    11
 10
-130.0
 20
230.0
 30
0.0
 40
4.0
  0
CIRCLE
  8
FIX
  6
CONTINUOUS
 62
    11
 10
-130.0
 20
230.0
 30
0.0
 40
4.0
  0
LINE
  8
OUTLINE
  6
CONTINUOUS
 62
     3
 10
255.0
 20
240.0
 30
0.0
 11
255.0
 21
-240.0
 31
0.0
  0
LINE
  8
NOTE
  6
CONTINUOUS
 62
     4
 10
250.0
 20
-230.0
 30
0.0
 11
210.0
 21
-230.0
 31
0.0
  0
CIRCLE
  8
FIX
  6
CONTINUOUS
 62
    11
 10
230.0
 20
-230.0
 30
0.0
 40
7.0
  0
CIRCLE
  8
FIX
  6
CONTINUOUS
 62
    11
 10
230.0
 20
-230.0
 30
0.0
 40
7.0
  0
LINE
  8
NOTE
  6
CONTINUOUS
 62
     4
 10
210.0
 20
-130.0
 30
0.0
 11
250.0
 21
-130.0
 31
0.0
  0
CIRCLE
  8
FIX
  6
CONTINUOUS
 62
    11
 10
230.0
 20
-130.0
 30
0.0
 40
4.0
  0
CIRCLE
  8
FIX
  6
CONTINUOUS
 62
    11
 10
230.0
 20
-130.0
 30
0.0
 40
4.0
  0
LINE
  8
NOTE
  6
CONTINUOUS
 62
     4
 10
150.0
 20
-230.0
 30
0.0
 11
110.0
 21
-230.0
 31
0.0
  0
LINE
  8
NOTE
  6
CONTINUOUS
 62
     4
 10
230.0
 20
-250.0
 30
0.0
 11
230.0
 21
-210.0
 31
0.0
  0
LINE
  8
NOTE
  6
CONTINUOUS
 62
     4
 10
130.0
 20
-210.0
 30
0.0
 11
130.0
 21
-250.0
 31
0.0
  0
CIRCLE
  8
FIX
  6
CONTINUOUS
 62
    11
 10
130.0
 20
-230.0
 30
0.0
 40
4.0
  0
CIRCLE
  8
FIX
  6
CONTINUOUS
 62
    11
 10
130.0
 20
-230.0
 30
0.0
 40
4.0
  0
LINE
  8
NOTE
  6
CONTINUOUS
 62
     4
 10
230.0
 20
-150.0
 30
0.0
 11
230.0
 21
-110.0
 31
0.0
  0
ARC
  8
OUTLINE
  6
CONTINUOUS
 62
     3
 10
240.0
 20
-240.0
 30
0.0
 40
15.0
 50
270.0
 51
0.0
  0
LINE
  8
NOTE
  6
CONTINUOUS
 62
     4
 10
210.0
 20
130.0
 30
0.0
 11
250.0
 21
130.0
 31
0.0
  0
CIRCLE
  8
FIX
  6
CONTINUOUS
 62
    11
 10
230.0
 20
130.0
 30
0.0
 40
4.0
  0
CIRCLE
  8
FIX
  6
CONTINUOUS
 62
    11
 10
230.0
 20
130.0
 30
0.0
 40
4.0
  0
CIRCLE
  8
FIX
  6
CONTINUOUS
 62
    11
 10
230.0
 20
230.0
 30
0.0
 40
7.0
  0
CIRCLE
  8
FIX
  6
CONTINUOUS
 62
    11
 10
230.0
 20
230.0
 30
0.0
 40
7.0
  0
LINE
  8
NOTE
  6
CONTINUOUS
 62
     4
 10
250.0
 20
230.0
 30
0.0
 11
210.0
 21
230.0
 31
0.0
  0
LINE
  8
NOTE
  6
CONTINUOUS
 62
     4
 10
230.0
 20
110.0
 30
0.0
 11
230.0
 21
150.0
 31
0.0
  0
LINE
  8
NOTE
  6
CONTINUOUS
 62
     4
 10
150.0
 20
230.0
 30
0.0
 11
110.0
 21
230.0
 31
0.0
  0
LINE
  8
NOTE
  6
CONTINUOUS
 62
     4
 10
230.0
 20
250.0
 30
0.0
 11
230.0
 21
210.0
 31
0.0
  0
LINE
  8
NOTE
  6
CONTINUOUS
 62
     4
 10
130.0
 20
210.0
 30
0.0
 11
130.0
 21
250.0
 31
0.0
  0
CIRCLE
  8
FIX
  6
CONTINUOUS
 62
    11
 10
130.0
 20
230.0
 30
0.0
 40
4.0
  0
CIRCLE
  8
FIX
  6
CONTINUOUS
 62
    11
 10
130.0
 20
230.0
 30
0.0
 40
4.0
  0
ARC
  8
OUTLINE
  6
CONTINUOUS
 62
     3
 10
240.0
 20
240.0
 30
0.0
 40
15.0
 50
0.0
 51
90.0
  0
LINE
  8
NOTE
  6
CONTINUOUS
 62
     4
 10
-193.0
 20
-255.0
 30
0.0
 11
-202.07511
 21
-262.819861
 31
0.0
  0
LINE
  8
NOTE
  6
CONTINUOUS
 62
     4
 10
-193.0
 20
-255.0
 30
0.0
 11
-194.38387800000001
 21
-266.89927399999999
 31
0.0
  0
LINE
  8
NOTE
  6
CONTINUOUS
 62
     4
 10
230.0
 20
230.0
 30
0.0
 11
242.53421599999999
 21
210.62471099999991
 31
0.0
  0
LINE
  8
NOTE
  6
CONTINUOUS
 62
     4
 10
230.0
 20
-130.0
 30
0.0
 11
243.74701899999999
 21
-153.02520699999999
 31
0.0
  0
LINE
  8
NOTE
  6
CONTINUOUS
 62
     4
 10
230.0
 20
-130.0
 30
0.0
 11
256.446687
 21
-134.439976
 31
0.0
  0
LINE
  8
NOTE
  6
CONTINUOUS
 62
     4
 10
230.0
 20
230.0
 30
0.0
 11
252.88093499999999
 21
227.004807
 31
0.0
  0
LINE
  8
SIZE
  6
CONTINUOUS
 62
    30
 10
-130.0
 20
270.0
 30
0.0
 11
-130.0
 21
351.68806999999998
 31
0.0
  0
LINE
  8
SIZE
  6
CONTINUOUS
 62
    30
 10
130.0
 20
270.0
 30
0.0
 11
130.0
 21
351.68806999999998
 31
0.0
  0
LINE
  8
SIZE
  6
CONTINUOUS
 62
    30
 10
-118.0
 20
331.68806999999998
 30
0.0
 11
118.0
 21
331.68806999999998
 31
0.0
  0
CIRCLE
  8
SIZE
  6
CONTINUOUS
 62
    30
 10
-130.0
 20
331.68806999999998
 30
0.0
 40
6.0
  0
LINE
  8
SIZE
  6
CONTINUOUS
 62
    30
 10
-130.0
 20
331.68806999999998
 30
0.0
 11
-118.0
 21
331.68806999999998
 31
0.0
  0
CIRCLE
  8
SIZE
  6
CONTINUOUS
 62
    30
 10
130.0
 20
331.68806999999998
 30
0.0
 40
6.0
  0
LINE
  8
SIZE
  6
CONTINUOUS
 62
    30
 10
130.0
 20
331.68806999999998
 30
0.0
 11
118.0
 21
331.68806999999998
 31
0.0
  0
TEXT
  8
SIZE
  6
CONTINUOUS
 62
    30
 10
-74.05714285714285
 20
356.68806999999998
 30
0.0
 40
64.0
  1
260
 41
0.9
 72
     1
 11
0.0
 21
356.68806999999998
 31
0.0
  0
LINE
  8
SIZE
  6
CONTINUOUS
 62
    30
 10
-230.0
 20
270.0
 30
0.0
 11
-230.0
 21
471.33451100000002
 31
0.0
  0
LINE
  8
SIZE
  6
CONTINUOUS
 62
    30
 10
230.0
 20
270.0
 30
0.0
 11
230.0
 21
471.33451100000002
 31
0.0
  0
LINE
  8
SIZE
  6
CONTINUOUS
 62
    30
 10
-218.0
 20
451.33451100000002
 30
0.0
 11
218.0
 21
451.33451100000002
 31
0.0
  0
CIRCLE
  8
SIZE
  6
CONTINUOUS
 62
    30
 10
-230.0
 20
451.33451100000002
 30
0.0
 40
6.0
  0
LINE
  8
SIZE
  6
CONTINUOUS
 62
    30
 10
-230.0
 20
451.33451100000002
 30
0.0
 11
-218.0
 21
451.33451100000002
 31
0.0
  0
CIRCLE
  8
SIZE
  6
CONTINUOUS
 62
    30
 10
230.0
 20
451.33451100000002
 30
0.0
 40
6.0
  0
LINE
  8
SIZE
  6
CONTINUOUS
 62
    30
 10
230.0
 20
451.33451100000002
 30
0.0
 11
218.0
 21
451.33451100000002
 31
0.0
  0
TEXT
  8
SIZE
  6
CONTINUOUS
 62
    30
 10
-74.05714285714285
 20
476.33451100000002
 30
0.0
 40
64.0
  1
460
 41
0.9
 72
     1
 11
0.0
 21
476.33451100000002
 31
0.0
  0
LINE
  8
SIZE
  6
CONTINUOUS
 62
    30
 10
-255.0
 20
260.0
 30
0.0
 11
-255.0
 21
603.25687800000014
 31
0.0
  0
LINE
  8
SIZE
  6
CONTINUOUS
 62
    30
 10
255.0
 20
260.0
 30
0.0
 11
255.0
 21
603.25687800000014
 31
0.0
  0
LINE
  8
SIZE
  6
CONTINUOUS
 62
    30
 10
-243.0
 20
583.25687800000014
 30
0.0
 11
243.0
 21
583.25687800000014
 31
0.0
  0
CIRCLE
  8
SIZE
  6
CONTINUOUS
 62
    30
 10
-255.0
 20
583.25687800000014
 30
0.0
 40
6.0
  0
LINE
  8
SIZE
  6
CONTINUOUS
 62
    30
 10
-255.0
 20
583.25687800000014
 30
0.0
 11
-243.0
 21
583.25687800000014
 31
0.0
  0
CIRCLE
  8
SIZE
  6
CONTINUOUS
 62
    30
 10
255.0
 20
583.25687800000014
 30
0.0
 40
6.0
  0
LINE
  8
SIZE
  6
CONTINUOUS
 62
    30
 10
255.0
 20
583.25687800000014
 30
0.0
 11
243.0
 21
583.25687800000014
 31
0.0
  0
TEXT
  8
SIZE
  6
CONTINUOUS
 62
    30
 10
-68.571428571428555
 20
608.25687800000014
 30
0.0
 40
64.0
  1
510
 41
0.9
 72
     1
 11
0.0
 21
608.25687800000014
 31
0.0
  0
LINE
  8
SIZE
  6
CONTINUOUS
 62
    30
 10
-212.5
 20
-232.5
 30
0.0
 11
-212.5
 21
-486.29461800000001
 31
0.0
  0
LINE
  8
SIZE
  6
CONTINUOUS
 62
    30
 10
212.5
 20
-232.5
 30
0.0
 11
212.5
 21
-486.29461800000001
 31
0.0
  0
LINE
  8
SIZE
  6
CONTINUOUS
 62
    30
 10
-200.5
 20
-466.29461800000001
 30
0.0
 11
200.5
 21
-466.29461800000001
 31
0.0
  0
CIRCLE
  8
SIZE
  6
CONTINUOUS
 62
    30
 10
-212.5
 20
-466.29461800000001
 30
0.0
 40
6.0
  0
LINE
  8
SIZE
  6
CONTINUOUS
 62
    30
 10
-212.5
 20
-466.29461800000001
 30
0.0
 11
-200.5
 21
-466.29461800000001
 31
0.0
  0
CIRCLE
  8
SIZE
  6
CONTINUOUS
 62
    30
 10
212.5
 20
-466.29461800000001
 30
0.0
 40
6.0
  0
LINE
  8
SIZE
  6
CONTINUOUS
 62
    30
 10
212.5
 20
-466.29461800000001
 30
0.0
 11
200.5
 21
-466.29461800000001
 31
0.0
  0
TEXT
  8
SIZE
  6
CONTINUOUS
 62
    30
 10
-110.5371428571429
 20
-441.29461800000001
 30
0.0
 40
64.0
  1
□425
 41
0.9
 72
     1
 11
0.0
 21
-441.29461800000001
 31
0.0
  0
LINE
  8
SIZE
  6
CONTINUOUS
 62
    30
 10
-270.0
 20
130.0
 30
0.0
 11
-355.55445800000001
 21
130.0
 31
0.0
  0
LINE
  8
SIZE
  6
CONTINUOUS
 62
    30
 10
-270.0
 20
-130.0
 30
0.0
 11
-355.55445800000001
 21
-130.0
 31
0.0
  0
LINE
  8
SIZE
  6
CONTINUOUS
 62
    30
 10
-335.55445800000001
 20
118.0
 30
0.0
 11
-335.55445800000001
 21
-118.0
 31
0.0
  0
CIRCLE
  8
SIZE
  6
CONTINUOUS
 62
    30
 10
-335.55445800000001
 20
130.0
 30
0.0
 40
6.0
  0
LINE
  8
SIZE
  6
CONTINUOUS
 62
    30
 10
-335.55445800000001
 20
130.0
 30
0.0
 11
-335.55445800000001
 21
118.0
 31
0.0
  0
CIRCLE
  8
SIZE
  6
CONTINUOUS
 62
    30
 10
-335.55445800000001
 20
-130.0
 30
0.0
 40
6.0
  0
LINE
  8
SIZE
  6
CONTINUOUS
 62
    30
 10
-335.55445800000001
 20
-130.0
 30
0.0
 11
-335.55445800000001
 21
-118.0
 31
0.0
  0
TEXT
  8
SIZE
  6
CONTINUOUS
 62
    30
 10
-360.55445800000001
 20
-74.05714285714285
 30
0.0
 40
64.0
  1
260
 50
90.0
 41
0.9
 72
     1
 11
-360.55445800000001
 21
0.0
 31
0.0
  0
LINE
  8
SIZE
  6
CONTINUOUS
 62
    30
 10
-270.0
 20
230.0
 30
0.0
 11
-496.08235400000001
 21
230.0
 31
0.0
  0
LINE
  8
SIZE
  6
CONTINUOUS
 62
    30
 10
-270.0
 20
-230.0
 30
0.0
 11
-496.08235400000001
 21
-230.0
 31
0.0
  0
LINE
  8
SIZE
  6
CONTINUOUS
 62
    30
 10
-476.08235400000001
 20
218.0
 30
0.0
 11
-476.08235400000001
 21
-218.0
 31
0.0
  0
CIRCLE
  8
SIZE
  6
CONTINUOUS
 62
    30
 10
-476.08235400000001
 20
230.0
 30
0.0
 40
6.0
  0
LINE
  8
SIZE
  6
CONTINUOUS
 62
    30
 10
-476.08235400000001
 20
230.0
 30
0.0
 11
-476.08235400000001
 21
218.0
 31
0.0
  0
CIRCLE
  8
SIZE
  6
CONTINUOUS
 62
    30
 10
-476.08235400000001
 20
-230.0
 30
0.0
 40
6.0
  0
LINE
  8
SIZE
  6
CONTINUOUS
 62
    30
 10
-476.08235400000001
 20
-230.0
 30
0.0
 11
-476.08235400000001
 21
-218.0
 31
0.0
  0
TEXT
  8
SIZE
  6
CONTINUOUS
 62
    30
 10
-501.08235400000001
 20
-74.05714285714285
 30
0.0
 40
64.0
  1
460
 50
90.0
 41
0.9
 72
     1
 11
-501.08235400000001
 21
0.0
 31
0.0
  0
LINE
  8
SIZE
  6
CONTINUOUS
 62
    30
 10
-260.0
 20
255.0
 30
0.0
 11
-643.54988900000001
 21
255.0
 31
0.0
  0
LINE
  8
SIZE
  6
CONTINUOUS
 62
    30
 10
-260.0
 20
-255.0
 30
0.0
 11
-643.54988900000001
 21
-255.0
 31
0.0
  0
LINE
  8
SIZE
  6
CONTINUOUS
 62
    30
 10
-623.54988900000001
 20
243.0
 30
0.0
 11
-623.54988900000001
 21
-243.0
 31
0.0
  0
CIRCLE
  8
SIZE
  6
CONTINUOUS
 62
    30
 10
-623.54988900000001
 20
255.0
 30
0.0
 40
6.0
  0
LINE
  8
SIZE
  6
CONTINUOUS
 62
    30
 10
-623.54988900000001
 20
255.0
 30
0.0
 11
-623.54988900000001
 21
243.0
 31
0.0
  0
CIRCLE
  8
SIZE
  6
CONTINUOUS
 62
    30
 10
-623.54988900000001
 20
-255.0
 30
0.0
 40
6.0
  0
LINE
  8
SIZE
  6
CONTINUOUS
 62
    30
 10
-623.54988900000001
 20
-255.0
 30
0.0
 11
-623.54988900000001
 21
-243.0
 31
0.0
  0
TEXT
  8
SIZE
  6
CONTINUOUS
 62
    30
 10
-648.54988900000001
 20
-68.571428571428555
 30
0.0
 40
64.0
  1
510
 50
90.0
 41
0.9
 72
     1
 11
-648.54988900000001
 21
0.0
 31
0.0
  0
LINE
  8
DETAIL
  6
CONTINUOUS
 62
     5
 10
212.5
 20
-130.304384
 30
0.0
 11
-212.5
 21
-130.304384
 31
0.0
  0
LINE
  8
DETAIL
  6
CONTINUOUS
 62
     5
 10
212.5
 20
-96.788916999999969
 30
0.0
 11
-212.5
 21
-96.788916999999969
 31
0.0
  0
LINE
  8
DETAIL
  6
CONTINUOUS
 62
     5
 10
212.5
 20
-31.304384000000031
 30
0.0
 11
-212.5
 21
-31.304384000000031
 31
0.0
  0
LINE
  8
DETAIL
  6
CONTINUOUS
 62
     5
 10
212.5
 20
2.211082999999974
 30
0.0
 11
-212.5
 21
2.211082999999974
 31
0.0
  0
LINE
  8
DETAIL
  6
CONTINUOUS
 62
     5
 10
212.5
 20
67.695615999999973
 30
0.0
 11
-212.5
 21
67.695615999999973
 31
0.0
  0
LINE
  8
DETAIL
  6
CONTINUOUS
 62
     5
 10
212.5
 20
101.211083
 30
0.0
 11
-212.5
 21
101.211083
 31
0.0
  0
LINE
  8
DETAIL
  6
CONTINUOUS
 62
     5
 10
212.5
 20
166.695616
 30
0.0
 11
-212.5
 21
166.695616
 31
0.0
  0
LINE
  8
DETAIL
  6
CONTINUOUS
 62
     5
 10
212.5
 20
200.211083
 30
0.0
 11
-212.5
 21
200.211083
 31
0.0
  0
LINE
  8
DETAIL
  6
CONTINUOUS
 62
     5
 10
212.5
 20
-212.5
 30
0.0
 11
-212.5
 21
-212.5
 31
0.0
  0
LINE
  8
DETAIL
  6
CONTINUOUS
 62
     5
 10
212.5
 20
212.5
 30
0.0
 11
-212.5
 21
212.5
 31
0.0
  0
LINE
  8
DETAIL
  6
CONTINUOUS
 62
     5
 10
240.0
 20
-255.0
 30
0.0
 11
-240.0
 21
-255.0
 31
0.0
  0
LINE
  8
DETAIL
  6
CONTINUOUS
 62
     5
 10
240.0
 20
255.0
 30
0.0
 11
-240.0
 21
255.0
 31
0.0
  0
LINE
  8
DETAIL
  6
CONTINUOUS
 62
     5
 10
-212.5
 20
212.5
 30
0.0
 11
-212.5
 21
-212.5
 31
0.0
  0
LINE
  8
DETAIL
  6
CONTINUOUS
 62
     5
 10
-255.0
 20
240.0
 30
0.0
 11
-255.0
 21
-240.0
 31
0.0
  0
CIRCLE
  8
DETAIL
  6
CONTINUOUS
 62
     5
 10
-230.0
 20
-230.0
 30
0.0
 40
7.0
  0
CIRCLE
  8
DETAIL
  6
CONTINUOUS
 62
     5
 10
-230.0
 20
-130.0
 30
0.0
 40
4.0
  0
ARC
  8
DETAIL
  6
CONTINUOUS
 62
     5
 10
-240.0
 20
-240.0
 30
0.0
 40
15.0
 50
180.0
 51
270.0
  0
LINE
  8
DETAIL
  6
CONTINUOUS
 62
     5
 10
-186.0
 20
-318.90005300000001
 30
0.0
 11
-193.0
 21
-318.90005300000001
 31
0.0
  0
ARC
  8
DETAIL
  6
CONTINUOUS
 62
     5
 10
-191.25
 20
-295.30466799999999
 30
0.0
 40
3.5
 50
59.99999999999946
 51
120.0000000000006
  0
ARC
  8
DETAIL
  6
CONTINUOUS
 62
     5
 10
-191.25
 20
-282.95449100000002
 30
0.0
 40
3.5
 50
239.9999999999994
 51
300.00000000000051
  0
ARC
  8
DETAIL
  6
CONTINUOUS
 62
     5
 10
-191.25
 20
-289.01666799999998
 30
0.0
 40
3.5
 50
59.99999999999946
 51
120.0000000000006
  0
LINE
  8
DETAIL
  6
CONTINUOUS
 62
     5
 10
-193.0
 20
-292.27357899999998
 30
0.0
 11
-193.0
 21
-318.90005300000001
 31
0.0
  0
LINE
  8
DETAIL
  6
CONTINUOUS
 62
     5
 10
-193.0
 20
-255.0
 30
0.0
 11
-193.0
 21
-285.98557899999997
 31
0.0
  0
LINE
  8
DETAIL
  6
CONTINUOUS
 62
     5
 10
-186.0
 20
-318.90005300000001
 30
0.0
 11
-186.0
 21
-292.27357899999998
 31
0.0
  0
ARC
  8
DETAIL
  6
CONTINUOUS
 62
     5
 10
-187.75
 20
-289.24249099999997
 30
0.0
 40
3.5
 50
239.9999999999994
 51
300.00000000000051
  0
ARC
  8
DETAIL
  6
CONTINUOUS
 62
     5
 10
-187.75
 20
-295.30466799999999
 30
0.0
 40
3.5
 50
59.99999999999946
 51
120.0000000000006
  0
ARC
  8
DETAIL
  6
CONTINUOUS
 62
     5
 10
-187.75
 20
-282.95449100000002
 30
0.0
 40
3.5
 50
239.9999999999994
 51
300.00000000000051
  0
LINE
  8
DETAIL
  6
CONTINUOUS
 62
     5
 10
-186.0
 20
-255.0
 30
0.0
 11
-186.0
 21
-285.98557899999997
 31
0.0
  0
CIRCLE
  8
DETAIL
  6
CONTINUOUS
 62
     5
 10
-130.0
 20
-230.0
 30
0.0
 40
4.0
  0
CIRCLE
  8
DETAIL
  6
CONTINUOUS
 62
     5
 10
-230.0
 20
230.0
 30
0.0
 40
7.0
  0
CIRCLE
  8
DETAIL
  6
CONTINUOUS
 62
     5
 10
-230.0
 20
130.0
 30
0.0
 40
4.0
  0
ARC
  8
DETAIL
  6
CONTINUOUS
 62
     5
 10
-240.0
 20
240.0
 30
0.0
 40
15.0
 50
90.0
 51
180.0
  0
CIRCLE
  8
DETAIL
  6
CONTINUOUS
 62
     5
 10
-130.0
 20
230.0
 30
0.0
 40
4.0
  0
LINE
  8
DETAIL
  6
CONTINUOUS
 62
     5
 10
212.5
 20
212.5
 30
0.0
 11
212.5
 21
-212.5
 31
0.0
  0
LINE
  8
DETAIL
  6
CONTINUOUS
 62
     5
 10
255.0
 20
240.0
 30
0.0
 11
255.0
 21
-240.0
 31
0.0
  0
CIRCLE
  8
DETAIL
  6
CONTINUOUS
 62
     5
 10
230.0
 20
-230.0
 30
0.0
 40
7.0
  0
CIRCLE
  8
DETAIL
  6
CONTINUOUS
 62
     5
 10
230.0
 20
-130.0
 30
0.0
 40
4.0
  0
CIRCLE
  8
DETAIL
  6
CONTINUOUS
 62
     5
 10
130.0
 20
-230.0
 30
0.0
 40
4.0
  0
ARC
  8
DETAIL
  6
CONTINUOUS
 62
     5
 10
240.0
 20
-240.0
 30
0.0
 40
15.0
 50
270.0
 51
0.0
  0
CIRCLE
  8
DETAIL
  6
CONTINUOUS
 62
     5
 10
230.0
 20
130.0
 30
0.0
 40
4.0
  0
CIRCLE
  8
DETAIL
  6
CONTINUOUS
 62
     5
 10
230.0
 20
230.0
 30
0.0
 40
7.0
  0
CIRCLE
  8
DETAIL
  6
CONTINUOUS
 62
     5
 10
130.0
 20
230.0
 30
0.0
 40
4.0
  0
ARC
  8
DETAIL
  6
CONTINUOUS
 62
     5
 10
240.0
 20
240.0
 30
0.0
 40
15.0
 50
0.0
 51
90.0
  0
TEXT
  8
ETC
  6
CONTINUOUS
 62
    61
 10
355.16474042638168
 20
626.04291477075776
 30
0.0
 40
64.0
  1
PS-40SMXA3-HC_2
 41
0.9
  0
TEXT
  8
ETC
  6
CONTINUOUS
 62
    61
 10
350.97874642638129
 20
508.08760475592658
 30
0.0
 40
64.0
  1
システム部材
 41
0.9
  0
TEXT
  8
ETC
  6
CONTINUOUS
 62
    61
 10
401.68014467493731
 20
399.93883186970129
 30
0.0
 40
40.0
  1
PS-40SMXA3-HC
 50
0.0
 41
0.9
 51
0.0
  7
STANDARD
 71
     0
 11
0.0
 21
0.0
 31
0.0
210
0.0
220
0.0
230
1.0
  0
ENDSEC
  0
EOF
