  0
SECTION
  2
HEADER
  9
$ACADVER
  1
AC1009
  9
$DWGCODEPAGE
  3
dos932
  9
$INSBASE
 10
0.0
 20
0.0
 30
0.0
  9
$EXTMIN
 10
-984.773238
 20
-665.542591
 30
-0.001526
  9
$EXTMAX
 10
1428.895581
 20
1054.229745
 30
50.001526
  9
$LIMMIN
 10
-2970.0
 20
-2100.0
  9
$LIMMAX
 10
2970.0
 20
2100.0
  9
$ORTHOMODE
 70
     1
  9
$REGENMODE
 70
     1
  9
$FILLMODE
 70
     1
  9
$QTEXTMODE
 70
     0
  9
$MIRRTEXT
 70
     0
  9
$DRAGMODE
 70
     2
  9
$LTSCALE
 40
20.0
  9
$OSMODE
 70
  3071
  9
$ATTMODE
 70
     1
  9
$TEXTSIZE
 40
64.0
  9
$TRACEWID
 40
0.05
  9
$TEXTSTYLE
  7
STANDARD
  9
$CLAYER
  8
NOTE
  9
$CELTYPE
  6
CONTINUOUS
  9
$CECOLOR
 62
     7
  9
$DIMSCALE
 40
1.0
  9
$DIMASZ
 40
12.0
  9
$DIMEXO
 40
20.0
  9
$DIMDLI
 40
200.0
  9
$DIMRND
 40
0.0
  9
$DIMDLE
 40
0.0
  9
$DIMEXE
 40
20.0
  9
$DIMTP
 40
0.0
  9
$DIMTM
 40
0.0
  9
$DIMTXT
 40
64.0
  9
$DIMCEN
 40
0.09
  9
$DIMTSZ
 40
0.0
  9
$DIMTOL
 70
     0
  9
$DIMLIM
 70
     0
  9
$DIMTIH
 70
     0
  9
$DIMTOH
 70
     0
  9
$DIMSE1
 70
     0
  9
$DIMSE2
 70
     0
  9
$DIMTAD
 70
     1
  9
$DIMZIN
 70
     8
  9
$DIMBLK
  1
DOT1
  9
$DIMASO
 70
     1
  9
$DIMSHO
 70
     0
  9
$DIMPOST
  1

  9
$DIMAPOST
  1

  9
$DIMALT
 70
     0
  9
$DIMALTD
 70
     2
  9
$DIMALTF
 40
25.4
  9
$DIMLFAC
 40
1.0
  9
$DIMTOFL
 70
     1
  9
$DIMTVP
 40
0.0
  9
$DIMTIX
 70
     1
  9
$DIMSOXD
 70
     0
  9
$DIMSAH
 70
     1
  9
$DIMBLK1
  1
_ORIGIN
  9
$DIMBLK2
  1
_ORIGIN
  9
$DIMSTYLE
  2
STANDARD
  9
$DIMCLRD
 70
     7
  9
$DIMCLRE
 70
     7
  9
$DIMCLRT
 70
     7
  9
$DIMTFAC
 40
1.0
  9
$DIMGAP
 40
25.0
  9
$LUNITS
 70
     2
  9
$LUPREC
 70
     4
  9
$SKETCHINC
 40
0.1
  9
$FILLETRAD
 40
3.0
  9
$AUNITS
 70
     1
  9
$AUPREC
 70
     3
  9
$MENU
  1
ACAD
  9
$ELEVATION
 40
0.0
  9
$PELEVATION
 40
0.0
  9
$THICKNESS
 40
50.0
  9
$LIMCHECK
 70
     0
  9
$BLIPMODE
 70
     0
  9
$CHAMFERA
 40
0.0
  9
$CHAMFERB
 40
0.0
  9
$SKPOLY
 70
     0
  9
$TDCREATE
 40
2453019.62301037
  9
$TDUPDATE
 40
2455399.438285671
  9
$TDINDWG
 40
1.6726669097
  9
$TDUSRTIMER
 40
1.6726669097
  9
$USRTIMER
 70
     1
  9
$ANGBASE
 50
0.0
  9
$ANGDIR
 70
     0
  9
$PDMODE
 70
     3
  9
$PDSIZE
 40
-2.0
  9
$PLINEWID
 40
0.0
  9
$COORDS
 70
     2
  9
$SPLFRAME
 70
     0
  9
$SPLINETYPE
 70
     6
  9
$SPLINESEGS
 70
     8
  9
$ATTDIA
 70
     0
  9
$ATTREQ
 70
     1
  9
$HANDLING
 70
     0
  9
$HANDSEED
  5
EA0B
  9
$SURFTAB1
 70
     6
  9
$SURFTAB2
 70
     6
  9
$SURFTYPE
 70
     6
  9
$SURFU
 70
     6
  9
$SURFV
 70
     6
  9
$UCSNAME
  2

  9
$UCSORG
 10
0.0
 20
0.0
 30
0.0
  9
$UCSXDIR
 10
1.0
 20
0.0
 30
0.0
  9
$UCSYDIR
 10
0.0
 20
1.0
 30
0.0
  9
$PUCSNAME
  2

  9
$PUCSORG
 10
0.0
 20
0.0
 30
0.0
  9
$PUCSXDIR
 10
1.0
 20
0.0
 30
0.0
  9
$PUCSYDIR
 10
0.0
 20
1.0
 30
0.0
  9
$USERI1
 70
     0
  9
$USERI2
 70
     0
  9
$USERI3
 70
     0
  9
$USERI4
 70
     0
  9
$USERI5
 70
     0
  9
$USERR1
 40
20.0
  9
$USERR2
 40
0.0
  9
$USERR3
 40
0.0
  9
$USERR4
 40
0.0
  9
$USERR5
 40
0.0
  9
$WORLDVIEW
 70
     1
  9
$SHADEDGE
 70
     3
  9
$SHADEDIF
 70
    70
  9
$TILEMODE
 70
     1
  9
$MAXACTVP
 70
    48
  9
$PINSBASE
 10
0.0
 20
0.0
 30
0.0
  9
$PLIMCHECK
 70
     0
  9
$PEXTMIN
 10
-100000000000000000000.0
 20
-100000000000000000000.0
 30
-100000000000000000000.0
  9
$PEXTMAX
 10
100000000000000000000.0
 20
100000000000000000000.0
 30
100000000000000000000.0
  9
$PLIMMIN
 10
0.0
 20
0.0
  9
$PLIMMAX
 10
12.0
 20
9.0
  9
$UNITMODE
 70
     0
  9
$VISRETAIN
 70
     0
  9
$PLINEGEN
 70
     0
  9
$PSLTSCALE
 70
     0
  9
$TREEDEPTH
 70
  3020
  0
ENDSEC
  0
SECTION
  2
TABLES
  0
TABLE
  2
LTYPE
 70
     2
  0
LTYPE
  2
CONTINUOUS
 70
     0
  3
実線
 72
    65
 73
     0
 40
0.0
  0
LTYPE
  2
DASHDOT
 70
     0
  3
____ _ ____ _ ____ _ ____ _ ____ _ ____ _ ____
 72
    65
 73
     4
 40
5.5
 49
4.0
 49
-0.6
 49
0.3
 49
-0.6
  0
ENDTAB
  0
TABLE
  2
LAYER
 70
    12
  0
LAYER
  2
0
 70
     0
 62
     7
  6
CONTINUOUS
  0
LAYER
  2
BASIS
 70
     0
 62
     6
  6
DASHDOT
  0
LAYER
  2
OUTLINE
 70
     0
 62
     3
  6
CONTINUOUS
  0
LAYER
  2
DETAIL
 70
     0
 62
     5
  6
CONTINUOUS
  0
LAYER
  2
SIZE
 70
     0
 62
    30
  6
CONTINUOUS
  0
LAYER
  2
ARRANGE
 70
     0
 62
     1
  6
CONTINUOUS
  0
LAYER
  2
DEFPOINTS
 70
     0
 62
     7
  6
CONTINUOUS
  0
LAYER
  2
ETC
 70
     0
 62
    61
  6
CONTINUOUS
  0
LAYER
  2
FIX
 70
     0
 62
    11
  6
CONTINUOUS
  0
LAYER
  2
NOTE
 70
     0
 62
     4
  6
CONTINUOUS
  0
LAYER
  2
SERVICESPACE
 70
    64
 62
     2
  6
DASHDOT
  0
LAYER
  2
SYMBOLLINE
 70
    64
 62
    15
  6
CONTINUOUS
  0
ENDTAB
  0
TABLE
  2
STYLE
 70
     1
  0
STYLE
  2
STANDARD
 70
     0
 40
64.0
 41
0.9
 50
0.0
 71
     0
 42
64.0
  3
SIMPLEX.shx
  4
BIGFONT.shx
  0
ENDTAB
  0
TABLE
  2
APPID
 70
    15
  0
APPID
  2
ACAD
 70
     0
  0
APPID
  2
AUTOCAD_POSTSCRIPT_FIGURE
 70
     0
  0
APPID
  2
ACAD_EXEMPT_FROM_CAD_STANDARDS
 70
     0
  0
APPID
  2
ACAD_PSEXT
 70
     0
  0
APPID
  2
ACAUTHENVIRON
 70
     0
  0
APPID
  2
GENIUS_GENOENT_13
 70
     0
  0
APPID
  2
GENIUS_GENCFG_13
 70
     0
  0
APPID
  2
GENIUS_GENCFG0_13
 70
     0
  0
APPID
  2
GENIUS_GENCFG1_13
 70
     0
  0
APPID
  2
GENIUS_GENCFG2_13
 70
     0
  0
APPID
  2
GENIUS_GENCFG3_13
 70
     0
  0
APPID
  2
GENIUS_GENCFG4_13
 70
     0
  0
APPID
  2
GENIUS_GEVCFG0_13
 70
     0
  0
APPID
  2
CONTENTBLOCKICON
 70
     0
  0
APPID
  2
CONTENTBLOCKDESCRIPTION
 70
     0
  0
ENDTAB
  0
TABLE
  2
DIMSTYLE
 70
     1
  0
DIMSTYLE
  2
STANDARD
 70
     0
  3

  4

  5

  6

  7

 40
1.0
 41
0.18
 42
0.0625
 43
0.38
 44
0.18
 45
0.0
 46
0.0
 47
0.0
 48
0.0
140
0.18
141
0.09
142
0.0
143
25.4
144
1.0
145
0.0
146
1.0
147
0.09
 71
     0
 72
     0
 73
     1
 74
     1
 75
     0
 76
     0
 77
     0
 78
     0
170
     0
171
     2
172
     0
173
     0
174
     0
175
     0
176
     7
177
     7
178
     7
  0
ENDTAB
  0
TABLE
  2
VIEW
 70
     1
  0
VIEW
  2
ALL
 70
     0
 40
4282.619808
 10
0.0
 20
41.309904
 41
5940.0
 11
0.0
 21
0.0
 31
1.0
 12
0.0
 22
0.0
 32
0.0
 42
50.0
 43
0.0
 44
0.0
 50
0.0
 71
     0
  0
ENDTAB
  0
TABLE
  2
UCS
 70
     0
  0
ENDTAB
  0
TABLE
  2
VPORT
 70
     1
  0
VPORT
  2
*ACTIVE
 70
     0
 10
0.0
 20
0.0
 11
1.0
 21
1.0
 12
222.061171
 22
194.343577
 13
0.0
 23
0.0
 14
1.0
 24
1.0
 15
0.0
 25
0.0
 16
0.0
 26
0.0
 36
1.0
 17
0.0
 27
0.0
 37
0.0
 40
1733.548883
 41
1.629679
 42
50.0
 43
0.0
 44
0.0
 50
0.0
 51
0.0
 71
     0
 72
  1000
 73
     1
 74
     0
 75
     0
 76
     0
 77
     0
 78
     0
  0
ENDTAB
  0
ENDSEC
  0
SECTION
  2
BLOCKS
  0
BLOCK
  8
0
  2
DOT1
 70
     0
 10
0.0
 20
0.0
 30
0.0
  3
DOT1
  1

  0
CIRCLE
  8
SIZE
  6
CONTINUOUS
 62
     7
 10
0.0
 20
0.0
 30
0.0
 40
3.0
  0
ENDBLK
  8
0
  0
BLOCK
  8
0
  2
_ORIGIN
 70
     0
 10
0.0
 20
0.0
 30
0.0
  3
_ORIGIN
  1

  0
CIRCLE
  8
0
  6
CONTINUOUS
 62
     7
 10
0.0
 20
0.0
 30
0.0
 40
0.5
  0
LINE
  8
0
  6
CONTINUOUS
 62
     7
 10
0.0
 20
0.0
 30
0.0
 11
-1.0
 21
0.0
 31
0.0
  0
ENDBLK
  8
0
  0
ENDSEC
  0
SECTION
  2
ENTITIES
  0
TEXT
  8
ETC
  6
CONTINUOUS
 62
    61
 10
915.81505
 20
990.147516
 30
0.0
 40
64.0
  1
PS-50RC3_5
 41
0.9
  0
TEXT
  8
ETC
  6
CONTINUOUS
 62
    61
 10
911.629056
 20
872.192206
 30
0.0
 40
64.0
  1
システム部材
 41
0.9
  0
TEXT
  8
ETC
  6
CONTINUOUS
 62
    61
 10
962.236558
 20
765.27127
 30
0.0
 40
40.0
  1
PS-50RC3
 41
0.9
  0
CIRCLE
  8
ARRANGE
  6
CONTINUOUS
 62
     1
 10
0.0
 20
0.0
 30
0.0
 40
40.0
  0
POINT
  8
ARRANGE
  6
CONTINUOUS
 62
     1
 10
0.0
 20
0.0
 30
0.0
 39
50.0
  0
LINE
  8
BASIS
  6
DASHDOT
 62
     6
 39
50.0
 10
142.246649
 20
0.0
 30
0.0
 11
-150.695326
 21
0.0
 31
0.0
  0
LINE
  8
NOTE
  6
CONTINUOUS
 62
     4
 39
50.0
 10
623.118442
 20
399.938627
 30
0.0
 11
768.863548
 21
571.192938
 31
0.0
  0
LINE
  8
NOTE
  6
CONTINUOUS
 62
     4
 39
50.0
 10
768.863548
 20
571.192938
 30
0.0
 11
1292.096082
 21
571.192938
 31
0.0
  0
TEXT
  8
NOTE
  6
CONTINUOUS
 62
     4
 10
797.788837
 20
588.994057
 30
0.0
 40
64.0
  1
4-M12ボルト
 41
0.9
  0
LINE
  8
NOTE
  6
CONTINUOUS
 62
     4
 10
28.861758
 20
280.0604
 30
0.0
 11
-14.71373
 21
280.0604
 31
0.0
  0
LINE
  8
NOTE
  6
CONTINUOUS
 62
     4
 10
21.61523
 20
-280.0604
 30
0.0
 11
-17.34362
 21
-280.0604
 31
0.0
  0
LINE
  8
NOTE
  6
CONTINUOUS
 62
     4
 10
587.605248
 20
-167.36666
 30
0.0
 11
639.79384
 21
-167.36666
 31
0.0
  0
LINE
  8
NOTE
  6
CONTINUOUS
 62
     4
 10
587.605248
 20
392.633842
 30
0.0
 11
639.79384
 21
392.633842
 31
0.0
  0
LINE
  8
OUTLINE
  6
CONTINUOUS
 62
     3
 10
599.779889
 20
429.157765
 30
0.0
 11
221.318177
 21
429.157765
 31
0.0
  0
LINE
  8
OUTLINE
  6
CONTINUOUS
 62
     3
 10
633.260631
 20
-229.987564
 30
0.0
 11
630.73523
 21
-201.122176
 31
0.0
  0
LINE
  8
OUTLINE
  6
CONTINUOUS
 62
     3
 10
39.118308
 20
-265.754779
 30
0.0
 11
4.869856
 21
-265.754779
 31
0.0
  0
LINE
  8
OUTLINE
  6
CONTINUOUS
 62
     3
 10
39.118308
 20
-265.754779
 30
0.0
 11
633.260631
 21
-229.987564
 31
0.0
  0
LINE
  8
OUTLINE
  6
CONTINUOUS
 62
     3
 10
97.094016
 20
265.754779
 30
0.0
 11
4.869856
 21
265.754779
 31
0.0
  0
LINE
  8
OUTLINE
  6
CONTINUOUS
 62
     3
 10
97.094016
 20
425.505373
 30
0.0
 11
97.094016
 21
265.754779
 31
0.0
  0
LINE
  8
OUTLINE
  6
CONTINUOUS
 62
     3
 10
632.894806
 20
398.721071
 30
0.0
 11
631.677326
 21
399.93852
 31
0.0
  0
LINE
  8
OUTLINE
  6
CONTINUOUS
 62
     3
 10
112.92105
 20
437.680013
 30
0.0
 11
218.883248
 21
437.680013
 31
0.0
  0
LINE
  8
OUTLINE
  6
CONTINUOUS
 62
     3
 10
631.677448
 20
399.938627
 30
0.0
 11
599.779889
 21
399.938627
 31
0.0
  0
LINE
  8
OUTLINE
  6
CONTINUOUS
 62
     3
 10
631.677448
 20
385.329058
 30
0.0
 11
599.779889
 21
385.329058
 31
0.0
  0
LINE
  8
OUTLINE
  6
CONTINUOUS
 62
     3
 10
112.92105
 20
437.680013
 30
0.0
 11
36.523923
 21
452.029295
 31
0.0
  0
LINE
  8
OUTLINE
  6
CONTINUOUS
 62
     3
 10
0.0
 20
266.972243
 30
0.0
 11
0.0
 21
298.148558
 31
0.0
  0
LINE
  8
OUTLINE
  6
CONTINUOUS
 62
     3
 10
4.869856
 20
-266.972243
 30
0.0
 11
4.869856
 21
-265.754779
 31
0.0
  0
LINE
  8
OUTLINE
  6
CONTINUOUS
 62
     3
 10
4.869856
 20
265.754779
 30
0.0
 11
4.869856
 21
266.972243
 31
0.0
  0
LINE
  8
OUTLINE
  6
CONTINUOUS
 62
     3
 10
17.044497
 20
266.972243
 30
0.0
 11
19.479425
 21
269.407171
 31
0.0
  0
LINE
  8
OUTLINE
  6
CONTINUOUS
 62
     3
 10
19.479425
 20
-295.71363
 30
0.0
 11
19.479425
 21
-269.407171
 31
0.0
  0
LINE
  8
OUTLINE
  6
CONTINUOUS
 62
     3
 10
19.479425
 20
269.407171
 30
0.0
 11
19.479425
 21
295.71363
 31
0.0
  0
LINE
  8
OUTLINE
  6
CONTINUOUS
 62
     3
 10
19.479425
 20
303.018414
 30
0.0
 11
19.479425
 21
300.583486
 31
0.0
  0
LINE
  8
OUTLINE
  6
CONTINUOUS
 62
     3
 10
19.479425
 20
-300.583486
 30
0.0
 11
19.479425
 21
-303.018414
 31
0.0
  0
LINE
  8
OUTLINE
  6
CONTINUOUS
 62
     3
 10
4.869856
 20
303.018414
 30
0.0
 11
19.479425
 21
303.018414
 31
0.0
  0
LINE
  8
OUTLINE
  6
CONTINUOUS
 62
     3
 10
19.479425
 20
300.583486
 30
0.0
 11
4.869856
 21
300.583486
 31
0.0
  0
LINE
  8
OUTLINE
  6
CONTINUOUS
 62
     3
 10
2.434928
 20
298.148558
 30
0.0
 11
17.044497
 21
298.148558
 31
0.0
  0
LINE
  8
OUTLINE
  6
CONTINUOUS
 62
     3
 10
218.883248
 20
437.680013
 30
0.0
 11
221.318177
 21
435.245085
 31
0.0
  0
LINE
  8
OUTLINE
  6
CONTINUOUS
 62
     3
 10
4.869856
 20
266.972243
 30
0.0
 11
17.044497
 21
266.972243
 31
0.0
  0
LINE
  8
OUTLINE
  6
CONTINUOUS
 62
     3
 10
632.894806
 20
-161.279446
 30
0.0
 11
631.677326
 21
-160.061997
 31
0.0
  0
LINE
  8
OUTLINE
  6
CONTINUOUS
 62
     3
 10
221.318177
 20
430.375229
 30
0.0
 11
221.318177
 21
435.245085
 31
0.0
  0
LINE
  8
OUTLINE
  6
CONTINUOUS
 62
     3
 10
19.479425
 20
295.71363
 30
0.0
 11
17.044497
 21
298.148558
 31
0.0
  0
LINE
  8
OUTLINE
  6
CONTINUOUS
 62
     3
 10
36.523923
 20
452.029295
 30
0.0
 11
12.174641
 21
491.727859
 31
0.0
  0
LINE
  8
OUTLINE
  6
CONTINUOUS
 62
     3
 10
632.894806
 20
386.546628
 30
0.0
 11
631.677326
 21
385.329179
 31
0.0
  0
LINE
  8
OUTLINE
  6
CONTINUOUS
 62
     3
 10
17.044497
 20
-298.148558
 30
0.0
 11
19.479425
 21
-295.71363
 31
0.0
  0
LINE
  8
OUTLINE
  6
CONTINUOUS
 62
     3
 10
631.677448
 20
-160.061875
 30
0.0
 11
599.779889
 21
-160.061875
 31
0.0
  0
LINE
  8
OUTLINE
  6
CONTINUOUS
 62
     3
 10
631.677448
 20
-174.671444
 30
0.0
 11
599.779889
 21
-174.671444
 31
0.0
  0
LINE
  8
OUTLINE
  6
CONTINUOUS
 62
     3
 10
17.044497
 20
-266.972243
 30
0.0
 11
4.869856
 21
-266.972243
 31
0.0
  0
LINE
  8
OUTLINE
  6
CONTINUOUS
 62
     3
 10
17.044497
 20
-298.148558
 30
0.0
 11
4.869856
 21
-298.148558
 31
0.0
  0
LINE
  8
OUTLINE
  6
CONTINUOUS
 62
     3
 10
4.869856
 20
-300.583486
 30
0.0
 11
19.479425
 21
-300.583486
 31
0.0
  0
LINE
  8
OUTLINE
  6
CONTINUOUS
 62
     3
 10
19.479425
 20
-303.018414
 30
0.0
 11
4.869856
 21
-303.018414
 31
0.0
  0
LINE
  8
OUTLINE
  6
CONTINUOUS
 62
     3
 10
632.894912
 20
398.721163
 30
0.0
 11
632.894912
 21
386.546522
 31
0.0
  0
LINE
  8
OUTLINE
  6
CONTINUOUS
 62
     3
 10
632.894912
 20
-161.27934
 30
0.0
 11
632.894912
 21
-173.45398
 31
0.0
  0
LINE
  8
OUTLINE
  6
CONTINUOUS
 62
     3
 10
19.479425
 20
-269.407171
 30
0.0
 11
17.044497
 21
-266.972243
 31
0.0
  0
LINE
  8
OUTLINE
  6
CONTINUOUS
 62
     3
 10
632.894806
 20
-173.453889
 30
0.0
 11
631.677326
 21
-174.671338
 31
0.0
  0
ARC
  8
OUTLINE
  6
CONTINUOUS
 62
     3
 10
4.869856
 20
430.375229
 30
0.0
 40
4.869856
 50
180.0
 51
270.0
  0
ARC
  8
OUTLINE
  6
CONTINUOUS
 62
     3
 10
4.869856
 20
298.148558
 30
0.0
 40
4.869856
 50
90.0
 51
180.0
  0
ARC
  8
OUTLINE
  6
CONTINUOUS
 62
     3
 10
4.869856
 20
266.972243
 30
0.0
 40
4.869856
 50
180.0
 51
232.697499
  0
ARC
  8
OUTLINE
  6
CONTINUOUS
 62
     3
 10
3.652392
 20
259.876345
 30
0.0
 40
3.652392
 50
120.0
 51
180.0
  0
ARC
  8
OUTLINE
  6
CONTINUOUS
 62
     3
 10
4.869856
 20
298.148558
 30
0.0
 40
2.434928
 50
90.0
 51
180.0
  0
ARC
  8
OUTLINE
  6
CONTINUOUS
 62
     3
 10
1.217464
 20
264.093762
 30
0.0
 40
1.217464
 50
300.0
 51
0.0
  0
ARC
  8
OUTLINE
  6
CONTINUOUS
 62
     3
 10
-98.772437
 20
261.128415
 30
0.0
 40
0.973971
 50
90.0
 51
270.0
  0
ARC
  8
OUTLINE
  6
CONTINUOUS
 62
     3
 10
3.652392
 20
-259.876345
 30
0.0
 40
3.652392
 50
217.551552
 51
240.0
  0
ARC
  8
OUTLINE
  6
CONTINUOUS
 62
     3
 10
1.217464
 20
-264.093762
 30
0.0
 40
1.217464
 50
0.0
 51
60.0
  0
ARC
  8
OUTLINE
  6
CONTINUOUS
 62
     3
 10
-98.772437
 20
-261.128415
 30
0.0
 40
0.973971
 50
90.0
 51
270.0
  0
LINE
  8
OUTLINE
  6
CONTINUOUS
 62
     3
 10
0.0
 20
526.251781
 30
0.0
 11
9.739713
 21
526.251781
 31
0.0
  0
LINE
  8
OUTLINE
  6
CONTINUOUS
 62
     3
 10
-99.746409
 20
237.753105
 30
0.0
 11
-99.746409
 21
-237.753105
 31
0.0
  0
LINE
  8
OUTLINE
  6
CONTINUOUS
 62
     3
 10
-98.772437
 20
262.102387
 30
0.0
 11
-98.772437
 21
237.753105
 31
0.0
  0
LINE
  8
OUTLINE
  6
CONTINUOUS
 62
     3
 10
-98.772437
 20
-240.188033
 30
0.0
 11
-98.772437
 21
-262.102387
 31
0.0
  0
LINE
  8
OUTLINE
  6
CONTINUOUS
 62
     3
 10
-98.772437
 20
-237.753105
 30
0.0
 11
-98.772437
 21
-240.188033
 31
0.0
  0
LINE
  8
OUTLINE
  6
CONTINUOUS
 62
     3
 10
4.869856
 20
425.505373
 30
0.0
 11
97.094016
 21
425.505373
 31
0.0
  0
LINE
  8
OUTLINE
  6
CONTINUOUS
 62
     3
 10
0.0
 20
-298.148558
 30
0.0
 11
0.0
 21
-266.972243
 31
0.0
  0
LINE
  8
OUTLINE
  6
CONTINUOUS
 62
     3
 10
0.0
 20
526.251781
 30
0.0
 11
0.0
 21
430.375229
 31
0.0
  0
LINE
  8
OUTLINE
  6
CONTINUOUS
 62
     3
 10
12.174641
 20
523.816853
 30
0.0
 11
12.174641
 21
491.727859
 31
0.0
  0
LINE
  8
OUTLINE
  6
CONTINUOUS
 62
     3
 10
0.756882
 20
262.102387
 30
0.0
 11
-98.772437
 21
262.102387
 31
0.0
  0
LINE
  8
OUTLINE
  6
CONTINUOUS
 62
     3
 10
-98.772437
 20
237.753105
 30
0.0
 11
-99.746424
 21
237.753105
 31
0.0
  0
LINE
  8
OUTLINE
  6
CONTINUOUS
 62
     3
 10
9.739713
 20
526.251781
 30
0.0
 11
12.174641
 21
523.816853
 31
0.0
  0
LINE
  8
OUTLINE
  6
CONTINUOUS
 62
     3
 10
221.318177
 20
429.157765
 30
0.0
 11
221.318177
 21
430.375229
 31
0.0
  0
LINE
  8
OUTLINE
  6
CONTINUOUS
 62
     3
 10
-98.772437
 20
-237.753105
 30
0.0
 11
-99.746424
 21
-237.753105
 31
0.0
  0
LINE
  8
OUTLINE
  6
CONTINUOUS
 62
     3
 10
0.756756
 20
-262.102387
 30
0.0
 11
-98.772437
 21
-262.102387
 31
0.0
  0
LINE
  8
OUTLINE
  6
CONTINUOUS
 62
     3
 10
599.779889
 20
-202.784271
 30
0.0
 11
599.779889
 21
-174.671444
 31
0.0
  0
ARC
  8
OUTLINE
  6
CONTINUOUS
 62
     3
 10
4.869856
 20
-298.148558
 30
0.0
 40
4.869856
 50
180.0
 51
270.0
  0
ARC
  8
OUTLINE
  6
CONTINUOUS
 62
     3
 10
4.869856
 20
-266.972243
 30
0.0
 40
4.869856
 50
127.302501
 51
180.0
  0
ARC
  8
OUTLINE
  6
CONTINUOUS
 62
     3
 10
4.869856
 20
-298.148558
 30
0.0
 40
2.434928
 50
180.0
 51
270.0
  0
LINE
  8
SIZE
  6
CONTINUOUS
 62
    30
 10
633.699544
 20
392.633842
 30
0.0
 11
788.86341
 21
392.633842
 31
0.0
  0
LINE
  8
SIZE
  6
CONTINUOUS
 62
    30
 10
633.699544
 20
-167.36666
 30
0.0
 11
788.86341
 21
-167.36666
 31
0.0
  0
LINE
  8
SIZE
  6
CONTINUOUS
 62
    30
 10
768.86341
 20
380.633842
 30
0.0
 11
768.86341
 21
-155.36666
 31
0.0
  0
CIRCLE
  8
SIZE
  6
CONTINUOUS
 62
    30
 10
768.86341
 20
392.633842
 30
0.0
 40
6.0
  0
LINE
  8
SIZE
  6
CONTINUOUS
 62
    30
 10
768.86341
 20
392.633842
 30
0.0
 11
768.86341
 21
380.633842
 31
0.0
  0
CIRCLE
  8
SIZE
  6
CONTINUOUS
 62
    30
 10
768.86341
 20
-167.36666
 30
0.0
 40
6.0
  0
LINE
  8
SIZE
  6
CONTINUOUS
 62
    30
 10
768.86341
 20
-167.36666
 30
0.0
 11
768.86341
 21
-155.36666
 31
0.0
  0
TEXT
  8
SIZE
  6
CONTINUOUS
 62
    30
 10
743.86341
 20
31.705591
 30
0.0
 40
64.0
  1
560
 50
90.0
 41
0.9
 51
0.0
  7
STANDARD
 71
     0
 72
     1
 11
743.86341
 21
112.633591
 31
0.0
210
0.0
220
0.0
230
1.0
  0
POINT
  8
DEFPOINTS
  6
CONTINUOUS
 62
    30
 10
613.699544
 20
392.633842
 30
0.0
  0
POINT
  8
DEFPOINTS
  6
CONTINUOUS
 62
    30
 10
613.699544
 20
-167.36666
 30
0.0
  0
POINT
  8
DEFPOINTS
  6
CONTINUOUS
 62
    30
 10
768.86341
 20
-167.36666
 30
0.0
  0
LINE
  8
SIZE
  6
CONTINUOUS
 62
    30
 10
-15.130144
 20
303.018414
 30
0.0
 11
-634.70402
 21
303.018414
 31
0.0
  0
LINE
  8
SIZE
  6
CONTINUOUS
 62
    30
 10
-10.785436
 20
-303.018414
 30
0.0
 11
-634.70402
 21
-303.018414
 31
0.0
  0
LINE
  8
SIZE
  6
CONTINUOUS
 62
    30
 10
-614.70402
 20
291.018414
 30
0.0
 11
-614.70402
 21
-291.018414
 31
0.0
  0
CIRCLE
  8
SIZE
  6
CONTINUOUS
 62
    30
 10
-614.70402
 20
303.018414
 30
0.0
 40
6.0
  0
LINE
  8
SIZE
  6
CONTINUOUS
 62
    30
 10
-614.70402
 20
303.018414
 30
0.0
 11
-614.70402
 21
291.018414
 31
0.0
  0
CIRCLE
  8
SIZE
  6
CONTINUOUS
 62
    30
 10
-614.70402
 20
-303.018414
 30
0.0
 40
6.0
  0
LINE
  8
SIZE
  6
CONTINUOUS
 62
    30
 10
-614.70402
 20
-303.018414
 30
0.0
 11
-614.70402
 21
-291.018414
 31
0.0
  0
TEXT
  8
SIZE
  6
CONTINUOUS
 62
    30
 10
-639.70402
 20
-80.928
 30
0.0
 40
64.0
  1
606
 50
90.0
 41
0.9
 51
0.0
  7
STANDARD
 71
     0
 72
     1
 11
-639.70402
 21
0.0
 31
0.0
210
0.0
220
0.0
230
1.0
  0
POINT
  8
DEFPOINTS
  6
CONTINUOUS
 62
    30
 10
4.869856
 20
303.018414
 30
0.0
  0
POINT
  8
DEFPOINTS
  6
CONTINUOUS
 62
    30
 10
9.214564
 20
-303.018414
 30
0.0
  0
POINT
  8
DEFPOINTS
  6
CONTINUOUS
 62
    30
 10
-614.70402
 20
-303.018414
 30
0.0
  0
LINE
  8
SIZE
  6
CONTINUOUS
 62
    30
 10
-78.600949
 20
262.102387
 30
0.0
 11
-220.815774
 21
262.102387
 31
0.0
  0
LINE
  8
SIZE
  6
CONTINUOUS
 62
    30
 10
-80.007778
 20
-262.102387
 30
0.0
 11
-220.815774
 21
-262.102387
 31
0.0
  0
LINE
  8
SIZE
  6
CONTINUOUS
 62
    30
 10
-200.815774
 20
250.102387
 30
0.0
 11
-200.815774
 21
-250.102387
 31
0.0
  0
CIRCLE
  8
SIZE
  6
CONTINUOUS
 62
    30
 10
-200.815774
 20
262.102387
 30
0.0
 40
6.0
  0
LINE
  8
SIZE
  6
CONTINUOUS
 62
    30
 10
-200.815774
 20
262.102387
 30
0.0
 11
-200.815774
 21
250.102387
 31
0.0
  0
CIRCLE
  8
SIZE
  6
CONTINUOUS
 62
    30
 10
-200.815774
 20
-262.102387
 30
0.0
 40
6.0
  0
LINE
  8
SIZE
  6
CONTINUOUS
 62
    30
 10
-200.815774
 20
-262.102387
 30
0.0
 11
-200.815774
 21
-250.102387
 31
0.0
  0
TEXT
  8
SIZE
  6
CONTINUOUS
 62
    30
 10
-225.815774
 20
-80.928
 30
0.0
 40
64.0
  1
524
 50
90.0
 41
0.9
 51
0.0
  7
STANDARD
 71
     0
 72
     1
 11
-225.815774
 21
0.0
 31
0.0
210
0.0
220
0.0
230
1.0
  0
POINT
  8
DEFPOINTS
  6
CONTINUOUS
 62
    30
 10
-58.600949
 20
262.102387
 30
0.0
  0
POINT
  8
DEFPOINTS
  6
CONTINUOUS
 62
    30
 10
-60.007778
 20
-262.102387
 30
0.0
  0
POINT
  8
DEFPOINTS
  6
CONTINUOUS
 62
    30
 10
-200.815774
 20
-262.102387
 30
0.0
  0
LINE
  8
SIZE
  6
CONTINUOUS
 62
    30
 10
5.354875
 20
425.505373
 30
0.0
 11
-775.178779
 21
425.505373
 31
0.0
  0
LINE
  8
SIZE
  6
CONTINUOUS
 62
    30
 10
-7.825359
 20
-303.018414
 30
0.0
 11
-775.178779
 21
-303.018414
 31
0.0
  0
LINE
  8
SIZE
  6
CONTINUOUS
 62
    30
 10
-755.178779
 20
413.505373
 30
0.0
 11
-755.178779
 21
-291.018414
 31
0.0
  0
CIRCLE
  8
SIZE
  6
CONTINUOUS
 62
    30
 10
-755.178779
 20
425.505373
 30
0.0
 40
6.0
  0
LINE
  8
SIZE
  6
CONTINUOUS
 62
    30
 10
-755.178779
 20
425.505373
 30
0.0
 11
-755.178779
 21
413.505373
 31
0.0
  0
CIRCLE
  8
SIZE
  6
CONTINUOUS
 62
    30
 10
-755.178779
 20
-303.018414
 30
0.0
 40
6.0
  0
LINE
  8
SIZE
  6
CONTINUOUS
 62
    30
 10
-755.178779
 20
-303.018414
 30
0.0
 11
-755.178779
 21
-291.018414
 31
0.0
  0
TEXT
  8
SIZE
  6
CONTINUOUS
 62
    30
 10
-780.178779
 20
-19.108521
 30
0.0
 40
64.0
  1
729
 50
90.0
 41
0.9
 51
0.0
  7
STANDARD
 71
     0
 72
     1
 11
-780.178779
 21
61.243479
 31
0.0
210
0.0
220
0.0
230
1.0
  0
POINT
  8
DEFPOINTS
  6
CONTINUOUS
 62
    30
 10
25.354875
 20
425.505373
 30
0.0
  0
POINT
  8
DEFPOINTS
  6
CONTINUOUS
 62
    30
 10
12.174641
 20
-303.018414
 30
0.0
  0
POINT
  8
DEFPOINTS
  6
CONTINUOUS
 62
    30
 10
-755.178779
 20
-303.018414
 30
0.0
  0
LINE
  8
SIZE
  6
CONTINUOUS
 62
    30
 10
-20.0
 20
526.251781
 30
0.0
 11
-915.653546
 21
526.251781
 31
0.0
  0
LINE
  8
SIZE
  6
CONTINUOUS
 62
    30
 10
-7.825359
 20
-303.018414
 30
0.0
 11
-915.653546
 21
-303.018414
 31
0.0
  0
LINE
  8
SIZE
  6
CONTINUOUS
 62
    30
 10
-895.653546
 20
514.251781
 30
0.0
 11
-895.653546
 21
-291.018414
 31
0.0
  0
CIRCLE
  8
SIZE
  6
CONTINUOUS
 62
    30
 10
-895.653546
 20
526.251781
 30
0.0
 40
6.0
  0
LINE
  8
SIZE
  6
CONTINUOUS
 62
    30
 10
-895.653546
 20
526.251781
 30
0.0
 11
-895.653546
 21
514.251781
 31
0.0
  0
CIRCLE
  8
SIZE
  6
CONTINUOUS
 62
    30
 10
-895.653546
 20
-303.018414
 30
0.0
 40
6.0
  0
LINE
  8
SIZE
  6
CONTINUOUS
 62
    30
 10
-895.653546
 20
-303.018414
 30
0.0
 11
-895.653546
 21
-291.018414
 31
0.0
  0
TEXT
  8
SIZE
  6
CONTINUOUS
 62
    30
 10
-920.653546
 20
53.264684
 30
0.0
 40
64.0
  1
829
 50
90.0
 41
0.9
 51
0.0
  7
STANDARD
 71
     0
 72
     1
 11
-920.653546
 21
133.616684
 31
0.0
210
0.0
220
0.0
230
1.0
  0
POINT
  8
DEFPOINTS
  6
CONTINUOUS
 62
    30
 10
0.0
 20
526.251781
 30
0.0
  0
POINT
  8
DEFPOINTS
  6
CONTINUOUS
 62
    30
 10
12.174641
 20
-303.018414
 30
0.0
  0
POINT
  8
DEFPOINTS
  6
CONTINUOUS
 62
    30
 10
-895.653546
 20
-303.018414
 30
0.0
  0
LINE
  8
SIZE
  6
CONTINUOUS
 62
    30
 10
0.0
 20
546.251781
 30
0.0
 11
0.0
 21
630.851416
 31
0.0
  0
LINE
  8
SIZE
  6
CONTINUOUS
 62
    30
 10
97.094016
 20
445.505373
 30
0.0
 11
97.094016
 21
630.851416
 31
0.0
  0
LINE
  8
SIZE
  6
CONTINUOUS
 62
    30
 10
12.0
 20
610.851416
 30
0.0
 11
85.094016
 21
610.851416
 31
0.0
  0
LINE
  8
SIZE
  6
CONTINUOUS
 62
    30
 10
97.094016
 20
610.851416
 30
0.0
 11
252.351159
 21
610.851416
 31
0.0
  0
CIRCLE
  8
SIZE
  6
CONTINUOUS
 62
    30
 10
0.0
 20
610.851416
 30
0.0
 40
6.0
  0
LINE
  8
SIZE
  6
CONTINUOUS
 62
    30
 10
0.0
 20
610.851416
 30
0.0
 11
12.0
 21
610.851416
 31
0.0
  0
CIRCLE
  8
SIZE
  6
CONTINUOUS
 62
    30
 10
97.094016
 20
610.851416
 30
0.0
 40
6.0
  0
LINE
  8
SIZE
  6
CONTINUOUS
 62
    30
 10
97.094016
 20
610.851416
 30
0.0
 11
85.094016
 21
610.851416
 31
0.0
  0
TEXT
  8
SIZE
  6
CONTINUOUS
 62
    30
 10
127.154588
 20
635.851416
 30
0.0
 40
64.0
  1
97
 50
0.0
 41
0.9
 51
0.0
  7
STANDARD
 71
     0
 72
     1
 11
180.722588
 21
635.851416
 31
0.0
210
0.0
220
0.0
230
1.0
  0
POINT
  8
DEFPOINTS
  6
CONTINUOUS
 62
    30
 10
0.0
 20
526.251781
 30
0.0
  0
POINT
  8
DEFPOINTS
  6
CONTINUOUS
 62
    30
 10
97.094016
 20
425.505373
 30
0.0
  0
POINT
  8
DEFPOINTS
  6
CONTINUOUS
 62
    30
 10
97.094016
 20
610.851416
 30
0.0
  0
LINE
  8
SIZE
  6
CONTINUOUS
 62
    30
 10
0.0
 20
546.251781
 30
0.0
 11
0.0
 21
774.444672
 31
0.0
  0
LINE
  8
SIZE
  6
CONTINUOUS
 62
    30
 10
599.779904
 20
449.157765
 30
0.0
 11
599.779904
 21
774.444672
 31
0.0
  0
LINE
  8
SIZE
  6
CONTINUOUS
 62
    30
 10
12.0
 20
754.444672
 30
0.0
 11
587.779904
 21
754.444672
 31
0.0
  0
CIRCLE
  8
SIZE
  6
CONTINUOUS
 62
    30
 10
0.0
 20
754.444672
 30
0.0
 40
6.0
  0
LINE
  8
SIZE
  6
CONTINUOUS
 62
    30
 10
0.0
 20
754.444672
 30
0.0
 11
12.0
 21
754.444672
 31
0.0
  0
CIRCLE
  8
SIZE
  6
CONTINUOUS
 62
    30
 10
599.779904
 20
754.444672
 30
0.0
 40
6.0
  0
LINE
  8
SIZE
  6
CONTINUOUS
 62
    30
 10
599.779904
 20
754.444672
 30
0.0
 11
587.779904
 21
754.444672
 31
0.0
  0
TEXT
  8
SIZE
  6
CONTINUOUS
 62
    30
 10
218.385952
 20
779.444672
 30
0.0
 40
64.0
  1
600
 50
0.0
 41
0.9
 51
0.0
  7
STANDARD
 71
     0
 72
     1
 11
299.889952
 21
779.444672
 31
0.0
210
0.0
220
0.0
230
1.0
  0
POINT
  8
DEFPOINTS
  6
CONTINUOUS
 62
    30
 10
0.0
 20
526.251781
 30
0.0
  0
POINT
  8
DEFPOINTS
  6
CONTINUOUS
 62
    30
 10
599.779904
 20
429.157765
 30
0.0
  0
POINT
  8
DEFPOINTS
  6
CONTINUOUS
 62
    30
 10
599.779904
 20
754.444672
 30
0.0
  0
LINE
  8
SIZE
  6
CONTINUOUS
 62
    30
 10
0.0
 20
-386.11601
 30
0.0
 11
0.0
 21
-526.219501
 31
0.0
  0
LINE
  8
SIZE
  6
CONTINUOUS
 62
    30
 10
-99.746439
 20
-386.11601
 30
0.0
 11
-99.746439
 21
-526.219501
 31
0.0
  0
LINE
  8
SIZE
  6
CONTINUOUS
 62
    30
 10
-87.746439
 20
-506.219501
 30
0.0
 11
-12.0
 21
-506.219501
 31
0.0
  0
LINE
  8
SIZE
  6
CONTINUOUS
 62
    30
 10
0.0
 20
-506.219501
 30
0.0
 11
199.142857
 21
-506.219501
 31
0.0
  0
CIRCLE
  8
SIZE
  6
CONTINUOUS
 62
    30
 10
-99.746439
 20
-506.219501
 30
0.0
 40
6.0
  0
LINE
  8
SIZE
  6
CONTINUOUS
 62
    30
 10
-99.746439
 20
-506.219501
 30
0.0
 11
-87.746439
 21
-506.219501
 31
0.0
  0
CIRCLE
  8
SIZE
  6
CONTINUOUS
 62
    30
 10
0.0
 20
-506.219501
 30
0.0
 40
6.0
  0
LINE
  8
SIZE
  6
CONTINUOUS
 62
    30
 10
0.0
 20
-506.219501
 30
0.0
 11
-12.0
 21
-506.219501
 31
0.0
  0
TEXT
  8
SIZE
  6
CONTINUOUS
 62
    30
 10
29.827429
 20
-481.219501
 30
0.0
 40
64.0
  1
100
 50
0.0
 41
0.9
 51
0.0
  7
STANDARD
 71
     0
 72
     1
 11
105.571429
 21
-481.219501
 31
0.0
210
0.0
220
0.0
230
1.0
  0
POINT
  8
DEFPOINTS
  6
CONTINUOUS
 62
    30
 10
0.0
 20
-366.11601
 30
0.0
  0
POINT
  8
DEFPOINTS
  6
CONTINUOUS
 62
    30
 10
-99.746439
 20
-366.11601
 30
0.0
  0
POINT
  8
DEFPOINTS
  6
CONTINUOUS
 62
    30
 10
-99.746439
 20
-506.219501
 30
0.0
  0
LINE
  8
SIZE
  6
CONTINUOUS
 62
    30
 10
633.260631
 20
-249.987564
 30
0.0
 11
633.260631
 21
-665.453861
 31
0.0
  0
LINE
  8
SIZE
  6
CONTINUOUS
 62
    30
 10
-99.746409
 20
-249.987564
 30
0.0
 11
-99.746409
 21
-665.453861
 31
0.0
  0
LINE
  8
SIZE
  6
CONTINUOUS
 62
    30
 10
621.260631
 20
-645.453861
 30
0.0
 11
-87.746409
 21
-645.453861
 31
0.0
  0
CIRCLE
  8
SIZE
  6
CONTINUOUS
 62
    30
 10
633.260631
 20
-645.453861
 30
0.0
 40
6.0
  0
LINE
  8
SIZE
  6
CONTINUOUS
 62
    30
 10
633.260631
 20
-645.453861
 30
0.0
 11
621.260631
 21
-645.453861
 31
0.0
  0
CIRCLE
  8
SIZE
  6
CONTINUOUS
 62
    30
 10
-99.746409
 20
-645.453861
 30
0.0
 40
6.0
  0
LINE
  8
SIZE
  6
CONTINUOUS
 62
    30
 10
-99.746409
 20
-645.453861
 30
0.0
 11
-87.746409
 21
-645.453861
 31
0.0
  0
TEXT
  8
SIZE
  6
CONTINUOUS
 62
    30
 10
186.405111
 20
-620.453861
 30
0.0
 40
64.0
  1
733
 50
0.0
 41
0.9
 51
0.0
  7
STANDARD
 71
     0
 72
     1
 11
266.757111
 21
-620.453861
 31
0.0
210
0.0
220
0.0
230
1.0
  0
POINT
  8
DEFPOINTS
  6
CONTINUOUS
 62
    30
 10
633.260631
 20
-229.987564
 30
0.0
  0
POINT
  8
DEFPOINTS
  6
CONTINUOUS
 62
    30
 10
-99.746409
 20
-229.987564
 30
0.0
  0
POINT
  8
DEFPOINTS
  6
CONTINUOUS
 62
    30
 10
-99.746409
 20
-645.453861
 30
0.0
  0
LINE
  8
NOTE
  6
CONTINUOUS
 62
     4
 39
50.0
 10
-914.614843
 20
673.454311
 30
0.0
 11
-239.807042
 21
673.454311
 31
0.0
  0
TEXT
  8
NOTE
  6
CONTINUOUS
 62
     4
 10
-885.689554
 20
691.255431
 30
0.0
 40
64.0
  1
AH 4-φ15×23
 41
0.9
  0
LINE
  8
NOTE
  6
CONTINUOUS
 62
     4
 39
50.0
 10
-731.472976
 20
-464.407848
 30
0.0
 11
-242.888905
 21
-464.407848
 31
0.0
  0
TEXT
  8
NOTE
  6
CONTINUOUS
 62
     4
 10
-702.547686
 20
-446.606729
 30
0.0
 40
64.0
  1
AH 4-φ14
 41
0.9
  0
LINE
  8
NOTE
  6
CONTINUOUS
 62
     4
 39
50.0
 10
-239.807042
 20
673.454311
 30
0.0
 11
-4.616922
 21
511.140139
 31
0.0
  0
LINE
  8
NOTE
  6
CONTINUOUS
 62
     4
 39
50.0
 10
-4.616922
 20
511.140139
 30
0.0
 11
-18.703626
 21
537.456395
 31
0.0
  0
LINE
  8
NOTE
  6
CONTINUOUS
 62
     4
 39
50.0
 10
-4.616922
 20
511.140139
 30
0.0
 11
-39.106793
 21
519.79495
 31
0.0
  0
LINE
  8
NOTE
  6
CONTINUOUS
 62
     4
 39
50.0
 10
623.118442
 20
399.938627
 30
0.0
 11
629.045351
 21
416.292326
 31
0.0
  0
LINE
  8
NOTE
  6
CONTINUOUS
 62
     4
 39
50.0
 10
623.118442
 20
399.938627
 30
0.0
 11
638.313956
 21
408.404327
 31
0.0
  0
CIRCLE
  8
FIX
  6
CONTINUOUS
 62
    11
 39
50.0
 10
0.0
 20
-280.0604
 30
0.0
 40
7.0
  0
LINE
  8
NOTE
  6
CONTINUOUS
 62
     4
 39
50.0
 10
-242.888905
 20
-464.407848
 30
0.0
 11
-3.869707
 21
-285.893527
 31
0.0
  0
LINE
  8
NOTE
  6
CONTINUOUS
 62
     4
 39
50.0
 10
-3.869707
 20
-285.893527
 30
0.0
 11
-15.229737
 21
-300.944461
 31
0.0
  0
LINE
  8
NOTE
  6
CONTINUOUS
 62
     4
 39
50.0
 10
-3.869707
 20
-285.893527
 30
0.0
 11
-20.606813
 21
-293.704459
 31
0.0
  0
CIRCLE
  8
FIX
  6
CONTINUOUS
 62
    11
 39
50.0
 10
0.0
 20
280.0604
 30
0.0
 40
7.0
  0
LINE
  8
NOTE
  6
CONTINUOUS
 62
     4
 39
50.0
 10
27.783458
 20
505.878577
 30
0.0
 11
-22.920399
 21
505.878577
 31
0.0
  0
LINE
  8
NOTE
  6
CONTINUOUS
 62
     4
 39
50.0
 10
29.627239
 20
455.878577
 30
0.0
 11
-22.920399
 21
455.878577
 31
0.0
  0
CIRCLE
  8
FIX
  6
CONTINUOUS
 62
    11
 39
50.0
 10
0.0
 20
505.878577
 30
0.0
 40
7.0
  0
CIRCLE
  8
FIX
  6
CONTINUOUS
 62
    11
 39
50.0
 10
0.0
 20
455.878577
 30
0.0
 40
7.0
  0
LINE
  8
SIZE
  6
CONTINUOUS
 62
    30
 10
-34.71373
 20
280.0604
 30
0.0
 11
-497.421868
 21
280.0604
 31
0.0
  0
LINE
  8
SIZE
  6
CONTINUOUS
 62
    30
 10
-37.34362
 20
-280.0604
 30
0.0
 11
-497.421868
 21
-280.0604
 31
0.0
  0
LINE
  8
SIZE
  6
CONTINUOUS
 62
    30
 10
-477.421868
 20
268.0604
 30
0.0
 11
-477.421868
 21
-268.0604
 31
0.0
  0
CIRCLE
  8
SIZE
  6
CONTINUOUS
 62
    30
 10
-477.421868
 20
280.0604
 30
0.0
 40
6.0
  0
LINE
  8
SIZE
  6
CONTINUOUS
 62
    30
 10
-477.421868
 20
280.0604
 30
0.0
 11
-477.421868
 21
268.0604
 31
0.0
  0
CIRCLE
  8
SIZE
  6
CONTINUOUS
 62
    30
 10
-477.421868
 20
-280.0604
 30
0.0
 40
6.0
  0
LINE
  8
SIZE
  6
CONTINUOUS
 62
    30
 10
-477.421868
 20
-280.0604
 30
0.0
 11
-477.421868
 21
-268.0604
 31
0.0
  0
TEXT
  8
SIZE
  6
CONTINUOUS
 62
    30
 10
-502.421868
 20
-80.928
 30
0.0
 40
64.0
  1
560
 50
90.0
 41
0.9
 51
0.0
  7
STANDARD
 71
     0
 72
     1
 11
-502.421868
 21
0.0
 31
0.0
210
0.0
220
0.0
230
1.0
  0
POINT
  8
DEFPOINTS
  6
CONTINUOUS
 62
    30
 10
-14.71373
 20
280.0604
 30
0.0
  0
POINT
  8
DEFPOINTS
  6
CONTINUOUS
 62
    30
 10
-17.34362
 20
-280.0604
 30
0.0
  0
POINT
  8
DEFPOINTS
  6
CONTINUOUS
 62
    30
 10
-477.421868
 20
-280.0604
 30
0.0
  0
LINE
  8
SIZE
  6
CONTINUOUS
 62
    30
 10
-34.71373
 20
280.0604
 30
0.0
 11
-359.409616
 21
280.0604
 31
0.0
  0
LINE
  8
SIZE
  6
CONTINUOUS
 62
    30
 10
-42.920399
 20
455.878577
 30
0.0
 11
-359.409616
 21
455.878577
 31
0.0
  0
LINE
  8
SIZE
  6
CONTINUOUS
 62
    30
 10
-339.409616
 20
443.878577
 30
0.0
 11
-339.409616
 21
292.0604
 31
0.0
  0
LINE
  8
SIZE
  6
CONTINUOUS
 62
    30
 10
-339.409616
 20
280.0604
 30
0.0
 11
-339.409616
 21
83.6604
 31
0.0
  0
CIRCLE
  8
SIZE
  6
CONTINUOUS
 62
    30
 10
-339.409616
 20
455.878577
 30
0.0
 40
6.0
  0
LINE
  8
SIZE
  6
CONTINUOUS
 62
    30
 10
-339.409616
 20
455.878577
 30
0.0
 11
-339.409616
 21
443.878577
 31
0.0
  0
CIRCLE
  8
SIZE
  6
CONTINUOUS
 62
    30
 10
-339.409616
 20
280.0604
 30
0.0
 40
6.0
  0
LINE
  8
SIZE
  6
CONTINUOUS
 62
    30
 10
-339.409616
 20
280.0604
 30
0.0
 11
-339.409616
 21
292.0604
 31
0.0
  0
TEXT
  8
SIZE
  6
CONTINUOUS
 62
    30
 10
-364.409616
 20
101.2684
 30
0.0
 40
64.0
  1
176
 50
90.0
 41
0.9
 51
0.0
  7
STANDARD
 71
     0
 72
     1
 11
-364.409616
 21
175.8604
 31
0.0
210
0.0
220
0.0
230
1.0
  0
POINT
  8
DEFPOINTS
  6
CONTINUOUS
 62
    30
 10
-14.71373
 20
280.0604
 30
0.0
  0
POINT
  8
DEFPOINTS
  6
CONTINUOUS
 62
    30
 10
-22.920399
 20
455.878577
 30
0.0
  0
POINT
  8
DEFPOINTS
  6
CONTINUOUS
 62
    30
 10
-339.409616
 20
455.878577
 30
0.0
  0
LINE
  8
SIZE
  6
CONTINUOUS
 62
    30
 10
-42.920399
 20
505.878577
 30
0.0
 11
-361.884509
 21
505.878577
 31
0.0
  0
LINE
  8
SIZE
  6
CONTINUOUS
 62
    30
 10
-42.920399
 20
455.878577
 30
0.0
 11
-361.884509
 21
455.878577
 31
0.0
  0
LINE
  8
SIZE
  6
CONTINUOUS
 62
    30
 10
-341.884509
 20
443.878577
 30
0.0
 11
-341.884509
 21
431.878577
 31
0.0
  0
LINE
  8
SIZE
  6
CONTINUOUS
 62
    30
 10
-341.884509
 20
517.878577
 30
0.0
 11
-341.884509
 21
673.13572
 31
0.0
  0
LINE
  8
SIZE
  6
CONTINUOUS
 62
    30
 10
-341.884509
 20
455.878577
 30
0.0
 11
-341.884509
 21
505.878577
 31
0.0
  0
CIRCLE
  8
SIZE
  6
CONTINUOUS
 62
    30
 10
-341.884509
 20
455.878577
 30
0.0
 40
6.0
  0
LINE
  8
SIZE
  6
CONTINUOUS
 62
    30
 10
-341.884509
 20
455.878577
 30
0.0
 11
-341.884509
 21
443.878577
 31
0.0
  0
CIRCLE
  8
SIZE
  6
CONTINUOUS
 62
    30
 10
-341.884509
 20
505.878577
 30
0.0
 40
6.0
  0
LINE
  8
SIZE
  6
CONTINUOUS
 62
    30
 10
-341.884509
 20
505.878577
 30
0.0
 11
-341.884509
 21
517.878577
 31
0.0
  0
TEXT
  8
SIZE
  6
CONTINUOUS
 62
    30
 10
-366.884509
 20
547.363148
 30
0.0
 40
64.0
  1
50
 50
90.0
 41
0.9
 51
0.0
  7
STANDARD
 71
     0
 72
     1
 11
-366.884509
 21
601.507148
 31
0.0
210
0.0
220
0.0
230
1.0
  0
POINT
  8
DEFPOINTS
  6
CONTINUOUS
 62
    30
 10
-22.920399
 20
505.878577
 30
0.0
  0
POINT
  8
DEFPOINTS
  6
CONTINUOUS
 62
    30
 10
-22.920399
 20
455.878577
 30
0.0
  0
POINT
  8
DEFPOINTS
  6
CONTINUOUS
 62
    30
 10
-341.884509
 20
455.878577
 30
0.0
  0
ARC
  8
DETAIL
  6
CONTINUOUS
 62
     5
 10
225.579301
 20
394.338292
 30
0.0
 40
12.174641
 50
0.0
 51
180.0
  0
LINE
  8
DETAIL
  6
CONTINUOUS
 62
     5
 10
213.40466
 20
394.338292
 30
0.0
 11
213.40466
 21
371.936953
 31
0.0
  0
ARC
  8
DETAIL
  6
CONTINUOUS
 62
     5
 10
225.579301
 20
371.936953
 30
0.0
 40
12.174641
 50
180.0
 51
0.0
  0
LINE
  8
DETAIL
  6
CONTINUOUS
 62
     5
 10
237.753942
 20
394.338292
 30
0.0
 11
237.753942
 21
371.936953
 31
0.0
  0
LINE
  8
DETAIL
  6
CONTINUOUS
 62
     5
 10
587.605248
 20
364.632168
 30
0.0
 11
512.208121
 21
364.632168
 31
0.0
  0
LINE
  8
DETAIL
  6
CONTINUOUS
 62
     5
 10
587.605248
 20
388.98145
 30
0.0
 11
512.208121
 21
388.98145
 31
0.0
  0
LINE
  8
DETAIL
  6
CONTINUOUS
 62
     5
 10
512.208121
 20
364.632168
 30
0.0
 11
512.208121
 21
388.98145
 31
0.0
  0
LINE
  8
DETAIL
  6
CONTINUOUS
 62
     5
 10
587.605248
 20
364.632168
 30
0.0
 11
587.605248
 21
388.98145
 31
0.0
  0
ARC
  8
DETAIL
  6
CONTINUOUS
 62
     5
 10
452.203936
 20
394.338292
 30
0.0
 40
12.174641
 50
0.0
 51
180.0
  0
ARC
  8
DETAIL
  6
CONTINUOUS
 62
     5
 10
452.203936
 20
371.936953
 30
0.0
 40
12.174641
 50
180.0
 51
0.0
  0
LINE
  8
DETAIL
  6
CONTINUOUS
 62
     5
 10
440.029295
 20
394.338292
 30
0.0
 11
440.029295
 21
371.936953
 31
0.0
  0
LINE
  8
DETAIL
  6
CONTINUOUS
 62
     5
 10
464.378577
 20
394.338292
 30
0.0
 11
464.378577
 21
371.936953
 31
0.0
  0
CIRCLE
  8
DETAIL
  6
CONTINUOUS
 62
     5
 10
225.579301
 20
174.097365
 30
0.0
 40
12.174641
  0
CIRCLE
  8
DETAIL
  6
CONTINUOUS
 62
     5
 10
225.579301
 20
-121.746409
 30
0.0
 40
12.174641
  0
CIRCLE
  8
DETAIL
  6
CONTINUOUS
 62
     5
 10
452.203936
 20
-121.746409
 30
0.0
 40
12.174641
  0
CIRCLE
  8
DETAIL
  6
CONTINUOUS
 62
     5
 10
452.203936
 20
174.097365
 30
0.0
 40
12.174641
  0
LINE
  8
DETAIL
  6
CONTINUOUS
 62
     5
 10
19.479425
 20
-43.828707
 30
0.0
 11
19.479425
 21
257.23253
 31
0.0
  0
LINE
  8
DETAIL
  6
CONTINUOUS
 62
     5
 10
599.779889
 20
429.157765
 30
0.0
 11
221.318177
 21
429.157765
 31
0.0
  0
LINE
  8
DETAIL
  6
CONTINUOUS
 62
     5
 10
633.260631
 20
-229.987564
 30
0.0
 11
630.73523
 21
-201.122176
 31
0.0
  0
LINE
  8
DETAIL
  6
CONTINUOUS
 62
     5
 10
39.118308
 20
-265.754779
 30
0.0
 11
4.869856
 21
-265.754779
 31
0.0
  0
LINE
  8
DETAIL
  6
CONTINUOUS
 62
     5
 10
39.118308
 20
-265.754779
 30
0.0
 11
633.260631
 21
-229.987564
 31
0.0
  0
LINE
  8
DETAIL
  6
CONTINUOUS
 62
     5
 10
97.094016
 20
265.754779
 30
0.0
 11
4.869856
 21
265.754779
 31
0.0
  0
LINE
  8
DETAIL
  6
CONTINUOUS
 62
     5
 10
97.094016
 20
425.505373
 30
0.0
 11
97.094016
 21
262.102387
 31
0.0
  0
LINE
  8
DETAIL
  6
CONTINUOUS
 62
     5
 10
632.894806
 20
398.721071
 30
0.0
 11
631.677326
 21
399.93852
 31
0.0
  0
LINE
  8
DETAIL
  6
CONTINUOUS
 62
     5
 10
4.869856
 20
430.375229
 30
0.0
 11
36.523923
 21
452.029295
 31
0.0
  0
LINE
  8
DETAIL
  6
CONTINUOUS
 62
     5
 10
112.92105
 20
437.680013
 30
0.0
 11
218.883248
 21
437.680013
 31
0.0
  0
LINE
  8
DETAIL
  6
CONTINUOUS
 62
     5
 10
0.0
 20
430.375229
 30
0.0
 11
4.869856
 21
430.375229
 31
0.0
  0
LINE
  8
DETAIL
  6
CONTINUOUS
 62
     5
 10
450.051734
 20
395.394777
 30
0.0
 11
454.356123
 21
391.090387
 31
0.0
  0
LINE
  8
DETAIL
  6
CONTINUOUS
 62
     5
 10
190.272842
 20
418.200588
 30
0.0
 11
487.510395
 21
418.200588
 31
0.0
  0
LINE
  8
DETAIL
  6
CONTINUOUS
 62
     5
 10
189.055378
 20
416.983124
 30
0.0
 11
488.727859
 21
416.983124
 31
0.0
  0
LINE
  8
DETAIL
  6
CONTINUOUS
 62
     5
 10
631.677448
 20
399.938627
 30
0.0
 11
599.779889
 21
399.938627
 31
0.0
  0
LINE
  8
DETAIL
  6
CONTINUOUS
 62
     5
 10
631.677448
 20
385.329058
 30
0.0
 11
599.779889
 21
385.329058
 31
0.0
  0
LINE
  8
DETAIL
  6
CONTINUOUS
 62
     5
 10
112.92105
 20
437.680013
 30
0.0
 11
36.523923
 21
452.029295
 31
0.0
  0
LINE
  8
DETAIL
  6
CONTINUOUS
 62
     5
 10
0.0
 20
266.972243
 30
0.0
 11
0.0
 21
298.148558
 31
0.0
  0
LINE
  8
DETAIL
  6
CONTINUOUS
 62
     5
 10
0.0
 20
259.876345
 30
0.0
 11
0.0
 21
-259.876345
 31
0.0
  0
LINE
  8
DETAIL
  6
CONTINUOUS
 62
     5
 10
2.434928
 20
-266.972243
 30
0.0
 11
2.434928
 21
-264.093762
 31
0.0
  0
LINE
  8
DETAIL
  6
CONTINUOUS
 62
     5
 10
2.434928
 20
259.667458
 30
0.0
 11
2.434928
 21
260.111011
 31
0.0
  0
LINE
  8
DETAIL
  6
CONTINUOUS
 62
     5
 10
2.434928
 20
266.972243
 30
0.0
 11
2.434928
 21
264.093762
 31
0.0
  0
LINE
  8
DETAIL
  6
CONTINUOUS
 62
     5
 10
2.434928
 20
-259.667458
 30
0.0
 11
2.434928
 21
-260.111011
 31
0.0
  0
LINE
  8
DETAIL
  6
CONTINUOUS
 62
     5
 10
4.869856
 20
-266.972243
 30
0.0
 11
4.869856
 21
-264.328428
 31
0.0
  0
LINE
  8
DETAIL
  6
CONTINUOUS
 62
     5
 10
4.869856
 20
264.328428
 30
0.0
 11
4.869856
 21
266.972243
 31
0.0
  0
LINE
  8
DETAIL
  6
CONTINUOUS
 62
     5
 10
4.869856
 20
430.375229
 30
0.0
 11
4.869856
 21
425.505373
 31
0.0
  0
LINE
  8
DETAIL
  6
CONTINUOUS
 62
     5
 10
17.044497
 20
303.018414
 30
0.0
 11
17.044497
 21
300.583486
 31
0.0
  0
LINE
  8
DETAIL
  6
CONTINUOUS
 62
     5
 10
17.044497
 20
-300.583486
 30
0.0
 11
17.044497
 21
-303.018414
 31
0.0
  0
LINE
  8
DETAIL
  6
CONTINUOUS
 62
     5
 10
17.044497
 20
266.972243
 30
0.0
 11
19.479425
 21
269.407171
 31
0.0
  0
LINE
  8
DETAIL
  6
CONTINUOUS
 62
     5
 10
61.002027
 20
-262.618089
 30
0.0
 11
60.789808
 21
-260.192414
 31
0.0
  0
LINE
  8
DETAIL
  6
CONTINUOUS
 62
     5
 10
63.427688
 20
-262.40587
 30
0.0
 11
63.215468
 21
-259.98021
 31
0.0
  0
LINE
  8
DETAIL
  6
CONTINUOUS
 62
     5
 10
19.479425
 20
-295.71363
 30
0.0
 11
19.479425
 21
-269.407171
 31
0.0
  0
LINE
  8
DETAIL
  6
CONTINUOUS
 62
     5
 10
19.479425
 20
-257.23253
 30
0.0
 11
19.479425
 21
-230.44832
 31
0.0
  0
LINE
  8
DETAIL
  6
CONTINUOUS
 62
     5
 10
19.479425
 20
269.407171
 30
0.0
 11
19.479425
 21
295.71363
 31
0.0
  0
LINE
  8
DETAIL
  6
CONTINUOUS
 62
     5
 10
19.479425
 20
303.018414
 30
0.0
 11
19.479425
 21
300.583486
 31
0.0
  0
LINE
  8
DETAIL
  6
CONTINUOUS
 62
     5
 10
19.479425
 20
-300.583486
 30
0.0
 11
19.479425
 21
-303.018414
 31
0.0
  0
LINE
  8
DETAIL
  6
CONTINUOUS
 62
     5
 10
36.523923
 20
264.537315
 30
0.0
 11
36.523923
 21
262.102387
 31
0.0
  0
LINE
  8
DETAIL
  6
CONTINUOUS
 62
     5
 10
38.958851
 20
264.537315
 30
0.0
 11
38.958851
 21
262.102387
 31
0.0
  0
LINE
  8
DETAIL
  6
CONTINUOUS
 62
     5
 10
223.427098
 20
391.090387
 30
0.0
 11
227.731488
 21
395.394777
 31
0.0
  0
LINE
  8
DETAIL
  6
CONTINUOUS
 62
     5
 10
98.822207
 20
-255.027748
 30
0.0
 11
98.799349
 21
-254.766359
 31
0.0
  0
LINE
  8
DETAIL
  6
CONTINUOUS
 62
     5
 10
96.615142
 20
-229.800888
 30
0.0
 11
97.145683
 21
-235.865016
 31
0.0
  0
LINE
  8
DETAIL
  6
CONTINUOUS
 62
     5
 10
4.869856
 20
303.018414
 30
0.0
 11
19.479425
 21
303.018414
 31
0.0
  0
LINE
  8
DETAIL
  6
CONTINUOUS
 62
     5
 10
19.479425
 20
300.583486
 30
0.0
 11
4.869856
 21
300.583486
 31
0.0
  0
LINE
  8
DETAIL
  6
CONTINUOUS
 62
     5
 10
0.0
 20
298.148558
 30
0.0
 11
17.044497
 21
298.148558
 31
0.0
  0
LINE
  8
DETAIL
  6
CONTINUOUS
 62
     5
 10
218.883248
 20
437.680013
 30
0.0
 11
221.318177
 21
435.245085
 31
0.0
  0
LINE
  8
DETAIL
  6
CONTINUOUS
 62
     5
 10
450.051734
 20
176.249567
 30
0.0
 11
454.356123
 21
171.945177
 31
0.0
  0
LINE
  8
DETAIL
  6
CONTINUOUS
 62
     5
 10
223.427098
 20
395.394777
 30
0.0
 11
227.731488
 21
391.090387
 31
0.0
  0
LINE
  8
DETAIL
  6
CONTINUOUS
 62
     5
 10
0.0
 20
266.972243
 30
0.0
 11
17.044497
 21
266.972243
 31
0.0
  0
LINE
  8
DETAIL
  6
CONTINUOUS
 62
     5
 10
4.869856
 20
264.537315
 30
0.0
 11
38.958851
 21
264.537315
 31
0.0
  0
LINE
  8
DETAIL
  6
CONTINUOUS
 62
     5
 10
36.645669
 20
262.102387
 30
0.0
 11
4.869856
 21
262.102387
 31
0.0
  0
LINE
  8
DETAIL
  6
CONTINUOUS
 62
     5
 10
0.0
 20
259.667458
 30
0.0
 11
17.044497
 21
259.667458
 31
0.0
  0
LINE
  8
DETAIL
  6
CONTINUOUS
 62
     5
 10
632.894806
 20
-161.279446
 30
0.0
 11
631.677326
 21
-160.061997
 31
0.0
  0
LINE
  8
DETAIL
  6
CONTINUOUS
 62
     5
 10
189.055378
 20
-161.313992
 30
0.0
 11
189.055378
 21
416.983124
 31
0.0
  0
LINE
  8
DETAIL
  6
CONTINUOUS
 62
     5
 10
190.272842
 20
418.200588
 30
0.0
 11
190.272842
 21
-162.531456
 31
0.0
  0
LINE
  8
DETAIL
  6
CONTINUOUS
 62
     5
 10
221.318177
 20
430.375229
 30
0.0
 11
221.318177
 21
435.245085
 31
0.0
  0
LINE
  8
DETAIL
  6
CONTINUOUS
 62
     5
 10
223.427098
 20
171.945177
 30
0.0
 11
227.731488
 21
176.249567
 31
0.0
  0
LINE
  8
DETAIL
  6
CONTINUOUS
 62
     5
 10
450.051734
 20
391.090387
 30
0.0
 11
454.356123
 21
395.394777
 31
0.0
  0
LINE
  8
DETAIL
  6
CONTINUOUS
 62
     5
 10
223.427098
 20
176.249567
 30
0.0
 11
227.731488
 21
171.945177
 31
0.0
  0
LINE
  8
DETAIL
  6
CONTINUOUS
 62
     5
 10
450.051734
 20
-119.594206
 30
0.0
 11
454.356123
 21
-123.898596
 31
0.0
  0
LINE
  8
DETAIL
  6
CONTINUOUS
 62
     5
 10
19.479425
 20
295.71363
 30
0.0
 11
17.044497
 21
298.148558
 31
0.0
  0
LINE
  8
DETAIL
  6
CONTINUOUS
 62
     5
 10
36.523923
 20
452.029295
 30
0.0
 11
12.174641
 21
491.727859
 31
0.0
  0
LINE
  8
DETAIL
  6
CONTINUOUS
 62
     5
 10
17.044497
 20
-259.667458
 30
0.0
 11
19.479425
 21
-257.23253
 31
0.0
  0
LINE
  8
DETAIL
  6
CONTINUOUS
 62
     5
 10
19.479425
 20
257.23253
 30
0.0
 11
17.044497
 21
259.667458
 31
0.0
  0
LINE
  8
DETAIL
  6
CONTINUOUS
 62
     5
 10
632.894806
 20
386.546628
 30
0.0
 11
631.677326
 21
385.329179
 31
0.0
  0
LINE
  8
DETAIL
  6
CONTINUOUS
 62
     5
 10
17.044497
 20
-298.148558
 30
0.0
 11
19.479425
 21
-295.71363
 31
0.0
  0
LINE
  8
DETAIL
  6
CONTINUOUS
 62
     5
 10
450.051734
 20
171.945177
 30
0.0
 11
454.356123
 21
176.249567
 31
0.0
  0
LINE
  8
DETAIL
  6
CONTINUOUS
 62
     5
 10
223.427098
 20
-123.898596
 30
0.0
 11
227.731488
 21
-119.594206
 31
0.0
  0
LINE
  8
DETAIL
  6
CONTINUOUS
 62
     5
 10
0.0
 20
-43.828707
 30
0.0
 11
101.72038
 21
-43.828707
 31
0.0
  0
LINE
  8
DETAIL
  6
CONTINUOUS
 62
     5
 10
223.427098
 20
-119.594206
 30
0.0
 11
227.731488
 21
-123.898596
 31
0.0
  0
LINE
  8
DETAIL
  6
CONTINUOUS
 62
     5
 10
487.510395
 20
418.200588
 30
0.0
 11
487.510395
 21
-162.531456
 31
0.0
  0
LINE
  8
DETAIL
  6
CONTINUOUS
 62
     5
 10
488.727859
 20
416.983124
 30
0.0
 11
488.727859
 21
-161.313992
 31
0.0
  0
LINE
  8
DETAIL
  6
CONTINUOUS
 62
     5
 10
631.677448
 20
-160.061875
 30
0.0
 11
599.779889
 21
-160.061875
 31
0.0
  0
LINE
  8
DETAIL
  6
CONTINUOUS
 62
     5
 10
631.677448
 20
-174.671444
 30
0.0
 11
599.779889
 21
-174.671444
 31
0.0
  0
LINE
  8
DETAIL
  6
CONTINUOUS
 62
     5
 10
189.055378
 20
-161.313992
 30
0.0
 11
488.727859
 21
-161.313992
 31
0.0
  0
LINE
  8
DETAIL
  6
CONTINUOUS
 62
     5
 10
487.510395
 20
-162.531456
 30
0.0
 11
190.272842
 21
-162.531456
 31
0.0
  0
LINE
  8
DETAIL
  6
CONTINUOUS
 62
     5
 10
450.051734
 20
-123.898596
 30
0.0
 11
454.356123
 21
-119.594206
 31
0.0
  0
LINE
  8
DETAIL
  6
CONTINUOUS
 62
     5
 10
26.720674
 20
-237.753105
 30
0.0
 11
96.615142
 21
-229.800858
 31
0.0
  0
LINE
  8
DETAIL
  6
CONTINUOUS
 62
     5
 10
96.615142
 20
-229.800858
 30
0.0
 11
630.73523
 21
-201.122176
 31
0.0
  0
LINE
  8
DETAIL
  6
CONTINUOUS
 62
     5
 10
98.135466
 20
-255.08783
 30
0.0
 11
98.822207
 21
-255.027748
 31
0.0
  0
LINE
  8
DETAIL
  6
CONTINUOUS
 62
     5
 10
38.598725
 20
-262.133888
 30
0.0
 11
98.135466
 21
-255.08783
 31
0.0
  0
LINE
  8
DETAIL
  6
CONTINUOUS
 62
     5
 10
63.427688
 20
-262.40587
 30
0.0
 11
39.276974
 21
-264.518779
 31
0.0
  0
LINE
  8
DETAIL
  6
CONTINUOUS
 62
     5
 10
89.214741
 20
-230.44832
 30
0.0
 11
0.0
 21
-230.44832
 31
0.0
  0
LINE
  8
DETAIL
  6
CONTINUOUS
 62
     5
 10
17.044497
 20
-259.667458
 30
0.0
 11
0.0
 21
-259.667458
 31
0.0
  0
LINE
  8
DETAIL
  6
CONTINUOUS
 62
     5
 10
38.598725
 20
-262.102387
 30
0.0
 11
4.869856
 21
-262.102387
 31
0.0
  0
LINE
  8
DETAIL
  6
CONTINUOUS
 62
     5
 10
4.869856
 20
-264.537315
 30
0.0
 11
38.852536
 21
-264.537315
 31
0.0
  0
LINE
  8
DETAIL
  6
CONTINUOUS
 62
     5
 10
17.044497
 20
-266.972243
 30
0.0
 11
4.869856
 21
-266.972243
 31
0.0
  0
LINE
  8
DETAIL
  6
CONTINUOUS
 62
     5
 10
627.181635
 20
-202.41077
 30
0.0
 11
627.627287
 21
-207.50467
 31
0.0
  0
LINE
  8
DETAIL
  6
CONTINUOUS
 62
     5
 10
17.044497
 20
-298.148558
 30
0.0
 11
4.869856
 21
-298.148558
 31
0.0
  0
LINE
  8
DETAIL
  6
CONTINUOUS
 62
     5
 10
4.869856
 20
-300.583486
 30
0.0
 11
19.479425
 21
-300.583486
 31
0.0
  0
LINE
  8
DETAIL
  6
CONTINUOUS
 62
     5
 10
19.479425
 20
-303.018414
 30
0.0
 11
4.869856
 21
-303.018414
 31
0.0
  0
LINE
  8
DETAIL
  6
CONTINUOUS
 62
     5
 10
631.677448
 20
399.938627
 30
0.0
 11
631.677448
 21
385.329058
 31
0.0
  0
LINE
  8
DETAIL
  6
CONTINUOUS
 62
     5
 10
631.677448
 20
-160.061875
 30
0.0
 11
631.677448
 21
-174.671444
 31
0.0
  0
LINE
  8
DETAIL
  6
CONTINUOUS
 62
     5
 10
632.894912
 20
398.721163
 30
0.0
 11
632.894912
 21
386.546522
 31
0.0
  0
LINE
  8
DETAIL
  6
CONTINUOUS
 62
     5
 10
632.894912
 20
-161.27934
 30
0.0
 11
632.894912
 21
-173.45398
 31
0.0
  0
LINE
  8
DETAIL
  6
CONTINUOUS
 62
     5
 10
19.479425
 20
-269.407171
 30
0.0
 11
17.044497
 21
-266.972243
 31
0.0
  0
LINE
  8
DETAIL
  6
CONTINUOUS
 62
     5
 10
632.894806
 20
-173.453889
 30
0.0
 11
631.677326
 21
-174.671338
 31
0.0
  0
ARC
  8
DETAIL
  6
CONTINUOUS
 62
     5
 10
4.869856
 20
430.375229
 30
0.0
 40
4.869856
 50
180.0
 51
270.0
  0
ARC
  8
DETAIL
  6
CONTINUOUS
 62
     5
 10
4.869856
 20
430.375229
 30
0.0
 40
2.434928
 50
180.0
 51
270.0
  0
CIRCLE
  8
DETAIL
  6
CONTINUOUS
 62
     5
 10
225.579301
 20
393.242574
 30
0.0
 40
7.183038
  0
ARC
  8
DETAIL
  6
CONTINUOUS
 62
     5
 10
4.869856
 20
298.148558
 30
0.0
 40
4.869856
 50
90.0
 51
180.0
  0
ARC
  8
DETAIL
  6
CONTINUOUS
 62
     5
 10
4.869856
 20
266.972243
 30
0.0
 40
4.869856
 50
180.0
 51
232.697499
  0
ARC
  8
DETAIL
  6
CONTINUOUS
 62
     5
 10
4.869856
 20
266.972243
 30
0.0
 40
4.869856
 50
261.529877
 51
270.0
  0
ARC
  8
DETAIL
  6
CONTINUOUS
 62
     5
 10
3.652392
 20
259.876345
 30
0.0
 40
3.652392
 50
120.0
 51
180.0
  0
ARC
  8
DETAIL
  6
CONTINUOUS
 62
     5
 10
1.217464
 20
264.328428
 30
0.0
 40
3.652392
 50
300.0
 51
0.0
  0
ARC
  8
DETAIL
  6
CONTINUOUS
 62
     5
 10
4.869856
 20
298.148558
 30
0.0
 40
2.434928
 50
90.0
 51
180.0
  0
ARC
  8
DETAIL
  6
CONTINUOUS
 62
     5
 10
3.652392
 20
260.111011
 30
0.0
 40
1.217464
 50
120.0
 51
180.0
  0
ARC
  8
DETAIL
  6
CONTINUOUS
 62
     5
 10
1.217464
 20
264.093762
 30
0.0
 40
1.217464
 50
300.0
 51
0.0
  0
ARC
  8
DETAIL
  6
CONTINUOUS
 62
     5
 10
-98.772437
 20
261.128415
 30
0.0
 40
0.973971
 50
90.0
 51
270.0
  0
CIRCLE
  8
DETAIL
  6
CONTINUOUS
 62
     5
 10
225.579301
 20
174.097365
 30
0.0
 40
7.183038
  0
CIRCLE
  8
DETAIL
  6
CONTINUOUS
 62
     5
 10
452.203936
 20
174.097365
 30
0.0
 40
7.183038
  0
CIRCLE
  8
DETAIL
  6
CONTINUOUS
 62
     5
 10
452.203936
 20
393.242574
 30
0.0
 40
7.183038
  0
CIRCLE
  8
DETAIL
  6
CONTINUOUS
 62
     5
 10
225.579301
 20
-121.746409
 30
0.0
 40
7.183038
  0
ARC
  8
DETAIL
  6
CONTINUOUS
 62
     5
 10
38.852536
 20
-259.667458
 30
0.0
 40
4.869856
 50
270.0
 51
275.0
  0
ARC
  8
DETAIL
  6
CONTINUOUS
 62
     5
 10
1.217464
 20
-264.328428
 30
0.0
 40
3.652392
 50
0.0
 51
60.0
  0
ARC
  8
DETAIL
  6
CONTINUOUS
 62
     5
 10
3.652392
 20
-259.876345
 30
0.0
 40
3.652392
 50
180.0
 51
240.0
  0
ARC
  8
DETAIL
  6
CONTINUOUS
 62
     5
 10
3.652392
 20
-260.111011
 30
0.0
 40
1.217464
 50
180.0
 51
240.0
  0
ARC
  8
DETAIL
  6
CONTINUOUS
 62
     5
 10
1.217464
 20
-264.093762
 30
0.0
 40
1.217464
 50
0.0
 51
60.0
  0
ARC
  8
DETAIL
  6
CONTINUOUS
 62
     5
 10
-98.772437
 20
-261.128415
 30
0.0
 40
0.973971
 50
90.0
 51
270.0
  0
CIRCLE
  8
DETAIL
  6
CONTINUOUS
 62
     5
 10
452.203936
 20
-121.746409
 30
0.0
 40
7.183038
  0
LINE
  8
DETAIL
  6
CONTINUOUS
 62
     5
 10
0.0
 20
526.251781
 30
0.0
 11
9.739713
 21
526.251781
 31
0.0
  0
LINE
  8
DETAIL
  6
CONTINUOUS
 62
     5
 10
-99.746409
 20
237.753105
 30
0.0
 11
-99.746409
 21
-237.753105
 31
0.0
  0
LINE
  8
DETAIL
  6
CONTINUOUS
 62
     5
 10
-98.772437
 20
262.102387
 30
0.0
 11
-98.772437
 21
237.753105
 31
0.0
  0
LINE
  8
DETAIL
  6
CONTINUOUS
 62
     5
 10
-98.772437
 20
-240.188033
 30
0.0
 11
-98.772437
 21
-262.102387
 31
0.0
  0
LINE
  8
DETAIL
  6
CONTINUOUS
 62
     5
 10
-98.772437
 20
-237.753105
 30
0.0
 11
-98.772437
 21
-240.188033
 31
0.0
  0
LINE
  8
DETAIL
  6
CONTINUOUS
 62
     5
 10
599.779889
 20
425.505373
 30
0.0
 11
102.694351
 21
425.505373
 31
0.0
  0
LINE
  8
DETAIL
  6
CONTINUOUS
 62
     5
 10
4.869856
 20
425.505373
 30
0.0
 11
102.694351
 21
425.505373
 31
0.0
  0
LINE
  8
DETAIL
  6
CONTINUOUS
 62
     5
 10
0.0
 20
-298.148558
 30
0.0
 11
0.0
 21
-266.972243
 31
0.0
  0
LINE
  8
DETAIL
  6
CONTINUOUS
 62
     5
 10
0.0
 20
526.251781
 30
0.0
 11
0.0
 21
430.375229
 31
0.0
  0
LINE
  8
DETAIL
  6
CONTINUOUS
 62
     5
 10
12.174641
 20
523.816853
 30
0.0
 11
12.174641
 21
491.727859
 31
0.0
  0
LINE
  8
DETAIL
  6
CONTINUOUS
 62
     5
 10
97.145683
 20
-235.865016
 30
0.0
 11
98.799349
 21
-254.766359
 31
0.0
  0
LINE
  8
DETAIL
  6
CONTINUOUS
 62
     5
 10
100.746409
 20
425.505373
 30
0.0
 11
100.746409
 21
263.076358
 31
0.0
  0
LINE
  8
DETAIL
  6
CONTINUOUS
 62
     5
 10
101.72038
 20
425.505373
 30
0.0
 11
101.72038
 21
264.537315
 31
0.0
  0
LINE
  8
DETAIL
  6
CONTINUOUS
 62
     5
 10
101.72038
 20
264.537315
 30
0.0
 11
101.72038
 21
-229.354216
 31
0.0
  0
LINE
  8
DETAIL
  6
CONTINUOUS
 62
     5
 10
100.746409
 20
265.511286
 30
0.0
 11
101.72038
 21
265.511286
 31
0.0
  0
LINE
  8
DETAIL
  6
CONTINUOUS
 62
     5
 10
100.746409
 20
263.076358
 30
0.0
 11
101.72038
 21
263.076358
 31
0.0
  0
LINE
  8
DETAIL
  6
CONTINUOUS
 62
     5
 10
101.72038
 20
262.102387
 30
0.0
 11
36.645669
 21
262.102387
 31
0.0
  0
LINE
  8
DETAIL
  6
CONTINUOUS
 62
     5
 10
4.869856
 20
262.102387
 30
0.0
 11
4.112959
 21
262.102387
 31
0.0
  0
LINE
  8
DETAIL
  6
CONTINUOUS
 62
     5
 10
0.756882
 20
262.102387
 30
0.0
 11
-98.772437
 21
262.102387
 31
0.0
  0
LINE
  8
DETAIL
  6
CONTINUOUS
 62
     5
 10
0.0
 20
237.753105
 30
0.0
 11
-96.337509
 21
237.753105
 31
0.0
  0
LINE
  8
DETAIL
  6
CONTINUOUS
 62
     5
 10
-98.772437
 20
237.753105
 30
0.0
 11
-99.746424
 21
237.753105
 31
0.0
  0
LINE
  8
DETAIL
  6
CONTINUOUS
 62
     5
 10
9.739713
 20
526.251781
 30
0.0
 11
12.174641
 21
523.816853
 31
0.0
  0
LINE
  8
DETAIL
  6
CONTINUOUS
 62
     5
 10
221.318177
 20
425.505373
 30
0.0
 11
221.318177
 21
430.375229
 31
0.0
  0
LINE
  8
DETAIL
  6
CONTINUOUS
 62
     5
 10
221.926909
 20
387.082267
 30
0.0
 11
221.926909
 21
383.349294
 31
0.0
  0
LINE
  8
DETAIL
  6
CONTINUOUS
 62
     5
 10
229.231693
 20
383.349294
 30
0.0
 11
229.231693
 21
387.082267
 31
0.0
  0
LINE
  8
DETAIL
  6
CONTINUOUS
 62
     5
 10
-98.772437
 20
-240.188033
 30
0.0
 11
-96.337509
 21
-237.753105
 31
0.0
  0
LINE
  8
DETAIL
  6
CONTINUOUS
 62
     5
 10
448.551544
 20
387.082267
 30
0.0
 11
448.551544
 21
383.349294
 31
0.0
  0
LINE
  8
DETAIL
  6
CONTINUOUS
 62
     5
 10
455.856328
 20
383.349294
 30
0.0
 11
455.856328
 21
387.082267
 31
0.0
  0
LINE
  8
DETAIL
  6
CONTINUOUS
 62
     5
 10
-98.772437
 20
240.188033
 30
0.0
 11
-96.337509
 21
237.753105
 31
0.0
  0
LINE
  8
DETAIL
  6
CONTINUOUS
 62
     5
 10
98.822207
 20
-255.027748
 30
0.0
 11
629.303812
 21
-226.667403
 31
0.0
  0
LINE
  8
DETAIL
  6
CONTINUOUS
 62
     5
 10
-98.772437
 20
-237.753105
 30
0.0
 11
-99.746424
 21
-237.753105
 31
0.0
  0
LINE
  8
DETAIL
  6
CONTINUOUS
 62
     5
 10
-96.337509
 20
-237.753105
 30
0.0
 11
0.0
 21
-237.753105
 31
0.0
  0
LINE
  8
DETAIL
  6
CONTINUOUS
 62
     5
 10
19.479425
 20
-237.753105
 30
0.0
 11
26.720674
 21
-237.753105
 31
0.0
  0
LINE
  8
DETAIL
  6
CONTINUOUS
 62
     5
 10
4.869856
 20
-262.102387
 30
0.0
 11
4.112959
 21
-262.102387
 31
0.0
  0
LINE
  8
DETAIL
  6
CONTINUOUS
 62
     5
 10
0.756882
 20
-262.102387
 30
0.0
 11
-98.772437
 21
-262.102387
 31
0.0
  0
LINE
  8
DETAIL
  6
CONTINUOUS
 62
     5
 10
0.0
 20
-266.972243
 30
0.0
 11
4.869856
 21
-266.972243
 31
0.0
  0
LINE
  8
DETAIL
  6
CONTINUOUS
 62
     5
 10
629.622133
 20
-230.305886
 30
0.0
 11
627.096747
 21
-201.440512
 31
0.0
  0
LINE
  8
DETAIL
  6
CONTINUOUS
 62
     5
 10
599.779889
 20
-204.44284
 30
0.0
 11
599.779889
 21
429.157765
 31
0.0
  0
LINE
  8
DETAIL
  6
CONTINUOUS
 62
     5
 10
0.0
 20
-298.148558
 30
0.0
 11
4.869856
 21
-298.148558
 31
0.0
  0
ARC
  8
DETAIL
  6
CONTINUOUS
 62
     5
 10
225.579301
 20
374.980613
 30
0.0
 40
9.130981
 50
113.578178
 51
66.421822
  0
ARC
  8
DETAIL
  6
CONTINUOUS
 62
     5
 10
99.772437
 20
263.076358
 30
0.0
 40
1.947943
 50
330.0
 51
0.0
  0
ARC
  8
DETAIL
  6
CONTINUOUS
 62
     5
 10
99.772437
 20
263.076358
 30
0.0
 40
0.973971
 50
270.0
 51
0.0
  0
ARC
  8
DETAIL
  6
CONTINUOUS
 62
     5
 10
452.203936
 20
374.980613
 30
0.0
 40
9.130981
 50
113.578178
 51
66.421822
  0
ARC
  8
DETAIL
  6
CONTINUOUS
 62
     5
 10
4.869856
 20
-298.148558
 30
0.0
 40
4.869856
 50
180.0
 51
270.0
  0
ARC
  8
DETAIL
  6
CONTINUOUS
 62
     5
 10
4.869856
 20
-266.972243
 30
0.0
 40
4.869856
 50
127.302501
 51
180.0
  0
ARC
  8
DETAIL
  6
CONTINUOUS
 62
     5
 10
4.869856
 20
-266.972243
 30
0.0
 40
4.869856
 50
90.0
 51
98.470123
  0
ARC
  8
DETAIL
  6
CONTINUOUS
 62
     5
 10
4.869856
 20
-298.148558
 30
0.0
 40
2.434928
 50
180.0
 51
270.0
  0
LINE
  8
OUTLINE
  6
CONTINUOUS
 62
     3
 10
599.779889
 20
399.938627
 30
0.0
 11
599.779889
 21
429.157765
 31
0.0
  0
LINE
  8
OUTLINE
  6
CONTINUOUS
 62
     3
 10
599.779889
 20
-160.061875
 30
0.0
 11
599.779889
 21
385.329058
 31
0.0
  0
LINE
  8
OUTLINE
  6
CONTINUOUS
 62
     3
 10
599.779889
 20
-202.784271
 30
0.0
 11
630.73523
 21
-201.122176
 31
0.0
  0
LINE
  8
OUTLINE
  6
CONTINUOUS
 62
     3
 10
2.434928
 20
-298.148558
 30
0.0
 11
4.869856
 21
-298.148558
 31
0.0
  0
ENDSEC
  0
EOF
