  0
SECTION
  2
HEADER
  9
$ACADVER
  1
AC1009
  9
$DWGCODEPAGE
  3
dos932
  9
$INSBASE
 10
0.0
 20
0.0
 30
0.0
  9
$EXTMIN
 10
-735.067733
 20
-600.494373
 30
-0.003052
  9
$EXTMAX
 10
1003.807079
 20
778.656014
 30
50.003052
  9
$LIMMIN
 10
-2970.0
 20
-2100.0
  9
$LIMMAX
 10
2970.0
 20
2100.0
  9
$ORTHOMODE
 70
     1
  9
$REGENMODE
 70
     1
  9
$FILLMODE
 70
     1
  9
$QTEXTMODE
 70
     0
  9
$MIRRTEXT
 70
     0
  9
$DRAGMODE
 70
     2
  9
$LTSCALE
 40
20.0
  9
$OSMODE
 70
  3071
  9
$ATTMODE
 70
     1
  9
$TEXTSIZE
 40
64.0
  9
$TRACEWID
 40
0.05
  9
$TEXTSTYLE
  7
STANDARD
  9
$CLAYER
  8
NOTE
  9
$CELTYPE
  6
CONTINUOUS
  9
$CECOLOR
 62
     7
  9
$DIMSCALE
 40
1.0
  9
$DIMASZ
 40
12.0
  9
$DIMEXO
 40
20.0
  9
$DIMDLI
 40
200.0
  9
$DIMRND
 40
0.0
  9
$DIMDLE
 40
0.0
  9
$DIMEXE
 40
20.0
  9
$DIMTP
 40
0.0
  9
$DIMTM
 40
0.0
  9
$DIMTXT
 40
64.0
  9
$DIMCEN
 40
0.09
  9
$DIMTSZ
 40
0.0
  9
$DIMTOL
 70
     0
  9
$DIMLIM
 70
     0
  9
$DIMTIH
 70
     0
  9
$DIMTOH
 70
     0
  9
$DIMSE1
 70
     0
  9
$DIMSE2
 70
     0
  9
$DIMTAD
 70
     1
  9
$DIMZIN
 70
     8
  9
$DIMBLK
  1
DOT1
  9
$DIMASO
 70
     1
  9
$DIMSHO
 70
     0
  9
$DIMPOST
  1

  9
$DIMAPOST
  1

  9
$DIMALT
 70
     0
  9
$DIMALTD
 70
     2
  9
$DIMALTF
 40
25.4
  9
$DIMLFAC
 40
1.0
  9
$DIMTOFL
 70
     1
  9
$DIMTVP
 40
0.0
  9
$DIMTIX
 70
     1
  9
$DIMSOXD
 70
     0
  9
$DIMSAH
 70
     1
  9
$DIMBLK1
  1
_ORIGIN
  9
$DIMBLK2
  1
_ORIGIN
  9
$DIMSTYLE
  2
STANDARD
  9
$DIMCLRD
 70
     7
  9
$DIMCLRE
 70
     7
  9
$DIMCLRT
 70
     7
  9
$DIMTFAC
 40
1.0
  9
$DIMGAP
 40
25.0
  9
$LUNITS
 70
     2
  9
$LUPREC
 70
     4
  9
$SKETCHINC
 40
0.1
  9
$FILLETRAD
 40
2.0
  9
$AUNITS
 70
     1
  9
$AUPREC
 70
     3
  9
$MENU
  1
ACAD
  9
$ELEVATION
 40
0.0
  9
$PELEVATION
 40
0.0
  9
$THICKNESS
 40
50.0
  9
$LIMCHECK
 70
     0
  9
$BLIPMODE
 70
     0
  9
$CHAMFERA
 40
0.0
  9
$CHAMFERB
 40
0.0
  9
$SKPOLY
 70
     0
  9
$TDCREATE
 40
2453019.62301037
  9
$TDUPDATE
 40
2454960.50314125
  9
$TDINDWG
 40
1.7079566551
  9
$TDUSRTIMER
 40
1.7079566551
  9
$USRTIMER
 70
     1
  9
$ANGBASE
 50
0.0
  9
$ANGDIR
 70
     0
  9
$PDMODE
 70
     3
  9
$PDSIZE
 40
-2.0
  9
$PLINEWID
 40
0.0
  9
$COORDS
 70
     2
  9
$SPLFRAME
 70
     0
  9
$SPLINETYPE
 70
     6
  9
$SPLINESEGS
 70
     8
  9
$ATTDIA
 70
     1
  9
$ATTREQ
 70
     1
  9
$HANDLING
 70
     0
  9
$HANDSEED
  5
1097A
  9
$SURFTAB1
 70
     6
  9
$SURFTAB2
 70
     6
  9
$SURFTYPE
 70
     6
  9
$SURFU
 70
     6
  9
$SURFV
 70
     6
  9
$UCSNAME
  2

  9
$UCSORG
 10
0.0
 20
0.0
 30
0.0
  9
$UCSXDIR
 10
1.0
 20
0.0
 30
0.0
  9
$UCSYDIR
 10
0.0
 20
1.0
 30
0.0
  9
$PUCSNAME
  2

  9
$PUCSORG
 10
0.0
 20
0.0
 30
0.0
  9
$PUCSXDIR
 10
1.0
 20
0.0
 30
0.0
  9
$PUCSYDIR
 10
0.0
 20
1.0
 30
0.0
  9
$USERI1
 70
     0
  9
$USERI2
 70
     0
  9
$USERI3
 70
     0
  9
$USERI4
 70
     0
  9
$USERI5
 70
     0
  9
$USERR1
 40
20.0
  9
$USERR2
 40
0.0
  9
$USERR3
 40
0.0
  9
$USERR4
 40
0.0
  9
$USERR5
 40
0.0
  9
$WORLDVIEW
 70
     1
  9
$SHADEDGE
 70
     3
  9
$SHADEDIF
 70
    70
  9
$TILEMODE
 70
     1
  9
$MAXACTVP
 70
    48
  9
$PINSBASE
 10
0.0
 20
0.0
 30
0.0
  9
$PLIMCHECK
 70
     0
  9
$PEXTMIN
 10
-100000000000000000000.0
 20
-100000000000000000000.0
 30
-100000000000000000000.0
  9
$PEXTMAX
 10
100000000000000000000.0
 20
100000000000000000000.0
 30
100000000000000000000.0
  9
$PLIMMIN
 10
0.0
 20
0.0
  9
$PLIMMAX
 10
12.0
 20
9.0
  9
$UNITMODE
 70
     0
  9
$VISRETAIN
 70
     0
  9
$PLINEGEN
 70
     0
  9
$PSLTSCALE
 70
     0
  9
$TREEDEPTH
 70
  3020
  0
ENDSEC
  0
SECTION
  2
TABLES
  0
TABLE
  2
LTYPE
 70
     2
  0
LTYPE
  2
CONTINUOUS
 70
     0
  3
実線
 72
    65
 73
     0
 40
0.0
  0
LTYPE
  2
DASHDOT
 70
     0
  3
____ _ ____ _ ____ _ ____ _ ____ _ ____ _ ____
 72
    65
 73
     4
 40
5.5
 49
4.0
 49
-0.6
 49
0.3
 49
-0.6
  0
ENDTAB
  0
TABLE
  2
LAYER
 70
    12
  0
LAYER
  2
0
 70
     0
 62
     7
  6
CONTINUOUS
  0
LAYER
  2
BASIS
 70
     0
 62
     6
  6
DASHDOT
  0
LAYER
  2
OUTLINE
 70
     0
 62
     3
  6
CONTINUOUS
  0
LAYER
  2
DETAIL
 70
     0
 62
     5
  6
CONTINUOUS
  0
LAYER
  2
ARRANGE
 70
     0
 62
     1
  6
CONTINUOUS
  0
LAYER
  2
DEFPOINTS
 70
     0
 62
     7
  6
CONTINUOUS
  0
LAYER
  2
ETC
 70
     0
 62
    61
  6
CONTINUOUS
  0
LAYER
  2
FIX
 70
     0
 62
    11
  6
CONTINUOUS
  0
LAYER
  2
NOTE
 70
     0
 62
     4
  6
CONTINUOUS
  0
LAYER
  2
SIZE
 70
     0
 62
    30
  6
CONTINUOUS
  0
LAYER
  2
SERVICESPACE
 70
    64
 62
     2
  6
DASHDOT
  0
LAYER
  2
SYMBOLLINE
 70
    64
 62
    15
  6
CONTINUOUS
  0
ENDTAB
  0
TABLE
  2
STYLE
 70
     1
  0
STYLE
  2
STANDARD
 70
     0
 40
64.0
 41
0.9
 50
0.0
 71
     0
 42
64.0
  3
SIMPLEX.shx
  4
BIGFONT.shx
  0
ENDTAB
  0
TABLE
  2
APPID
 70
    15
  0
APPID
  2
ACAD
 70
     0
  0
APPID
  2
AUTOCAD_POSTSCRIPT_FIGURE
 70
     0
  0
APPID
  2
ACAD_EXEMPT_FROM_CAD_STANDARDS
 70
     0
  0
APPID
  2
ACAD_PSEXT
 70
     0
  0
APPID
  2
ACAUTHENVIRON
 70
     0
  0
APPID
  2
GENIUS_GENOENT_13
 70
     0
  0
APPID
  2
GENIUS_GENCFG_13
 70
     0
  0
APPID
  2
GENIUS_GENCFG0_13
 70
     0
  0
APPID
  2
GENIUS_GENCFG1_13
 70
     0
  0
APPID
  2
GENIUS_GENCFG2_13
 70
     0
  0
APPID
  2
GENIUS_GENCFG3_13
 70
     0
  0
APPID
  2
GENIUS_GENCFG4_13
 70
     0
  0
APPID
  2
GENIUS_GEVCFG0_13
 70
     0
  0
APPID
  2
CONTENTBLOCKICON
 70
     0
  0
APPID
  2
CONTENTBLOCKDESCRIPTION
 70
     0
  0
ENDTAB
  0
TABLE
  2
DIMSTYLE
 70
     1
  0
DIMSTYLE
  2
STANDARD
 70
     0
  3

  4

  5

  6

  7

 40
1.0
 41
0.18
 42
0.0625
 43
0.38
 44
0.18
 45
0.0
 46
0.0
 47
0.0
 48
0.0
140
0.18
141
0.09
142
0.0
143
25.4
144
1.0
145
0.0
146
1.0
147
0.09
 71
     0
 72
     0
 73
     1
 74
     1
 75
     0
 76
     0
 77
     0
 78
     0
170
     0
171
     2
172
     0
173
     0
174
     0
175
     0
176
     7
177
     7
178
     7
  0
ENDTAB
  0
TABLE
  2
VIEW
 70
     1
  0
VIEW
  2
ALL
 70
     0
 40
4282.619808
 10
0.0
 20
41.309904
 41
5940.0
 11
0.0
 21
0.0
 31
1.0
 12
0.0
 22
0.0
 32
0.0
 42
50.0
 43
0.0
 44
0.0
 50
0.0
 71
     0
  0
ENDTAB
  0
TABLE
  2
UCS
 70
     0
  0
ENDTAB
  0
TABLE
  2
VPORT
 70
     1
  0
VPORT
  2
*ACTIVE
 70
     0
 10
0.0
 20
0.0
 11
1.0
 21
1.0
 12
134.369673
 22
89.08082
 13
0.0
 23
0.0
 14
1.0
 24
1.0
 15
0.0
 25
0.0
 16
0.0
 26
0.0
 36
1.0
 17
0.0
 27
0.0
 37
0.0
 40
1390.317597
 41
1.631081
 42
50.0
 43
0.0
 44
0.0
 50
0.0
 51
0.0
 71
     0
 72
  1000
 73
     1
 74
     0
 75
     0
 76
     0
 77
     0
 78
     0
  0
ENDTAB
  0
ENDSEC
  0
SECTION
  2
BLOCKS
  0
BLOCK
  8
0
  2
DOT1
 70
     0
 10
0.0
 20
0.0
 30
0.0
  3
DOT1
  1

  0
CIRCLE
  8
SIZE
  6
CONTINUOUS
 62
     7
 10
0.0
 20
0.0
 30
0.0
 40
3.0
  0
ENDBLK
  8
0
  0
BLOCK
  8
0
  2
_ORIGIN
 70
     0
 10
0.0
 20
0.0
 30
0.0
  3
_ORIGIN
  1

  0
CIRCLE
  8
0
  6
CONTINUOUS
 62
     7
 10
0.0
 20
0.0
 30
0.0
 40
0.5
  0
LINE
  8
0
  6
CONTINUOUS
 62
     7
 10
0.0
 20
0.0
 30
0.0
 11
-1.0
 21
0.0
 31
0.0
  0
ENDBLK
  8
0
  0
ENDSEC
  0
SECTION
  2
ENTITIES
  0
TEXT
  8
ETC
  6
CONTINUOUS
 62
    61
 10
605.607431
 20
738.514389
 30
0.0
 40
40.0
  1
PS-50SMA3_3
 41
0.9
  0
TEXT
  8
ETC
  6
CONTINUOUS
 62
    61
 10
601.421437
 20
677.81811
 30
0.0
 40
40.0
  1
システム部材
 41
0.9
  0
TEXT
  8
ETC
  6
CONTINUOUS
 62
    61
 10
652.02894
 20
595.948
 30
0.0
 40
40.0
  1
PS-50SMA3
 41
0.9
  0
CIRCLE
  8
ARRANGE
  6
CONTINUOUS
 62
     1
 10
0.0
 20
0.0
 30
0.0
 40
40.0
  0
POINT
  8
ARRANGE
  6
CONTINUOUS
 62
     1
 10
0.0
 20
0.0
 30
0.0
 39
50.0
  0
TEXT
  8
ETC
  6
CONTINUOUS
 62
    61
 10
652.02894
 20
525.948
 30
0.0
 40
40.0
  1
PS-50SMXA3
 41
0.9
  0
TEXT
  8
ETC
  6
CONTINUOUS
 62
    61
 10
652.02894
 20
455.948
 30
0.0
 40
40.0
  1
PS-50SMTA3
 41
0.9
  0
TEXT
  8
ETC
  6
CONTINUOUS
 62
    61
 10
652.02894
 20
385.948
 30
0.0
 40
40.0
  1
PS-50SMXTA3
 41
0.9
  0
TEXT
  8
NOTE
  6
CONTINUOUS
 62
     4
 10
357.473283
 20
348.177252
 30
0.0
 40
40.0
  1
4-φ14
 41
0.9
  0
TEXT
  8
NOTE
  6
CONTINUOUS
 62
     4
 10
428.113979
 20
-269.079447
 30
0.0
 40
40.0
  1
8-φ8
 41
0.9
  0
TEXT
  8
NOTE
  6
CONTINUOUS
 62
     4
 10
-52.461169
 20
-439.939474
 30
0.0
 40
40.0
  1
EL
 41
0.9
  0
LINE
  8
NOTE
  6
CONTINUOUS
 62
     4
 39
50.0
 10
16.390632
 20
-446.659679
 30
0.0
 11
-68.425124
 21
-446.659679
 31
0.0
  0
LINE
  8
NOTE
  6
CONTINUOUS
 62
     4
 39
50.0
 10
555.179803
 20
339.826832
 30
0.0
 11
344.771475
 21
339.826832
 31
0.0
  0
LINE
  8
NOTE
  6
CONTINUOUS
 62
     4
 39
50.0
 10
593.199056
 20
-274.169429
 30
0.0
 11
408.887884
 21
-274.169429
 31
0.0
  0
LINE
  8
NOTE
  6
CONTINUOUS
 62
     4
 39
50.0
 10
344.771475
 20
339.826832
 30
0.0
 11
280.0
 21
280.0
 31
0.0
  0
LINE
  8
NOTE
  6
CONTINUOUS
 62
     4
 39
50.0
 10
408.887884
 20
-274.169429
 30
0.0
 11
280.0
 21
-140.0
 31
0.0
  0
LINE
  8
NOTE
  6
CONTINUOUS
 62
     4
 39
50.0
 10
16.390632
 20
-446.659679
 30
0.0
 11
167.738553
 21
-305.0
 31
0.0
  0
LINE
  8
OUTLINE
  6
CONTINUOUS
 62
     3
 10
305.0
 20
-289.0
 30
0.0
 11
305.0
 21
289.0
 31
0.0
  0
LINE
  8
OUTLINE
  6
CONTINUOUS
 62
     3
 10
-305.0
 20
-289.0
 30
0.0
 11
-305.0
 21
289.0
 31
0.0
  0
CIRCLE
  8
FIX
  6
CONTINUOUS
 62
    11
 10
-280.0
 20
-280.0
 30
0.0
 40
7.0
  0
LINE
  8
OUTLINE
  6
CONTINUOUS
 62
     3
 10
235.21
 20
-305.0
 30
0.0
 11
167.738553
 21
-305.0
 31
0.0
  0
ARC
  8
OUTLINE
  6
CONTINUOUS
 62
     3
 10
-289.0
 20
-289.0
 30
0.0
 40
16.0
 50
180.0
 51
270.0
  0
CIRCLE
  8
FIX
  6
CONTINUOUS
 62
    11
 10
-140.0
 20
-280.0
 30
0.0
 40
4.0
  0
CIRCLE
  8
FIX
  6
CONTINUOUS
 62
    11
 10
140.0
 20
-280.0
 30
0.0
 40
4.0
  0
CIRCLE
  8
FIX
  6
CONTINUOUS
 62
    11
 10
280.0
 20
-280.0
 30
0.0
 40
7.0
  0
LINE
  8
OUTLINE
  6
CONTINUOUS
 62
     3
 10
235.21
 20
-305.0
 30
0.0
 11
289.0
 21
-305.0
 31
0.0
  0
ARC
  8
OUTLINE
  6
CONTINUOUS
 62
     3
 10
289.0
 20
-289.0
 30
0.0
 40
16.0
 50
270.0
 51
0.0
  0
CIRCLE
  8
FIX
  6
CONTINUOUS
 62
    11
 10
-280.0
 20
280.0
 30
0.0
 40
7.0
  0
LINE
  8
OUTLINE
  6
CONTINUOUS
 62
     3
 10
-289.0
 20
305.0
 30
0.0
 11
289.0
 21
305.0
 31
0.0
  0
ARC
  8
OUTLINE
  6
CONTINUOUS
 62
     3
 10
-289.0
 20
289.0
 30
0.0
 40
16.0
 50
90.0
 51
180.0
  0
CIRCLE
  8
FIX
  6
CONTINUOUS
 62
    11
 10
-280.0
 20
-140.0
 30
0.0
 40
4.0
  0
CIRCLE
  8
FIX
  6
CONTINUOUS
 62
    11
 10
-280.0
 20
140.0
 30
0.0
 40
4.0
  0
CIRCLE
  8
FIX
  6
CONTINUOUS
 62
    11
 10
-140.0
 20
280.0
 30
0.0
 40
4.0
  0
CIRCLE
  8
FIX
  6
CONTINUOUS
 62
    11
 10
280.0
 20
-140.0
 30
0.0
 40
4.0
  0
CIRCLE
  8
FIX
  6
CONTINUOUS
 62
    11
 10
140.0
 20
280.0
 30
0.0
 40
4.0
  0
CIRCLE
  8
FIX
  6
CONTINUOUS
 62
    11
 10
280.0
 20
140.0
 30
0.0
 40
4.0
  0
CIRCLE
  8
FIX
  6
CONTINUOUS
 62
    11
 10
280.0
 20
280.0
 30
0.0
 40
7.0
  0
ARC
  8
OUTLINE
  6
CONTINUOUS
 62
     3
 10
289.0
 20
289.0
 30
0.0
 40
16.0
 50
0.0
 51
90.0
  0
LINE
  8
BASIS
  6
DASHDOT
 62
     6
 39
50.0
 10
0.0
 20
336.035541
 30
0.0
 11
0.0
 21
-336.035541
 31
0.0
  0
LINE
  8
BASIS
  6
DASHDOT
 62
     6
 39
50.0
 10
-345.817121
 20
0.0
 30
0.0
 11
345.817121
 21
0.0
 31
0.0
  0
LINE
  8
OUTLINE
  6
CONTINUOUS
 62
     3
 10
167.738553
 20
-305.0
 30
0.0
 11
-289.0
 21
-305.0
 31
0.0
  0
LINE
  8
NOTE
  6
CONTINUOUS
 62
     4
 10
131.0
 20
280.0
 30
0.0
 11
149.0
 21
280.0
 31
0.0
  0
LINE
  8
NOTE
  6
CONTINUOUS
 62
     4
 10
140.0
 20
271.0
 30
0.0
 11
140.0
 21
289.0
 31
0.0
  0
LINE
  8
NOTE
  6
CONTINUOUS
 62
     4
 10
271.0
 20
280.0
 30
0.0
 11
289.0
 21
280.0
 31
0.0
  0
LINE
  8
NOTE
  6
CONTINUOUS
 62
     4
 10
280.0
 20
271.0
 30
0.0
 11
280.0
 21
289.0
 31
0.0
  0
LINE
  8
NOTE
  6
CONTINUOUS
 62
     4
 10
271.0
 20
140.0
 30
0.0
 11
289.0
 21
140.0
 31
0.0
  0
LINE
  8
NOTE
  6
CONTINUOUS
 62
     4
 10
280.0
 20
131.0
 30
0.0
 11
280.0
 21
149.0
 31
0.0
  0
LINE
  8
NOTE
  6
CONTINUOUS
 62
     4
 10
-131.0
 20
280.0
 30
0.0
 11
-149.0
 21
280.0
 31
0.0
  0
LINE
  8
NOTE
  6
CONTINUOUS
 62
     4
 10
-140.0
 20
271.0
 30
0.0
 11
-140.0
 21
289.0
 31
0.0
  0
LINE
  8
NOTE
  6
CONTINUOUS
 62
     4
 10
-271.0
 20
280.0
 30
0.0
 11
-289.0
 21
280.0
 31
0.0
  0
LINE
  8
NOTE
  6
CONTINUOUS
 62
     4
 10
-280.0
 20
271.0
 30
0.0
 11
-280.0
 21
289.0
 31
0.0
  0
LINE
  8
NOTE
  6
CONTINUOUS
 62
     4
 10
-271.0
 20
140.0
 30
0.0
 11
-289.0
 21
140.0
 31
0.0
  0
LINE
  8
NOTE
  6
CONTINUOUS
 62
     4
 10
-280.0
 20
131.0
 30
0.0
 11
-280.0
 21
149.0
 31
0.0
  0
LINE
  8
NOTE
  6
CONTINUOUS
 62
     4
 10
131.0
 20
-280.0
 30
0.0
 11
149.0
 21
-280.0
 31
0.0
  0
LINE
  8
NOTE
  6
CONTINUOUS
 62
     4
 10
140.0
 20
-271.0
 30
0.0
 11
140.0
 21
-289.0
 31
0.0
  0
LINE
  8
NOTE
  6
CONTINUOUS
 62
     4
 10
271.0
 20
-280.0
 30
0.0
 11
289.0
 21
-280.0
 31
0.0
  0
LINE
  8
NOTE
  6
CONTINUOUS
 62
     4
 10
280.0
 20
-271.0
 30
0.0
 11
280.0
 21
-289.0
 31
0.0
  0
LINE
  8
NOTE
  6
CONTINUOUS
 62
     4
 10
271.0
 20
-140.0
 30
0.0
 11
289.0
 21
-140.0
 31
0.0
  0
LINE
  8
NOTE
  6
CONTINUOUS
 62
     4
 10
280.0
 20
-131.0
 30
0.0
 11
280.0
 21
-149.0
 31
0.0
  0
LINE
  8
NOTE
  6
CONTINUOUS
 62
     4
 10
-131.0
 20
-280.0
 30
0.0
 11
-149.0
 21
-280.0
 31
0.0
  0
LINE
  8
NOTE
  6
CONTINUOUS
 62
     4
 10
-140.0
 20
-271.0
 30
0.0
 11
-140.0
 21
-289.0
 31
0.0
  0
LINE
  8
NOTE
  6
CONTINUOUS
 62
     4
 10
-271.0
 20
-280.0
 30
0.0
 11
-289.0
 21
-280.0
 31
0.0
  0
LINE
  8
NOTE
  6
CONTINUOUS
 62
     4
 10
-280.0
 20
-271.0
 30
0.0
 11
-280.0
 21
-289.0
 31
0.0
  0
LINE
  8
NOTE
  6
CONTINUOUS
 62
     4
 10
-271.0
 20
-140.0
 30
0.0
 11
-289.0
 21
-140.0
 31
0.0
  0
LINE
  8
NOTE
  6
CONTINUOUS
 62
     4
 10
-280.0
 20
-131.0
 30
0.0
 11
-280.0
 21
-149.0
 31
0.0
  0
LINE
  8
SIZE
  6
CONTINUOUS
 62
    30
 10
-140.0
 20
309.0
 30
0.0
 11
-140.0
 21
420.475102
 31
0.0
  0
LINE
  8
SIZE
  6
CONTINUOUS
 62
    30
 10
140.0
 20
309.0
 30
0.0
 11
140.0
 21
420.475102
 31
0.0
  0
LINE
  8
SIZE
  6
CONTINUOUS
 62
    30
 10
-128.0
 20
400.475102
 30
0.0
 11
128.0
 21
400.475102
 31
0.0
  0
CIRCLE
  8
SIZE
  6
CONTINUOUS
 62
    30
 10
-140.0
 20
400.475102
 30
0.0
 40
6.0
  0
LINE
  8
SIZE
  6
CONTINUOUS
 62
    30
 10
-140.0
 20
400.475102
 30
0.0
 11
-128.0
 21
400.475102
 31
0.0
  0
CIRCLE
  8
SIZE
  6
CONTINUOUS
 62
    30
 10
140.0
 20
400.475102
 30
0.0
 40
6.0
  0
LINE
  8
SIZE
  6
CONTINUOUS
 62
    30
 10
140.0
 20
400.475102
 30
0.0
 11
128.0
 21
400.475102
 31
0.0
  0
TEXT
  8
SIZE
  6
CONTINUOUS
 62
    30
 10
-80.928
 20
425.475102
 30
0.0
 40
64.0
  1
280
 50
0.0
 41
0.9
 51
0.0
  7
STANDARD
 71
     0
 72
     1
 11
0.0
 21
425.475102
 31
0.0
210
0.0
220
0.0
230
1.0
  0
POINT
  8
DEFPOINTS
  6
CONTINUOUS
 62
    30
 10
-140.0
 20
289.0
 30
0.0
  0
POINT
  8
DEFPOINTS
  6
CONTINUOUS
 62
    30
 10
140.0
 20
289.0
 30
0.0
  0
POINT
  8
DEFPOINTS
  6
CONTINUOUS
 62
    30
 10
140.0
 20
400.475102
 30
0.0
  0
LINE
  8
SIZE
  6
CONTINUOUS
 62
    30
 10
280.0
 20
309.0
 30
0.0
 11
280.0
 21
540.475102
 31
0.0
  0
LINE
  8
SIZE
  6
CONTINUOUS
 62
    30
 10
-280.0
 20
309.0
 30
0.0
 11
-280.0
 21
540.475102
 31
0.0
  0
LINE
  8
SIZE
  6
CONTINUOUS
 62
    30
 10
268.0
 20
520.475102
 30
0.0
 11
-268.0
 21
520.475102
 31
0.0
  0
CIRCLE
  8
SIZE
  6
CONTINUOUS
 62
    30
 10
280.0
 20
520.475102
 30
0.0
 40
6.0
  0
LINE
  8
SIZE
  6
CONTINUOUS
 62
    30
 10
280.0
 20
520.475102
 30
0.0
 11
268.0
 21
520.475102
 31
0.0
  0
CIRCLE
  8
SIZE
  6
CONTINUOUS
 62
    30
 10
-280.0
 20
520.475102
 30
0.0
 40
6.0
  0
LINE
  8
SIZE
  6
CONTINUOUS
 62
    30
 10
-280.0
 20
520.475102
 30
0.0
 11
-268.0
 21
520.475102
 31
0.0
  0
TEXT
  8
SIZE
  6
CONTINUOUS
 62
    30
 10
-80.928
 20
545.475102
 30
0.0
 40
64.0
  1
560
 50
0.0
 41
0.9
 51
0.0
  7
STANDARD
 71
     0
 72
     1
 11
0.0
 21
545.475102
 31
0.0
210
0.0
220
0.0
230
1.0
  0
POINT
  8
DEFPOINTS
  6
CONTINUOUS
 62
    30
 10
280.0
 20
289.0
 30
0.0
  0
POINT
  8
DEFPOINTS
  6
CONTINUOUS
 62
    30
 10
-280.0
 20
289.0
 30
0.0
  0
POINT
  8
DEFPOINTS
  6
CONTINUOUS
 62
    30
 10
-280.0
 20
520.475102
 30
0.0
  0
LINE
  8
SIZE
  6
CONTINUOUS
 62
    30
 10
-305.0
 20
309.0
 30
0.0
 11
-305.0
 21
660.475102
 31
0.0
  0
LINE
  8
SIZE
  6
CONTINUOUS
 62
    30
 10
305.0
 20
309.0
 30
0.0
 11
305.0
 21
660.475102
 31
0.0
  0
LINE
  8
SIZE
  6
CONTINUOUS
 62
    30
 10
-293.0
 20
640.475102
 30
0.0
 11
293.0
 21
640.475102
 31
0.0
  0
CIRCLE
  8
SIZE
  6
CONTINUOUS
 62
    30
 10
-305.0
 20
640.475102
 30
0.0
 40
6.0
  0
LINE
  8
SIZE
  6
CONTINUOUS
 62
    30
 10
-305.0
 20
640.475102
 30
0.0
 11
-293.0
 21
640.475102
 31
0.0
  0
CIRCLE
  8
SIZE
  6
CONTINUOUS
 62
    30
 10
305.0
 20
640.475102
 30
0.0
 40
6.0
  0
LINE
  8
SIZE
  6
CONTINUOUS
 62
    30
 10
305.0
 20
640.475102
 30
0.0
 11
293.0
 21
640.475102
 31
0.0
  0
TEXT
  8
SIZE
  6
CONTINUOUS
 62
    30
 10
-75.168
 20
665.475102
 30
0.0
 40
64.0
  1
610
 50
0.0
 41
0.9
 51
0.0
  7
STANDARD
 71
     0
 72
     1
 11
0.0
 21
665.475102
 31
0.0
210
0.0
220
0.0
230
1.0
  0
POINT
  8
DEFPOINTS
  6
CONTINUOUS
 62
    30
 10
-305.0
 20
289.0
 30
0.0
  0
POINT
  8
DEFPOINTS
  6
CONTINUOUS
 62
    30
 10
305.0
 20
289.0
 30
0.0
  0
POINT
  8
DEFPOINTS
  6
CONTINUOUS
 62
    30
 10
305.0
 20
640.475102
 30
0.0
  0
LINE
  8
SIZE
  6
CONTINUOUS
 62
    30
 10
-309.0
 20
140.0
 30
0.0
 11
-425.645426
 21
140.0
 31
0.0
  0
LINE
  8
SIZE
  6
CONTINUOUS
 62
    30
 10
-309.0
 20
-140.0
 30
0.0
 11
-425.645426
 21
-140.0
 31
0.0
  0
LINE
  8
SIZE
  6
CONTINUOUS
 62
    30
 10
-405.645426
 20
128.0
 30
0.0
 11
-405.645426
 21
-128.0
 31
0.0
  0
CIRCLE
  8
SIZE
  6
CONTINUOUS
 62
    30
 10
-405.645426
 20
140.0
 30
0.0
 40
6.0
  0
LINE
  8
SIZE
  6
CONTINUOUS
 62
    30
 10
-405.645426
 20
140.0
 30
0.0
 11
-405.645426
 21
128.0
 31
0.0
  0
CIRCLE
  8
SIZE
  6
CONTINUOUS
 62
    30
 10
-405.645426
 20
-140.0
 30
0.0
 40
6.0
  0
LINE
  8
SIZE
  6
CONTINUOUS
 62
    30
 10
-405.645426
 20
-140.0
 30
0.0
 11
-405.645426
 21
-128.0
 31
0.0
  0
TEXT
  8
SIZE
  6
CONTINUOUS
 62
    30
 10
-430.645426
 20
-80.928
 30
0.0
 40
64.0
  1
280
 50
90.0
 41
0.9
 51
0.0
  7
STANDARD
 71
     0
 72
     1
 11
-430.645426
 21
0.0
 31
0.0
210
0.0
220
0.0
230
1.0
  0
POINT
  8
DEFPOINTS
  6
CONTINUOUS
 62
    30
 10
-289.0
 20
140.0
 30
0.0
  0
POINT
  8
DEFPOINTS
  6
CONTINUOUS
 62
    30
 10
-289.0
 20
-140.0
 30
0.0
  0
POINT
  8
DEFPOINTS
  6
CONTINUOUS
 62
    30
 10
-405.645426
 20
-140.0
 30
0.0
  0
LINE
  8
SIZE
  6
CONTINUOUS
 62
    30
 10
-309.0
 20
280.0
 30
0.0
 11
-545.645426
 21
280.0
 31
0.0
  0
LINE
  8
SIZE
  6
CONTINUOUS
 62
    30
 10
-309.0
 20
-280.0
 30
0.0
 11
-545.645426
 21
-280.0
 31
0.0
  0
LINE
  8
SIZE
  6
CONTINUOUS
 62
    30
 10
-525.645426
 20
268.0
 30
0.0
 11
-525.645426
 21
-268.0
 31
0.0
  0
CIRCLE
  8
SIZE
  6
CONTINUOUS
 62
    30
 10
-525.645426
 20
280.0
 30
0.0
 40
6.0
  0
LINE
  8
SIZE
  6
CONTINUOUS
 62
    30
 10
-525.645426
 20
280.0
 30
0.0
 11
-525.645426
 21
268.0
 31
0.0
  0
CIRCLE
  8
SIZE
  6
CONTINUOUS
 62
    30
 10
-525.645426
 20
-280.0
 30
0.0
 40
6.0
  0
LINE
  8
SIZE
  6
CONTINUOUS
 62
    30
 10
-525.645426
 20
-280.0
 30
0.0
 11
-525.645426
 21
-268.0
 31
0.0
  0
TEXT
  8
SIZE
  6
CONTINUOUS
 62
    30
 10
-550.645426
 20
-80.928
 30
0.0
 40
64.0
  1
560
 50
90.0
 41
0.9
 51
0.0
  7
STANDARD
 71
     0
 72
     1
 11
-550.645426
 21
0.0
 31
0.0
210
0.0
220
0.0
230
1.0
  0
POINT
  8
DEFPOINTS
  6
CONTINUOUS
 62
    30
 10
-289.0
 20
280.0
 30
0.0
  0
POINT
  8
DEFPOINTS
  6
CONTINUOUS
 62
    30
 10
-289.0
 20
-280.0
 30
0.0
  0
POINT
  8
DEFPOINTS
  6
CONTINUOUS
 62
    30
 10
-525.645426
 20
-280.0
 30
0.0
  0
LINE
  8
SIZE
  6
CONTINUOUS
 62
    30
 10
-309.0
 20
305.0
 30
0.0
 11
-665.645426
 21
305.0
 31
0.0
  0
LINE
  8
SIZE
  6
CONTINUOUS
 62
    30
 10
-309.0
 20
-305.0
 30
0.0
 11
-665.645426
 21
-305.0
 31
0.0
  0
LINE
  8
SIZE
  6
CONTINUOUS
 62
    30
 10
-645.645426
 20
293.0
 30
0.0
 11
-645.645426
 21
-293.0
 31
0.0
  0
CIRCLE
  8
SIZE
  6
CONTINUOUS
 62
    30
 10
-645.645426
 20
305.0
 30
0.0
 40
6.0
  0
LINE
  8
SIZE
  6
CONTINUOUS
 62
    30
 10
-645.645426
 20
305.0
 30
0.0
 11
-645.645426
 21
293.0
 31
0.0
  0
CIRCLE
  8
SIZE
  6
CONTINUOUS
 62
    30
 10
-645.645426
 20
-305.0
 30
0.0
 40
6.0
  0
LINE
  8
SIZE
  6
CONTINUOUS
 62
    30
 10
-645.645426
 20
-305.0
 30
0.0
 11
-645.645426
 21
-293.0
 31
0.0
  0
TEXT
  8
SIZE
  6
CONTINUOUS
 62
    30
 10
-670.645426
 20
-75.168
 30
0.0
 40
64.0
  1
610
 50
90.0
 41
0.9
 51
0.0
  7
STANDARD
 71
     0
 72
     1
 11
-670.645426
 21
0.0
 31
0.0
210
0.0
220
0.0
230
1.0
  0
POINT
  8
DEFPOINTS
  6
CONTINUOUS
 62
    30
 10
-289.0
 20
305.0
 30
0.0
  0
POINT
  8
DEFPOINTS
  6
CONTINUOUS
 62
    30
 10
-289.0
 20
-305.0
 30
0.0
  0
POINT
  8
DEFPOINTS
  6
CONTINUOUS
 62
    30
 10
-645.645426
 20
-305.0
 30
0.0
  0
LINE
  8
SIZE
  6
CONTINUOUS
 62
    30
 10
-262.9
 20
-277.6
 30
0.0
 11
-262.9
 21
-600.259427
 31
0.0
  0
LINE
  8
SIZE
  6
CONTINUOUS
 62
    30
 10
262.9
 20
-279.0
 30
0.0
 11
262.9
 21
-600.259427
 31
0.0
  0
LINE
  8
SIZE
  6
CONTINUOUS
 62
    30
 10
-250.9
 20
-580.259427
 30
0.0
 11
250.9
 21
-580.259427
 31
0.0
  0
CIRCLE
  8
SIZE
  6
CONTINUOUS
 62
    30
 10
-262.9
 20
-580.259427
 30
0.0
 40
6.0
  0
LINE
  8
SIZE
  6
CONTINUOUS
 62
    30
 10
-262.9
 20
-580.259427
 30
0.0
 11
-250.9
 21
-580.259427
 31
0.0
  0
CIRCLE
  8
SIZE
  6
CONTINUOUS
 62
    30
 10
262.9
 20
-580.259427
 30
0.0
 40
6.0
  0
LINE
  8
SIZE
  6
CONTINUOUS
 62
    30
 10
262.9
 20
-580.259427
 30
0.0
 11
250.9
 21
-580.259427
 31
0.0
  0
TEXT
  8
SIZE
  6
CONTINUOUS
 62
    30
 10
-114.912
 20
-555.259427
 30
0.0
 40
64.0
  1
□526
 50
0.0
 41
0.9
 51
0.0
  7
STANDARD
 71
     0
 72
     1
 11
0.0
 21
-555.259427
 31
0.0
210
0.0
220
0.0
230
1.0
  0
POINT
  8
DEFPOINTS
  6
CONTINUOUS
 62
    30
 10
-262.9
 20
-257.6
 30
0.0
  0
POINT
  8
DEFPOINTS
  6
CONTINUOUS
 62
    30
 10
262.9
 20
-259.0
 30
0.0
  0
POINT
  8
DEFPOINTS
  6
CONTINUOUS
 62
    30
 10
262.9
 20
-580.259427
 30
0.0
  0
LINE
  8
NOTE
  6
CONTINUOUS
 62
     4
 39
50.0
 10
280.0
 20
280.0
 30
0.0
 11
291.849446
 21
299.934257
 31
0.0
  0
LINE
  8
NOTE
  6
CONTINUOUS
 62
     4
 39
50.0
 10
280.0
 20
280.0
 30
0.0
 11
300.810572
 21
290.232501
 31
0.0
  0
LINE
  8
NOTE
  6
CONTINUOUS
 62
     4
 39
50.0
 10
280.0
 20
-140.0
 30
0.0
 11
285.342028
 21
-151.078321
 31
0.0
  0
LINE
  8
NOTE
  6
CONTINUOUS
 62
     4
 39
50.0
 10
280.0
 20
-140.0
 30
0.0
 11
290.85497
 21
-145.782394
 31
0.0
  0
LINE
  8
NOTE
  6
CONTINUOUS
 62
     4
 39
50.0
 10
167.738553
 20
-305.0
 30
0.0
 11
160.669487
 21
-317.344107
 31
0.0
  0
LINE
  8
NOTE
  6
CONTINUOUS
 62
     4
 39
50.0
 10
167.738553
 20
-305.0
 30
0.0
 11
154.954444
 21
-311.238206
 31
0.0
  0
ARC
  8
DETAIL
  6
CONTINUOUS
 62
     5
 10
32.194231
 20
-205.112436
 30
0.0
 40
7.994231
 50
132.770861
 51
227.564061
  0
CIRCLE
  8
DETAIL
  6
CONTINUOUS
 62
     5
 10
144.7
 20
-205.4
 30
0.0
 40
4.7
  0
LINE
  8
DETAIL
  6
CONTINUOUS
 62
     5
 10
305.0
 20
-289.0
 30
0.0
 11
305.0
 21
289.0
 31
0.0
  0
LINE
  8
DETAIL
  6
CONTINUOUS
 62
     5
 10
262.9
 20
257.6
 30
0.0
 11
262.9
 21
-259.0
 31
0.0
  0
LINE
  8
DETAIL
  6
CONTINUOUS
 62
     5
 10
260.5
 20
257.6
 30
0.0
 11
260.5
 21
-259.0
 31
0.0
  0
LINE
  8
DETAIL
  6
CONTINUOUS
 62
     5
 10
259.5
 20
-230.0
 30
0.0
 11
259.5
 21
239.0
 31
0.0
  0
LINE
  8
DETAIL
  6
CONTINUOUS
 62
     5
 10
259.0
 20
-230.0
 30
0.0
 11
259.0
 21
239.0
 31
0.0
  0
LINE
  8
DETAIL
  6
CONTINUOUS
 62
     5
 10
257.5
 20
-230.0
 30
0.0
 11
257.5
 21
239.0
 31
0.0
  0
LINE
  8
DETAIL
  6
CONTINUOUS
 62
     5
 10
255.5
 20
-218.0
 30
0.0
 11
255.5
 21
-24.0
 31
0.0
  0
LINE
  8
DETAIL
  6
CONTINUOUS
 62
     5
 10
253.1
 20
-167.488516
 30
0.0
 11
253.1
 21
-224.588516
 31
0.0
  0
LINE
  8
DETAIL
  6
CONTINUOUS
 62
     5
 10
249.9
 20
-167.488516
 30
0.0
 11
249.9
 21
-224.588516
 31
0.0
  0
LINE
  8
DETAIL
  6
CONTINUOUS
 62
     5
 10
232.1
 20
226.511484
 30
0.0
 11
232.1
 21
-222.588516
 31
0.0
  0
LINE
  8
DETAIL
  6
CONTINUOUS
 62
     5
 10
209.5
 20
-243.5
 30
0.0
 11
209.5
 21
-156.391866
 31
0.0
  0
LINE
  8
DETAIL
  6
CONTINUOUS
 62
     5
 10
159.7
 20
-197.1
 30
0.0
 11
159.7
 21
-245.7
 31
0.0
  0
LINE
  8
DETAIL
  6
CONTINUOUS
 62
     5
 10
158.1
 20
-197.1
 30
0.0
 11
158.1
 21
-245.7
 31
0.0
  0
LINE
  8
DETAIL
  6
CONTINUOUS
 62
     5
 10
35.3
 20
-245.7
 30
0.0
 11
35.3
 21
-197.1
 31
0.0
  0
LINE
  8
DETAIL
  6
CONTINUOUS
 62
     5
 10
33.7
 20
-245.7
 30
0.0
 11
33.7
 21
-197.1
 31
0.0
  0
LINE
  8
DETAIL
  6
CONTINUOUS
 62
     5
 10
32.9
 20
-258.4
 30
0.0
 11
32.9
 21
-184.4
 31
0.0
  0
LINE
  8
DETAIL
  6
CONTINUOUS
 62
     5
 10
31.0
 20
-242.599866
 30
0.0
 11
31.0
 21
-201.170468
 31
0.0
  0
LINE
  8
DETAIL
  6
CONTINUOUS
 62
     5
 10
30.0
 20
-214.099778
 30
0.0
 11
30.0
 21
-198.600155
 31
0.0
  0
LINE
  8
DETAIL
  6
CONTINUOUS
 62
     5
 10
29.3
 20
-212.94384
 30
0.0
 11
29.3
 21
-198.733332
 31
0.0
  0
LINE
  8
DETAIL
  6
CONTINUOUS
 62
     5
 10
27.3
 20
-212.94384
 30
0.0
 11
27.3
 21
-200.58855
 31
0.0
  0
LINE
  8
DETAIL
  6
CONTINUOUS
 62
     5
 10
26.8
 20
-199.282032
 30
0.0
 11
26.8
 21
-211.012436
 31
0.0
  0
LINE
  8
DETAIL
  6
CONTINUOUS
 62
     5
 10
3.6
 20
-167.488516
 30
0.0
 11
3.6
 21
-224.588516
 31
0.0
  0
LINE
  8
DETAIL
  6
CONTINUOUS
 62
     5
 10
0.4
 20
-167.488516
 30
0.0
 11
0.4
 21
-224.588516
 31
0.0
  0
LINE
  8
DETAIL
  6
CONTINUOUS
 62
     5
 10
-17.4
 20
226.511484
 30
0.0
 11
-17.4
 21
-222.588516
 31
0.0
  0
LINE
  8
DETAIL
  6
CONTINUOUS
 62
     5
 10
-40.0
 20
-243.5
 30
0.0
 11
-40.0
 21
-156.391866
 31
0.0
  0
LINE
  8
DETAIL
  6
CONTINUOUS
 62
     5
 10
-209.5
 20
-156.692322
 30
0.0
 11
-209.5
 21
-243.5
 31
0.0
  0
LINE
  8
DETAIL
  6
CONTINUOUS
 62
     5
 10
-232.1
 20
226.511484
 30
0.0
 11
-232.1
 21
-222.588516
 31
0.0
  0
LINE
  8
DETAIL
  6
CONTINUOUS
 62
     5
 10
-249.9
 20
-167.488516
 30
0.0
 11
-249.9
 21
-224.588516
 31
0.0
  0
LINE
  8
DETAIL
  6
CONTINUOUS
 62
     5
 10
-253.1
 20
-167.488516
 30
0.0
 11
-253.1
 21
-224.588516
 31
0.0
  0
LINE
  8
DETAIL
  6
CONTINUOUS
 62
     5
 10
-255.5
 20
-218.0
 30
0.0
 11
-255.5
 21
-24.0
 31
0.0
  0
LINE
  8
DETAIL
  6
CONTINUOUS
 62
     5
 10
-257.5
 20
239.0
 30
0.0
 11
-257.5
 21
-230.0
 31
0.0
  0
LINE
  8
DETAIL
  6
CONTINUOUS
 62
     5
 10
-259.0
 20
-230.0
 30
0.0
 11
-259.0
 21
239.0
 31
0.0
  0
LINE
  8
DETAIL
  6
CONTINUOUS
 62
     5
 10
-259.5
 20
239.0
 30
0.0
 11
-259.5
 21
-230.0
 31
0.0
  0
LINE
  8
DETAIL
  6
CONTINUOUS
 62
     5
 10
-260.5
 20
-257.6
 30
0.0
 11
-260.5
 21
259.0
 31
0.0
  0
LINE
  8
DETAIL
  6
CONTINUOUS
 62
     5
 10
-262.9
 20
-257.6
 30
0.0
 11
-262.9
 21
259.0
 31
0.0
  0
LINE
  8
DETAIL
  6
CONTINUOUS
 62
     5
 10
-305.0
 20
-289.0
 30
0.0
 11
-305.0
 21
289.0
 31
0.0
  0
CIRCLE
  8
DETAIL
  6
CONTINUOUS
 62
     5
 10
-280.0
 20
-280.0
 30
0.0
 40
7.0
  0
LINE
  8
DETAIL
  6
CONTINUOUS
 62
     5
 10
-305.0
 20
-260.5
 30
0.0
 11
-263.0
 21
-260.5
 31
0.0
  0
LINE
  8
DETAIL
  6
CONTINUOUS
 62
     5
 10
-305.0
 20
-261.5
 30
0.0
 11
-263.0
 21
-261.5
 31
0.0
  0
LINE
  8
DETAIL
  6
CONTINUOUS
 62
     5
 10
-305.0
 20
-261.7
 30
0.0
 11
-263.0
 21
-261.7
 31
0.0
  0
LINE
  8
DETAIL
  6
CONTINUOUS
 62
     5
 10
-303.0
 20
-262.5
 30
0.0
 11
-259.5
 21
-262.5
 31
0.0
  0
LINE
  8
DETAIL
  6
CONTINUOUS
 62
     5
 10
235.21
 20
-305.0
 30
0.0
 11
177.794812
 21
-305.0
 31
0.0
  0
ARC
  8
DETAIL
  6
CONTINUOUS
 62
     5
 10
-289.0
 20
-289.0
 30
0.0
 40
16.0
 50
180.0
 51
270.0
  0
ARC
  8
DETAIL
  6
CONTINUOUS
 62
     5
 10
-303.0
 20
-264.5
 30
0.0
 40
2.0
 50
90.0
 51
180.0
  0
LINE
  8
DETAIL
  6
CONTINUOUS
 62
     5
 10
158.7
 20
-245.7
 30
0.0
 11
55.280158
 21
-245.7
 31
0.0
  0
LINE
  8
DETAIL
  6
CONTINUOUS
 62
     5
 10
159.7
 20
-258.4
 30
0.0
 11
33.7
 21
-258.4
 31
0.0
  0
LINE
  8
DETAIL
  6
CONTINUOUS
 62
     5
 10
235.21
 20
-260.0
 30
0.0
 11
177.794812
 21
-260.0
 31
0.0
  0
LINE
  8
DETAIL
  6
CONTINUOUS
 62
     5
 10
235.21
 20
-262.4
 30
0.0
 11
177.794812
 21
-262.4
 31
0.0
  0
LINE
  8
DETAIL
  6
CONTINUOUS
 62
     5
 10
-254.5
 20
-246.1
 30
0.0
 11
32.9
 21
-246.1
 31
0.0
  0
LINE
  8
DETAIL
  6
CONTINUOUS
 62
     5
 10
-218.5
 20
-258.8
 30
0.0
 11
32.9528
 21
-258.8
 31
0.0
  0
LINE
  8
DETAIL
  6
CONTINUOUS
 62
     5
 10
-253.1
 20
-224.588516
 30
0.0
 11
-234.1
 21
-224.588516
 31
0.0
  0
LINE
  8
DETAIL
  6
CONTINUOUS
 62
     5
 10
-211.5
 20
-245.5
 30
0.0
 11
-245.1
 21
-245.5
 31
0.0
  0
LINE
  8
DETAIL
  6
CONTINUOUS
 62
     5
 10
-248.5
 20
-255.0
 30
0.0
 11
-218.5
 21
-255.0
 31
0.0
  0
LINE
  8
DETAIL
  6
CONTINUOUS
 62
     5
 10
-247.1
 20
-224.588516
 30
0.0
 11
-247.1
 21
-243.5
 31
0.0
  0
LINE
  8
DETAIL
  6
CONTINUOUS
 62
     5
 10
-255.5
 20
-247.1
 30
0.0
 11
-255.5
 21
-222.0
 31
0.0
  0
LINE
  8
DETAIL
  6
CONTINUOUS
 62
     5
 10
-259.626687
 20
-230.0
 30
0.0
 11
-259.626687
 21
-252.6
 31
0.0
  0
LINE
  8
DETAIL
  6
CONTINUOUS
 62
     5
 10
-260.447214
 20
-230.0
 30
0.0
 11
-260.447214
 21
-254.434752
 31
0.0
  0
LINE
  8
DETAIL
  6
CONTINUOUS
 62
     5
 10
-260.5
 20
-257.6
 30
0.0
 11
-263.0
 21
-257.6
 31
0.0
  0
LINE
  8
DETAIL
  6
CONTINUOUS
 62
     5
 10
-263.0
 20
-262.5
 30
0.0
 11
-263.0
 21
-257.6
 31
0.0
  0
ARC
  8
DETAIL
  6
CONTINUOUS
 62
     5
 10
-245.1
 20
-243.5
 30
0.0
 40
2.0
 50
180.0
 51
270.0
  0
LINE
  8
DETAIL
  6
CONTINUOUS
 62
     5
 10
-254.5
 20
-246.1
 30
0.0
 11
-259.5
 21
-251.1
 31
0.0
  0
LINE
  8
DETAIL
  6
CONTINUOUS
 62
     5
 10
-260.447214
 20
-254.434752
 30
0.0
 11
-259.626687
 21
-252.6
 31
0.0
  0
LINE
  8
DETAIL
  6
CONTINUOUS
 62
     5
 10
-260.447214
 20
-254.434752
 30
0.0
 11
-260.463492
 21
-254.474383
 31
0.0
  0
LINE
  8
DETAIL
  6
CONTINUOUS
 62
     5
 10
-260.463492
 20
-254.474383
 30
0.0
 11
-260.476771
 21
-254.513244
 31
0.0
  0
LINE
  8
DETAIL
  6
CONTINUOUS
 62
     5
 10
-260.476771
 20
-254.513244
 30
0.0
 11
-260.487042
 21
-254.551497
 31
0.0
  0
LINE
  8
DETAIL
  6
CONTINUOUS
 62
     5
 10
-260.487042
 20
-254.551497
 30
0.0
 11
-260.494328
 21
-254.588652
 31
0.0
  0
LINE
  8
DETAIL
  6
CONTINUOUS
 62
     5
 10
-260.494328
 20
-254.588652
 30
0.0
 11
-260.49865
 21
-254.624218
 31
0.0
  0
LINE
  8
DETAIL
  6
CONTINUOUS
 62
     5
 10
-260.49865
 20
-254.624218
 30
0.0
 11
-260.5
 21
-254.658359
 31
0.0
  0
LINE
  8
DETAIL
  6
CONTINUOUS
 62
     5
 10
-259.3
 20
-260.0
 30
0.0
 11
-259.488863
 21
-259.992426
 31
0.0
  0
LINE
  8
DETAIL
  6
CONTINUOUS
 62
     5
 10
-259.3
 20
-258.8
 30
0.0
 11
-248.5
 21
-258.8
 31
0.0
  0
LINE
  8
DETAIL
  6
CONTINUOUS
 62
     5
 10
-259.488863
 20
-259.992426
 30
0.0
 11
-259.675421
 21
-259.970315
 31
0.0
  0
LINE
  8
DETAIL
  6
CONTINUOUS
 62
     5
 10
-259.675421
 20
-259.970315
 30
0.0
 11
-259.86024
 21
-259.933548
 31
0.0
  0
LINE
  8
DETAIL
  6
CONTINUOUS
 62
     5
 10
-259.86024
 20
-259.933548
 30
0.0
 11
-260.041622
 21
-259.882478
 31
0.0
  0
LINE
  8
DETAIL
  6
CONTINUOUS
 62
     5
 10
-260.041622
 20
-259.882478
 30
0.0
 11
-260.218407
 21
-259.81723
 31
0.0
  0
LINE
  8
DETAIL
  6
CONTINUOUS
 62
     5
 10
-260.218407
 20
-259.81723
 30
0.0
 11
-260.389548
 21
-259.738358
 31
0.0
  0
LINE
  8
DETAIL
  6
CONTINUOUS
 62
     5
 10
-260.389548
 20
-259.738358
 30
0.0
 11
-260.553916
 21
-259.646213
 31
0.0
  0
LINE
  8
DETAIL
  6
CONTINUOUS
 62
     5
 10
-260.553916
 20
-259.646213
 30
0.0
 11
-260.7106
 21
-259.541524
 31
0.0
  0
LINE
  8
DETAIL
  6
CONTINUOUS
 62
     5
 10
-260.7106
 20
-259.541524
 30
0.0
 11
-260.858615
 21
-259.424892
 31
0.0
  0
LINE
  8
DETAIL
  6
CONTINUOUS
 62
     5
 10
-260.858615
 20
-259.424892
 30
0.0
 11
-260.997056
 21
-259.297056
 31
0.0
  0
LINE
  8
DETAIL
  6
CONTINUOUS
 62
     5
 10
-260.997056
 20
-259.297056
 30
0.0
 11
-261.124892
 21
-259.158615
 31
0.0
  0
LINE
  8
DETAIL
  6
CONTINUOUS
 62
     5
 10
-261.124892
 20
-259.158615
 30
0.0
 11
-261.241524
 21
-259.0106
 31
0.0
  0
LINE
  8
DETAIL
  6
CONTINUOUS
 62
     5
 10
-261.241524
 20
-259.0106
 30
0.0
 11
-261.346213
 21
-258.853916
 31
0.0
  0
LINE
  8
DETAIL
  6
CONTINUOUS
 62
     5
 10
-261.346213
 20
-258.853916
 30
0.0
 11
-261.438358
 21
-258.689548
 31
0.0
  0
LINE
  8
DETAIL
  6
CONTINUOUS
 62
     5
 10
-261.438358
 20
-258.689548
 30
0.0
 11
-261.51723
 21
-258.518407
 31
0.0
  0
LINE
  8
DETAIL
  6
CONTINUOUS
 62
     5
 10
-261.51723
 20
-258.518407
 30
0.0
 11
-261.582478
 21
-258.341622
 31
0.0
  0
LINE
  8
DETAIL
  6
CONTINUOUS
 62
     5
 10
-261.582478
 20
-258.341622
 30
0.0
 11
-261.633548
 21
-258.16024
 31
0.0
  0
LINE
  8
DETAIL
  6
CONTINUOUS
 62
     5
 10
-261.633548
 20
-258.16024
 30
0.0
 11
-261.670315
 21
-257.975421
 31
0.0
  0
LINE
  8
DETAIL
  6
CONTINUOUS
 62
     5
 10
-261.670315
 20
-257.975421
 30
0.0
 11
-261.692426
 21
-257.788863
 31
0.0
  0
LINE
  8
DETAIL
  6
CONTINUOUS
 62
     5
 10
-261.692426
 20
-257.788863
 30
0.0
 11
-261.7
 21
-257.6
 31
0.0
  0
LINE
  8
DETAIL
  6
CONTINUOUS
 62
     5
 10
-248.5
 20
-260.0
 30
0.0
 11
-248.5
 21
-255.0
 31
0.0
  0
LINE
  8
DETAIL
  6
CONTINUOUS
 62
     5
 10
-259.5
 20
-262.5
 30
0.0
 11
-259.5
 21
-260.0
 31
0.0
  0
LINE
  8
DETAIL
  6
CONTINUOUS
 62
     5
 10
-259.5
 20
-251.1
 30
0.0
 11
-259.5
 21
-258.781806
 31
0.0
  0
LINE
  8
DETAIL
  6
CONTINUOUS
 62
     5
 10
-260.5
 20
-257.6
 30
0.0
 11
-260.493985
 21
-257.718154
 31
0.0
  0
LINE
  8
DETAIL
  6
CONTINUOUS
 62
     5
 10
-260.493985
 20
-257.718154
 30
0.0
 11
-260.476736
 21
-257.834067
 31
0.0
  0
LINE
  8
DETAIL
  6
CONTINUOUS
 62
     5
 10
-260.476736
 20
-257.834067
 30
0.0
 11
-260.448108
 21
-257.94828
 31
0.0
  0
LINE
  8
DETAIL
  6
CONTINUOUS
 62
     5
 10
-260.448108
 20
-257.94828
 30
0.0
 11
-260.408536
 21
-258.059171
 31
0.0
  0
LINE
  8
DETAIL
  6
CONTINUOUS
 62
     5
 10
-260.408536
 20
-258.059171
 30
0.0
 11
-260.358201
 21
-258.165626
 31
0.0
  0
LINE
  8
DETAIL
  6
CONTINUOUS
 62
     5
 10
-260.358201
 20
-258.165626
 30
0.0
 11
-260.297719
 21
-258.266654
 31
0.0
  0
LINE
  8
DETAIL
  6
CONTINUOUS
 62
     5
 10
-260.297719
 20
-258.266654
 30
0.0
 11
-260.227458
 21
-258.361128
 31
0.0
  0
LINE
  8
DETAIL
  6
CONTINUOUS
 62
     5
 10
-260.227458
 20
-258.361128
 30
0.0
 11
-260.148339
 21
-258.448339
 31
0.0
  0
LINE
  8
DETAIL
  6
CONTINUOUS
 62
     5
 10
-260.148339
 20
-258.448339
 30
0.0
 11
-260.061128
 21
-258.527458
 31
0.0
  0
LINE
  8
DETAIL
  6
CONTINUOUS
 62
     5
 10
-260.061128
 20
-258.527458
 30
0.0
 11
-259.966654
 21
-258.597719
 31
0.0
  0
LINE
  8
DETAIL
  6
CONTINUOUS
 62
     5
 10
-259.966654
 20
-258.597719
 30
0.0
 11
-259.865626
 21
-258.658201
 31
0.0
  0
LINE
  8
DETAIL
  6
CONTINUOUS
 62
     5
 10
-259.865626
 20
-258.658201
 30
0.0
 11
-259.759171
 21
-258.708536
 31
0.0
  0
LINE
  8
DETAIL
  6
CONTINUOUS
 62
     5
 10
-259.759171
 20
-258.708536
 30
0.0
 11
-259.64828
 21
-258.748108
 31
0.0
  0
LINE
  8
DETAIL
  6
CONTINUOUS
 62
     5
 10
-259.64828
 20
-258.748108
 30
0.0
 11
-259.534067
 21
-258.776736
 31
0.0
  0
LINE
  8
DETAIL
  6
CONTINUOUS
 62
     5
 10
-259.534067
 20
-258.776736
 30
0.0
 11
-259.418154
 21
-258.793985
 31
0.0
  0
LINE
  8
DETAIL
  6
CONTINUOUS
 62
     5
 10
-259.418154
 20
-258.793985
 30
0.0
 11
-259.3
 21
-258.8
 31
0.0
  0
ARC
  8
DETAIL
  6
CONTINUOUS
 62
     5
 10
-256.7
 20
-216.2
 30
0.0
 40
0.8
 50
180.0
 51
270.0
  0
ARC
  8
DETAIL
  6
CONTINUOUS
 62
     5
 10
-256.7
 20
-223.8
 30
0.0
 40
0.8
 50
90.0
 51
174.375
  0
LINE
  8
DETAIL
  6
CONTINUOUS
 62
     5
 10
-256.7
 20
-217.0
 30
0.0
 11
-256.5
 21
-217.0
 31
0.0
  0
LINE
  8
DETAIL
  6
CONTINUOUS
 62
     5
 10
-253.75
 20
-218.0
 30
0.0
 11
-256.5
 21
-218.0
 31
0.0
  0
LINE
  8
DETAIL
  6
CONTINUOUS
 62
     5
 10
-253.75
 20
-222.0
 30
0.0
 11
-256.5
 21
-222.0
 31
0.0
  0
LINE
  8
DETAIL
  6
CONTINUOUS
 62
     5
 10
-256.7
 20
-223.0
 30
0.0
 11
-256.5
 21
-223.0
 31
0.0
  0
LINE
  8
DETAIL
  6
CONTINUOUS
 62
     5
 10
-259.5
 20
-230.0
 30
0.0
 11
-257.5
 21
-230.0
 31
0.0
  0
LINE
  8
DETAIL
  6
CONTINUOUS
 62
     5
 10
-260.5
 20
-230.0
 30
0.0
 11
-259.5
 21
-230.0
 31
0.0
  0
LINE
  8
DETAIL
  6
CONTINUOUS
 62
     5
 10
-253.75
 20
-218.0
 30
0.0
 11
-253.75
 21
-222.0
 31
0.0
  0
LINE
  8
DETAIL
  6
CONTINUOUS
 62
     5
 10
-256.5
 20
-217.0
 30
0.0
 11
-256.5
 21
-223.0
 31
0.0
  0
LINE
  8
DETAIL
  6
CONTINUOUS
 62
     5
 10
-256.7
 20
-217.0
 30
0.0
 11
-256.7
 21
-223.0
 31
0.0
  0
ARC
  8
DETAIL
  6
CONTINUOUS
 62
     5
 10
-211.5
 20
-243.5
 30
0.0
 40
2.0
 50
270.0
 51
0.0
  0
LINE
  8
DETAIL
  6
CONTINUOUS
 62
     5
 10
-218.5
 20
-260.0
 30
0.0
 11
-218.5
 21
-255.0
 31
0.0
  0
ARC
  8
DETAIL
  6
CONTINUOUS
 62
     5
 10
-234.1
 20
-222.588516
 30
0.0
 40
2.0
 50
270.0
 51
0.0
  0
CIRCLE
  8
DETAIL
  6
CONTINUOUS
 62
     5
 10
-140.0
 20
-280.0
 30
0.0
 40
4.0
  0
LINE
  8
DETAIL
  6
CONTINUOUS
 62
     5
 10
-4.4
 20
-245.5
 30
0.0
 11
-38.0
 21
-245.5
 31
0.0
  0
ARC
  8
DETAIL
  6
CONTINUOUS
 62
     5
 10
-38.0
 20
-243.5
 30
0.0
 40
2.0
 50
180.0
 51
270.0
  0
LINE
  8
DETAIL
  6
CONTINUOUS
 62
     5
 10
-2.4
 20
-243.5
 30
0.0
 11
-2.4
 21
-224.588516
 31
0.0
  0
ARC
  8
DETAIL
  6
CONTINUOUS
 62
     5
 10
-4.4
 20
-243.5
 30
0.0
 40
2.0
 50
270.0
 51
0.0
  0
LINE
  8
DETAIL
  6
CONTINUOUS
 62
     5
 10
-15.4
 20
-224.588516
 30
0.0
 11
3.6
 21
-224.588516
 31
0.0
  0
ARC
  8
DETAIL
  6
CONTINUOUS
 62
     5
 10
-15.4
 20
-222.588516
 30
0.0
 40
2.0
 50
180.0
 51
270.0
  0
CIRCLE
  8
DETAIL
  6
CONTINUOUS
 62
     5
 10
40.7
 20
-240.4
 30
0.0
 40
4.0
  0
CIRCLE
  8
DETAIL
  6
CONTINUOUS
 62
     5
 10
40.7
 20
-240.4
 30
0.0
 40
1.5
  0
CIRCLE
  8
DETAIL
  6
CONTINUOUS
 62
     5
 10
40.7
 20
-240.4
 30
0.0
 40
4.5
  0
ARC
  8
DETAIL
  6
CONTINUOUS
 62
     5
 10
35.950893
 20
-239.1
 30
0.0
 40
4.950893
 50
135.825657
 51
224.174343
  0
LINE
  8
DETAIL
  6
CONTINUOUS
 62
     5
 10
32.4
 20
-242.55
 30
0.0
 11
32.4
 21
-235.65
 31
0.0
  0
LINE
  8
DETAIL
  6
CONTINUOUS
 62
     5
 10
46.719842
 20
-245.7
 30
0.0
 11
34.7
 21
-245.7
 31
0.0
  0
ARC
  8
DETAIL
  6
CONTINUOUS
 62
     5
 10
34.5
 20
-258.4
 30
0.0
 40
1.6
 50
180.0
 51
270.0
  0
ARC
  8
DETAIL
  6
CONTINUOUS
 62
     5
 10
34.7
 20
-246.7
 30
0.0
 40
1.0
 50
90.0
 51
180.0
  0
ARC
  8
DETAIL
  6
CONTINUOUS
 62
     5
 10
34.5
 20
-258.4
 30
0.0
 40
0.8
 50
180.0
 51
215.549308
  0
ARC
  8
DETAIL
  6
CONTINUOUS
 62
     5
 10
36.9225
 20
-251.4
 30
0.0
 40
6.5225
 50
133.897398
 51
226.102602
  0
LINE
  8
DETAIL
  6
CONTINUOUS
 62
     5
 10
30.4
 20
-251.4
 30
0.0
 11
30.41017
 21
-251.142545
 31
0.0
  0
LINE
  8
DETAIL
  6
CONTINUOUS
 62
     5
 10
30.41017
 20
-251.142545
 30
0.0
 11
30.440649
 21
-250.885894
 31
0.0
  0
LINE
  8
DETAIL
  6
CONTINUOUS
 62
     5
 10
30.440649
 20
-250.885894
 30
0.0
 11
30.491341
 21
-250.630845
 31
0.0
  0
LINE
  8
DETAIL
  6
CONTINUOUS
 62
     5
 10
30.491341
 20
-250.630845
 30
0.0
 11
30.562088
 21
-250.378195
 31
0.0
  0
LINE
  8
DETAIL
  6
CONTINUOUS
 62
     5
 10
30.562088
 20
-250.378195
 30
0.0
 11
30.652671
 21
-250.128732
 31
0.0
  0
LINE
  8
DETAIL
  6
CONTINUOUS
 62
     5
 10
30.652671
 20
-250.128732
 30
0.0
 11
30.764537
 21
-249.87972
 31
0.0
  0
LINE
  8
DETAIL
  6
CONTINUOUS
 62
     5
 10
33.7
 20
-246.7
 30
0.0
 11
33.7
 21
-258.4
 31
0.0
  0
LINE
  8
DETAIL
  6
CONTINUOUS
 62
     5
 10
33.7
 20
-245.7
 30
0.0
 11
33.7
 21
-246.7
 31
0.0
  0
LINE
  8
DETAIL
  6
CONTINUOUS
 62
     5
 10
32.4
 20
-256.1
 30
0.0
 11
32.4
 21
-246.7
 31
0.0
  0
LINE
  8
DETAIL
  6
CONTINUOUS
 62
     5
 10
33.7
 20
-258.4
 30
0.0
 11
33.814189
 21
-258.755739
 31
0.0
  0
LINE
  8
DETAIL
  6
CONTINUOUS
 62
     5
 10
33.814189
 20
-258.755739
 30
0.0
 11
33.871525
 21
-258.928733
 31
0.0
  0
LINE
  8
DETAIL
  6
CONTINUOUS
 62
     5
 10
33.871525
 20
-258.928733
 30
0.0
 11
33.928813
 21
-259.094897
 31
0.0
  0
LINE
  8
DETAIL
  6
CONTINUOUS
 62
     5
 10
33.928813
 20
-259.094897
 30
0.0
 11
33.985705
 21
-259.251228
 31
0.0
  0
LINE
  8
DETAIL
  6
CONTINUOUS
 62
     5
 10
33.985705
 20
-259.251228
 30
0.0
 11
34.042616
 21
-259.396992
 31
0.0
  0
LINE
  8
DETAIL
  6
CONTINUOUS
 62
     5
 10
34.042616
 20
-259.396992
 30
0.0
 11
34.1
 21
-259.531371
 31
0.0
  0
LINE
  8
DETAIL
  6
CONTINUOUS
 62
     5
 10
34.1
 20
-259.531371
 30
0.0
 11
34.157384
 21
-259.651402
 31
0.0
  0
LINE
  8
DETAIL
  6
CONTINUOUS
 62
     5
 10
34.157384
 20
-259.651402
 30
0.0
 11
34.214295
 21
-259.754774
 31
0.0
  0
LINE
  8
DETAIL
  6
CONTINUOUS
 62
     5
 10
34.214295
 20
-259.754774
 30
0.0
 11
34.271187
 21
-259.841221
 31
0.0
  0
LINE
  8
DETAIL
  6
CONTINUOUS
 62
     5
 10
34.271187
 20
-259.841221
 30
0.0
 11
34.328475
 21
-259.910113
 31
0.0
  0
LINE
  8
DETAIL
  6
CONTINUOUS
 62
     5
 10
34.328475
 20
-259.910113
 30
0.0
 11
34.385811
 21
-259.959952
 31
0.0
  0
LINE
  8
DETAIL
  6
CONTINUOUS
 62
     5
 10
34.385811
 20
-259.959952
 30
0.0
 11
34.442959
 21
-259.989975
 31
0.0
  0
LINE
  8
DETAIL
  6
CONTINUOUS
 62
     5
 10
34.442959
 20
-259.989975
 30
0.0
 11
34.5
 21
-260.0
 31
0.0
  0
LINE
  8
DETAIL
  6
CONTINUOUS
 62
     5
 10
30.764537
 20
-252.92028
 30
0.0
 11
30.654123
 21
-252.674843
 31
0.0
  0
LINE
  8
DETAIL
  6
CONTINUOUS
 62
     5
 10
30.654123
 20
-252.674843
 30
0.0
 11
30.563256
 21
-252.425432
 31
0.0
  0
LINE
  8
DETAIL
  6
CONTINUOUS
 62
     5
 10
30.563256
 20
-252.425432
 30
0.0
 11
30.49222
 21
-252.172822
 31
0.0
  0
LINE
  8
DETAIL
  6
CONTINUOUS
 62
     5
 10
30.49222
 20
-252.172822
 30
0.0
 11
30.441237
 21
-251.917803
 31
0.0
  0
LINE
  8
DETAIL
  6
CONTINUOUS
 62
     5
 10
30.441237
 20
-251.917803
 30
0.0
 11
30.410466
 21
-251.661169
 31
0.0
  0
LINE
  8
DETAIL
  6
CONTINUOUS
 62
     5
 10
30.410466
 20
-251.661169
 30
0.0
 11
30.4
 21
-251.4
 31
0.0
  0
LINE
  8
DETAIL
  6
CONTINUOUS
 62
     5
 10
32.4
 20
-242.55
 30
0.0
 11
32.9
 21
-242.55
 31
0.0
  0
LINE
  8
DETAIL
  6
CONTINUOUS
 62
     5
 10
32.9
 20
-242.6
 30
0.0
 11
31.0
 21
-242.6
 31
0.0
  0
LINE
  8
DETAIL
  6
CONTINUOUS
 62
     5
 10
33.7
 20
-242.85
 30
0.0
 11
32.9
 21
-242.85
 31
0.0
  0
LINE
  8
DETAIL
  6
CONTINUOUS
 62
     5
 10
32.9
 20
-243.435786
 30
0.0
 11
33.7
 21
-243.435786
 31
0.0
  0
LINE
  8
DETAIL
  6
CONTINUOUS
 62
     5
 10
33.7
 20
-245.7
 30
0.0
 11
32.9
 21
-245.7
 31
0.0
  0
LINE
  8
DETAIL
  6
CONTINUOUS
 62
     5
 10
32.4
 20
-246.7
 30
0.0
 11
32.9
 21
-246.7
 31
0.0
  0
LINE
  8
DETAIL
  6
CONTINUOUS
 62
     5
 10
33.7
 20
-246.7
 30
0.0
 11
32.9
 21
-246.7
 31
0.0
  0
LINE
  8
DETAIL
  6
CONTINUOUS
 62
     5
 10
32.4
 20
-256.1
 30
0.0
 11
32.9
 21
-256.1
 31
0.0
  0
LINE
  8
DETAIL
  6
CONTINUOUS
 62
     5
 10
32.9
 20
-258.4
 30
0.0
 11
33.7
 21
-258.4
 31
0.0
  0
CIRCLE
  8
DETAIL
  6
CONTINUOUS
 62
     5
 10
51.0
 20
-247.6
 30
0.0
 40
4.7
  0
LINE
  8
DETAIL
  6
CONTINUOUS
 62
     5
 10
49.47972
 20
-249.12028
 30
0.0
 11
52.52028
 21
-246.07972
 31
0.0
  0
LINE
  8
DETAIL
  6
CONTINUOUS
 62
     5
 10
52.52028
 20
-249.12028
 30
0.0
 11
49.47972
 21
-246.07972
 31
0.0
  0
CIRCLE
  8
DETAIL
  6
CONTINUOUS
 62
     5
 10
39.7
 20
-228.4
 30
0.0
 40
0.755279
  0
CIRCLE
  8
DETAIL
  6
CONTINUOUS
 62
     5
 10
39.7
 20
-228.4
 30
0.0
 40
1.6
  0
LINE
  8
DETAIL
  6
CONTINUOUS
 62
     5
 10
31.0
 20
-239.1
 30
0.0
 11
31.015947
 21
-238.819239
 31
0.0
  0
LINE
  8
DETAIL
  6
CONTINUOUS
 62
     5
 10
31.015947
 20
-238.819239
 30
0.0
 11
31.063687
 21
-238.540286
 31
0.0
  0
LINE
  8
DETAIL
  6
CONTINUOUS
 62
     5
 10
31.063687
 20
-238.540286
 30
0.0
 11
31.142911
 21
-238.26494
 31
0.0
  0
LINE
  8
DETAIL
  6
CONTINUOUS
 62
     5
 10
31.142911
 20
-238.26494
 30
0.0
 11
31.253109
 21
-237.994973
 31
0.0
  0
LINE
  8
DETAIL
  6
CONTINUOUS
 62
     5
 10
31.253109
 20
-237.994973
 30
0.0
 11
31.393572
 21
-237.732125
 31
0.0
  0
LINE
  8
DETAIL
  6
CONTINUOUS
 62
     5
 10
31.393572
 20
-237.732125
 30
0.0
 11
31.566678
 21
-237.473654
 31
0.0
  0
LINE
  8
DETAIL
  6
CONTINUOUS
 62
     5
 10
31.566678
 20
-240.726346
 30
0.0
 11
31.396343
 21
-240.472482
 31
0.0
  0
LINE
  8
DETAIL
  6
CONTINUOUS
 62
     5
 10
31.396343
 20
-240.472482
 30
0.0
 11
31.255349
 21
-240.209776
 31
0.0
  0
LINE
  8
DETAIL
  6
CONTINUOUS
 62
     5
 10
31.255349
 20
-240.209776
 30
0.0
 11
31.144605
 21
-239.93992
 31
0.0
  0
LINE
  8
DETAIL
  6
CONTINUOUS
 62
     5
 10
31.144605
 20
-239.93992
 30
0.0
 11
31.064824
 21
-239.664654
 31
0.0
  0
LINE
  8
DETAIL
  6
CONTINUOUS
 62
     5
 10
31.064824
 20
-239.664654
 30
0.0
 11
31.01652
 21
-239.38575
 31
0.0
  0
LINE
  8
DETAIL
  6
CONTINUOUS
 62
     5
 10
31.01652
 20
-239.38575
 30
0.0
 11
31.0
 21
-239.1
 31
0.0
  0
LINE
  8
DETAIL
  6
CONTINUOUS
 62
     5
 10
30.0
 20
-208.612436
 30
0.0
 11
29.3
 21
-208.612436
 31
0.0
  0
LINE
  8
DETAIL
  6
CONTINUOUS
 62
     5
 10
27.3
 20
-209.509178
 30
0.0
 11
29.3
 21
-209.509178
 31
0.0
  0
LINE
  8
DETAIL
  6
CONTINUOUS
 62
     5
 10
26.8
 20
-211.012436
 30
0.0
 11
27.3
 21
-211.012436
 31
0.0
  0
LINE
  8
DETAIL
  6
CONTINUOUS
 62
     5
 10
30.0
 20
-212.850298
 30
0.0
 11
31.0
 21
-212.850298
 31
0.0
  0
LINE
  8
DETAIL
  6
CONTINUOUS
 62
     5
 10
27.3
 20
-212.94384
 30
0.0
 11
29.3
 21
-212.94384
 31
0.0
  0
LINE
  8
DETAIL
  6
CONTINUOUS
 62
     5
 10
30.0
 20
-213.912156
 30
0.0
 11
31.0
 21
-213.912156
 31
0.0
  0
LINE
  8
DETAIL
  6
CONTINUOUS
 62
     5
 10
30.0
 20
-213.98882
 30
0.0
 11
31.0
 21
-213.98882
 31
0.0
  0
LINE
  8
DETAIL
  6
CONTINUOUS
 62
     5
 10
30.0
 20
-214.099911
 30
0.0
 11
31.0
 21
-214.099911
 31
0.0
  0
LINE
  8
DETAIL
  6
CONTINUOUS
 62
     5
 10
32.4
 20
-235.65
 30
0.0
 11
32.9
 21
-235.65
 31
0.0
  0
LINE
  8
DETAIL
  6
CONTINUOUS
 62
     5
 10
33.7
 20
-240.85
 30
0.0
 11
32.9
 21
-240.85
 31
0.0
  0
LINE
  8
DETAIL
  6
CONTINUOUS
 62
     5
 10
172.199747
 20
-370.401016
 30
0.0
 11
174.441515
 21
-378.166727
 31
0.0
  0
LINE
  8
DETAIL
  6
CONTINUOUS
 62
     5
 10
234.1
 20
-224.588516
 30
0.0
 11
253.1
 21
-224.588516
 31
0.0
  0
LINE
  8
DETAIL
  6
CONTINUOUS
 62
     5
 10
245.1
 20
-245.5
 30
0.0
 11
211.5
 21
-245.5
 31
0.0
  0
LINE
  8
DETAIL
  6
CONTINUOUS
 62
     5
 10
177.794812
 20
-246.1
 30
0.0
 11
253.1
 21
-246.1
 31
0.0
  0
LINE
  8
DETAIL
  6
CONTINUOUS
 62
     5
 10
167.73864
 20
-325.4
 30
0.0
 11
177.794812
 21
-325.4
 31
0.0
  0
LINE
  8
DETAIL
  6
CONTINUOUS
 62
     5
 10
168.138633
 20
-335.4
 30
0.0
 11
177.338472
 21
-335.4
 31
0.0
  0
LINE
  8
DETAIL
  6
CONTINUOUS
 62
     5
 10
177.338472
 20
-340.4
 30
0.0
 11
168.138633
 21
-340.4
 31
0.0
  0
LINE
  8
DETAIL
  6
CONTINUOUS
 62
     5
 10
177.338472
 20
-370.4
 30
0.0
 11
168.138633
 21
-370.4
 31
0.0
  0
LINE
  8
DETAIL
  6
CONTINUOUS
 62
     5
 10
168.138553
 20
-340.4
 30
0.0
 11
168.138553
 21
-370.4
 31
0.0
  0
LINE
  8
DETAIL
  6
CONTINUOUS
 62
     5
 10
167.907687
 20
-378.467305
 30
0.0
 11
172.321418
 21
-370.822498
 31
0.0
  0
LINE
  8
DETAIL
  6
CONTINUOUS
 62
     5
 10
165.569418
 20
-377.117305
 30
0.0
 11
169.44768
 21
-370.399959
 31
0.0
  0
LINE
  8
DETAIL
  6
CONTINUOUS
 62
     5
 10
167.214867
 20
-378.067305
 30
0.0
 11
164.214867
 21
-383.263457
 31
0.0
  0
LINE
  8
DETAIL
  6
CONTINUOUS
 62
     5
 10
166.262239
 20
-377.517305
 30
0.0
 11
163.262239
 21
-382.713457
 31
0.0
  0
LINE
  8
DETAIL
  6
CONTINUOUS
 62
     5
 10
165.569418
 20
-377.117305
 30
0.0
 11
167.907687
 21
-378.467305
 31
0.0
  0
LINE
  8
DETAIL
  6
CONTINUOUS
 62
     5
 10
164.214867
 20
-383.263457
 30
0.0
 11
163.262239
 21
-382.713457
 31
0.0
  0
CIRCLE
  8
DETAIL
  6
CONTINUOUS
 62
     5
 10
140.0
 20
-280.0
 30
0.0
 40
4.0
  0
LINE
  8
DETAIL
  6
CONTINUOUS
 62
     5
 10
167.738553
 20
-325.4
 30
0.0
 11
167.738553
 21
-239.572184
 31
0.0
  0
LINE
  8
DETAIL
  6
CONTINUOUS
 62
     5
 10
168.138553
 20
-335.4
 30
0.0
 11
168.138553
 21
-325.4
 31
0.0
  0
LINE
  8
DETAIL
  6
CONTINUOUS
 62
     5
 10
160.4472
 20
-258.8
 30
0.0
 11
167.738553
 21
-258.8
 31
0.0
  0
ARC
  8
DETAIL
  6
CONTINUOUS
 62
     5
 10
161.7
 20
-239.65
 30
0.0
 40
1.8
 50
270.0
 51
0.0
  0
ARC
  8
DETAIL
  6
CONTINUOUS
 62
     5
 10
161.7
 20
-242.65
 30
0.0
 40
1.2
 50
90.0
 51
180.0
  0
LINE
  8
DETAIL
  6
CONTINUOUS
 62
     5
 10
160.5
 20
-223.400376
 30
0.0
 11
160.5
 21
-243.399624
 31
0.0
  0
LINE
  8
DETAIL
  6
CONTINUOUS
 62
     5
 10
160.5
 20
-246.1
 30
0.0
 11
167.738553
 21
-246.1
 31
0.0
  0
ARC
  8
DETAIL
  6
CONTINUOUS
 62
     5
 10
158.9
 20
-258.4
 30
0.0
 40
1.6
 50
270.0
 51
0.0
  0
ARC
  8
DETAIL
  6
CONTINUOUS
 62
     5
 10
158.7
 20
-246.7
 30
0.0
 40
1.0
 50
0.0
 51
90.0
  0
ARC
  8
DETAIL
  6
CONTINUOUS
 62
     5
 10
158.9
 20
-258.4
 30
0.0
 40
0.8
 50
324.450692
 51
0.0
  0
ARC
  8
DETAIL
  6
CONTINUOUS
 62
     5
 10
156.4775
 20
-251.4
 30
0.0
 40
6.5225
 50
313.897398
 51
46.102602
  0
LINE
  8
DETAIL
  6
CONTINUOUS
 62
     5
 10
162.635463
 20
-252.92028
 30
0.0
 11
162.745877
 21
-252.674843
 31
0.0
  0
LINE
  8
DETAIL
  6
CONTINUOUS
 62
     5
 10
162.745877
 20
-252.674843
 30
0.0
 11
162.836744
 21
-252.425432
 31
0.0
  0
LINE
  8
DETAIL
  6
CONTINUOUS
 62
     5
 10
162.836744
 20
-252.425432
 30
0.0
 11
162.90778
 21
-252.172822
 31
0.0
  0
LINE
  8
DETAIL
  6
CONTINUOUS
 62
     5
 10
162.90778
 20
-252.172822
 30
0.0
 11
162.958763
 21
-251.917803
 31
0.0
  0
LINE
  8
DETAIL
  6
CONTINUOUS
 62
     5
 10
162.958763
 20
-251.917803
 30
0.0
 11
162.989534
 21
-251.661169
 31
0.0
  0
LINE
  8
DETAIL
  6
CONTINUOUS
 62
     5
 10
162.989534
 20
-251.661169
 30
0.0
 11
163.0
 21
-251.4
 31
0.0
  0
LINE
  8
DETAIL
  6
CONTINUOUS
 62
     5
 10
161.0
 20
-256.1
 30
0.0
 11
161.0
 21
-246.7
 31
0.0
  0
LINE
  8
DETAIL
  6
CONTINUOUS
 62
     5
 10
160.5
 20
-245.7
 30
0.0
 11
160.5
 21
-258.4
 31
0.0
  0
LINE
  8
DETAIL
  6
CONTINUOUS
 62
     5
 10
159.7
 20
-246.7
 30
0.0
 11
159.7
 21
-245.7
 31
0.0
  0
LINE
  8
DETAIL
  6
CONTINUOUS
 62
     5
 10
159.7
 20
-246.7
 30
0.0
 11
159.7
 21
-258.4
 31
0.0
  0
LINE
  8
DETAIL
  6
CONTINUOUS
 62
     5
 10
163.0
 20
-251.4
 30
0.0
 11
162.98983
 21
-251.142545
 31
0.0
  0
LINE
  8
DETAIL
  6
CONTINUOUS
 62
     5
 10
162.98983
 20
-251.142545
 30
0.0
 11
162.959351
 21
-250.885894
 31
0.0
  0
LINE
  8
DETAIL
  6
CONTINUOUS
 62
     5
 10
162.959351
 20
-250.885894
 30
0.0
 11
162.908659
 21
-250.630845
 31
0.0
  0
LINE
  8
DETAIL
  6
CONTINUOUS
 62
     5
 10
162.908659
 20
-250.630845
 30
0.0
 11
162.837912
 21
-250.378195
 31
0.0
  0
LINE
  8
DETAIL
  6
CONTINUOUS
 62
     5
 10
162.837912
 20
-250.378195
 30
0.0
 11
162.747329
 21
-250.128732
 31
0.0
  0
LINE
  8
DETAIL
  6
CONTINUOUS
 62
     5
 10
162.747329
 20
-250.128732
 30
0.0
 11
162.635463
 21
-249.87972
 31
0.0
  0
LINE
  8
DETAIL
  6
CONTINUOUS
 62
     5
 10
159.7
 20
-242.172685
 30
0.0
 11
160.5
 21
-242.172685
 31
0.0
  0
LINE
  8
DETAIL
  6
CONTINUOUS
 62
     5
 10
159.7
 20
-243.4
 30
0.0
 11
160.5
 21
-243.4
 31
0.0
  0
LINE
  8
DETAIL
  6
CONTINUOUS
 62
     5
 10
159.7
 20
-245.7
 30
0.0
 11
160.5
 21
-245.7
 31
0.0
  0
LINE
  8
DETAIL
  6
CONTINUOUS
 62
     5
 10
159.7
 20
-246.7
 30
0.0
 11
160.5
 21
-246.7
 31
0.0
  0
LINE
  8
DETAIL
  6
CONTINUOUS
 62
     5
 10
161.0
 20
-246.7
 30
0.0
 11
160.5
 21
-246.7
 31
0.0
  0
LINE
  8
DETAIL
  6
CONTINUOUS
 62
     5
 10
161.0
 20
-256.1
 30
0.0
 11
160.5
 21
-256.1
 31
0.0
  0
LINE
  8
DETAIL
  6
CONTINUOUS
 62
     5
 10
160.5
 20
-258.4
 30
0.0
 11
159.7
 21
-258.4
 31
0.0
  0
LINE
  8
DETAIL
  6
CONTINUOUS
 62
     5
 10
158.9
 20
-260.0
 30
0.0
 11
158.957041
 21
-259.989975
 31
0.0
  0
LINE
  8
DETAIL
  6
CONTINUOUS
 62
     5
 10
158.957041
 20
-259.989975
 30
0.0
 11
159.014189
 21
-259.959952
 31
0.0
  0
LINE
  8
DETAIL
  6
CONTINUOUS
 62
     5
 10
159.014189
 20
-259.959952
 30
0.0
 11
159.071525
 21
-259.910113
 31
0.0
  0
LINE
  8
DETAIL
  6
CONTINUOUS
 62
     5
 10
159.071525
 20
-259.910113
 30
0.0
 11
159.128813
 21
-259.841221
 31
0.0
  0
LINE
  8
DETAIL
  6
CONTINUOUS
 62
     5
 10
159.128813
 20
-259.841221
 30
0.0
 11
159.185705
 21
-259.754774
 31
0.0
  0
LINE
  8
DETAIL
  6
CONTINUOUS
 62
     5
 10
159.185705
 20
-259.754774
 30
0.0
 11
159.242616
 21
-259.651402
 31
0.0
  0
LINE
  8
DETAIL
  6
CONTINUOUS
 62
     5
 10
159.242616
 20
-259.651402
 30
0.0
 11
159.3
 21
-259.531371
 31
0.0
  0
LINE
  8
DETAIL
  6
CONTINUOUS
 62
     5
 10
159.3
 20
-259.531371
 30
0.0
 11
159.357384
 21
-259.396992
 31
0.0
  0
LINE
  8
DETAIL
  6
CONTINUOUS
 62
     5
 10
159.357384
 20
-259.396992
 30
0.0
 11
159.414295
 21
-259.251228
 31
0.0
  0
LINE
  8
DETAIL
  6
CONTINUOUS
 62
     5
 10
159.414295
 20
-259.251228
 30
0.0
 11
159.471187
 21
-259.094897
 31
0.0
  0
LINE
  8
DETAIL
  6
CONTINUOUS
 62
     5
 10
159.471187
 20
-259.094897
 30
0.0
 11
159.528475
 21
-258.928733
 31
0.0
  0
LINE
  8
DETAIL
  6
CONTINUOUS
 62
     5
 10
159.528475
 20
-258.928733
 30
0.0
 11
159.585811
 21
-258.755739
 31
0.0
  0
LINE
  8
DETAIL
  6
CONTINUOUS
 62
     5
 10
159.585811
 20
-258.755739
 30
0.0
 11
159.7
 21
-258.4
 31
0.0
  0
ARC
  8
DETAIL
  6
CONTINUOUS
 62
     5
 10
161.7
 20
-227.15
 30
0.0
 40
1.8
 50
0.0
 51
90.0
  0
ARC
  8
DETAIL
  6
CONTINUOUS
 62
     5
 10
161.7
 20
-224.15
 30
0.0
 40
1.2
 50
180.0
 51
270.0
  0
ARC
  8
DETAIL
  6
CONTINUOUS
 62
     5
 10
161.506113
 20
-231.292989
 30
0.0
 40
1.3
 50
15.88085
 51
85.0
  0
ARC
  8
DETAIL
  6
CONTINUOUS
 62
     5
 10
154.1
 20
-233.4
 30
0.0
 40
9.0
 50
344.11915
 51
15.88085
  0
ARC
  8
DETAIL
  6
CONTINUOUS
 62
     5
 10
161.506113
 20
-235.507011
 30
0.0
 40
1.3
 50
275.0
 51
344.11915
  0
LINE
  8
DETAIL
  6
CONTINUOUS
 62
     5
 10
162.851571
 20
-234.884924
 30
0.0
 11
162.925735
 21
-234.646275
 31
0.0
  0
LINE
  8
DETAIL
  6
CONTINUOUS
 62
     5
 10
162.925735
 20
-234.646275
 30
0.0
 11
162.986888
 21
-234.405788
 31
0.0
  0
LINE
  8
DETAIL
  6
CONTINUOUS
 62
     5
 10
162.986888
 20
-234.405788
 30
0.0
 11
163.034941
 21
-234.163818
 31
0.0
  0
LINE
  8
DETAIL
  6
CONTINUOUS
 62
     5
 10
163.034941
 20
-234.163818
 30
0.0
 11
163.069821
 21
-233.920723
 31
0.0
  0
LINE
  8
DETAIL
  6
CONTINUOUS
 62
     5
 10
163.069821
 20
-233.920723
 30
0.0
 11
163.092791
 21
-233.654665
 31
0.0
  0
LINE
  8
DETAIL
  6
CONTINUOUS
 62
     5
 10
163.092791
 20
-233.654665
 30
0.0
 11
163.1
 21
-233.4
 31
0.0
  0
LINE
  8
DETAIL
  6
CONTINUOUS
 62
     5
 10
163.5
 20
-227.15
 30
0.0
 11
163.5
 21
-239.65
 31
0.0
  0
LINE
  8
DETAIL
  6
CONTINUOUS
 62
     5
 10
162.756495
 20
-235.86274
 30
0.0
 11
162.756495
 21
-230.93726
 31
0.0
  0
LINE
  8
DETAIL
  6
CONTINUOUS
 62
     5
 10
161.7
 20
-236.78675
 30
0.0
 11
161.7
 21
-241.45
 31
0.0
  0
LINE
  8
DETAIL
  6
CONTINUOUS
 62
     5
 10
161.7
 20
-225.35
 30
0.0
 11
161.7
 21
-230.01325
 31
0.0
  0
LINE
  8
DETAIL
  6
CONTINUOUS
 62
     5
 10
161.619415
 20
-236.802064
 30
0.0
 11
161.619415
 21
-229.997936
 31
0.0
  0
LINE
  8
DETAIL
  6
CONTINUOUS
 62
     5
 10
163.1
 20
-233.4
 30
0.0
 11
163.093366
 21
-233.155701
 31
0.0
  0
LINE
  8
DETAIL
  6
CONTINUOUS
 62
     5
 10
163.093366
 20
-233.155701
 30
0.0
 11
163.073475
 21
-232.911763
 31
0.0
  0
LINE
  8
DETAIL
  6
CONTINUOUS
 62
     5
 10
163.073475
 20
-232.911763
 30
0.0
 11
163.040355
 21
-232.668544
 31
0.0
  0
LINE
  8
DETAIL
  6
CONTINUOUS
 62
     5
 10
163.040355
 20
-232.668544
 30
0.0
 11
162.994055
 21
-232.426404
 31
0.0
  0
LINE
  8
DETAIL
  6
CONTINUOUS
 62
     5
 10
162.994055
 20
-232.426404
 30
0.0
 11
162.928596
 21
-232.1639
 31
0.0
  0
LINE
  8
DETAIL
  6
CONTINUOUS
 62
     5
 10
162.928596
 20
-232.1639
 30
0.0
 11
162.851571
 21
-231.915076
 31
0.0
  0
LINE
  8
DETAIL
  6
CONTINUOUS
 62
     5
 10
161.619415
 20
-229.997936
 30
0.0
 11
160.5
 21
-229.9
 31
0.0
  0
LINE
  8
DETAIL
  6
CONTINUOUS
 62
     5
 10
159.7
 20
-223.4
 30
0.0
 11
160.5
 21
-223.4
 31
0.0
  0
LINE
  8
DETAIL
  6
CONTINUOUS
 62
     5
 10
159.7
 20
-224.627315
 30
0.0
 11
160.5
 21
-224.627315
 31
0.0
  0
LINE
  8
DETAIL
  6
CONTINUOUS
 62
     5
 10
159.7
 20
-229.890926
 30
0.0
 11
160.5
 21
-229.890926
 31
0.0
  0
LINE
  8
DETAIL
  6
CONTINUOUS
 62
     5
 10
159.7
 20
-236.909074
 30
0.0
 11
160.5
 21
-236.909074
 31
0.0
  0
LINE
  8
DETAIL
  6
CONTINUOUS
 62
     5
 10
161.619415
 20
-236.802064
 30
0.0
 11
160.5
 21
-236.9
 31
0.0
  0
ARC
  8
DETAIL
  6
CONTINUOUS
 62
     5
 10
234.1
 20
-222.588516
 30
0.0
 40
2.0
 50
180.0
 51
270.0
  0
LINE
  8
DETAIL
  6
CONTINUOUS
 62
     5
 10
177.338553
 20
-340.4
 30
0.0
 11
177.338553
 21
-370.4
 31
0.0
  0
LINE
  8
DETAIL
  6
CONTINUOUS
 62
     5
 10
175.009575
 20
-370.399557
 30
0.0
 11
177.035591
 21
-377.417882
 31
0.0
  0
LINE
  8
DETAIL
  6
CONTINUOUS
 62
     5
 10
176.414847
 20
-378.152005
 30
0.0
 11
176.502519
 21
-378.105761
 31
0.0
  0
LINE
  8
DETAIL
  6
CONTINUOUS
 62
     5
 10
176.502519
 20
-378.105761
 30
0.0
 11
176.608863
 21
-378.041781
 31
0.0
  0
LINE
  8
DETAIL
  6
CONTINUOUS
 62
     5
 10
176.608863
 20
-378.041781
 30
0.0
 11
176.705715
 21
-377.975085
 31
0.0
  0
LINE
  8
DETAIL
  6
CONTINUOUS
 62
     5
 10
176.705715
 20
-377.975085
 30
0.0
 11
176.792475
 21
-377.905941
 31
0.0
  0
LINE
  8
DETAIL
  6
CONTINUOUS
 62
     5
 10
176.792475
 20
-377.905941
 30
0.0
 11
176.867828
 21
-377.835556
 31
0.0
  0
LINE
  8
DETAIL
  6
CONTINUOUS
 62
     5
 10
176.867828
 20
-377.835556
 30
0.0
 11
176.930294
 21
-377.765106
 31
0.0
  0
LINE
  8
DETAIL
  6
CONTINUOUS
 62
     5
 10
176.930294
 20
-377.765106
 30
0.0
 11
176.979766
 21
-377.694964
 31
0.0
  0
LINE
  8
DETAIL
  6
CONTINUOUS
 62
     5
 10
176.979766
 20
-377.694964
 30
0.0
 11
177.015768
 21
-377.625535
 31
0.0
  0
LINE
  8
DETAIL
  6
CONTINUOUS
 62
     5
 10
177.015768
 20
-377.625535
 30
0.0
 11
177.037929
 21
-377.557897
 31
0.0
  0
LINE
  8
DETAIL
  6
CONTINUOUS
 62
     5
 10
177.037929
 20
-377.557897
 30
0.0
 11
177.045652
 21
-377.493129
 31
0.0
  0
LINE
  8
DETAIL
  6
CONTINUOUS
 62
     5
 10
177.045652
 20
-377.493129
 30
0.0
 11
177.039146
 21
-377.431635
 31
0.0
  0
LINE
  8
DETAIL
  6
CONTINUOUS
 62
     5
 10
177.039146
 20
-377.431635
 30
0.0
 11
177.035595
 21
-377.417971
 31
0.0
  0
LINE
  8
DETAIL
  6
CONTINUOUS
 62
     5
 10
176.266976
 20
-377.639762
 30
0.0
 11
177.766976
 21
-382.835915
 31
0.0
  0
LINE
  8
DETAIL
  6
CONTINUOUS
 62
     5
 10
175.21013
 20
-377.944847
 30
0.0
 11
176.71013
 21
-383.141
 31
0.0
  0
LINE
  8
DETAIL
  6
CONTINUOUS
 62
     5
 10
176.266962
 20
-377.639836
 30
0.0
 11
176.261362
 21
-377.624914
 31
0.0
  0
LINE
  8
DETAIL
  6
CONTINUOUS
 62
     5
 10
176.261362
 20
-377.624914
 30
0.0
 11
176.24376
 21
-377.59785
 31
0.0
  0
LINE
  8
DETAIL
  6
CONTINUOUS
 62
     5
 10
176.24376
 20
-377.59785
 30
0.0
 11
176.217405
 21
-377.574157
 31
0.0
  0
LINE
  8
DETAIL
  6
CONTINUOUS
 62
     5
 10
176.217405
 20
-377.574157
 30
0.0
 11
176.18296
 21
-377.554148
 31
0.0
  0
LINE
  8
DETAIL
  6
CONTINUOUS
 62
     5
 10
176.18296
 20
-377.554148
 30
0.0
 11
176.140815
 21
-377.538266
 31
0.0
  0
LINE
  8
DETAIL
  6
CONTINUOUS
 62
     5
 10
176.140815
 20
-377.538266
 30
0.0
 11
176.091874
 21
-377.526675
 31
0.0
  0
LINE
  8
DETAIL
  6
CONTINUOUS
 62
     5
 10
176.091874
 20
-377.526675
 30
0.0
 11
176.037302
 21
-377.519727
 31
0.0
  0
LINE
  8
DETAIL
  6
CONTINUOUS
 62
     5
 10
176.037302
 20
-377.519727
 30
0.0
 11
175.97671
 21
-377.517305
 31
0.0
  0
LINE
  8
DETAIL
  6
CONTINUOUS
 62
     5
 10
177.035595
 20
-377.417971
 30
0.0
 11
177.01826
 21
-377.373937
 31
0.0
  0
LINE
  8
DETAIL
  6
CONTINUOUS
 62
     5
 10
177.01826
 20
-377.373937
 30
0.0
 11
176.98347
 21
-377.32076
 31
0.0
  0
LINE
  8
DETAIL
  6
CONTINUOUS
 62
     5
 10
176.98347
 20
-377.32076
 30
0.0
 11
176.935257
 21
-377.273117
 31
0.0
  0
LINE
  8
DETAIL
  6
CONTINUOUS
 62
     5
 10
176.935257
 20
-377.273117
 30
0.0
 11
176.873461
 21
-377.230671
 31
0.0
  0
LINE
  8
DETAIL
  6
CONTINUOUS
 62
     5
 10
174.44151
 20
-378.166639
 30
0.0
 11
174.458846
 21
-378.210673
 31
0.0
  0
LINE
  8
DETAIL
  6
CONTINUOUS
 62
     5
 10
174.458846
 20
-378.210673
 30
0.0
 11
174.493636
 21
-378.26385
 31
0.0
  0
LINE
  8
DETAIL
  6
CONTINUOUS
 62
     5
 10
174.493636
 20
-378.26385
 30
0.0
 11
174.541848
 21
-378.311492
 31
0.0
  0
LINE
  8
DETAIL
  6
CONTINUOUS
 62
     5
 10
174.541848
 20
-378.311492
 30
0.0
 11
174.603644
 21
-378.353939
 31
0.0
  0
LINE
  8
DETAIL
  6
CONTINUOUS
 62
     5
 10
177.766889
 20
-382.835912
 30
0.0
 11
177.754486
 21
-382.808371
 31
0.0
  0
LINE
  8
DETAIL
  6
CONTINUOUS
 62
     5
 10
177.754486
 20
-382.808371
 30
0.0
 11
177.730383
 21
-382.780658
 31
0.0
  0
LINE
  8
DETAIL
  6
CONTINUOUS
 62
     5
 10
177.730383
 20
-382.780658
 30
0.0
 11
177.696418
 21
-382.757113
 31
0.0
  0
LINE
  8
DETAIL
  6
CONTINUOUS
 62
     5
 10
177.696418
 20
-382.757113
 30
0.0
 11
177.652992
 21
-382.738347
 31
0.0
  0
LINE
  8
DETAIL
  6
CONTINUOUS
 62
     5
 10
177.652992
 20
-382.738347
 30
0.0
 11
177.601256
 21
-382.724597
 31
0.0
  0
LINE
  8
DETAIL
  6
CONTINUOUS
 62
     5
 10
177.601256
 20
-382.724597
 30
0.0
 11
177.542656
 21
-382.716355
 31
0.0
  0
LINE
  8
DETAIL
  6
CONTINUOUS
 62
     5
 10
177.542656
 20
-382.716355
 30
0.0
 11
177.47671
 21
-382.713457
 31
0.0
  0
LINE
  8
DETAIL
  6
CONTINUOUS
 62
     5
 10
176.710217
 20
-383.141003
 30
0.0
 11
176.722619
 21
-383.168544
 31
0.0
  0
LINE
  8
DETAIL
  6
CONTINUOUS
 62
     5
 10
176.722619
 20
-383.168544
 30
0.0
 11
176.746723
 21
-383.196256
 31
0.0
  0
LINE
  8
DETAIL
  6
CONTINUOUS
 62
     5
 10
176.746723
 20
-383.196256
 30
0.0
 11
176.780688
 21
-383.219802
 31
0.0
  0
LINE
  8
DETAIL
  6
CONTINUOUS
 62
     5
 10
176.780688
 20
-383.219802
 30
0.0
 11
176.824114
 21
-383.238567
 31
0.0
  0
LINE
  8
DETAIL
  6
CONTINUOUS
 62
     5
 10
176.824114
 20
-383.238567
 30
0.0
 11
176.87585
 21
-383.252318
 31
0.0
  0
LINE
  8
DETAIL
  6
CONTINUOUS
 62
     5
 10
176.87585
 20
-383.252318
 30
0.0
 11
176.93445
 21
-383.26056
 31
0.0
  0
LINE
  8
DETAIL
  6
CONTINUOUS
 62
     5
 10
176.93445
 20
-383.26056
 30
0.0
 11
177.000396
 21
-383.263457
 31
0.0
  0
LINE
  8
DETAIL
  6
CONTINUOUS
 62
     5
 10
176.873461
 20
-377.230671
 30
0.0
 11
176.79904
 21
-377.194472
 31
0.0
  0
LINE
  8
DETAIL
  6
CONTINUOUS
 62
     5
 10
176.79904
 20
-377.194472
 30
0.0
 11
176.713881
 21
-377.165113
 31
0.0
  0
LINE
  8
DETAIL
  6
CONTINUOUS
 62
     5
 10
176.713881
 20
-377.165113
 30
0.0
 11
176.617368
 21
-377.142482
 31
0.0
  0
LINE
  8
DETAIL
  6
CONTINUOUS
 62
     5
 10
176.617368
 20
-377.142482
 30
0.0
 11
176.511351
 21
-377.126912
 31
0.0
  0
LINE
  8
DETAIL
  6
CONTINUOUS
 62
     5
 10
176.511351
 20
-377.126912
 30
0.0
 11
176.397147
 21
-377.118714
 31
0.0
  0
LINE
  8
DETAIL
  6
CONTINUOUS
 62
     5
 10
176.397147
 20
-377.118714
 30
0.0
 11
176.275742
 21
-377.117848
 31
0.0
  0
LINE
  8
DETAIL
  6
CONTINUOUS
 62
     5
 10
176.275742
 20
-377.117848
 30
0.0
 11
176.147874
 21
-377.124456
 31
0.0
  0
LINE
  8
DETAIL
  6
CONTINUOUS
 62
     5
 10
176.147874
 20
-377.124456
 30
0.0
 11
176.0156
 21
-377.138302
 31
0.0
  0
LINE
  8
DETAIL
  6
CONTINUOUS
 62
     5
 10
176.0156
 20
-377.138302
 30
0.0
 11
175.880959
 21
-377.159272
 31
0.0
  0
LINE
  8
DETAIL
  6
CONTINUOUS
 62
     5
 10
175.880959
 20
-377.159272
 30
0.0
 11
175.744744
 21
-377.187143
 31
0.0
  0
LINE
  8
DETAIL
  6
CONTINUOUS
 62
     5
 10
175.744744
 20
-377.187143
 30
0.0
 11
175.607661
 21
-377.221888
 31
0.0
  0
LINE
  8
DETAIL
  6
CONTINUOUS
 62
     5
 10
175.607661
 20
-377.221888
 30
0.0
 11
175.472012
 21
-377.262806
 31
0.0
  0
LINE
  8
DETAIL
  6
CONTINUOUS
 62
     5
 10
175.472012
 20
-377.262806
 30
0.0
 11
175.340155
 21
-377.309292
 31
0.0
  0
LINE
  8
DETAIL
  6
CONTINUOUS
 62
     5
 10
175.340155
 20
-377.309292
 30
0.0
 11
175.212634
 21
-377.361045
 31
0.0
  0
LINE
  8
DETAIL
  6
CONTINUOUS
 62
     5
 10
175.212634
 20
-377.361045
 30
0.0
 11
175.090099
 21
-377.41792
 31
0.0
  0
LINE
  8
DETAIL
  6
CONTINUOUS
 62
     5
 10
175.090099
 20
-377.41792
 30
0.0
 11
174.974586
 21
-377.478849
 31
0.0
  0
LINE
  8
DETAIL
  6
CONTINUOUS
 62
     5
 10
174.974586
 20
-377.478849
 30
0.0
 11
174.868242
 21
-377.542829
 31
0.0
  0
LINE
  8
DETAIL
  6
CONTINUOUS
 62
     5
 10
174.868242
 20
-377.542829
 30
0.0
 11
174.77139
 21
-377.609525
 31
0.0
  0
LINE
  8
DETAIL
  6
CONTINUOUS
 62
     5
 10
174.77139
 20
-377.609525
 30
0.0
 11
174.68463
 21
-377.678669
 31
0.0
  0
LINE
  8
DETAIL
  6
CONTINUOUS
 62
     5
 10
174.68463
 20
-377.678669
 30
0.0
 11
174.609278
 21
-377.749053
 31
0.0
  0
LINE
  8
DETAIL
  6
CONTINUOUS
 62
     5
 10
174.609278
 20
-377.749053
 30
0.0
 11
174.546812
 21
-377.819504
 31
0.0
  0
LINE
  8
DETAIL
  6
CONTINUOUS
 62
     5
 10
174.546812
 20
-377.819504
 30
0.0
 11
174.497339
 21
-377.889646
 31
0.0
  0
LINE
  8
DETAIL
  6
CONTINUOUS
 62
     5
 10
174.497339
 20
-377.889646
 30
0.0
 11
174.461338
 21
-377.959075
 31
0.0
  0
LINE
  8
DETAIL
  6
CONTINUOUS
 62
     5
 10
174.461338
 20
-377.959075
 30
0.0
 11
174.439177
 21
-378.026713
 31
0.0
  0
LINE
  8
DETAIL
  6
CONTINUOUS
 62
     5
 10
174.439177
 20
-378.026713
 30
0.0
 11
174.431453
 21
-378.091481
 31
0.0
  0
LINE
  8
DETAIL
  6
CONTINUOUS
 62
     5
 10
174.431453
 20
-378.091481
 30
0.0
 11
174.437959
 21
-378.152975
 31
0.0
  0
LINE
  8
DETAIL
  6
CONTINUOUS
 62
     5
 10
174.437959
 20
-378.152975
 30
0.0
 11
174.44151
 21
-378.166639
 31
0.0
  0
LINE
  8
DETAIL
  6
CONTINUOUS
 62
     5
 10
174.603644
 20
-378.353939
 30
0.0
 11
174.678066
 21
-378.390137
 31
0.0
  0
LINE
  8
DETAIL
  6
CONTINUOUS
 62
     5
 10
174.678066
 20
-378.390137
 30
0.0
 11
174.763224
 21
-378.419497
 31
0.0
  0
LINE
  8
DETAIL
  6
CONTINUOUS
 62
     5
 10
174.763224
 20
-378.419497
 30
0.0
 11
174.859737
 21
-378.442128
 31
0.0
  0
LINE
  8
DETAIL
  6
CONTINUOUS
 62
     5
 10
174.859737
 20
-378.442128
 30
0.0
 11
174.965754
 21
-378.457698
 31
0.0
  0
LINE
  8
DETAIL
  6
CONTINUOUS
 62
     5
 10
174.965754
 20
-378.457698
 30
0.0
 11
175.079958
 21
-378.465895
 31
0.0
  0
LINE
  8
DETAIL
  6
CONTINUOUS
 62
     5
 10
175.079958
 20
-378.465895
 30
0.0
 11
175.201363
 21
-378.466761
 31
0.0
  0
LINE
  8
DETAIL
  6
CONTINUOUS
 62
     5
 10
175.201363
 20
-378.466761
 30
0.0
 11
175.329231
 21
-378.460154
 31
0.0
  0
LINE
  8
DETAIL
  6
CONTINUOUS
 62
     5
 10
175.329231
 20
-378.460154
 30
0.0
 11
175.358016
 21
-378.457141
 31
0.0
  0
LINE
  8
DETAIL
  6
CONTINUOUS
 62
     5
 10
175.97671
 20
-377.517305
 30
0.0
 11
175.911922
 21
-377.519727
 31
0.0
  0
LINE
  8
DETAIL
  6
CONTINUOUS
 62
     5
 10
175.911922
 20
-377.519727
 30
0.0
 11
175.845316
 21
-377.526675
 31
0.0
  0
LINE
  8
DETAIL
  6
CONTINUOUS
 62
     5
 10
175.845316
 20
-377.526675
 30
0.0
 11
175.776299
 21
-377.538266
 31
0.0
  0
LINE
  8
DETAIL
  6
CONTINUOUS
 62
     5
 10
175.776299
 20
-377.538266
 30
0.0
 11
175.706646
 21
-377.554148
 31
0.0
  0
LINE
  8
DETAIL
  6
CONTINUOUS
 62
     5
 10
175.706646
 20
-377.554148
 30
0.0
 11
175.637545
 21
-377.574157
 31
0.0
  0
LINE
  8
DETAIL
  6
CONTINUOUS
 62
     5
 10
175.637545
 20
-377.574157
 30
0.0
 11
175.57015
 21
-377.59785
 31
0.0
  0
LINE
  8
DETAIL
  6
CONTINUOUS
 62
     5
 10
175.57015
 20
-377.59785
 30
0.0
 11
175.505674
 21
-377.624914
 31
0.0
  0
LINE
  8
DETAIL
  6
CONTINUOUS
 62
     5
 10
175.505674
 20
-377.624914
 30
0.0
 11
175.445131
 21
-377.654805
 31
0.0
  0
LINE
  8
DETAIL
  6
CONTINUOUS
 62
     5
 10
175.445131
 20
-377.654805
 30
0.0
 11
175.389673
 21
-377.687078
 31
0.0
  0
LINE
  8
DETAIL
  6
CONTINUOUS
 62
     5
 10
175.389673
 20
-377.687078
 30
0.0
 11
175.340108
 21
-377.72113
 31
0.0
  0
LINE
  8
DETAIL
  6
CONTINUOUS
 62
     5
 10
175.340108
 20
-377.72113
 30
0.0
 11
175.297448
 21
-377.756414
 31
0.0
  0
LINE
  8
DETAIL
  6
CONTINUOUS
 62
     5
 10
175.297448
 20
-377.756414
 30
0.0
 11
175.262239
 21
-377.792305
 31
0.0
  0
LINE
  8
DETAIL
  6
CONTINUOUS
 62
     5
 10
175.262239
 20
-377.792305
 30
0.0
 11
175.235283
 21
-377.828196
 31
0.0
  0
LINE
  8
DETAIL
  6
CONTINUOUS
 62
     5
 10
175.235283
 20
-377.828196
 30
0.0
 11
175.216829
 21
-377.86348
 31
0.0
  0
LINE
  8
DETAIL
  6
CONTINUOUS
 62
     5
 10
175.216829
 20
-377.86348
 30
0.0
 11
175.207415
 21
-377.897531
 31
0.0
  0
LINE
  8
DETAIL
  6
CONTINUOUS
 62
     5
 10
175.207415
 20
-377.897531
 30
0.0
 11
175.206974
 21
-377.929805
 31
0.0
  0
LINE
  8
DETAIL
  6
CONTINUOUS
 62
     5
 10
175.206974
 20
-377.929805
 30
0.0
 11
175.210143
 21
-377.944773
 31
0.0
  0
LINE
  8
DETAIL
  6
CONTINUOUS
 62
     5
 10
177.47671
 20
-382.713457
 30
0.0
 11
177.405745
 21
-382.716355
 31
0.0
  0
LINE
  8
DETAIL
  6
CONTINUOUS
 62
     5
 10
177.405745
 20
-382.716355
 30
0.0
 11
177.33287
 21
-382.724597
 31
0.0
  0
LINE
  8
DETAIL
  6
CONTINUOUS
 62
     5
 10
177.33287
 20
-382.724597
 30
0.0
 11
177.257317
 21
-382.738347
 31
0.0
  0
LINE
  8
DETAIL
  6
CONTINUOUS
 62
     5
 10
177.257317
 20
-382.738347
 30
0.0
 11
177.181388
 21
-382.757113
 31
0.0
  0
LINE
  8
DETAIL
  6
CONTINUOUS
 62
     5
 10
177.181388
 20
-382.757113
 30
0.0
 11
177.106641
 21
-382.780658
 31
0.0
  0
LINE
  8
DETAIL
  6
CONTINUOUS
 62
     5
 10
177.106641
 20
-382.780658
 30
0.0
 11
177.034538
 21
-382.808371
 31
0.0
  0
LINE
  8
DETAIL
  6
CONTINUOUS
 62
     5
 10
177.034538
 20
-382.808371
 30
0.0
 11
176.966651
 21
-382.839804
 31
0.0
  0
LINE
  8
DETAIL
  6
CONTINUOUS
 62
     5
 10
176.966651
 20
-382.839804
 30
0.0
 11
176.904216
 21
-382.874218
 31
0.0
  0
LINE
  8
DETAIL
  6
CONTINUOUS
 62
     5
 10
176.904216
 20
-382.874218
 30
0.0
 11
176.84869
 21
-382.910993
 31
0.0
  0
LINE
  8
DETAIL
  6
CONTINUOUS
 62
     5
 10
176.84869
 20
-382.910993
 30
0.0
 11
176.80098
 21
-382.949321
 31
0.0
  0
LINE
  8
DETAIL
  6
CONTINUOUS
 62
     5
 10
176.80098
 20
-382.949321
 30
0.0
 11
176.762313
 21
-382.988457
 31
0.0
  0
LINE
  8
DETAIL
  6
CONTINUOUS
 62
     5
 10
176.762313
 20
-382.988457
 30
0.0
 11
176.733194
 21
-383.027594
 31
0.0
  0
LINE
  8
DETAIL
  6
CONTINUOUS
 62
     5
 10
176.733194
 20
-383.027594
 30
0.0
 11
176.714517
 21
-383.065922
 31
0.0
  0
LINE
  8
DETAIL
  6
CONTINUOUS
 62
     5
 10
176.714517
 20
-383.065922
 30
0.0
 11
176.706348
 21
-383.102696
 31
0.0
  0
LINE
  8
DETAIL
  6
CONTINUOUS
 62
     5
 10
176.706348
 20
-383.102696
 30
0.0
 11
176.709177
 21
-383.13711
 31
0.0
  0
LINE
  8
DETAIL
  6
CONTINUOUS
 62
     5
 10
176.709177
 20
-383.13711
 30
0.0
 11
176.710217
 21
-383.141003
 31
0.0
  0
LINE
  8
DETAIL
  6
CONTINUOUS
 62
     5
 10
177.000396
 20
-383.263457
 30
0.0
 11
177.071361
 21
-383.26056
 31
0.0
  0
LINE
  8
DETAIL
  6
CONTINUOUS
 62
     5
 10
177.071361
 20
-383.26056
 30
0.0
 11
177.144236
 21
-383.252318
 31
0.0
  0
LINE
  8
DETAIL
  6
CONTINUOUS
 62
     5
 10
177.144236
 20
-383.252318
 30
0.0
 11
177.219788
 21
-383.238567
 31
0.0
  0
LINE
  8
DETAIL
  6
CONTINUOUS
 62
     5
 10
177.219788
 20
-383.238567
 30
0.0
 11
177.295717
 21
-383.219802
 31
0.0
  0
LINE
  8
DETAIL
  6
CONTINUOUS
 62
     5
 10
177.295717
 20
-383.219802
 30
0.0
 11
177.370465
 21
-383.196256
 31
0.0
  0
LINE
  8
DETAIL
  6
CONTINUOUS
 62
     5
 10
177.370465
 20
-383.196256
 30
0.0
 11
177.442567
 21
-383.168544
 31
0.0
  0
LINE
  8
DETAIL
  6
CONTINUOUS
 62
     5
 10
177.442567
 20
-383.168544
 30
0.0
 11
177.510454
 21
-383.13711
 31
0.0
  0
LINE
  8
DETAIL
  6
CONTINUOUS
 62
     5
 10
177.510454
 20
-383.13711
 30
0.0
 11
177.572889
 21
-383.102696
 31
0.0
  0
LINE
  8
DETAIL
  6
CONTINUOUS
 62
     5
 10
177.572889
 20
-383.102696
 30
0.0
 11
177.628416
 21
-383.065922
 31
0.0
  0
LINE
  8
DETAIL
  6
CONTINUOUS
 62
     5
 10
177.628416
 20
-383.065922
 30
0.0
 11
177.676125
 21
-383.027594
 31
0.0
  0
LINE
  8
DETAIL
  6
CONTINUOUS
 62
     5
 10
177.676125
 20
-383.027594
 30
0.0
 11
177.714793
 21
-382.988457
 31
0.0
  0
LINE
  8
DETAIL
  6
CONTINUOUS
 62
     5
 10
177.714793
 20
-382.988457
 30
0.0
 11
177.743912
 21
-382.949321
 31
0.0
  0
LINE
  8
DETAIL
  6
CONTINUOUS
 62
     5
 10
177.743912
 20
-382.949321
 30
0.0
 11
177.762588
 21
-382.910993
 31
0.0
  0
LINE
  8
DETAIL
  6
CONTINUOUS
 62
     5
 10
177.762588
 20
-382.910993
 30
0.0
 11
177.770757
 21
-382.874218
 31
0.0
  0
LINE
  8
DETAIL
  6
CONTINUOUS
 62
     5
 10
177.770757
 20
-382.874218
 30
0.0
 11
177.767929
 21
-382.839804
 31
0.0
  0
LINE
  8
DETAIL
  6
CONTINUOUS
 62
     5
 10
177.767929
 20
-382.839804
 30
0.0
 11
177.766889
 21
-382.835912
 31
0.0
  0
CIRCLE
  8
DETAIL
  6
CONTINUOUS
 62
     5
 10
280.0
 20
-280.0
 30
0.0
 40
7.0
  0
LINE
  8
DETAIL
  6
CONTINUOUS
 62
     5
 10
263.0
 20
-305.0
 30
0.0
 11
263.0
 21
-259.0
 31
0.0
  0
LINE
  8
DETAIL
  6
CONTINUOUS
 62
     5
 10
262.0
 20
-305.0
 30
0.0
 11
262.0
 21
-262.5
 31
0.0
  0
LINE
  8
DETAIL
  6
CONTINUOUS
 62
     5
 10
261.105573
 20
-305.0
 30
0.0
 11
261.105573
 21
-262.5
 31
0.0
  0
LINE
  8
DETAIL
  6
CONTINUOUS
 62
     5
 10
259.316718
 20
-305.0
 30
0.0
 11
259.316718
 21
-262.5
 31
0.0
  0
LINE
  8
DETAIL
  6
CONTINUOUS
 62
     5
 10
177.794812
 20
-325.4
 30
0.0
 11
177.794812
 21
-240.237333
 31
0.0
  0
LINE
  8
DETAIL
  6
CONTINUOUS
 62
     5
 10
235.21
 20
-305.0
 30
0.0
 11
289.0
 21
-305.0
 31
0.0
  0
LINE
  8
DETAIL
  6
CONTINUOUS
 62
     5
 10
177.338553
 20
-335.4
 30
0.0
 11
177.338553
 21
-325.4
 31
0.0
  0
ARC
  8
DETAIL
  6
CONTINUOUS
 62
     5
 10
289.0
 20
-289.0
 30
0.0
 40
16.0
 50
270.0
 51
0.0
  0
LINE
  8
DETAIL
  6
CONTINUOUS
 62
     5
 10
260.447214
 20
-248.0
 30
0.0
 11
260.447214
 21
-230.0
 31
0.0
  0
LINE
  8
DETAIL
  6
CONTINUOUS
 62
     5
 10
259.626687
 20
-248.0
 30
0.0
 11
259.626687
 21
-230.0
 31
0.0
  0
LINE
  8
DETAIL
  6
CONTINUOUS
 62
     5
 10
255.5
 20
-248.5
 30
0.0
 11
255.5
 21
-222.0
 31
0.0
  0
LINE
  8
DETAIL
  6
CONTINUOUS
 62
     5
 10
247.1
 20
-243.5
 30
0.0
 11
247.1
 21
-224.588516
 31
0.0
  0
LINE
  8
DETAIL
  6
CONTINUOUS
 62
     5
 10
260.5
 20
-259.0
 30
0.0
 11
263.0
 21
-259.0
 31
0.0
  0
LINE
  8
DETAIL
  6
CONTINUOUS
 62
     5
 10
258.1
 20
-262.5
 30
0.0
 11
263.0
 21
-262.5
 31
0.0
  0
ARC
  8
DETAIL
  6
CONTINUOUS
 62
     5
 10
258.1
 20
-258.8
 30
0.0
 40
2.4
 50
270.0
 51
0.0
  0
ARC
  8
DETAIL
  6
CONTINUOUS
 62
     5
 10
258.1
 20
-258.8
 30
0.0
 40
1.2
 50
270.0
 51
0.0
  0
ARC
  8
DETAIL
  6
CONTINUOUS
 62
     5
 10
245.1
 20
-243.5
 30
0.0
 40
2.0
 50
270.0
 51
0.0
  0
LINE
  8
DETAIL
  6
CONTINUOUS
 62
     5
 10
259.3
 20
-258.8
 30
0.0
 11
259.3
 21
-248.0
 31
0.0
  0
LINE
  8
DETAIL
  6
CONTINUOUS
 62
     5
 10
258.1
 20
-251.1
 30
0.0
 11
258.1
 21
-262.5
 31
0.0
  0
LINE
  8
DETAIL
  6
CONTINUOUS
 62
     5
 10
258.1
 20
-251.1
 30
0.0
 11
253.1
 21
-246.1
 31
0.0
  0
LINE
  8
DETAIL
  6
CONTINUOUS
 62
     5
 10
259.3
 20
-248.0
 30
0.0
 11
260.5
 21
-248.0
 31
0.0
  0
LINE
  8
DETAIL
  6
CONTINUOUS
 62
     5
 10
255.5
 20
-248.141648
 30
0.0
 11
255.141648
 21
-248.141648
 31
0.0
  0
LINE
  8
DETAIL
  6
CONTINUOUS
 62
     5
 10
255.5
 20
-248.441648
 30
0.0
 11
255.441648
 21
-248.441648
 31
0.0
  0
LINE
  8
DETAIL
  6
CONTINUOUS
 62
     5
 10
259.3
 20
-250.0
 30
0.0
 11
260.5
 21
-250.0
 31
0.0
  0
LINE
  8
DETAIL
  6
CONTINUOUS
 62
     5
 10
257.3
 20
-258.8
 30
0.0
 11
258.1
 21
-258.8
 31
0.0
  0
LINE
  8
DETAIL
  6
CONTINUOUS
 62
     5
 10
258.1
 20
-260.0
 30
0.0
 11
235.21
 21
-260.0
 31
0.0
  0
LINE
  8
DETAIL
  6
CONTINUOUS
 62
     5
 10
258.1
 20
-262.4
 30
0.0
 11
235.21
 21
-262.4
 31
0.0
  0
ARC
  8
DETAIL
  6
CONTINUOUS
 62
     5
 10
256.7
 20
-216.2
 30
0.0
 40
0.8
 50
270.0
 51
354.375
  0
ARC
  8
DETAIL
  6
CONTINUOUS
 62
     5
 10
256.7
 20
-223.8
 30
0.0
 40
0.8
 50
0.0
 51
90.0
  0
LINE
  8
DETAIL
  6
CONTINUOUS
 62
     5
 10
256.7
 20
-223.0
 30
0.0
 11
256.7
 21
-217.0
 31
0.0
  0
LINE
  8
DETAIL
  6
CONTINUOUS
 62
     5
 10
256.5
 20
-223.0
 30
0.0
 11
256.5
 21
-217.0
 31
0.0
  0
LINE
  8
DETAIL
  6
CONTINUOUS
 62
     5
 10
253.75
 20
-222.0
 30
0.0
 11
253.75
 21
-218.0
 31
0.0
  0
LINE
  8
DETAIL
  6
CONTINUOUS
 62
     5
 10
256.7
 20
-217.0
 30
0.0
 11
256.5
 21
-217.0
 31
0.0
  0
LINE
  8
DETAIL
  6
CONTINUOUS
 62
     5
 10
253.75
 20
-218.0
 30
0.0
 11
256.5
 21
-218.0
 31
0.0
  0
LINE
  8
DETAIL
  6
CONTINUOUS
 62
     5
 10
253.75
 20
-222.0
 30
0.0
 11
256.5
 21
-222.0
 31
0.0
  0
LINE
  8
DETAIL
  6
CONTINUOUS
 62
     5
 10
256.7
 20
-223.0
 30
0.0
 11
256.5
 21
-223.0
 31
0.0
  0
LINE
  8
DETAIL
  6
CONTINUOUS
 62
     5
 10
259.5
 20
-230.0
 30
0.0
 11
257.5
 21
-230.0
 31
0.0
  0
LINE
  8
DETAIL
  6
CONTINUOUS
 62
     5
 10
260.5
 20
-230.0
 30
0.0
 11
259.5
 21
-230.0
 31
0.0
  0
CIRCLE
  8
DETAIL
  6
CONTINUOUS
 62
     5
 10
-280.0
 20
280.0
 30
0.0
 40
7.0
  0
LINE
  8
DETAIL
  6
CONTINUOUS
 62
     5
 10
-289.0
 20
305.0
 30
0.0
 11
289.0
 21
305.0
 31
0.0
  0
ARC
  8
DETAIL
  6
CONTINUOUS
 62
     5
 10
-289.0
 20
289.0
 30
0.0
 40
16.0
 50
90.0
 51
180.0
  0
LINE
  8
DETAIL
  6
CONTINUOUS
 62
     5
 10
-258.1
 20
262.4
 30
0.0
 11
259.5
 21
262.4
 31
0.0
  0
LINE
  8
DETAIL
  6
CONTINUOUS
 62
     5
 10
-258.1
 20
260.0
 30
0.0
 11
259.5
 21
260.0
 31
0.0
  0
LINE
  8
DETAIL
  6
CONTINUOUS
 62
     5
 10
248.5
 20
259.4
 30
0.0
 11
-258.1
 21
259.4
 31
0.0
  0
LINE
  8
DETAIL
  6
CONTINUOUS
 62
     5
 10
255.5
 20
246.120984
 30
0.0
 11
-255.5
 21
246.120984
 31
0.0
  0
LINE
  8
DETAIL
  6
CONTINUOUS
 62
     5
 10
-255.5
 20
243.32854
 30
0.0
 11
255.5
 21
243.32854
 31
0.0
  0
LINE
  8
DETAIL
  6
CONTINUOUS
 62
     5
 10
-255.5
 20
242.533895
 30
0.0
 11
255.5
 21
242.533895
 31
0.0
  0
LINE
  8
DETAIL
  6
CONTINUOUS
 62
     5
 10
209.5
 20
212.573898
 30
0.0
 11
3.6
 21
212.573898
 31
0.0
  0
LINE
  8
DETAIL
  6
CONTINUOUS
 62
     5
 10
209.5
 20
212.42367
 30
0.0
 11
3.6
 21
212.42367
 31
0.0
  0
LINE
  8
DETAIL
  6
CONTINUOUS
 62
     5
 10
232.1
 20
147.858352
 30
0.0
 11
-1.4
 21
147.858352
 31
0.0
  0
LINE
  8
DETAIL
  6
CONTINUOUS
 62
     5
 10
232.1
 20
147.558352
 30
0.0
 11
-1.4
 21
147.558352
 31
0.0
  0
LINE
  8
DETAIL
  6
CONTINUOUS
 62
     5
 10
232.1
 20
147.120984
 30
0.0
 11
-1.4
 21
147.120984
 31
0.0
  0
LINE
  8
DETAIL
  6
CONTINUOUS
 62
     5
 10
-1.4
 20
144.32854
 30
0.0
 11
232.1
 21
144.32854
 31
0.0
  0
LINE
  8
DETAIL
  6
CONTINUOUS
 62
     5
 10
-1.4
 20
143.533895
 30
0.0
 11
232.1
 21
143.533895
 31
0.0
  0
LINE
  8
DETAIL
  6
CONTINUOUS
 62
     5
 10
209.5
 20
113.573898
 30
0.0
 11
3.6
 21
113.573898
 31
0.0
  0
LINE
  8
DETAIL
  6
CONTINUOUS
 62
     5
 10
209.5
 20
113.42367
 30
0.0
 11
3.6
 21
113.42367
 31
0.0
  0
LINE
  8
DETAIL
  6
CONTINUOUS
 62
     5
 10
232.1
 20
48.858352
 30
0.0
 11
-1.4
 21
48.858352
 31
0.0
  0
LINE
  8
DETAIL
  6
CONTINUOUS
 62
     5
 10
232.1
 20
48.558352
 30
0.0
 11
-1.4
 21
48.558352
 31
0.0
  0
LINE
  8
DETAIL
  6
CONTINUOUS
 62
     5
 10
232.1
 20
48.120984
 30
0.0
 11
-1.4
 21
48.120984
 31
0.0
  0
LINE
  8
DETAIL
  6
CONTINUOUS
 62
     5
 10
-1.4
 20
45.32854
 30
0.0
 11
232.1
 21
45.32854
 31
0.0
  0
LINE
  8
DETAIL
  6
CONTINUOUS
 62
     5
 10
-1.4
 20
44.533895
 30
0.0
 11
232.1
 21
44.533895
 31
0.0
  0
LINE
  8
DETAIL
  6
CONTINUOUS
 62
     5
 10
209.5
 20
14.573898
 30
0.0
 11
3.6
 21
14.573898
 31
0.0
  0
LINE
  8
DETAIL
  6
CONTINUOUS
 62
     5
 10
209.5
 20
14.42367
 30
0.0
 11
3.6
 21
14.42367
 31
0.0
  0
LINE
  8
DETAIL
  6
CONTINUOUS
 62
     5
 10
232.1
 20
-50.141648
 30
0.0
 11
-1.4
 21
-50.141648
 31
0.0
  0
LINE
  8
DETAIL
  6
CONTINUOUS
 62
     5
 10
232.1
 20
-50.441648
 30
0.0
 11
-1.4
 21
-50.441648
 31
0.0
  0
LINE
  8
DETAIL
  6
CONTINUOUS
 62
     5
 10
232.1
 20
-50.879016
 30
0.0
 11
-1.4
 21
-50.879016
 31
0.0
  0
LINE
  8
DETAIL
  6
CONTINUOUS
 62
     5
 10
-1.4
 20
-53.67146
 30
0.0
 11
232.1
 21
-53.67146
 31
0.0
  0
LINE
  8
DETAIL
  6
CONTINUOUS
 62
     5
 10
-1.4
 20
-54.466105
 30
0.0
 11
232.1
 21
-54.466105
 31
0.0
  0
LINE
  8
DETAIL
  6
CONTINUOUS
 62
     5
 10
209.5
 20
-84.426102
 30
0.0
 11
3.6
 21
-84.426102
 31
0.0
  0
LINE
  8
DETAIL
  6
CONTINUOUS
 62
     5
 10
209.5
 20
-84.57633
 30
0.0
 11
3.6
 21
-84.57633
 31
0.0
  0
LINE
  8
DETAIL
  6
CONTINUOUS
 62
     5
 10
232.1
 20
-149.141648
 30
0.0
 11
16.3
 21
-149.141648
 31
0.0
  0
LINE
  8
DETAIL
  6
CONTINUOUS
 62
     5
 10
232.1
 20
-149.441648
 30
0.0
 11
16.3
 21
-149.441648
 31
0.0
  0
LINE
  8
DETAIL
  6
CONTINUOUS
 62
     5
 10
232.1
 20
-149.879016
 30
0.0
 11
16.3
 21
-149.879016
 31
0.0
  0
LINE
  8
DETAIL
  6
CONTINUOUS
 62
     5
 10
16.3
 20
-152.67146
 30
0.0
 11
232.1
 21
-152.67146
 31
0.0
  0
LINE
  8
DETAIL
  6
CONTINUOUS
 62
     5
 10
16.3
 20
-153.466105
 30
0.0
 11
232.1
 21
-153.466105
 31
0.0
  0
LINE
  8
DETAIL
  6
CONTINUOUS
 62
     5
 10
34.5
 20
-182.8
 30
0.0
 11
158.9
 21
-182.8
 31
0.0
  0
LINE
  8
DETAIL
  6
CONTINUOUS
 62
     5
 10
33.7
 20
-184.4
 30
0.0
 11
159.7
 21
-184.4
 31
0.0
  0
LINE
  8
DETAIL
  6
CONTINUOUS
 62
     5
 10
53.5
 20
-197.1
 30
0.0
 11
158.7
 21
-197.1
 31
0.0
  0
LINE
  8
DETAIL
  6
CONTINUOUS
 62
     5
 10
3.6
 20
129.511484
 30
0.0
 11
3.6
 21
61.511484
 31
0.0
  0
LINE
  8
DETAIL
  6
CONTINUOUS
 62
     5
 10
0.4
 20
129.511484
 30
0.0
 11
0.4
 21
61.511484
 31
0.0
  0
LINE
  8
DETAIL
  6
CONTINUOUS
 62
     5
 10
-40.0
 20
53.5
 30
0.0
 11
-40.0
 21
140.608134
 31
0.0
  0
LINE
  8
DETAIL
  6
CONTINUOUS
 62
     5
 10
-209.5
 20
140.307678
 30
0.0
 11
-209.5
 21
53.5
 31
0.0
  0
LINE
  8
DETAIL
  6
CONTINUOUS
 62
     5
 10
-249.9
 20
129.511484
 30
0.0
 11
-249.9
 21
61.511484
 31
0.0
  0
LINE
  8
DETAIL
  6
CONTINUOUS
 62
     5
 10
-253.1
 20
129.511484
 30
0.0
 11
-253.1
 21
61.511484
 31
0.0
  0
LINE
  8
DETAIL
  6
CONTINUOUS
 62
     5
 10
-255.5
 20
-20.0
 30
0.0
 11
-255.5
 21
174.0
 31
0.0
  0
LINE
  8
DETAIL
  6
CONTINUOUS
 62
     5
 10
-17.4
 20
48.858352
 30
0.0
 11
-232.1
 21
48.858352
 31
0.0
  0
LINE
  8
DETAIL
  6
CONTINUOUS
 62
     5
 10
-17.4
 20
48.558352
 30
0.0
 11
-232.1
 21
48.558352
 31
0.0
  0
LINE
  8
DETAIL
  6
CONTINUOUS
 62
     5
 10
-17.4
 20
48.120984
 30
0.0
 11
-232.1
 21
48.120984
 31
0.0
  0
LINE
  8
DETAIL
  6
CONTINUOUS
 62
     5
 10
-232.1
 20
45.32854
 30
0.0
 11
-17.4
 21
45.32854
 31
0.0
  0
LINE
  8
DETAIL
  6
CONTINUOUS
 62
     5
 10
-232.1
 20
44.533895
 30
0.0
 11
-17.4
 21
44.533895
 31
0.0
  0
LINE
  8
DETAIL
  6
CONTINUOUS
 62
     5
 10
-40.0
 20
14.573898
 30
0.0
 11
-209.5
 21
14.573898
 31
0.0
  0
LINE
  8
DETAIL
  6
CONTINUOUS
 62
     5
 10
-40.0
 20
14.42367
 30
0.0
 11
-209.5
 21
14.42367
 31
0.0
  0
LINE
  8
DETAIL
  6
CONTINUOUS
 62
     5
 10
-17.4
 20
-50.141648
 30
0.0
 11
-232.1
 21
-50.141648
 31
0.0
  0
LINE
  8
DETAIL
  6
CONTINUOUS
 62
     5
 10
-17.4
 20
-50.441648
 30
0.0
 11
-232.1
 21
-50.441648
 31
0.0
  0
LINE
  8
DETAIL
  6
CONTINUOUS
 62
     5
 10
-17.4
 20
-50.879016
 30
0.0
 11
-232.1
 21
-50.879016
 31
0.0
  0
LINE
  8
DETAIL
  6
CONTINUOUS
 62
     5
 10
-232.1
 20
-53.67146
 30
0.0
 11
-17.4
 21
-53.67146
 31
0.0
  0
LINE
  8
DETAIL
  6
CONTINUOUS
 62
     5
 10
-232.1
 20
-54.466105
 30
0.0
 11
-17.4
 21
-54.466105
 31
0.0
  0
LINE
  8
DETAIL
  6
CONTINUOUS
 62
     5
 10
-40.0
 20
-84.426102
 30
0.0
 11
-209.5
 21
-84.426102
 31
0.0
  0
LINE
  8
DETAIL
  6
CONTINUOUS
 62
     5
 10
-40.0
 20
-84.57633
 30
0.0
 11
-209.5
 21
-84.57633
 31
0.0
  0
LINE
  8
DETAIL
  6
CONTINUOUS
 62
     5
 10
-17.4
 20
-149.141648
 30
0.0
 11
-232.1
 21
-149.141648
 31
0.0
  0
LINE
  8
DETAIL
  6
CONTINUOUS
 62
     5
 10
-17.4
 20
-149.441648
 30
0.0
 11
-232.1
 21
-149.441648
 31
0.0
  0
LINE
  8
DETAIL
  6
CONTINUOUS
 62
     5
 10
-17.4
 20
-149.879016
 30
0.0
 11
-232.1
 21
-149.879016
 31
0.0
  0
LINE
  8
DETAIL
  6
CONTINUOUS
 62
     5
 10
-232.1
 20
-152.67146
 30
0.0
 11
-17.4
 21
-152.67146
 31
0.0
  0
LINE
  8
DETAIL
  6
CONTINUOUS
 62
     5
 10
-232.1
 20
-153.466105
 30
0.0
 11
-17.4
 21
-153.466105
 31
0.0
  0
LINE
  8
DETAIL
  6
CONTINUOUS
 62
     5
 10
-40.0
 20
-183.426102
 30
0.0
 11
-209.5
 21
-183.426102
 31
0.0
  0
LINE
  8
DETAIL
  6
CONTINUOUS
 62
     5
 10
-40.0
 20
-183.57633
 30
0.0
 11
-209.5
 21
-183.57633
 31
0.0
  0
LINE
  8
DETAIL
  6
CONTINUOUS
 62
     5
 10
-209.5
 20
-57.692322
 30
0.0
 11
-209.5
 21
-144.5
 31
0.0
  0
LINE
  8
DETAIL
  6
CONTINUOUS
 62
     5
 10
-249.9
 20
-68.488516
 30
0.0
 11
-249.9
 21
-136.488516
 31
0.0
  0
LINE
  8
DETAIL
  6
CONTINUOUS
 62
     5
 10
-253.1
 20
-68.488516
 30
0.0
 11
-253.1
 21
-136.488516
 31
0.0
  0
LINE
  8
DETAIL
  6
CONTINUOUS
 62
     5
 10
-253.2
 20
-71.488516
 30
0.0
 11
-253.2
 21
-79.488516
 31
0.0
  0
LINE
  8
DETAIL
  6
CONTINUOUS
 62
     5
 10
-253.6
 20
-79.488516
 30
0.0
 11
-253.6
 21
-71.488516
 31
0.0
  0
LINE
  8
DETAIL
  6
CONTINUOUS
 62
     5
 10
-253.7
 20
-71.588516
 30
0.0
 11
-253.7
 21
-79.388516
 31
0.0
  0
CIRCLE
  8
DETAIL
  6
CONTINUOUS
 62
     5
 10
-280.0
 20
-140.0
 30
0.0
 40
4.0
  0
LINE
  8
DETAIL
  6
CONTINUOUS
 62
     5
 10
-248.1
 20
-137.488516
 30
0.0
 11
-248.1
 21
-166.488516
 31
0.0
  0
LINE
  8
DETAIL
  6
CONTINUOUS
 62
     5
 10
-253.2
 20
-170.488516
 30
0.0
 11
-253.2
 21
-178.488516
 31
0.0
  0
LINE
  8
DETAIL
  6
CONTINUOUS
 62
     5
 10
-253.6
 20
-178.488516
 30
0.0
 11
-253.6
 21
-170.488516
 31
0.0
  0
LINE
  8
DETAIL
  6
CONTINUOUS
 62
     5
 10
-253.7
 20
-170.588516
 30
0.0
 11
-253.7
 21
-178.388516
 31
0.0
  0
ARC
  8
DETAIL
  6
CONTINUOUS
 62
     5
 10
-254.7
 20
-193.80003
 30
0.0
 40
0.8
 50
90.5
 51
180.0
  0
ARC
  8
DETAIL
  6
CONTINUOUS
 62
     5
 10
-254.7
 20
-184.19997
 30
0.0
 40
0.8
 50
180.0
 51
269.5
  0
ARC
  8
DETAIL
  6
CONTINUOUS
 62
     5
 10
-253.6
 20
-178.388516
 30
0.0
 40
0.1
 50
180.0
 51
270.0
  0
ARC
  8
DETAIL
  6
CONTINUOUS
 62
     5
 10
-253.2
 20
-178.388516
 30
0.0
 40
0.1
 50
270.0
 51
0.0
  0
ARC
  8
DETAIL
  6
CONTINUOUS
 62
     5
 10
-257.175
 20
-185.325
 30
0.0
 40
0.325
 50
90.0
 51
180.0
  0
ARC
  8
DETAIL
  6
CONTINUOUS
 62
     5
 10
-257.175
 20
-192.675
 30
0.0
 40
0.325
 50
180.0
 51
270.0
  0
ARC
  8
DETAIL
  6
CONTINUOUS
 62
     5
 10
-256.7
 20
-185.2
 30
0.0
 40
0.2
 50
0.0
 51
90.0
  0
ARC
  8
DETAIL
  6
CONTINUOUS
 62
     5
 10
-256.7
 20
-192.8
 30
0.0
 40
0.2
 50
270.0
 51
0.0
  0
LINE
  8
DETAIL
  6
CONTINUOUS
 62
     5
 10
-254.706981
 20
-184.999939
 30
0.0
 11
-253.1
 21
-185.013963
 31
0.0
  0
LINE
  8
DETAIL
  6
CONTINUOUS
 62
     5
 10
-253.6
 20
-178.488516
 30
0.0
 11
-253.2
 21
-178.488516
 31
0.0
  0
LINE
  8
DETAIL
  6
CONTINUOUS
 62
     5
 10
-255.5
 20
-182.0
 30
0.0
 11
-256.5
 21
-182.0
 31
0.0
  0
LINE
  8
DETAIL
  6
CONTINUOUS
 62
     5
 10
-253.1
 20
-183.426102
 30
0.0
 11
-255.5
 21
-183.426102
 31
0.0
  0
LINE
  8
DETAIL
  6
CONTINUOUS
 62
     5
 10
-253.1
 20
-183.57633
 30
0.0
 11
-255.5
 21
-183.57633
 31
0.0
  0
LINE
  8
DETAIL
  6
CONTINUOUS
 62
     5
 10
-256.7
 20
-185.0
 30
0.0
 11
-257.175
 21
-185.0
 31
0.0
  0
LINE
  8
DETAIL
  6
CONTINUOUS
 62
     5
 10
-255.5
 20
-185.889269
 30
0.0
 11
-256.5
 21
-185.889269
 31
0.0
  0
LINE
  8
DETAIL
  6
CONTINUOUS
 62
     5
 10
-255.5
 20
-187.000244
 30
0.0
 11
-256.5
 21
-187.000244
 31
0.0
  0
LINE
  8
DETAIL
  6
CONTINUOUS
 62
     5
 10
-256.5
 20
-190.999756
 30
0.0
 11
-255.5
 21
-190.999756
 31
0.0
  0
LINE
  8
DETAIL
  6
CONTINUOUS
 62
     5
 10
-256.5
 20
-192.110731
 30
0.0
 11
-255.5
 21
-192.110731
 31
0.0
  0
LINE
  8
DETAIL
  6
CONTINUOUS
 62
     5
 10
-256.7
 20
-193.0
 30
0.0
 11
-257.175
 21
-193.0
 31
0.0
  0
LINE
  8
DETAIL
  6
CONTINUOUS
 62
     5
 10
-255.5
 20
-196.0
 30
0.0
 11
-256.5
 21
-196.0
 31
0.0
  0
LINE
  8
DETAIL
  6
CONTINUOUS
 62
     5
 10
-254.706981
 20
-193.000061
 30
0.0
 11
-253.1
 21
-192.986037
 31
0.0
  0
LINE
  8
DETAIL
  6
CONTINUOUS
 62
     5
 10
-254.706981
 20
-193.000061
 30
0.0
 11
-254.706981
 21
-184.999939
 31
0.0
  0
LINE
  8
DETAIL
  6
CONTINUOUS
 62
     5
 10
-256.5
 20
-195.999442
 30
0.0
 11
-256.5
 21
-182.000562
 31
0.0
  0
LINE
  8
DETAIL
  6
CONTINUOUS
 62
     5
 10
-256.7
 20
-185.0
 30
0.0
 11
-256.7
 21
-193.0
 31
0.0
  0
LINE
  8
DETAIL
  6
CONTINUOUS
 62
     5
 10
-257.175
 20
-193.0
 30
0.0
 11
-257.175
 21
-185.0
 31
0.0
  0
ARC
  8
DETAIL
  6
CONTINUOUS
 62
     5
 10
-249.1
 20
-166.488516
 30
0.0
 40
1.0
 50
270.0
 51
0.0
  0
ARC
  8
DETAIL
  6
CONTINUOUS
 62
     5
 10
-253.6
 20
-170.588516
 30
0.0
 40
0.1
 50
90.0
 51
180.0
  0
ARC
  8
DETAIL
  6
CONTINUOUS
 62
     5
 10
-253.2
 20
-170.588516
 30
0.0
 40
0.1
 50
0.0
 51
90.0
  0
LINE
  8
DETAIL
  6
CONTINUOUS
 62
     5
 10
-248.1
 20
-149.141648
 30
0.0
 11
-255.5
 21
-149.141648
 31
0.0
  0
LINE
  8
DETAIL
  6
CONTINUOUS
 62
     5
 10
-248.1
 20
-149.441648
 30
0.0
 11
-255.5
 21
-149.441648
 31
0.0
  0
LINE
  8
DETAIL
  6
CONTINUOUS
 62
     5
 10
-248.1
 20
-149.879016
 30
0.0
 11
-255.5
 21
-149.879016
 31
0.0
  0
LINE
  8
DETAIL
  6
CONTINUOUS
 62
     5
 10
-255.5
 20
-152.67146
 30
0.0
 11
-248.1
 21
-152.67146
 31
0.0
  0
LINE
  8
DETAIL
  6
CONTINUOUS
 62
     5
 10
-255.5
 20
-153.466105
 30
0.0
 11
-248.1
 21
-153.466105
 31
0.0
  0
LINE
  8
DETAIL
  6
CONTINUOUS
 62
     5
 10
-248.1
 20
-154.510801
 30
0.0
 11
-248.141321
 21
-154.51508
 31
0.0
  0
LINE
  8
DETAIL
  6
CONTINUOUS
 62
     5
 10
-248.141321
 20
-154.51508
 30
0.0
 11
-248.376801
 21
-154.547706
 31
0.0
  0
LINE
  8
DETAIL
  6
CONTINUOUS
 62
     5
 10
-248.376801
 20
-154.547706
 30
0.0
 11
-248.596376
 21
-154.586671
 31
0.0
  0
LINE
  8
DETAIL
  6
CONTINUOUS
 62
     5
 10
-248.596376
 20
-154.586671
 30
0.0
 11
-248.796956
 21
-154.631599
 31
0.0
  0
LINE
  8
DETAIL
  6
CONTINUOUS
 62
     5
 10
-248.796956
 20
-154.631599
 30
0.0
 11
-248.976396
 21
-154.68182
 31
0.0
  0
LINE
  8
DETAIL
  6
CONTINUOUS
 62
     5
 10
-248.976396
 20
-154.68182
 30
0.0
 11
-249.132018
 21
-154.736797
 31
0.0
  0
LINE
  8
DETAIL
  6
CONTINUOUS
 62
     5
 10
-249.132018
 20
-154.736797
 30
0.0
 11
-249.262325
 21
-154.795757
 31
0.0
  0
LINE
  8
DETAIL
  6
CONTINUOUS
 62
     5
 10
-249.262325
 20
-154.795757
 30
0.0
 11
-249.365186
 21
-154.858026
 31
0.0
  0
LINE
  8
DETAIL
  6
CONTINUOUS
 62
     5
 10
-249.365186
 20
-154.858026
 30
0.0
 11
-249.439827
 21
-154.922767
 31
0.0
  0
LINE
  8
DETAIL
  6
CONTINUOUS
 62
     5
 10
-249.439827
 20
-154.922767
 30
0.0
 11
-249.48458
 21
-154.988787
 31
0.0
  0
LINE
  8
DETAIL
  6
CONTINUOUS
 62
     5
 10
-249.48458
 20
-154.988787
 30
0.0
 11
-249.5
 21
-155.056483
 31
0.0
  0
LINE
  8
DETAIL
  6
CONTINUOUS
 62
     5
 10
-248.3
 20
-162.615082
 30
0.0
 11
-249.5
 21
-162.615082
 31
0.0
  0
LINE
  8
DETAIL
  6
CONTINUOUS
 62
     5
 10
-253.1
 20
-167.488516
 30
0.0
 11
-249.1
 21
-167.488516
 31
0.0
  0
LINE
  8
DETAIL
  6
CONTINUOUS
 62
     5
 10
-253.6
 20
-170.488516
 30
0.0
 11
-253.2
 21
-170.488516
 31
0.0
  0
LINE
  8
DETAIL
  6
CONTINUOUS
 62
     5
 10
-248.3
 20
-155.056483
 30
0.0
 11
-248.289429
 21
-155.016938
 31
0.0
  0
LINE
  8
DETAIL
  6
CONTINUOUS
 62
     5
 10
-248.289429
 20
-155.016938
 30
0.0
 11
-248.259111
 21
-154.978719
 31
0.0
  0
LINE
  8
DETAIL
  6
CONTINUOUS
 62
     5
 10
-248.259111
 20
-154.978719
 30
0.0
 11
-248.208534
 21
-154.941516
 31
0.0
  0
LINE
  8
DETAIL
  6
CONTINUOUS
 62
     5
 10
-248.208534
 20
-154.941516
 30
0.0
 11
-248.13923
 21
-154.906255
 31
0.0
  0
LINE
  8
DETAIL
  6
CONTINUOUS
 62
     5
 10
-248.13923
 20
-154.906255
 30
0.0
 11
-248.1
 21
-154.891581
 31
0.0
  0
LINE
  8
DETAIL
  6
CONTINUOUS
 62
     5
 10
-248.3
 20
-155.056483
 30
0.0
 11
-248.3
 21
-167.086487
 31
0.0
  0
LINE
  8
DETAIL
  6
CONTINUOUS
 62
     5
 10
-249.5
 20
-167.488516
 30
0.0
 11
-249.5
 21
-155.056483
 31
0.0
  0
LINE
  8
DETAIL
  6
CONTINUOUS
 62
     5
 10
-231.5
 20
-172.538517
 30
0.0
 11
-231.5
 21
-176.438515
 31
0.0
  0
LINE
  8
DETAIL
  6
CONTINUOUS
 62
     5
 10
-232.000001
 20
-172.038516
 30
0.0
 11
-232.000001
 21
-176.938516
 31
0.0
  0
LINE
  8
DETAIL
  6
CONTINUOUS
 62
     5
 10
-209.5
 20
-183.652659
 30
0.0
 11
-232.1
 21
-183.652659
 31
0.0
  0
LINE
  8
DETAIL
  6
CONTINUOUS
 62
     5
 10
-231.500066
 20
-176.438449
 30
0.0
 11
-232.000084
 21
-176.938433
 31
0.0
  0
LINE
  8
DETAIL
  6
CONTINUOUS
 62
     5
 10
-232.1
 20
-176.938516
 30
0.0
 11
-232.000001
 21
-176.938516
 31
0.0
  0
LINE
  8
DETAIL
  6
CONTINUOUS
 62
     5
 10
-211.5
 20
-146.5
 30
0.0
 11
-232.1
 21
-146.5
 31
0.0
  0
LINE
  8
DETAIL
  6
CONTINUOUS
 62
     5
 10
-211.5
 20
-154.455571
 30
0.0
 11
-232.1
 21
-154.455571
 31
0.0
  0
LINE
  8
DETAIL
  6
CONTINUOUS
 62
     5
 10
-211.5
 20
-154.756027
 30
0.0
 11
-232.1
 21
-154.756027
 31
0.0
  0
LINE
  8
DETAIL
  6
CONTINUOUS
 62
     5
 10
-232.1
 20
-172.038516
 30
0.0
 11
-232.000001
 21
-172.038516
 31
0.0
  0
LINE
  8
DETAIL
  6
CONTINUOUS
 62
     5
 10
-231.500066
 20
-172.538583
 30
0.0
 11
-232.000084
 21
-172.038599
 31
0.0
  0
ARC
  8
DETAIL
  6
CONTINUOUS
 62
     5
 10
-211.5
 20
-144.5
 30
0.0
 40
2.0
 50
270.0
 51
0.0
  0
LINE
  8
DETAIL
  6
CONTINUOUS
 62
     5
 10
-211.5
 20
-154.455571
 30
0.0
 11
-211.27469
 21
-154.468012
 31
0.0
  0
LINE
  8
DETAIL
  6
CONTINUOUS
 62
     5
 10
-211.27469
 20
-154.468012
 30
0.0
 11
-211.054958
 21
-154.504118
 31
0.0
  0
LINE
  8
DETAIL
  6
CONTINUOUS
 62
     5
 10
-211.054958
 20
-154.504118
 30
0.0
 11
-210.839481
 21
-154.564337
 31
0.0
  0
LINE
  8
DETAIL
  6
CONTINUOUS
 62
     5
 10
-210.839481
 20
-154.564337
 30
0.0
 11
-210.632233
 21
-154.647324
 31
0.0
  0
LINE
  8
DETAIL
  6
CONTINUOUS
 62
     5
 10
-210.632233
 20
-154.647324
 30
0.0
 11
-210.435999
 21
-154.752455
 31
0.0
  0
LINE
  8
DETAIL
  6
CONTINUOUS
 62
     5
 10
-210.435999
 20
-154.752455
 30
0.0
 11
-210.25302
 21
-154.878009
 31
0.0
  0
LINE
  8
DETAIL
  6
CONTINUOUS
 62
     5
 10
-210.25302
 20
-154.878009
 30
0.0
 11
-210.08587
 21
-155.02278
 31
0.0
  0
LINE
  8
DETAIL
  6
CONTINUOUS
 62
     5
 10
-210.08587
 20
-155.02278
 30
0.0
 11
-209.936337
 21
-155.184606
 31
0.0
  0
LINE
  8
DETAIL
  6
CONTINUOUS
 62
     5
 10
-209.936337
 20
-155.184606
 30
0.0
 11
-209.806652
 21
-155.361756
 31
0.0
  0
LINE
  8
DETAIL
  6
CONTINUOUS
 62
     5
 10
-209.806652
 20
-155.361756
 30
0.0
 11
-209.698062
 21
-155.551739
 31
0.0
  0
LINE
  8
DETAIL
  6
CONTINUOUS
 62
     5
 10
-209.698062
 20
-155.551739
 30
0.0
 11
-209.612345
 21
-155.752386
 31
0.0
  0
LINE
  8
DETAIL
  6
CONTINUOUS
 62
     5
 10
-209.612345
 20
-155.752386
 30
0.0
 11
-209.550144
 21
-155.961
 31
0.0
  0
LINE
  8
DETAIL
  6
CONTINUOUS
 62
     5
 10
-209.550144
 20
-155.961
 30
0.0
 11
-209.51285
 21
-156.173732
 31
0.0
  0
LINE
  8
DETAIL
  6
CONTINUOUS
 62
     5
 10
-209.51285
 20
-156.173732
 30
0.0
 11
-209.5
 21
-156.391866
 31
0.0
  0
LINE
  8
DETAIL
  6
CONTINUOUS
 62
     5
 10
-211.5
 20
-154.455571
 30
0.0
 11
-211.5
 21
-154.756027
 31
0.0
  0
LINE
  8
DETAIL
  6
CONTINUOUS
 62
     5
 10
-209.5
 20
-156.692322
 30
0.0
 11
-209.51285
 21
-156.474188
 31
0.0
  0
LINE
  8
DETAIL
  6
CONTINUOUS
 62
     5
 10
-209.51285
 20
-156.474188
 30
0.0
 11
-209.550144
 21
-156.261456
 31
0.0
  0
LINE
  8
DETAIL
  6
CONTINUOUS
 62
     5
 10
-209.550144
 20
-156.261456
 30
0.0
 11
-209.612345
 21
-156.052842
 31
0.0
  0
LINE
  8
DETAIL
  6
CONTINUOUS
 62
     5
 10
-209.612345
 20
-156.052842
 30
0.0
 11
-209.698062
 21
-155.852195
 31
0.0
  0
LINE
  8
DETAIL
  6
CONTINUOUS
 62
     5
 10
-209.698062
 20
-155.852195
 30
0.0
 11
-209.806652
 21
-155.662212
 31
0.0
  0
LINE
  8
DETAIL
  6
CONTINUOUS
 62
     5
 10
-209.806652
 20
-155.662212
 30
0.0
 11
-209.936337
 21
-155.485062
 31
0.0
  0
LINE
  8
DETAIL
  6
CONTINUOUS
 62
     5
 10
-209.936337
 20
-155.485062
 30
0.0
 11
-210.08587
 21
-155.323236
 31
0.0
  0
LINE
  8
DETAIL
  6
CONTINUOUS
 62
     5
 10
-210.08587
 20
-155.323236
 30
0.0
 11
-210.25302
 21
-155.178465
 31
0.0
  0
LINE
  8
DETAIL
  6
CONTINUOUS
 62
     5
 10
-210.25302
 20
-155.178465
 30
0.0
 11
-210.435999
 21
-155.052911
 31
0.0
  0
LINE
  8
DETAIL
  6
CONTINUOUS
 62
     5
 10
-210.435999
 20
-155.052911
 30
0.0
 11
-210.632233
 21
-154.94778
 31
0.0
  0
LINE
  8
DETAIL
  6
CONTINUOUS
 62
     5
 10
-210.632233
 20
-154.94778
 30
0.0
 11
-210.839481
 21
-154.864793
 31
0.0
  0
LINE
  8
DETAIL
  6
CONTINUOUS
 62
     5
 10
-210.839481
 20
-154.864793
 30
0.0
 11
-211.054958
 21
-154.804574
 31
0.0
  0
LINE
  8
DETAIL
  6
CONTINUOUS
 62
     5
 10
-211.054958
 20
-154.804574
 30
0.0
 11
-211.27469
 21
-154.768468
 31
0.0
  0
LINE
  8
DETAIL
  6
CONTINUOUS
 62
     5
 10
-211.27469
 20
-154.768468
 30
0.0
 11
-211.5
 21
-154.756027
 31
0.0
  0
ARC
  8
DETAIL
  6
CONTINUOUS
 62
     5
 10
-249.1
 20
-137.488516
 30
0.0
 40
1.0
 50
0.0
 51
90.0
  0
CIRCLE
  8
DETAIL
  6
CONTINUOUS
 62
     5
 10
-243.1
 20
-125.388516
 30
0.0
 40
2.0
  0
LINE
  8
DETAIL
  6
CONTINUOUS
 62
     5
 10
-253.1
 20
-136.488516
 30
0.0
 11
-249.1
 21
-136.488516
 31
0.0
  0
ARC
  8
DETAIL
  6
CONTINUOUS
 62
     5
 10
-254.7
 20
-94.80003
 30
0.0
 40
0.8
 50
90.5
 51
180.0
  0
ARC
  8
DETAIL
  6
CONTINUOUS
 62
     5
 10
-254.7
 20
-85.19997
 30
0.0
 40
0.8
 50
180.0
 51
269.5
  0
ARC
  8
DETAIL
  6
CONTINUOUS
 62
     5
 10
-253.6
 20
-79.388516
 30
0.0
 40
0.1
 50
180.0
 51
270.0
  0
ARC
  8
DETAIL
  6
CONTINUOUS
 62
     5
 10
-253.2
 20
-79.388516
 30
0.0
 40
0.1
 50
270.0
 51
0.0
  0
ARC
  8
DETAIL
  6
CONTINUOUS
 62
     5
 10
-257.175
 20
-86.325
 30
0.0
 40
0.325
 50
90.0
 51
180.0
  0
ARC
  8
DETAIL
  6
CONTINUOUS
 62
     5
 10
-257.175
 20
-93.675
 30
0.0
 40
0.325
 50
180.0
 51
270.0
  0
ARC
  8
DETAIL
  6
CONTINUOUS
 62
     5
 10
-256.7
 20
-86.2
 30
0.0
 40
0.2
 50
0.0
 51
90.0
  0
ARC
  8
DETAIL
  6
CONTINUOUS
 62
     5
 10
-256.7
 20
-93.8
 30
0.0
 40
0.2
 50
270.0
 51
0.0
  0
LINE
  8
DETAIL
  6
CONTINUOUS
 62
     5
 10
-254.706981
 20
-85.999939
 30
0.0
 11
-253.1
 21
-86.013963
 31
0.0
  0
LINE
  8
DETAIL
  6
CONTINUOUS
 62
     5
 10
-253.6
 20
-79.488516
 30
0.0
 11
-253.2
 21
-79.488516
 31
0.0
  0
LINE
  8
DETAIL
  6
CONTINUOUS
 62
     5
 10
-255.5
 20
-83.0
 30
0.0
 11
-256.5
 21
-83.0
 31
0.0
  0
LINE
  8
DETAIL
  6
CONTINUOUS
 62
     5
 10
-253.1
 20
-84.426102
 30
0.0
 11
-255.5
 21
-84.426102
 31
0.0
  0
LINE
  8
DETAIL
  6
CONTINUOUS
 62
     5
 10
-253.1
 20
-84.57633
 30
0.0
 11
-255.5
 21
-84.57633
 31
0.0
  0
LINE
  8
DETAIL
  6
CONTINUOUS
 62
     5
 10
-256.7
 20
-86.0
 30
0.0
 11
-257.175
 21
-86.0
 31
0.0
  0
LINE
  8
DETAIL
  6
CONTINUOUS
 62
     5
 10
-255.5
 20
-86.889269
 30
0.0
 11
-256.5
 21
-86.889269
 31
0.0
  0
LINE
  8
DETAIL
  6
CONTINUOUS
 62
     5
 10
-255.5
 20
-88.000244
 30
0.0
 11
-256.5
 21
-88.000244
 31
0.0
  0
LINE
  8
DETAIL
  6
CONTINUOUS
 62
     5
 10
-256.5
 20
-91.999756
 30
0.0
 11
-255.5
 21
-91.999756
 31
0.0
  0
LINE
  8
DETAIL
  6
CONTINUOUS
 62
     5
 10
-256.5
 20
-93.110731
 30
0.0
 11
-255.5
 21
-93.110731
 31
0.0
  0
LINE
  8
DETAIL
  6
CONTINUOUS
 62
     5
 10
-256.7
 20
-94.0
 30
0.0
 11
-257.175
 21
-94.0
 31
0.0
  0
LINE
  8
DETAIL
  6
CONTINUOUS
 62
     5
 10
-254.706981
 20
-94.000061
 30
0.0
 11
-253.1
 21
-93.986037
 31
0.0
  0
LINE
  8
DETAIL
  6
CONTINUOUS
 62
     5
 10
-255.5
 20
-97.0
 30
0.0
 11
-256.5
 21
-97.0
 31
0.0
  0
LINE
  8
DETAIL
  6
CONTINUOUS
 62
     5
 10
-254.706981
 20
-94.000061
 30
0.0
 11
-254.706981
 21
-85.999939
 31
0.0
  0
LINE
  8
DETAIL
  6
CONTINUOUS
 62
     5
 10
-256.5
 20
-96.999442
 30
0.0
 11
-256.5
 21
-83.000562
 31
0.0
  0
LINE
  8
DETAIL
  6
CONTINUOUS
 62
     5
 10
-256.7
 20
-86.0
 30
0.0
 11
-256.7
 21
-94.0
 31
0.0
  0
LINE
  8
DETAIL
  6
CONTINUOUS
 62
     5
 10
-257.175
 20
-94.0
 30
0.0
 11
-257.175
 21
-86.0
 31
0.0
  0
CIRCLE
  8
DETAIL
  6
CONTINUOUS
 62
     5
 10
-238.1
 20
-110.388516
 30
0.0
 40
2.0
  0
LINE
  8
DETAIL
  6
CONTINUOUS
 62
     5
 10
-209.5
 20
-84.652659
 30
0.0
 11
-232.1
 21
-84.652659
 31
0.0
  0
LINE
  8
DETAIL
  6
CONTINUOUS
 62
     5
 10
-232.1
 20
-73.038516
 30
0.0
 11
-232.000001
 21
-73.038516
 31
0.0
  0
LINE
  8
DETAIL
  6
CONTINUOUS
 62
     5
 10
-232.1
 20
-77.938516
 30
0.0
 11
-232.000001
 21
-77.938516
 31
0.0
  0
LINE
  8
DETAIL
  6
CONTINUOUS
 62
     5
 10
-231.500066
 20
-77.438449
 30
0.0
 11
-232.000084
 21
-77.938433
 31
0.0
  0
LINE
  8
DETAIL
  6
CONTINUOUS
 62
     5
 10
-231.500066
 20
-73.538583
 30
0.0
 11
-232.000084
 21
-73.038599
 31
0.0
  0
LINE
  8
DETAIL
  6
CONTINUOUS
 62
     5
 10
-231.5
 20
-73.538517
 30
0.0
 11
-231.5
 21
-77.438515
 31
0.0
  0
LINE
  8
DETAIL
  6
CONTINUOUS
 62
     5
 10
-232.000001
 20
-73.038516
 30
0.0
 11
-232.000001
 21
-77.938516
 31
0.0
  0
LINE
  8
DETAIL
  6
CONTINUOUS
 62
     5
 10
-209.5
 20
41.307678
 30
0.0
 11
-209.5
 21
-45.5
 31
0.0
  0
LINE
  8
DETAIL
  6
CONTINUOUS
 62
     5
 10
-249.9
 20
30.511484
 30
0.0
 11
-249.9
 21
-37.488516
 31
0.0
  0
LINE
  8
DETAIL
  6
CONTINUOUS
 62
     5
 10
-253.1
 20
30.511484
 30
0.0
 11
-253.1
 21
-37.488516
 31
0.0
  0
LINE
  8
DETAIL
  6
CONTINUOUS
 62
     5
 10
-248.1
 20
-38.488516
 30
0.0
 11
-248.1
 21
-67.488516
 31
0.0
  0
ARC
  8
DETAIL
  6
CONTINUOUS
 62
     5
 10
-249.1
 20
-67.488516
 30
0.0
 40
1.0
 50
270.0
 51
0.0
  0
ARC
  8
DETAIL
  6
CONTINUOUS
 62
     5
 10
-253.6
 20
-71.588516
 30
0.0
 40
0.1
 50
90.0
 51
180.0
  0
ARC
  8
DETAIL
  6
CONTINUOUS
 62
     5
 10
-253.2
 20
-71.588516
 30
0.0
 40
0.1
 50
0.0
 51
90.0
  0
LINE
  8
DETAIL
  6
CONTINUOUS
 62
     5
 10
-248.1
 20
-55.510801
 30
0.0
 11
-248.141321
 21
-55.51508
 31
0.0
  0
LINE
  8
DETAIL
  6
CONTINUOUS
 62
     5
 10
-248.141321
 20
-55.51508
 30
0.0
 11
-248.376801
 21
-55.547706
 31
0.0
  0
LINE
  8
DETAIL
  6
CONTINUOUS
 62
     5
 10
-248.376801
 20
-55.547706
 30
0.0
 11
-248.596376
 21
-55.586671
 31
0.0
  0
LINE
  8
DETAIL
  6
CONTINUOUS
 62
     5
 10
-248.596376
 20
-55.586671
 30
0.0
 11
-248.796956
 21
-55.631599
 31
0.0
  0
LINE
  8
DETAIL
  6
CONTINUOUS
 62
     5
 10
-248.796956
 20
-55.631599
 30
0.0
 11
-248.976396
 21
-55.68182
 31
0.0
  0
LINE
  8
DETAIL
  6
CONTINUOUS
 62
     5
 10
-248.976396
 20
-55.68182
 30
0.0
 11
-249.132018
 21
-55.736797
 31
0.0
  0
LINE
  8
DETAIL
  6
CONTINUOUS
 62
     5
 10
-249.132018
 20
-55.736797
 30
0.0
 11
-249.262325
 21
-55.795757
 31
0.0
  0
LINE
  8
DETAIL
  6
CONTINUOUS
 62
     5
 10
-249.262325
 20
-55.795757
 30
0.0
 11
-249.365186
 21
-55.858026
 31
0.0
  0
LINE
  8
DETAIL
  6
CONTINUOUS
 62
     5
 10
-249.365186
 20
-55.858026
 30
0.0
 11
-249.439827
 21
-55.922767
 31
0.0
  0
LINE
  8
DETAIL
  6
CONTINUOUS
 62
     5
 10
-249.439827
 20
-55.922767
 30
0.0
 11
-249.48458
 21
-55.988787
 31
0.0
  0
LINE
  8
DETAIL
  6
CONTINUOUS
 62
     5
 10
-249.48458
 20
-55.988787
 30
0.0
 11
-249.5
 21
-56.056483
 31
0.0
  0
LINE
  8
DETAIL
  6
CONTINUOUS
 62
     5
 10
-248.1
 20
-50.141648
 30
0.0
 11
-255.5
 21
-50.141648
 31
0.0
  0
LINE
  8
DETAIL
  6
CONTINUOUS
 62
     5
 10
-248.1
 20
-50.441648
 30
0.0
 11
-255.5
 21
-50.441648
 31
0.0
  0
LINE
  8
DETAIL
  6
CONTINUOUS
 62
     5
 10
-248.1
 20
-50.879016
 30
0.0
 11
-255.5
 21
-50.879016
 31
0.0
  0
LINE
  8
DETAIL
  6
CONTINUOUS
 62
     5
 10
-255.5
 20
-53.67146
 30
0.0
 11
-248.1
 21
-53.67146
 31
0.0
  0
LINE
  8
DETAIL
  6
CONTINUOUS
 62
     5
 10
-255.5
 20
-54.466105
 30
0.0
 11
-248.1
 21
-54.466105
 31
0.0
  0
LINE
  8
DETAIL
  6
CONTINUOUS
 62
     5
 10
-248.3
 20
-63.615082
 30
0.0
 11
-249.5
 21
-63.615082
 31
0.0
  0
LINE
  8
DETAIL
  6
CONTINUOUS
 62
     5
 10
-253.1
 20
-68.488516
 30
0.0
 11
-249.1
 21
-68.488516
 31
0.0
  0
LINE
  8
DETAIL
  6
CONTINUOUS
 62
     5
 10
-253.6
 20
-71.488516
 30
0.0
 11
-253.2
 21
-71.488516
 31
0.0
  0
LINE
  8
DETAIL
  6
CONTINUOUS
 62
     5
 10
-248.3
 20
-56.056483
 30
0.0
 11
-248.289429
 21
-56.016938
 31
0.0
  0
LINE
  8
DETAIL
  6
CONTINUOUS
 62
     5
 10
-248.289429
 20
-56.016938
 30
0.0
 11
-248.259111
 21
-55.978719
 31
0.0
  0
LINE
  8
DETAIL
  6
CONTINUOUS
 62
     5
 10
-248.259111
 20
-55.978719
 30
0.0
 11
-248.208534
 21
-55.941516
 31
0.0
  0
LINE
  8
DETAIL
  6
CONTINUOUS
 62
     5
 10
-248.208534
 20
-55.941516
 30
0.0
 11
-248.13923
 21
-55.906255
 31
0.0
  0
LINE
  8
DETAIL
  6
CONTINUOUS
 62
     5
 10
-248.13923
 20
-55.906255
 30
0.0
 11
-248.1
 21
-55.891581
 31
0.0
  0
LINE
  8
DETAIL
  6
CONTINUOUS
 62
     5
 10
-248.3
 20
-56.056483
 30
0.0
 11
-248.3
 21
-68.086487
 31
0.0
  0
LINE
  8
DETAIL
  6
CONTINUOUS
 62
     5
 10
-249.5
 20
-68.488516
 30
0.0
 11
-249.5
 21
-56.056483
 31
0.0
  0
ARC
  8
DETAIL
  6
CONTINUOUS
 62
     5
 10
-249.1
 20
-38.488516
 30
0.0
 40
1.0
 50
0.0
 51
90.0
  0
ARC
  8
DETAIL
  6
CONTINUOUS
 62
     5
 10
-256.7
 20
-18.2
 30
0.0
 40
0.8
 50
180.0
 51
270.0
  0
ARC
  8
DETAIL
  6
CONTINUOUS
 62
     5
 10
-256.7
 20
-25.8
 30
0.0
 40
0.8
 50
90.0
 51
174.375
  0
LINE
  8
DETAIL
  6
CONTINUOUS
 62
     5
 10
-256.7
 20
-19.0
 30
0.0
 11
-256.5
 21
-19.0
 31
0.0
  0
LINE
  8
DETAIL
  6
CONTINUOUS
 62
     5
 10
-253.75
 20
-20.0
 30
0.0
 11
-256.5
 21
-20.0
 31
0.0
  0
LINE
  8
DETAIL
  6
CONTINUOUS
 62
     5
 10
-253.75
 20
-24.0
 30
0.0
 11
-256.5
 21
-24.0
 31
0.0
  0
LINE
  8
DETAIL
  6
CONTINUOUS
 62
     5
 10
-256.7
 20
-25.0
 30
0.0
 11
-256.5
 21
-25.0
 31
0.0
  0
LINE
  8
DETAIL
  6
CONTINUOUS
 62
     5
 10
-253.1
 20
-37.488516
 30
0.0
 11
-249.1
 21
-37.488516
 31
0.0
  0
LINE
  8
DETAIL
  6
CONTINUOUS
 62
     5
 10
-253.75
 20
-20.0
 30
0.0
 11
-253.75
 21
-24.0
 31
0.0
  0
LINE
  8
DETAIL
  6
CONTINUOUS
 62
     5
 10
-256.5
 20
-19.0
 30
0.0
 11
-256.5
 21
-25.0
 31
0.0
  0
LINE
  8
DETAIL
  6
CONTINUOUS
 62
     5
 10
-256.7
 20
-19.0
 30
0.0
 11
-256.7
 21
-25.0
 31
0.0
  0
LINE
  8
DETAIL
  6
CONTINUOUS
 62
     5
 10
-211.5
 20
-47.5
 30
0.0
 11
-232.1
 21
-47.5
 31
0.0
  0
LINE
  8
DETAIL
  6
CONTINUOUS
 62
     5
 10
-211.5
 20
-55.455571
 30
0.0
 11
-232.1
 21
-55.455571
 31
0.0
  0
LINE
  8
DETAIL
  6
CONTINUOUS
 62
     5
 10
-211.5
 20
-55.756027
 30
0.0
 11
-232.1
 21
-55.756027
 31
0.0
  0
ARC
  8
DETAIL
  6
CONTINUOUS
 62
     5
 10
-211.5
 20
-45.5
 30
0.0
 40
2.0
 50
270.0
 51
0.0
  0
LINE
  8
DETAIL
  6
CONTINUOUS
 62
     5
 10
-211.5
 20
-55.455571
 30
0.0
 11
-211.27469
 21
-55.468012
 31
0.0
  0
LINE
  8
DETAIL
  6
CONTINUOUS
 62
     5
 10
-211.27469
 20
-55.468012
 30
0.0
 11
-211.054958
 21
-55.504118
 31
0.0
  0
LINE
  8
DETAIL
  6
CONTINUOUS
 62
     5
 10
-211.054958
 20
-55.504118
 30
0.0
 11
-210.839481
 21
-55.564337
 31
0.0
  0
LINE
  8
DETAIL
  6
CONTINUOUS
 62
     5
 10
-210.839481
 20
-55.564337
 30
0.0
 11
-210.632233
 21
-55.647324
 31
0.0
  0
LINE
  8
DETAIL
  6
CONTINUOUS
 62
     5
 10
-210.632233
 20
-55.647324
 30
0.0
 11
-210.435999
 21
-55.752455
 31
0.0
  0
LINE
  8
DETAIL
  6
CONTINUOUS
 62
     5
 10
-210.435999
 20
-55.752455
 30
0.0
 11
-210.25302
 21
-55.878009
 31
0.0
  0
LINE
  8
DETAIL
  6
CONTINUOUS
 62
     5
 10
-210.25302
 20
-55.878009
 30
0.0
 11
-210.08587
 21
-56.02278
 31
0.0
  0
LINE
  8
DETAIL
  6
CONTINUOUS
 62
     5
 10
-210.08587
 20
-56.02278
 30
0.0
 11
-209.936337
 21
-56.184606
 31
0.0
  0
LINE
  8
DETAIL
  6
CONTINUOUS
 62
     5
 10
-209.936337
 20
-56.184606
 30
0.0
 11
-209.806652
 21
-56.361756
 31
0.0
  0
LINE
  8
DETAIL
  6
CONTINUOUS
 62
     5
 10
-209.806652
 20
-56.361756
 30
0.0
 11
-209.698062
 21
-56.551739
 31
0.0
  0
LINE
  8
DETAIL
  6
CONTINUOUS
 62
     5
 10
-209.698062
 20
-56.551739
 30
0.0
 11
-209.612345
 21
-56.752386
 31
0.0
  0
LINE
  8
DETAIL
  6
CONTINUOUS
 62
     5
 10
-209.612345
 20
-56.752386
 30
0.0
 11
-209.550144
 21
-56.961
 31
0.0
  0
LINE
  8
DETAIL
  6
CONTINUOUS
 62
     5
 10
-209.550144
 20
-56.961
 30
0.0
 11
-209.51285
 21
-57.173732
 31
0.0
  0
LINE
  8
DETAIL
  6
CONTINUOUS
 62
     5
 10
-209.51285
 20
-57.173732
 30
0.0
 11
-209.5
 21
-57.391866
 31
0.0
  0
LINE
  8
DETAIL
  6
CONTINUOUS
 62
     5
 10
-209.5
 20
-57.692322
 30
0.0
 11
-209.51285
 21
-57.474188
 31
0.0
  0
LINE
  8
DETAIL
  6
CONTINUOUS
 62
     5
 10
-209.51285
 20
-57.474188
 30
0.0
 11
-209.550144
 21
-57.261456
 31
0.0
  0
LINE
  8
DETAIL
  6
CONTINUOUS
 62
     5
 10
-209.550144
 20
-57.261456
 30
0.0
 11
-209.612345
 21
-57.052842
 31
0.0
  0
LINE
  8
DETAIL
  6
CONTINUOUS
 62
     5
 10
-209.612345
 20
-57.052842
 30
0.0
 11
-209.698062
 21
-56.852195
 31
0.0
  0
LINE
  8
DETAIL
  6
CONTINUOUS
 62
     5
 10
-209.698062
 20
-56.852195
 30
0.0
 11
-209.806652
 21
-56.662212
 31
0.0
  0
LINE
  8
DETAIL
  6
CONTINUOUS
 62
     5
 10
-209.806652
 20
-56.662212
 30
0.0
 11
-209.936337
 21
-56.485062
 31
0.0
  0
LINE
  8
DETAIL
  6
CONTINUOUS
 62
     5
 10
-209.936337
 20
-56.485062
 30
0.0
 11
-210.08587
 21
-56.323236
 31
0.0
  0
LINE
  8
DETAIL
  6
CONTINUOUS
 62
     5
 10
-210.08587
 20
-56.323236
 30
0.0
 11
-210.25302
 21
-56.178465
 31
0.0
  0
LINE
  8
DETAIL
  6
CONTINUOUS
 62
     5
 10
-210.25302
 20
-56.178465
 30
0.0
 11
-210.435999
 21
-56.052911
 31
0.0
  0
LINE
  8
DETAIL
  6
CONTINUOUS
 62
     5
 10
-210.435999
 20
-56.052911
 30
0.0
 11
-210.632233
 21
-55.94778
 31
0.0
  0
LINE
  8
DETAIL
  6
CONTINUOUS
 62
     5
 10
-210.632233
 20
-55.94778
 30
0.0
 11
-210.839481
 21
-55.864793
 31
0.0
  0
LINE
  8
DETAIL
  6
CONTINUOUS
 62
     5
 10
-210.839481
 20
-55.864793
 30
0.0
 11
-211.054958
 21
-55.804574
 31
0.0
  0
LINE
  8
DETAIL
  6
CONTINUOUS
 62
     5
 10
-211.054958
 20
-55.804574
 30
0.0
 11
-211.27469
 21
-55.768468
 31
0.0
  0
LINE
  8
DETAIL
  6
CONTINUOUS
 62
     5
 10
-211.27469
 20
-55.768468
 30
0.0
 11
-211.5
 21
-55.756027
 31
0.0
  0
LINE
  8
DETAIL
  6
CONTINUOUS
 62
     5
 10
-211.5
 20
-55.455571
 30
0.0
 11
-211.5
 21
-55.756027
 31
0.0
  0
ARC
  8
DETAIL
  6
CONTINUOUS
 62
     5
 10
-254.7
 20
4.19997
 30
0.0
 40
0.8
 50
90.5
 51
180.0
  0
ARC
  8
DETAIL
  6
CONTINUOUS
 62
     5
 10
-254.7
 20
13.80003
 30
0.0
 40
0.8
 50
180.0
 51
269.5
  0
ARC
  8
DETAIL
  6
CONTINUOUS
 62
     5
 10
-253.6
 20
19.611484
 30
0.0
 40
0.1
 50
180.0
 51
270.0
  0
ARC
  8
DETAIL
  6
CONTINUOUS
 62
     5
 10
-253.6
 20
27.411484
 30
0.0
 40
0.1
 50
90.0
 51
180.0
  0
ARC
  8
DETAIL
  6
CONTINUOUS
 62
     5
 10
-253.2
 20
19.611484
 30
0.0
 40
0.1
 50
270.0
 51
0.0
  0
ARC
  8
DETAIL
  6
CONTINUOUS
 62
     5
 10
-253.2
 20
27.411484
 30
0.0
 40
0.1
 50
0.0
 51
90.0
  0
ARC
  8
DETAIL
  6
CONTINUOUS
 62
     5
 10
-257.175
 20
12.675
 30
0.0
 40
0.325
 50
90.0
 51
180.0
  0
ARC
  8
DETAIL
  6
CONTINUOUS
 62
     5
 10
-257.175
 20
5.325
 30
0.0
 40
0.325
 50
180.0
 51
270.0
  0
ARC
  8
DETAIL
  6
CONTINUOUS
 62
     5
 10
-256.7
 20
12.8
 30
0.0
 40
0.2
 50
0.0
 51
90.0
  0
ARC
  8
DETAIL
  6
CONTINUOUS
 62
     5
 10
-256.7
 20
5.2
 30
0.0
 40
0.2
 50
270.0
 51
0.0
  0
LINE
  8
DETAIL
  6
CONTINUOUS
 62
     5
 10
-253.6
 20
27.511484
 30
0.0
 11
-253.2
 21
27.511484
 31
0.0
  0
LINE
  8
DETAIL
  6
CONTINUOUS
 62
     5
 10
-254.706981
 20
13.000061
 30
0.0
 11
-253.1
 21
12.986037
 31
0.0
  0
LINE
  8
DETAIL
  6
CONTINUOUS
 62
     5
 10
-253.6
 20
19.511484
 30
0.0
 11
-253.2
 21
19.511484
 31
0.0
  0
LINE
  8
DETAIL
  6
CONTINUOUS
 62
     5
 10
-255.5
 20
16.0
 30
0.0
 11
-256.5
 21
16.0
 31
0.0
  0
LINE
  8
DETAIL
  6
CONTINUOUS
 62
     5
 10
-253.1
 20
14.573898
 30
0.0
 11
-255.5
 21
14.573898
 31
0.0
  0
LINE
  8
DETAIL
  6
CONTINUOUS
 62
     5
 10
-253.1
 20
14.42367
 30
0.0
 11
-255.5
 21
14.42367
 31
0.0
  0
LINE
  8
DETAIL
  6
CONTINUOUS
 62
     5
 10
-256.7
 20
13.0
 30
0.0
 11
-257.175
 21
13.0
 31
0.0
  0
LINE
  8
DETAIL
  6
CONTINUOUS
 62
     5
 10
-255.5
 20
12.110731
 30
0.0
 11
-256.5
 21
12.110731
 31
0.0
  0
LINE
  8
DETAIL
  6
CONTINUOUS
 62
     5
 10
-255.5
 20
10.999756
 30
0.0
 11
-256.5
 21
10.999756
 31
0.0
  0
LINE
  8
DETAIL
  6
CONTINUOUS
 62
     5
 10
-256.5
 20
7.000244
 30
0.0
 11
-255.5
 21
7.000244
 31
0.0
  0
LINE
  8
DETAIL
  6
CONTINUOUS
 62
     5
 10
-256.5
 20
5.889269
 30
0.0
 11
-255.5
 21
5.889269
 31
0.0
  0
LINE
  8
DETAIL
  6
CONTINUOUS
 62
     5
 10
-256.7
 20
5.0
 30
0.0
 11
-257.175
 21
5.0
 31
0.0
  0
LINE
  8
DETAIL
  6
CONTINUOUS
 62
     5
 10
-255.5
 20
2.0
 30
0.0
 11
-256.5
 21
2.0
 31
0.0
  0
LINE
  8
DETAIL
  6
CONTINUOUS
 62
     5
 10
-254.706981
 20
4.999939
 30
0.0
 11
-253.1
 21
5.013963
 31
0.0
  0
LINE
  8
DETAIL
  6
CONTINUOUS
 62
     5
 10
-253.2
 20
27.511484
 30
0.0
 11
-253.2
 21
19.511484
 31
0.0
  0
LINE
  8
DETAIL
  6
CONTINUOUS
 62
     5
 10
-253.6
 20
19.511484
 30
0.0
 11
-253.6
 21
27.511484
 31
0.0
  0
LINE
  8
DETAIL
  6
CONTINUOUS
 62
     5
 10
-253.7
 20
27.411484
 30
0.0
 11
-253.7
 21
19.611484
 31
0.0
  0
LINE
  8
DETAIL
  6
CONTINUOUS
 62
     5
 10
-254.706981
 20
4.999939
 30
0.0
 11
-254.706981
 21
13.000061
 31
0.0
  0
LINE
  8
DETAIL
  6
CONTINUOUS
 62
     5
 10
-256.5
 20
2.000558
 30
0.0
 11
-256.5
 21
15.999438
 31
0.0
  0
LINE
  8
DETAIL
  6
CONTINUOUS
 62
     5
 10
-256.7
 20
13.0
 30
0.0
 11
-256.7
 21
5.0
 31
0.0
  0
LINE
  8
DETAIL
  6
CONTINUOUS
 62
     5
 10
-257.175
 20
5.0
 30
0.0
 11
-257.175
 21
13.0
 31
0.0
  0
ARC
  8
DETAIL
  6
CONTINUOUS
 62
     5
 10
-249.1
 20
31.511484
 30
0.0
 40
1.0
 50
270.0
 51
0.0
  0
ARC
  8
DETAIL
  6
CONTINUOUS
 62
     5
 10
-249.1
 20
60.511484
 30
0.0
 40
1.0
 50
0.0
 51
90.0
  0
LINE
  8
DETAIL
  6
CONTINUOUS
 62
     5
 10
-253.1
 20
61.511484
 30
0.0
 11
-249.1
 21
61.511484
 31
0.0
  0
LINE
  8
DETAIL
  6
CONTINUOUS
 62
     5
 10
-248.1
 20
43.489199
 30
0.0
 11
-248.141321
 21
43.48492
 31
0.0
  0
LINE
  8
DETAIL
  6
CONTINUOUS
 62
     5
 10
-248.141321
 20
43.48492
 30
0.0
 11
-248.376801
 21
43.452294
 31
0.0
  0
LINE
  8
DETAIL
  6
CONTINUOUS
 62
     5
 10
-248.376801
 20
43.452294
 30
0.0
 11
-248.596376
 21
43.413329
 31
0.0
  0
LINE
  8
DETAIL
  6
CONTINUOUS
 62
     5
 10
-248.596376
 20
43.413329
 30
0.0
 11
-248.796956
 21
43.368401
 31
0.0
  0
LINE
  8
DETAIL
  6
CONTINUOUS
 62
     5
 10
-248.796956
 20
43.368401
 30
0.0
 11
-248.976396
 21
43.31818
 31
0.0
  0
LINE
  8
DETAIL
  6
CONTINUOUS
 62
     5
 10
-248.976396
 20
43.31818
 30
0.0
 11
-249.132018
 21
43.263203
 31
0.0
  0
LINE
  8
DETAIL
  6
CONTINUOUS
 62
     5
 10
-249.132018
 20
43.263203
 30
0.0
 11
-249.262325
 21
43.204243
 31
0.0
  0
LINE
  8
DETAIL
  6
CONTINUOUS
 62
     5
 10
-249.262325
 20
43.204243
 30
0.0
 11
-249.365186
 21
43.141974
 31
0.0
  0
LINE
  8
DETAIL
  6
CONTINUOUS
 62
     5
 10
-249.365186
 20
43.141974
 30
0.0
 11
-249.439827
 21
43.077233
 31
0.0
  0
LINE
  8
DETAIL
  6
CONTINUOUS
 62
     5
 10
-249.439827
 20
43.077233
 30
0.0
 11
-249.48458
 21
43.011213
 31
0.0
  0
LINE
  8
DETAIL
  6
CONTINUOUS
 62
     5
 10
-249.48458
 20
43.011213
 30
0.0
 11
-249.5
 21
42.943517
 31
0.0
  0
LINE
  8
DETAIL
  6
CONTINUOUS
 62
     5
 10
-248.1
 20
48.858352
 30
0.0
 11
-255.5
 21
48.858352
 31
0.0
  0
LINE
  8
DETAIL
  6
CONTINUOUS
 62
     5
 10
-248.1
 20
48.558352
 30
0.0
 11
-255.5
 21
48.558352
 31
0.0
  0
LINE
  8
DETAIL
  6
CONTINUOUS
 62
     5
 10
-248.1
 20
48.120984
 30
0.0
 11
-255.5
 21
48.120984
 31
0.0
  0
LINE
  8
DETAIL
  6
CONTINUOUS
 62
     5
 10
-255.5
 20
45.32854
 30
0.0
 11
-248.1
 21
45.32854
 31
0.0
  0
LINE
  8
DETAIL
  6
CONTINUOUS
 62
     5
 10
-255.5
 20
44.533895
 30
0.0
 11
-248.1
 21
44.533895
 31
0.0
  0
LINE
  8
DETAIL
  6
CONTINUOUS
 62
     5
 10
-248.3
 20
35.384918
 30
0.0
 11
-249.5
 21
35.384918
 31
0.0
  0
LINE
  8
DETAIL
  6
CONTINUOUS
 62
     5
 10
-253.1
 20
30.511484
 30
0.0
 11
-249.1
 21
30.511484
 31
0.0
  0
LINE
  8
DETAIL
  6
CONTINUOUS
 62
     5
 10
-248.3
 20
42.943517
 30
0.0
 11
-248.289429
 21
42.983062
 31
0.0
  0
LINE
  8
DETAIL
  6
CONTINUOUS
 62
     5
 10
-248.289429
 20
42.983062
 30
0.0
 11
-248.259111
 21
43.021281
 31
0.0
  0
LINE
  8
DETAIL
  6
CONTINUOUS
 62
     5
 10
-248.259111
 20
43.021281
 30
0.0
 11
-248.208534
 21
43.058484
 31
0.0
  0
LINE
  8
DETAIL
  6
CONTINUOUS
 62
     5
 10
-248.208534
 20
43.058484
 30
0.0
 11
-248.13923
 21
43.093745
 31
0.0
  0
LINE
  8
DETAIL
  6
CONTINUOUS
 62
     5
 10
-248.13923
 20
43.093745
 30
0.0
 11
-248.1
 21
43.108419
 31
0.0
  0
LINE
  8
DETAIL
  6
CONTINUOUS
 62
     5
 10
-248.1
 20
60.511484
 30
0.0
 11
-248.1
 21
31.511484
 31
0.0
  0
LINE
  8
DETAIL
  6
CONTINUOUS
 62
     5
 10
-248.3
 20
42.943517
 30
0.0
 11
-248.3
 21
30.913513
 31
0.0
  0
LINE
  8
DETAIL
  6
CONTINUOUS
 62
     5
 10
-249.5
 20
30.511484
 30
0.0
 11
-249.5
 21
42.943517
 31
0.0
  0
LINE
  8
DETAIL
  6
CONTINUOUS
 62
     5
 10
-209.5
 20
14.347341
 30
0.0
 11
-232.1
 21
14.347341
 31
0.0
  0
LINE
  8
DETAIL
  6
CONTINUOUS
 62
     5
 10
-232.1
 20
25.961484
 30
0.0
 11
-232.000001
 21
25.961484
 31
0.0
  0
LINE
  8
DETAIL
  6
CONTINUOUS
 62
     5
 10
-232.1
 20
21.061484
 30
0.0
 11
-232.000001
 21
21.061484
 31
0.0
  0
LINE
  8
DETAIL
  6
CONTINUOUS
 62
     5
 10
-231.500066
 20
25.461417
 30
0.0
 11
-232.000084
 21
25.961401
 31
0.0
  0
LINE
  8
DETAIL
  6
CONTINUOUS
 62
     5
 10
-231.500066
 20
21.561551
 30
0.0
 11
-232.000084
 21
21.061567
 31
0.0
  0
LINE
  8
DETAIL
  6
CONTINUOUS
 62
     5
 10
-231.5
 20
25.461483
 30
0.0
 11
-231.5
 21
21.561485
 31
0.0
  0
LINE
  8
DETAIL
  6
CONTINUOUS
 62
     5
 10
-232.000001
 20
25.961484
 30
0.0
 11
-232.000001
 21
21.061484
 31
0.0
  0
LINE
  8
DETAIL
  6
CONTINUOUS
 62
     5
 10
-211.5
 20
51.5
 30
0.0
 11
-232.1
 21
51.5
 31
0.0
  0
LINE
  8
DETAIL
  6
CONTINUOUS
 62
     5
 10
-211.5
 20
43.544429
 30
0.0
 11
-232.1
 21
43.544429
 31
0.0
  0
LINE
  8
DETAIL
  6
CONTINUOUS
 62
     5
 10
-211.5
 20
43.243973
 30
0.0
 11
-232.1
 21
43.243973
 31
0.0
  0
ARC
  8
DETAIL
  6
CONTINUOUS
 62
     5
 10
-211.5
 20
53.5
 30
0.0
 40
2.0
 50
270.0
 51
0.0
  0
LINE
  8
DETAIL
  6
CONTINUOUS
 62
     5
 10
-211.5
 20
43.544429
 30
0.0
 11
-211.27469
 21
43.531988
 31
0.0
  0
LINE
  8
DETAIL
  6
CONTINUOUS
 62
     5
 10
-211.27469
 20
43.531988
 30
0.0
 11
-211.054958
 21
43.495882
 31
0.0
  0
LINE
  8
DETAIL
  6
CONTINUOUS
 62
     5
 10
-211.054958
 20
43.495882
 30
0.0
 11
-210.839481
 21
43.435663
 31
0.0
  0
LINE
  8
DETAIL
  6
CONTINUOUS
 62
     5
 10
-210.839481
 20
43.435663
 30
0.0
 11
-210.632233
 21
43.352676
 31
0.0
  0
LINE
  8
DETAIL
  6
CONTINUOUS
 62
     5
 10
-210.632233
 20
43.352676
 30
0.0
 11
-210.435999
 21
43.247545
 31
0.0
  0
LINE
  8
DETAIL
  6
CONTINUOUS
 62
     5
 10
-210.435999
 20
43.247545
 30
0.0
 11
-210.25302
 21
43.121991
 31
0.0
  0
LINE
  8
DETAIL
  6
CONTINUOUS
 62
     5
 10
-210.25302
 20
43.121991
 30
0.0
 11
-210.08587
 21
42.97722
 31
0.0
  0
LINE
  8
DETAIL
  6
CONTINUOUS
 62
     5
 10
-210.08587
 20
42.97722
 30
0.0
 11
-209.936337
 21
42.815394
 31
0.0
  0
LINE
  8
DETAIL
  6
CONTINUOUS
 62
     5
 10
-209.936337
 20
42.815394
 30
0.0
 11
-209.806652
 21
42.638244
 31
0.0
  0
LINE
  8
DETAIL
  6
CONTINUOUS
 62
     5
 10
-209.806652
 20
42.638244
 30
0.0
 11
-209.698062
 21
42.448261
 31
0.0
  0
LINE
  8
DETAIL
  6
CONTINUOUS
 62
     5
 10
-209.698062
 20
42.448261
 30
0.0
 11
-209.612345
 21
42.247614
 31
0.0
  0
LINE
  8
DETAIL
  6
CONTINUOUS
 62
     5
 10
-209.612345
 20
42.247614
 30
0.0
 11
-209.550144
 21
42.039
 31
0.0
  0
LINE
  8
DETAIL
  6
CONTINUOUS
 62
     5
 10
-209.550144
 20
42.039
 30
0.0
 11
-209.51285
 21
41.826268
 31
0.0
  0
LINE
  8
DETAIL
  6
CONTINUOUS
 62
     5
 10
-209.51285
 20
41.826268
 30
0.0
 11
-209.5
 21
41.608134
 31
0.0
  0
LINE
  8
DETAIL
  6
CONTINUOUS
 62
     5
 10
-209.5
 20
41.307678
 30
0.0
 11
-209.51285
 21
41.525812
 31
0.0
  0
LINE
  8
DETAIL
  6
CONTINUOUS
 62
     5
 10
-209.51285
 20
41.525812
 30
0.0
 11
-209.550144
 21
41.738544
 31
0.0
  0
LINE
  8
DETAIL
  6
CONTINUOUS
 62
     5
 10
-209.550144
 20
41.738544
 30
0.0
 11
-209.612345
 21
41.947158
 31
0.0
  0
LINE
  8
DETAIL
  6
CONTINUOUS
 62
     5
 10
-209.612345
 20
41.947158
 30
0.0
 11
-209.698062
 21
42.147805
 31
0.0
  0
LINE
  8
DETAIL
  6
CONTINUOUS
 62
     5
 10
-209.698062
 20
42.147805
 30
0.0
 11
-209.806652
 21
42.337788
 31
0.0
  0
LINE
  8
DETAIL
  6
CONTINUOUS
 62
     5
 10
-209.806652
 20
42.337788
 30
0.0
 11
-209.936337
 21
42.514938
 31
0.0
  0
LINE
  8
DETAIL
  6
CONTINUOUS
 62
     5
 10
-209.936337
 20
42.514938
 30
0.0
 11
-210.08587
 21
42.676764
 31
0.0
  0
LINE
  8
DETAIL
  6
CONTINUOUS
 62
     5
 10
-210.08587
 20
42.676764
 30
0.0
 11
-210.25302
 21
42.821535
 31
0.0
  0
LINE
  8
DETAIL
  6
CONTINUOUS
 62
     5
 10
-210.25302
 20
42.821535
 30
0.0
 11
-210.435999
 21
42.947089
 31
0.0
  0
LINE
  8
DETAIL
  6
CONTINUOUS
 62
     5
 10
-210.435999
 20
42.947089
 30
0.0
 11
-210.632233
 21
43.05222
 31
0.0
  0
LINE
  8
DETAIL
  6
CONTINUOUS
 62
     5
 10
-210.632233
 20
43.05222
 30
0.0
 11
-210.839481
 21
43.135207
 31
0.0
  0
LINE
  8
DETAIL
  6
CONTINUOUS
 62
     5
 10
-210.839481
 20
43.135207
 30
0.0
 11
-211.054958
 21
43.195426
 31
0.0
  0
LINE
  8
DETAIL
  6
CONTINUOUS
 62
     5
 10
-211.054958
 20
43.195426
 30
0.0
 11
-211.27469
 21
43.231532
 31
0.0
  0
LINE
  8
DETAIL
  6
CONTINUOUS
 62
     5
 10
-211.27469
 20
43.231532
 30
0.0
 11
-211.5
 21
43.243973
 31
0.0
  0
LINE
  8
DETAIL
  6
CONTINUOUS
 62
     5
 10
-211.5
 20
43.544429
 30
0.0
 11
-211.5
 21
43.243973
 31
0.0
  0
LINE
  8
DETAIL
  6
CONTINUOUS
 62
     5
 10
4.2
 20
-71.588516
 30
0.0
 11
4.2
 21
-79.388516
 31
0.0
  0
LINE
  8
DETAIL
  6
CONTINUOUS
 62
     5
 10
4.1
 20
-71.488516
 30
0.0
 11
4.1
 21
-79.488516
 31
0.0
  0
LINE
  8
DETAIL
  6
CONTINUOUS
 62
     5
 10
3.7
 20
-79.488516
 30
0.0
 11
3.7
 21
-71.488516
 31
0.0
  0
LINE
  8
DETAIL
  6
CONTINUOUS
 62
     5
 10
3.6
 20
-68.488516
 30
0.0
 11
3.6
 21
-103.388516
 31
0.0
  0
LINE
  8
DETAIL
  6
CONTINUOUS
 62
     5
 10
0.4
 20
-68.488516
 30
0.0
 11
0.4
 21
-103.388516
 31
0.0
  0
LINE
  8
DETAIL
  6
CONTINUOUS
 62
     5
 10
-40.0
 20
-144.5
 30
0.0
 11
-40.0
 21
-57.391866
 31
0.0
  0
LINE
  8
DETAIL
  6
CONTINUOUS
 62
     5
 10
-17.4
 20
-84.652659
 30
0.0
 11
-40.0
 21
-84.652659
 31
0.0
  0
LINE
  8
DETAIL
  6
CONTINUOUS
 62
     5
 10
-17.4
 20
-146.5
 30
0.0
 11
-38.0
 21
-146.5
 31
0.0
  0
LINE
  8
DETAIL
  6
CONTINUOUS
 62
     5
 10
-17.4
 20
-154.455571
 30
0.0
 11
-38.0
 21
-154.455571
 31
0.0
  0
LINE
  8
DETAIL
  6
CONTINUOUS
 62
     5
 10
-17.4
 20
-154.756027
 30
0.0
 11
-38.0
 21
-154.756027
 31
0.0
  0
LINE
  8
DETAIL
  6
CONTINUOUS
 62
     5
 10
-17.4
 20
-183.652659
 30
0.0
 11
-40.0
 21
-183.652659
 31
0.0
  0
ARC
  8
DETAIL
  6
CONTINUOUS
 62
     5
 10
-38.0
 20
-144.5
 30
0.0
 40
2.0
 50
180.0
 51
270.0
  0
LINE
  8
DETAIL
  6
CONTINUOUS
 62
     5
 10
-39.98715
 20
-156.474188
 30
0.0
 11
-40.0
 21
-156.692322
 31
0.0
  0
LINE
  8
DETAIL
  6
CONTINUOUS
 62
     5
 10
-40.0
 20
-156.391866
 30
0.0
 11
-39.98715
 21
-156.173732
 31
0.0
  0
LINE
  8
DETAIL
  6
CONTINUOUS
 62
     5
 10
-39.98715
 20
-156.173732
 30
0.0
 11
-39.949856
 21
-155.961
 31
0.0
  0
LINE
  8
DETAIL
  6
CONTINUOUS
 62
     5
 10
-39.949856
 20
-155.961
 30
0.0
 11
-39.887655
 21
-155.752386
 31
0.0
  0
LINE
  8
DETAIL
  6
CONTINUOUS
 62
     5
 10
-39.887655
 20
-155.752386
 30
0.0
 11
-39.801938
 21
-155.551739
 31
0.0
  0
LINE
  8
DETAIL
  6
CONTINUOUS
 62
     5
 10
-39.801938
 20
-155.551739
 30
0.0
 11
-39.693348
 21
-155.361756
 31
0.0
  0
LINE
  8
DETAIL
  6
CONTINUOUS
 62
     5
 10
-39.693348
 20
-155.361756
 30
0.0
 11
-39.563663
 21
-155.184606
 31
0.0
  0
LINE
  8
DETAIL
  6
CONTINUOUS
 62
     5
 10
-39.563663
 20
-155.184606
 30
0.0
 11
-39.41413
 21
-155.02278
 31
0.0
  0
LINE
  8
DETAIL
  6
CONTINUOUS
 62
     5
 10
-39.41413
 20
-155.02278
 30
0.0
 11
-39.24698
 21
-154.878009
 31
0.0
  0
LINE
  8
DETAIL
  6
CONTINUOUS
 62
     5
 10
-39.24698
 20
-154.878009
 30
0.0
 11
-39.064001
 21
-154.752455
 31
0.0
  0
LINE
  8
DETAIL
  6
CONTINUOUS
 62
     5
 10
-39.064001
 20
-154.752455
 30
0.0
 11
-38.867767
 21
-154.647324
 31
0.0
  0
LINE
  8
DETAIL
  6
CONTINUOUS
 62
     5
 10
-38.867767
 20
-154.647324
 30
0.0
 11
-38.660519
 21
-154.564337
 31
0.0
  0
LINE
  8
DETAIL
  6
CONTINUOUS
 62
     5
 10
-38.660519
 20
-154.564337
 30
0.0
 11
-38.445042
 21
-154.504118
 31
0.0
  0
LINE
  8
DETAIL
  6
CONTINUOUS
 62
     5
 10
-38.445042
 20
-154.504118
 30
0.0
 11
-38.22531
 21
-154.468012
 31
0.0
  0
LINE
  8
DETAIL
  6
CONTINUOUS
 62
     5
 10
-38.22531
 20
-154.468012
 30
0.0
 11
-38.0
 21
-154.455571
 31
0.0
  0
LINE
  8
DETAIL
  6
CONTINUOUS
 62
     5
 10
-38.0
 20
-154.756027
 30
0.0
 11
-38.0
 21
-154.455571
 31
0.0
  0
LINE
  8
DETAIL
  6
CONTINUOUS
 62
     5
 10
-38.0
 20
-154.756027
 30
0.0
 11
-38.22531
 21
-154.768468
 31
0.0
  0
LINE
  8
DETAIL
  6
CONTINUOUS
 62
     5
 10
-38.22531
 20
-154.768468
 30
0.0
 11
-38.445042
 21
-154.804574
 31
0.0
  0
LINE
  8
DETAIL
  6
CONTINUOUS
 62
     5
 10
-38.445042
 20
-154.804574
 30
0.0
 11
-38.660519
 21
-154.864793
 31
0.0
  0
LINE
  8
DETAIL
  6
CONTINUOUS
 62
     5
 10
-38.660519
 20
-154.864793
 30
0.0
 11
-38.867767
 21
-154.94778
 31
0.0
  0
LINE
  8
DETAIL
  6
CONTINUOUS
 62
     5
 10
-38.867767
 20
-154.94778
 30
0.0
 11
-39.064001
 21
-155.052911
 31
0.0
  0
LINE
  8
DETAIL
  6
CONTINUOUS
 62
     5
 10
-39.064001
 20
-155.052911
 30
0.0
 11
-39.24698
 21
-155.178465
 31
0.0
  0
LINE
  8
DETAIL
  6
CONTINUOUS
 62
     5
 10
-39.24698
 20
-155.178465
 30
0.0
 11
-39.41413
 21
-155.323236
 31
0.0
  0
LINE
  8
DETAIL
  6
CONTINUOUS
 62
     5
 10
-39.41413
 20
-155.323236
 30
0.0
 11
-39.563663
 21
-155.485062
 31
0.0
  0
LINE
  8
DETAIL
  6
CONTINUOUS
 62
     5
 10
-39.563663
 20
-155.485062
 30
0.0
 11
-39.693348
 21
-155.662212
 31
0.0
  0
LINE
  8
DETAIL
  6
CONTINUOUS
 62
     5
 10
-39.693348
 20
-155.662212
 30
0.0
 11
-39.801938
 21
-155.852195
 31
0.0
  0
LINE
  8
DETAIL
  6
CONTINUOUS
 62
     5
 10
-39.801938
 20
-155.852195
 30
0.0
 11
-39.887655
 21
-156.052842
 31
0.0
  0
LINE
  8
DETAIL
  6
CONTINUOUS
 62
     5
 10
-39.887655
 20
-156.052842
 30
0.0
 11
-39.949856
 21
-156.261456
 31
0.0
  0
LINE
  8
DETAIL
  6
CONTINUOUS
 62
     5
 10
-39.949856
 20
-156.261456
 30
0.0
 11
-39.98715
 21
-156.474188
 31
0.0
  0
LINE
  8
DETAIL
  6
CONTINUOUS
 62
     5
 10
16.3
 20
-194.641464
 30
0.0
 11
16.3
 21
-110.057111
 31
0.0
  0
LINE
  8
DETAIL
  6
CONTINUOUS
 62
     5
 10
14.3
 20
-194.641464
 30
0.0
 11
14.3
 21
-110.057111
 31
0.0
  0
LINE
  8
DETAIL
  6
CONTINUOUS
 62
     5
 10
-1.4
 20
-166.488516
 30
0.0
 11
-1.4
 21
-137.488516
 31
0.0
  0
LINE
  8
DETAIL
  6
CONTINUOUS
 62
     5
 10
33.232221
 20
-183.426102
 30
0.0
 11
16.3
 21
-183.426102
 31
0.0
  0
LINE
  8
DETAIL
  6
CONTINUOUS
 62
     5
 10
33.129988
 20
-183.57633
 30
0.0
 11
16.3
 21
-183.57633
 31
0.0
  0
LINE
  8
DETAIL
  6
CONTINUOUS
 62
     5
 10
25.3
 20
-194.768609
 30
0.0
 11
18.3
 21
-194.768609
 31
0.0
  0
LINE
  8
DETAIL
  6
CONTINUOUS
 62
     5
 10
25.3
 20
-196.623826
 30
0.0
 11
18.3
 21
-196.623826
 31
0.0
  0
LINE
  8
DETAIL
  6
CONTINUOUS
 62
     5
 10
18.3
 20
-198.606188
 30
0.0
 11
25.3
 21
-198.606188
 31
0.0
  0
LINE
  8
DETAIL
  6
CONTINUOUS
 62
     5
 10
4.2
 20
-170.588516
 30
0.0
 11
4.2
 21
-178.388516
 31
0.0
  0
LINE
  8
DETAIL
  6
CONTINUOUS
 62
     5
 10
4.1
 20
-170.488516
 30
0.0
 11
4.1
 21
-178.488516
 31
0.0
  0
LINE
  8
DETAIL
  6
CONTINUOUS
 62
     5
 10
3.7
 20
-178.488516
 30
0.0
 11
3.7
 21
-170.488516
 31
0.0
  0
LINE
  8
DETAIL
  6
CONTINUOUS
 62
     5
 10
-17.499999
 20
-176.938516
 30
0.0
 11
-17.499999
 21
-172.038516
 31
0.0
  0
LINE
  8
DETAIL
  6
CONTINUOUS
 62
     5
 10
-18.0
 20
-176.438515
 30
0.0
 11
-18.0
 21
-172.538517
 31
0.0
  0
LINE
  8
DETAIL
  6
CONTINUOUS
 62
     5
 10
-17.999934
 20
-176.438449
 30
0.0
 11
-17.499916
 21
-176.938433
 31
0.0
  0
LINE
  8
DETAIL
  6
CONTINUOUS
 62
     5
 10
-17.4
 20
-176.938516
 30
0.0
 11
-17.499999
 21
-176.938516
 31
0.0
  0
ARC
  8
DETAIL
  6
CONTINUOUS
 62
     5
 10
4.1
 20
-178.388516
 30
0.0
 40
0.1
 50
270.0
 51
0.0
  0
ARC
  8
DETAIL
  6
CONTINUOUS
 62
     5
 10
3.7
 20
-178.388516
 30
0.0
 40
0.1
 50
180.0
 51
270.0
  0
LINE
  8
DETAIL
  6
CONTINUOUS
 62
     5
 10
18.3
 20
-194.768609
 30
0.0
 11
18.3
 21
-196.623826
 31
0.0
  0
LINE
  8
DETAIL
  6
CONTINUOUS
 62
     5
 10
14.3
 20
-194.641464
 30
0.0
 11
14.319584
 21
-195.031919
 31
0.0
  0
LINE
  8
DETAIL
  6
CONTINUOUS
 62
     5
 10
14.319584
 20
-195.031919
 30
0.0
 11
14.376859
 21
-195.414943
 31
0.0
  0
LINE
  8
DETAIL
  6
CONTINUOUS
 62
     5
 10
14.376859
 20
-195.414943
 30
0.0
 11
14.472372
 21
-195.792323
 31
0.0
  0
LINE
  8
DETAIL
  6
CONTINUOUS
 62
     5
 10
14.472372
 20
-195.792323
 30
0.0
 11
14.604482
 21
-196.158698
 31
0.0
  0
LINE
  8
DETAIL
  6
CONTINUOUS
 62
     5
 10
14.604482
 20
-196.158698
 30
0.0
 11
14.772437
 21
-196.510357
 31
0.0
  0
LINE
  8
DETAIL
  6
CONTINUOUS
 62
     5
 10
14.772437
 20
-196.510357
 30
0.0
 11
14.974122
 21
-196.844147
 31
0.0
  0
LINE
  8
DETAIL
  6
CONTINUOUS
 62
     5
 10
14.974122
 20
-196.844147
 30
0.0
 11
15.208066
 21
-197.156571
 31
0.0
  0
LINE
  8
DETAIL
  6
CONTINUOUS
 62
     5
 10
15.208066
 20
-197.156571
 30
0.0
 11
15.471573
 21
-197.444947
 31
0.0
  0
LINE
  8
DETAIL
  6
CONTINUOUS
 62
     5
 10
15.471573
 20
-197.444947
 30
0.0
 11
15.762515
 21
-197.706131
 31
0.0
  0
LINE
  8
DETAIL
  6
CONTINUOUS
 62
     5
 10
15.762515
 20
-197.706131
 30
0.0
 11
16.077719
 21
-197.938011
 31
0.0
  0
LINE
  8
DETAIL
  6
CONTINUOUS
 62
     5
 10
16.077719
 20
-197.938011
 30
0.0
 11
16.414479
 21
-198.137917
 31
0.0
  0
LINE
  8
DETAIL
  6
CONTINUOUS
 62
     5
 10
16.414479
 20
-198.137917
 30
0.0
 11
16.769266
 21
-198.304391
 31
0.0
  0
LINE
  8
DETAIL
  6
CONTINUOUS
 62
     5
 10
16.769266
 20
-198.304391
 30
0.0
 11
17.138902
 21
-198.435336
 31
0.0
  0
LINE
  8
DETAIL
  6
CONTINUOUS
 62
     5
 10
17.138902
 20
-198.435336
 30
0.0
 11
17.519639
 21
-198.530007
 31
0.0
  0
LINE
  8
DETAIL
  6
CONTINUOUS
 62
     5
 10
17.519639
 20
-198.530007
 30
0.0
 11
17.906071
 21
-198.586777
 31
0.0
  0
LINE
  8
DETAIL
  6
CONTINUOUS
 62
     5
 10
17.906071
 20
-198.586777
 30
0.0
 11
18.3
 21
-198.606188
 31
0.0
  0
LINE
  8
DETAIL
  6
CONTINUOUS
 62
     5
 10
16.3
 20
-192.786247
 30
0.0
 11
16.31285
 21
-193.00957
 31
0.0
  0
LINE
  8
DETAIL
  6
CONTINUOUS
 62
     5
 10
16.31285
 20
-193.00957
 30
0.0
 11
16.350144
 21
-193.227364
 31
0.0
  0
LINE
  8
DETAIL
  6
CONTINUOUS
 62
     5
 10
16.350144
 20
-193.227364
 30
0.0
 11
16.412345
 21
-193.440941
 31
0.0
  0
LINE
  8
DETAIL
  6
CONTINUOUS
 62
     5
 10
16.412345
 20
-193.440941
 30
0.0
 11
16.498062
 21
-193.646361
 31
0.0
  0
LINE
  8
DETAIL
  6
CONTINUOUS
 62
     5
 10
16.498062
 20
-193.646361
 30
0.0
 11
16.606652
 21
-193.840865
 31
0.0
  0
LINE
  8
DETAIL
  6
CONTINUOUS
 62
     5
 10
16.606652
 20
-193.840865
 30
0.0
 11
16.736337
 21
-194.022229
 31
0.0
  0
LINE
  8
DETAIL
  6
CONTINUOUS
 62
     5
 10
16.736337
 20
-194.022229
 30
0.0
 11
16.88587
 21
-194.187905
 31
0.0
  0
LINE
  8
DETAIL
  6
CONTINUOUS
 62
     5
 10
16.88587
 20
-194.187905
 30
0.0
 11
17.05302
 21
-194.33612
 31
0.0
  0
LINE
  8
DETAIL
  6
CONTINUOUS
 62
     5
 10
17.05302
 20
-194.33612
 30
0.0
 11
17.235999
 21
-194.464661
 31
0.0
  0
LINE
  8
DETAIL
  6
CONTINUOUS
 62
     5
 10
17.235999
 20
-194.464661
 30
0.0
 11
17.432233
 21
-194.572293
 31
0.0
  0
LINE
  8
DETAIL
  6
CONTINUOUS
 62
     5
 10
17.432233
 20
-194.572293
 30
0.0
 11
17.639481
 21
-194.657254
 31
0.0
  0
LINE
  8
DETAIL
  6
CONTINUOUS
 62
     5
 10
17.639481
 20
-194.657254
 30
0.0
 11
17.854958
 21
-194.718907
 31
0.0
  0
LINE
  8
DETAIL
  6
CONTINUOUS
 62
     5
 10
17.854958
 20
-194.718907
 30
0.0
 11
18.07469
 21
-194.755872
 31
0.0
  0
LINE
  8
DETAIL
  6
CONTINUOUS
 62
     5
 10
18.07469
 20
-194.755872
 30
0.0
 11
18.3
 21
-194.768609
 31
0.0
  0
LINE
  8
DETAIL
  6
CONTINUOUS
 62
     5
 10
4.1
 20
-178.488516
 30
0.0
 11
3.7
 21
-178.488516
 31
0.0
  0
LINE
  8
DETAIL
  6
CONTINUOUS
 62
     5
 10
14.3
 20
-183.426102
 30
0.0
 11
3.6
 21
-183.426102
 31
0.0
  0
LINE
  8
DETAIL
  6
CONTINUOUS
 62
     5
 10
14.3
 20
-183.57633
 30
0.0
 11
3.6
 21
-183.57633
 31
0.0
  0
LINE
  8
DETAIL
  6
CONTINUOUS
 62
     5
 10
18.3
 20
-196.623826
 30
0.0
 11
18.07469
 21
-196.611089
 31
0.0
  0
LINE
  8
DETAIL
  6
CONTINUOUS
 62
     5
 10
18.07469
 20
-196.611089
 30
0.0
 11
17.854958
 21
-196.574124
 31
0.0
  0
LINE
  8
DETAIL
  6
CONTINUOUS
 62
     5
 10
17.854958
 20
-196.574124
 30
0.0
 11
17.639481
 21
-196.512472
 31
0.0
  0
LINE
  8
DETAIL
  6
CONTINUOUS
 62
     5
 10
17.639481
 20
-196.512472
 30
0.0
 11
17.432233
 21
-196.42751
 31
0.0
  0
LINE
  8
DETAIL
  6
CONTINUOUS
 62
     5
 10
17.432233
 20
-196.42751
 30
0.0
 11
17.235999
 21
-196.319879
 31
0.0
  0
LINE
  8
DETAIL
  6
CONTINUOUS
 62
     5
 10
17.235999
 20
-196.319879
 30
0.0
 11
17.05302
 21
-196.191337
 31
0.0
  0
LINE
  8
DETAIL
  6
CONTINUOUS
 62
     5
 10
17.05302
 20
-196.191337
 30
0.0
 11
16.88587
 21
-196.043123
 31
0.0
  0
LINE
  8
DETAIL
  6
CONTINUOUS
 62
     5
 10
16.88587
 20
-196.043123
 30
0.0
 11
16.736337
 21
-195.877447
 31
0.0
  0
LINE
  8
DETAIL
  6
CONTINUOUS
 62
     5
 10
16.736337
 20
-195.877447
 30
0.0
 11
16.606652
 21
-195.696082
 31
0.0
  0
LINE
  8
DETAIL
  6
CONTINUOUS
 62
     5
 10
16.606652
 20
-195.696082
 30
0.0
 11
16.498062
 21
-195.501579
 31
0.0
  0
LINE
  8
DETAIL
  6
CONTINUOUS
 62
     5
 10
16.498062
 20
-195.501579
 30
0.0
 11
16.412345
 21
-195.296158
 31
0.0
  0
LINE
  8
DETAIL
  6
CONTINUOUS
 62
     5
 10
16.412345
 20
-195.296158
 30
0.0
 11
16.350144
 21
-195.082581
 31
0.0
  0
LINE
  8
DETAIL
  6
CONTINUOUS
 62
     5
 10
16.350144
 20
-195.082581
 30
0.0
 11
16.31285
 21
-194.864788
 31
0.0
  0
LINE
  8
DETAIL
  6
CONTINUOUS
 62
     5
 10
16.31285
 20
-194.864788
 30
0.0
 11
16.3
 21
-194.641464
 31
0.0
  0
LINE
  8
DETAIL
  6
CONTINUOUS
 62
     5
 10
0.0
 20
-155.056483
 30
0.0
 11
-0.01542
 21
-154.988787
 31
0.0
  0
LINE
  8
DETAIL
  6
CONTINUOUS
 62
     5
 10
-0.01542
 20
-154.988787
 30
0.0
 11
-0.060173
 21
-154.922767
 31
0.0
  0
LINE
  8
DETAIL
  6
CONTINUOUS
 62
     5
 10
-0.060173
 20
-154.922767
 30
0.0
 11
-0.134814
 21
-154.858026
 31
0.0
  0
LINE
  8
DETAIL
  6
CONTINUOUS
 62
     5
 10
-0.134814
 20
-154.858026
 30
0.0
 11
-0.237675
 21
-154.795757
 31
0.0
  0
LINE
  8
DETAIL
  6
CONTINUOUS
 62
     5
 10
-0.237675
 20
-154.795757
 30
0.0
 11
-0.367982
 21
-154.736797
 31
0.0
  0
LINE
  8
DETAIL
  6
CONTINUOUS
 62
     5
 10
-0.367982
 20
-154.736797
 30
0.0
 11
-0.523604
 21
-154.68182
 31
0.0
  0
LINE
  8
DETAIL
  6
CONTINUOUS
 62
     5
 10
-0.523604
 20
-154.68182
 30
0.0
 11
-0.703044
 21
-154.631599
 31
0.0
  0
LINE
  8
DETAIL
  6
CONTINUOUS
 62
     5
 10
-0.703044
 20
-154.631599
 30
0.0
 11
-0.903624
 21
-154.586671
 31
0.0
  0
LINE
  8
DETAIL
  6
CONTINUOUS
 62
     5
 10
-0.903624
 20
-154.586671
 30
0.0
 11
-1.123199
 21
-154.547706
 31
0.0
  0
LINE
  8
DETAIL
  6
CONTINUOUS
 62
     5
 10
-1.123199
 20
-154.547706
 30
0.0
 11
-1.358679
 21
-154.51508
 31
0.0
  0
LINE
  8
DETAIL
  6
CONTINUOUS
 62
     5
 10
-1.358679
 20
-154.51508
 30
0.0
 11
-1.4
 21
-154.510801
 31
0.0
  0
LINE
  8
DETAIL
  6
CONTINUOUS
 62
     5
 10
14.3
 20
-149.141648
 30
0.0
 11
-1.4
 21
-149.141648
 31
0.0
  0
LINE
  8
DETAIL
  6
CONTINUOUS
 62
     5
 10
14.3
 20
-149.441648
 30
0.0
 11
-1.4
 21
-149.441648
 31
0.0
  0
LINE
  8
DETAIL
  6
CONTINUOUS
 62
     5
 10
14.3
 20
-149.879016
 30
0.0
 11
-1.4
 21
-149.879016
 31
0.0
  0
LINE
  8
DETAIL
  6
CONTINUOUS
 62
     5
 10
-1.4
 20
-152.67146
 30
0.0
 11
14.3
 21
-152.67146
 31
0.0
  0
LINE
  8
DETAIL
  6
CONTINUOUS
 62
     5
 10
-1.4
 20
-153.466105
 30
0.0
 11
14.3
 21
-153.466105
 31
0.0
  0
LINE
  8
DETAIL
  6
CONTINUOUS
 62
     5
 10
0.0
 20
-162.615082
 30
0.0
 11
-1.2
 21
-162.615082
 31
0.0
  0
LINE
  8
DETAIL
  6
CONTINUOUS
 62
     5
 10
3.6
 20
-167.488516
 30
0.0
 11
-0.4
 21
-167.488516
 31
0.0
  0
ARC
  8
DETAIL
  6
CONTINUOUS
 62
     5
 10
-0.4
 20
-166.488516
 30
0.0
 40
1.0
 50
180.0
 51
270.0
  0
LINE
  8
DETAIL
  6
CONTINUOUS
 62
     5
 10
-17.999934
 20
-172.538583
 30
0.0
 11
-17.499916
 21
-172.038599
 31
0.0
  0
LINE
  8
DETAIL
  6
CONTINUOUS
 62
     5
 10
-1.2
 20
-167.086487
 30
0.0
 11
-1.2
 21
-155.056483
 31
0.0
  0
LINE
  8
DETAIL
  6
CONTINUOUS
 62
     5
 10
-1.4
 20
-154.891581
 30
0.0
 11
-1.36077
 21
-154.906255
 31
0.0
  0
LINE
  8
DETAIL
  6
CONTINUOUS
 62
     5
 10
-1.36077
 20
-154.906255
 30
0.0
 11
-1.291466
 21
-154.941516
 31
0.0
  0
LINE
  8
DETAIL
  6
CONTINUOUS
 62
     5
 10
-1.291466
 20
-154.941516
 30
0.0
 11
-1.240889
 21
-154.978719
 31
0.0
  0
LINE
  8
DETAIL
  6
CONTINUOUS
 62
     5
 10
-1.240889
 20
-154.978719
 30
0.0
 11
-1.210571
 21
-155.016938
 31
0.0
  0
LINE
  8
DETAIL
  6
CONTINUOUS
 62
     5
 10
-1.210571
 20
-155.016938
 30
0.0
 11
-1.2
 21
-155.056483
 31
0.0
  0
LINE
  8
DETAIL
  6
CONTINUOUS
 62
     5
 10
-17.4
 20
-172.038516
 30
0.0
 11
-17.499999
 21
-172.038516
 31
0.0
  0
ARC
  8
DETAIL
  6
CONTINUOUS
 62
     5
 10
4.1
 20
-170.588516
 30
0.0
 40
0.1
 50
0.0
 51
90.0
  0
ARC
  8
DETAIL
  6
CONTINUOUS
 62
     5
 10
3.7
 20
-170.588516
 30
0.0
 40
0.1
 50
90.0
 51
180.0
  0
LINE
  8
DETAIL
  6
CONTINUOUS
 62
     5
 10
0.0
 20
-155.056483
 30
0.0
 11
0.0
 21
-167.488516
 31
0.0
  0
LINE
  8
DETAIL
  6
CONTINUOUS
 62
     5
 10
4.1
 20
-170.488516
 30
0.0
 11
3.7
 21
-170.488516
 31
0.0
  0
LINE
  8
DETAIL
  6
CONTINUOUS
 62
     5
 10
34.7
 20
-197.1
 30
0.0
 11
48.5
 21
-197.1
 31
0.0
  0
CIRCLE
  8
DETAIL
  6
CONTINUOUS
 62
     5
 10
39.7
 20
-198.4
 30
0.0
 40
0.755279
  0
ARC
  8
DETAIL
  6
CONTINUOUS
 62
     5
 10
39.7
 20
-198.4
 30
0.0
 40
1.6
 50
125.541233
 51
54.458767
  0
ARC
  8
DETAIL
  6
CONTINUOUS
 62
     5
 10
34.5
 20
-184.4
 30
0.0
 40
1.6
 50
90.0
 51
180.0
  0
ARC
  8
DETAIL
  6
CONTINUOUS
 62
     5
 10
34.7
 20
-196.1
 30
0.0
 40
1.0
 50
180.0
 51
270.0
  0
ARC
  8
DETAIL
  6
CONTINUOUS
 62
     5
 10
34.5
 20
-184.4
 30
0.0
 40
0.8
 50
144.450692
 51
180.0
  0
ARC
  8
DETAIL
  6
CONTINUOUS
 62
     5
 10
35.950893
 20
-202.1
 30
0.0
 40
4.950893
 50
135.825657
 51
224.174343
  0
LINE
  8
DETAIL
  6
CONTINUOUS
 62
     5
 10
24.600962
 20
-203.344669
 30
0.0
 11
24.480529
 21
-203.628097
 31
0.0
  0
LINE
  8
DETAIL
  6
CONTINUOUS
 62
     5
 10
24.480529
 20
-203.628097
 30
0.0
 11
24.381238
 21
-203.915593
 31
0.0
  0
LINE
  8
DETAIL
  6
CONTINUOUS
 62
     5
 10
24.381238
 20
-203.915593
 30
0.0
 11
24.303362
 21
-204.206369
 31
0.0
  0
LINE
  8
DETAIL
  6
CONTINUOUS
 62
     5
 10
24.303362
 20
-204.206369
 30
0.0
 11
24.247114
 21
-204.499629
 31
0.0
  0
LINE
  8
DETAIL
  6
CONTINUOUS
 62
     5
 10
24.247114
 20
-204.499629
 30
0.0
 11
24.212649
 21
-204.794569
 31
0.0
  0
LINE
  8
DETAIL
  6
CONTINUOUS
 62
     5
 10
24.212649
 20
-204.794569
 30
0.0
 11
24.2
 21
-205.112436
 31
0.0
  0
LINE
  8
DETAIL
  6
CONTINUOUS
 62
     5
 10
31.0
 20
-202.1
 30
0.0
 11
31.015947
 21
-201.819239
 31
0.0
  0
LINE
  8
DETAIL
  6
CONTINUOUS
 62
     5
 10
31.015947
 20
-201.819239
 30
0.0
 11
31.063687
 21
-201.540286
 31
0.0
  0
LINE
  8
DETAIL
  6
CONTINUOUS
 62
     5
 10
31.063687
 20
-201.540286
 30
0.0
 11
31.142911
 21
-201.26494
 31
0.0
  0
LINE
  8
DETAIL
  6
CONTINUOUS
 62
     5
 10
31.142911
 20
-201.26494
 30
0.0
 11
31.253109
 21
-200.994973
 31
0.0
  0
LINE
  8
DETAIL
  6
CONTINUOUS
 62
     5
 10
31.253109
 20
-200.994973
 30
0.0
 11
31.393572
 21
-200.732125
 31
0.0
  0
LINE
  8
DETAIL
  6
CONTINUOUS
 62
     5
 10
31.393572
 20
-200.732125
 30
0.0
 11
31.566678
 21
-200.473654
 31
0.0
  0
LINE
  8
DETAIL
  6
CONTINUOUS
 62
     5
 10
33.7
 20
-196.1
 30
0.0
 11
33.7
 21
-197.1
 31
0.0
  0
LINE
  8
DETAIL
  6
CONTINUOUS
 62
     5
 10
33.7
 20
-184.4
 30
0.0
 11
33.7
 21
-196.1
 31
0.0
  0
LINE
  8
DETAIL
  6
CONTINUOUS
 62
     5
 10
32.4
 20
-205.55
 30
0.0
 11
32.4
 21
-198.65
 31
0.0
  0
LINE
  8
DETAIL
  6
CONTINUOUS
 62
     5
 10
25.3
 20
-194.768609
 30
0.0
 11
25.3
 21
-196.623826
 31
0.0
  0
LINE
  8
DETAIL
  6
CONTINUOUS
 62
     5
 10
29.3
 20
-200.58855
 30
0.0
 11
29.280416
 21
-200.198095
 31
0.0
  0
LINE
  8
DETAIL
  6
CONTINUOUS
 62
     5
 10
29.280416
 20
-200.198095
 30
0.0
 11
29.223141
 21
-199.81507
 31
0.0
  0
LINE
  8
DETAIL
  6
CONTINUOUS
 62
     5
 10
29.223141
 20
-199.81507
 30
0.0
 11
29.127628
 21
-199.437691
 31
0.0
  0
LINE
  8
DETAIL
  6
CONTINUOUS
 62
     5
 10
29.127628
 20
-199.437691
 30
0.0
 11
28.995518
 21
-199.071316
 31
0.0
  0
LINE
  8
DETAIL
  6
CONTINUOUS
 62
     5
 10
28.995518
 20
-199.071316
 30
0.0
 11
28.827563
 21
-198.719657
 31
0.0
  0
LINE
  8
DETAIL
  6
CONTINUOUS
 62
     5
 10
28.827563
 20
-198.719657
 30
0.0
 11
28.625878
 21
-198.385867
 31
0.0
  0
LINE
  8
DETAIL
  6
CONTINUOUS
 62
     5
 10
28.625878
 20
-198.385867
 30
0.0
 11
28.391934
 21
-198.073443
 31
0.0
  0
LINE
  8
DETAIL
  6
CONTINUOUS
 62
     5
 10
28.391934
 20
-198.073443
 30
0.0
 11
28.128427
 21
-197.785067
 31
0.0
  0
LINE
  8
DETAIL
  6
CONTINUOUS
 62
     5
 10
28.128427
 20
-197.785067
 30
0.0
 11
27.837485
 21
-197.523883
 31
0.0
  0
LINE
  8
DETAIL
  6
CONTINUOUS
 62
     5
 10
27.837485
 20
-197.523883
 30
0.0
 11
27.522281
 21
-197.292002
 31
0.0
  0
LINE
  8
DETAIL
  6
CONTINUOUS
 62
     5
 10
27.522281
 20
-197.292002
 30
0.0
 11
27.185521
 21
-197.092097
 31
0.0
  0
LINE
  8
DETAIL
  6
CONTINUOUS
 62
     5
 10
27.185521
 20
-197.092097
 30
0.0
 11
26.830734
 21
-196.925623
 31
0.0
  0
LINE
  8
DETAIL
  6
CONTINUOUS
 62
     5
 10
26.830734
 20
-196.925623
 30
0.0
 11
26.461098
 21
-196.794677
 31
0.0
  0
LINE
  8
DETAIL
  6
CONTINUOUS
 62
     5
 10
26.461098
 20
-196.794677
 30
0.0
 11
26.080361
 21
-196.700007
 31
0.0
  0
LINE
  8
DETAIL
  6
CONTINUOUS
 62
     5
 10
26.080361
 20
-196.700007
 30
0.0
 11
25.693929
 21
-196.643237
 31
0.0
  0
LINE
  8
DETAIL
  6
CONTINUOUS
 62
     5
 10
25.693929
 20
-196.643237
 30
0.0
 11
25.3
 21
-196.623826
 31
0.0
  0
LINE
  8
DETAIL
  6
CONTINUOUS
 62
     5
 10
24.600962
 20
-206.880203
 30
0.0
 11
24.480529
 21
-206.596776
 31
0.0
  0
LINE
  8
DETAIL
  6
CONTINUOUS
 62
     5
 10
24.480529
 20
-206.596776
 30
0.0
 11
24.381238
 21
-206.30928
 31
0.0
  0
LINE
  8
DETAIL
  6
CONTINUOUS
 62
     5
 10
24.381238
 20
-206.30928
 30
0.0
 11
24.303362
 21
-206.018503
 31
0.0
  0
LINE
  8
DETAIL
  6
CONTINUOUS
 62
     5
 10
24.303362
 20
-206.018503
 30
0.0
 11
24.247114
 21
-205.725243
 31
0.0
  0
LINE
  8
DETAIL
  6
CONTINUOUS
 62
     5
 10
24.247114
 20
-205.725243
 30
0.0
 11
24.212649
 21
-205.430303
 31
0.0
  0
LINE
  8
DETAIL
  6
CONTINUOUS
 62
     5
 10
24.212649
 20
-205.430303
 30
0.0
 11
24.2
 21
-205.112436
 31
0.0
  0
LINE
  8
DETAIL
  6
CONTINUOUS
 62
     5
 10
31.566678
 20
-203.726346
 30
0.0
 11
31.396343
 21
-203.472482
 31
0.0
  0
LINE
  8
DETAIL
  6
CONTINUOUS
 62
     5
 10
31.396343
 20
-203.472482
 30
0.0
 11
31.255349
 21
-203.209776
 31
0.0
  0
LINE
  8
DETAIL
  6
CONTINUOUS
 62
     5
 10
31.255349
 20
-203.209776
 30
0.0
 11
31.144605
 21
-202.93992
 31
0.0
  0
LINE
  8
DETAIL
  6
CONTINUOUS
 62
     5
 10
31.144605
 20
-202.93992
 30
0.0
 11
31.064824
 21
-202.664654
 31
0.0
  0
LINE
  8
DETAIL
  6
CONTINUOUS
 62
     5
 10
31.064824
 20
-202.664654
 30
0.0
 11
31.01652
 21
-202.38575
 31
0.0
  0
LINE
  8
DETAIL
  6
CONTINUOUS
 62
     5
 10
31.01652
 20
-202.38575
 30
0.0
 11
31.0
 21
-202.1
 31
0.0
  0
LINE
  8
DETAIL
  6
CONTINUOUS
 62
     5
 10
32.9
 20
-184.4
 30
0.0
 11
33.7
 21
-184.4
 31
0.0
  0
LINE
  8
DETAIL
  6
CONTINUOUS
 62
     5
 10
34.5
 20
-182.8
 30
0.0
 11
34.442959
 21
-182.810025
 31
0.0
  0
LINE
  8
DETAIL
  6
CONTINUOUS
 62
     5
 10
34.442959
 20
-182.810025
 30
0.0
 11
34.385811
 21
-182.840048
 31
0.0
  0
LINE
  8
DETAIL
  6
CONTINUOUS
 62
     5
 10
34.385811
 20
-182.840048
 30
0.0
 11
34.328475
 21
-182.889887
 31
0.0
  0
LINE
  8
DETAIL
  6
CONTINUOUS
 62
     5
 10
34.328475
 20
-182.889887
 30
0.0
 11
34.271187
 21
-182.958779
 31
0.0
  0
LINE
  8
DETAIL
  6
CONTINUOUS
 62
     5
 10
34.271187
 20
-182.958779
 30
0.0
 11
34.214295
 21
-183.045226
 31
0.0
  0
LINE
  8
DETAIL
  6
CONTINUOUS
 62
     5
 10
34.214295
 20
-183.045226
 30
0.0
 11
34.157384
 21
-183.148598
 31
0.0
  0
LINE
  8
DETAIL
  6
CONTINUOUS
 62
     5
 10
34.157384
 20
-183.148598
 30
0.0
 11
34.1
 21
-183.268629
 31
0.0
  0
LINE
  8
DETAIL
  6
CONTINUOUS
 62
     5
 10
34.1
 20
-183.268629
 30
0.0
 11
34.042616
 21
-183.403008
 31
0.0
  0
LINE
  8
DETAIL
  6
CONTINUOUS
 62
     5
 10
34.042616
 20
-183.403008
 30
0.0
 11
33.985705
 21
-183.548772
 31
0.0
  0
LINE
  8
DETAIL
  6
CONTINUOUS
 62
     5
 10
33.985705
 20
-183.548772
 30
0.0
 11
33.928813
 21
-183.705103
 31
0.0
  0
LINE
  8
DETAIL
  6
CONTINUOUS
 62
     5
 10
33.928813
 20
-183.705103
 30
0.0
 11
33.871525
 21
-183.871267
 31
0.0
  0
LINE
  8
DETAIL
  6
CONTINUOUS
 62
     5
 10
33.871525
 20
-183.871267
 30
0.0
 11
33.814189
 21
-184.044261
 31
0.0
  0
LINE
  8
DETAIL
  6
CONTINUOUS
 62
     5
 10
33.814189
 20
-184.044261
 30
0.0
 11
33.7
 21
-184.4
 31
0.0
  0
LINE
  8
DETAIL
  6
CONTINUOUS
 62
     5
 10
25.3
 20
-198.606188
 30
0.0
 11
25.52531
 21
-198.618925
 31
0.0
  0
LINE
  8
DETAIL
  6
CONTINUOUS
 62
     5
 10
25.52531
 20
-198.618925
 30
0.0
 11
25.745042
 21
-198.65589
 31
0.0
  0
LINE
  8
DETAIL
  6
CONTINUOUS
 62
     5
 10
25.745042
 20
-198.65589
 30
0.0
 11
25.960519
 21
-198.717542
 31
0.0
  0
LINE
  8
DETAIL
  6
CONTINUOUS
 62
     5
 10
25.960519
 20
-198.717542
 30
0.0
 11
26.167767
 21
-198.802503
 31
0.0
  0
LINE
  8
DETAIL
  6
CONTINUOUS
 62
     5
 10
26.167767
 20
-198.802503
 30
0.0
 11
26.364001
 21
-198.910135
 31
0.0
  0
LINE
  8
DETAIL
  6
CONTINUOUS
 62
     5
 10
26.364001
 20
-198.910135
 30
0.0
 11
26.54698
 21
-199.038677
 31
0.0
  0
LINE
  8
DETAIL
  6
CONTINUOUS
 62
     5
 10
26.54698
 20
-199.038677
 30
0.0
 11
26.71413
 21
-199.186891
 31
0.0
  0
LINE
  8
DETAIL
  6
CONTINUOUS
 62
     5
 10
26.71413
 20
-199.186891
 30
0.0
 11
26.863663
 21
-199.352567
 31
0.0
  0
LINE
  8
DETAIL
  6
CONTINUOUS
 62
     5
 10
26.863663
 20
-199.352567
 30
0.0
 11
26.993348
 21
-199.533932
 31
0.0
  0
LINE
  8
DETAIL
  6
CONTINUOUS
 62
     5
 10
26.993348
 20
-199.533932
 30
0.0
 11
27.101938
 21
-199.728435
 31
0.0
  0
LINE
  8
DETAIL
  6
CONTINUOUS
 62
     5
 10
27.101938
 20
-199.728435
 30
0.0
 11
27.187655
 21
-199.933856
 31
0.0
  0
LINE
  8
DETAIL
  6
CONTINUOUS
 62
     5
 10
27.187655
 20
-199.933856
 30
0.0
 11
27.249856
 21
-200.147433
 31
0.0
  0
LINE
  8
DETAIL
  6
CONTINUOUS
 62
     5
 10
27.249856
 20
-200.147433
 30
0.0
 11
27.28715
 21
-200.365226
 31
0.0
  0
LINE
  8
DETAIL
  6
CONTINUOUS
 62
     5
 10
27.28715
 20
-200.365226
 30
0.0
 11
27.3
 21
-200.58855
 31
0.0
  0
LINE
  8
DETAIL
  6
CONTINUOUS
 62
     5
 10
25.3
 20
-194.768609
 30
0.0
 11
25.693929
 21
-194.78802
 31
0.0
  0
LINE
  8
DETAIL
  6
CONTINUOUS
 62
     5
 10
25.693929
 20
-194.78802
 30
0.0
 11
26.080361
 21
-194.84479
 31
0.0
  0
LINE
  8
DETAIL
  6
CONTINUOUS
 62
     5
 10
26.080361
 20
-194.84479
 30
0.0
 11
26.461098
 21
-194.93946
 31
0.0
  0
LINE
  8
DETAIL
  6
CONTINUOUS
 62
     5
 10
26.461098
 20
-194.93946
 30
0.0
 11
26.830734
 21
-195.070405
 31
0.0
  0
LINE
  8
DETAIL
  6
CONTINUOUS
 62
     5
 10
26.830734
 20
-195.070405
 30
0.0
 11
27.185521
 21
-195.23688
 31
0.0
  0
LINE
  8
DETAIL
  6
CONTINUOUS
 62
     5
 10
27.185521
 20
-195.23688
 30
0.0
 11
27.522281
 21
-195.436785
 31
0.0
  0
LINE
  8
DETAIL
  6
CONTINUOUS
 62
     5
 10
27.522281
 20
-195.436785
 30
0.0
 11
27.837485
 21
-195.668666
 31
0.0
  0
LINE
  8
DETAIL
  6
CONTINUOUS
 62
     5
 10
27.837485
 20
-195.668666
 30
0.0
 11
28.128427
 21
-195.929849
 31
0.0
  0
LINE
  8
DETAIL
  6
CONTINUOUS
 62
     5
 10
28.128427
 20
-195.929849
 30
0.0
 11
28.391934
 21
-196.218226
 31
0.0
  0
LINE
  8
DETAIL
  6
CONTINUOUS
 62
     5
 10
28.391934
 20
-196.218226
 30
0.0
 11
28.625878
 21
-196.53065
 31
0.0
  0
LINE
  8
DETAIL
  6
CONTINUOUS
 62
     5
 10
28.625878
 20
-196.53065
 30
0.0
 11
28.827563
 21
-196.86444
 31
0.0
  0
LINE
  8
DETAIL
  6
CONTINUOUS
 62
     5
 10
28.827563
 20
-196.86444
 30
0.0
 11
28.995518
 21
-197.216098
 31
0.0
  0
LINE
  8
DETAIL
  6
CONTINUOUS
 62
     5
 10
28.995518
 20
-197.216098
 30
0.0
 11
29.127628
 21
-197.582474
 31
0.0
  0
LINE
  8
DETAIL
  6
CONTINUOUS
 62
     5
 10
29.127628
 20
-197.582474
 30
0.0
 11
29.223141
 21
-197.959853
 31
0.0
  0
LINE
  8
DETAIL
  6
CONTINUOUS
 62
     5
 10
29.223141
 20
-197.959853
 30
0.0
 11
29.280416
 21
-198.342877
 31
0.0
  0
LINE
  8
DETAIL
  6
CONTINUOUS
 62
     5
 10
29.280416
 20
-198.342877
 30
0.0
 11
29.3
 21
-198.733332
 31
0.0
  0
LINE
  8
DETAIL
  6
CONTINUOUS
 62
     5
 10
33.7
 20
-196.1
 30
0.0
 11
32.9
 21
-196.1
 31
0.0
  0
LINE
  8
DETAIL
  6
CONTINUOUS
 62
     5
 10
33.7
 20
-197.1
 30
0.0
 11
32.9
 21
-197.1
 31
0.0
  0
LINE
  8
DETAIL
  6
CONTINUOUS
 62
     5
 10
32.9
 20
-197.764214
 30
0.0
 11
33.7
 21
-197.764214
 31
0.0
  0
LINE
  8
DETAIL
  6
CONTINUOUS
 62
     5
 10
33.7
 20
-198.35
 30
0.0
 11
32.9
 21
-198.35
 31
0.0
  0
LINE
  8
DETAIL
  6
CONTINUOUS
 62
     5
 10
32.9
 20
-198.6
 30
0.0
 11
30.0
 21
-198.6
 31
0.0
  0
LINE
  8
DETAIL
  6
CONTINUOUS
 62
     5
 10
32.4
 20
-198.65
 30
0.0
 11
32.9
 21
-198.65
 31
0.0
  0
LINE
  8
DETAIL
  6
CONTINUOUS
 62
     5
 10
33.7
 20
-200.35
 30
0.0
 11
32.9
 21
-200.35
 31
0.0
  0
LINE
  8
DETAIL
  6
CONTINUOUS
 62
     5
 10
31.0
 20
-201.170468
 30
0.0
 11
30.0
 21
-201.170468
 31
0.0
  0
LINE
  8
DETAIL
  6
CONTINUOUS
 62
     5
 10
30.0
 20
-201.612436
 30
0.0
 11
29.3
 21
-201.612436
 31
0.0
  0
LINE
  8
DETAIL
  6
CONTINUOUS
 62
     5
 10
32.4
 20
-205.55
 30
0.0
 11
32.9
 21
-205.55
 31
0.0
  0
ARC
  8
DETAIL
  6
CONTINUOUS
 62
     5
 10
51.0
 20
-195.2
 30
0.0
 40
2.5
 50
0.0
 51
180.0
  0
ARC
  8
DETAIL
  6
CONTINUOUS
 62
     5
 10
51.0
 20
-186.8225
 30
0.0
 40
6.5225
 50
43.897398
 51
136.102602
  0
LINE
  8
DETAIL
  6
CONTINUOUS
 62
     5
 10
49.47972
 20
-180.664537
 30
0.0
 11
49.725157
 21
-180.554123
 31
0.0
  0
LINE
  8
DETAIL
  6
CONTINUOUS
 62
     5
 10
49.725157
 20
-180.554123
 30
0.0
 11
49.974568
 21
-180.463256
 31
0.0
  0
LINE
  8
DETAIL
  6
CONTINUOUS
 62
     5
 10
49.974568
 20
-180.463256
 30
0.0
 11
50.227178
 21
-180.39222
 31
0.0
  0
LINE
  8
DETAIL
  6
CONTINUOUS
 62
     5
 10
50.227178
 20
-180.39222
 30
0.0
 11
50.482197
 21
-180.341237
 31
0.0
  0
LINE
  8
DETAIL
  6
CONTINUOUS
 62
     5
 10
50.482197
 20
-180.341237
 30
0.0
 11
50.738831
 21
-180.310466
 31
0.0
  0
LINE
  8
DETAIL
  6
CONTINUOUS
 62
     5
 10
50.738831
 20
-180.310466
 30
0.0
 11
51.0
 21
-180.3
 31
0.0
  0
LINE
  8
DETAIL
  6
CONTINUOUS
 62
     5
 10
55.7
 20
-182.3
 30
0.0
 11
55.7
 21
-182.8
 31
0.0
  0
LINE
  8
DETAIL
  6
CONTINUOUS
 62
     5
 10
53.5
 20
-197.1
 30
0.0
 11
53.5
 21
-195.2
 31
0.0
  0
LINE
  8
DETAIL
  6
CONTINUOUS
 62
     5
 10
48.5
 20
-197.1
 30
0.0
 11
48.5
 21
-195.2
 31
0.0
  0
LINE
  8
DETAIL
  6
CONTINUOUS
 62
     5
 10
46.3
 20
-182.3
 30
0.0
 11
46.3
 21
-182.8
 31
0.0
  0
LINE
  8
DETAIL
  6
CONTINUOUS
 62
     5
 10
51.0
 20
-180.3
 30
0.0
 11
51.257455
 21
-180.31017
 31
0.0
  0
LINE
  8
DETAIL
  6
CONTINUOUS
 62
     5
 10
51.257455
 20
-180.31017
 30
0.0
 11
51.514106
 21
-180.340649
 31
0.0
  0
LINE
  8
DETAIL
  6
CONTINUOUS
 62
     5
 10
51.514106
 20
-180.340649
 30
0.0
 11
51.769155
 21
-180.391341
 31
0.0
  0
LINE
  8
DETAIL
  6
CONTINUOUS
 62
     5
 10
51.769155
 20
-180.391341
 30
0.0
 11
52.021805
 21
-180.462088
 31
0.0
  0
LINE
  8
DETAIL
  6
CONTINUOUS
 62
     5
 10
52.021805
 20
-180.462088
 30
0.0
 11
52.271268
 21
-180.552671
 31
0.0
  0
LINE
  8
DETAIL
  6
CONTINUOUS
 62
     5
 10
52.271268
 20
-180.552671
 30
0.0
 11
52.52028
 21
-180.664537
 31
0.0
  0
LINE
  8
DETAIL
  6
CONTINUOUS
 62
     5
 10
46.3
 20
-182.3
 30
0.0
 11
55.7
 21
-182.3
 31
0.0
  0
CIRCLE
  8
DETAIL
  6
CONTINUOUS
 62
     5
 10
-6.4
 20
-110.388516
 30
0.0
 40
4.7
  0
LINE
  8
DETAIL
  6
CONTINUOUS
 62
     5
 10
13.6
 20
-132.388516
 30
0.0
 11
13.6
 21
-103.388516
 31
0.0
  0
LINE
  8
DETAIL
  6
CONTINUOUS
 62
     5
 10
11.6
 20
-132.388516
 30
0.0
 11
11.6
 21
-103.388516
 31
0.0
  0
LINE
  8
DETAIL
  6
CONTINUOUS
 62
     5
 10
9.6
 20
-103.388516
 30
0.0
 11
9.6
 21
-115.888514
 31
0.0
  0
LINE
  8
DETAIL
  6
CONTINUOUS
 62
     5
 10
-15.4
 20
-132.388516
 30
0.0
 11
11.6
 21
-132.388516
 31
0.0
  0
LINE
  8
DETAIL
  6
CONTINUOUS
 62
     5
 10
3.6
 20
-136.488516
 30
0.0
 11
-0.4
 21
-136.488516
 31
0.0
  0
ARC
  8
DETAIL
  6
CONTINUOUS
 62
     5
 10
-0.4
 20
-137.488516
 30
0.0
 40
1.0
 50
90.0
 51
180.0
  0
ARC
  8
DETAIL
  6
CONTINUOUS
 62
     5
 10
-15.4
 20
-130.388516
 30
0.0
 40
2.0
 50
180.0
 51
270.0
  0
CIRCLE
  8
DETAIL
  6
CONTINUOUS
 62
     5
 10
-11.4
 20
-125.388516
 30
0.0
 40
4.7
  0
LINE
  8
DETAIL
  6
CONTINUOUS
 62
     5
 10
-9.87972
 20
-123.868237
 30
0.0
 11
-12.92028
 21
-126.908796
 31
0.0
  0
LINE
  8
DETAIL
  6
CONTINUOUS
 62
     5
 10
-4.87972
 20
-108.868237
 30
0.0
 11
-7.92028
 21
-111.908796
 31
0.0
  0
LINE
  8
DETAIL
  6
CONTINUOUS
 62
     5
 10
-7.92028
 20
-108.868237
 30
0.0
 11
-4.87972
 21
-111.908796
 31
0.0
  0
LINE
  8
DETAIL
  6
CONTINUOUS
 62
     5
 10
-12.92028
 20
-123.868237
 30
0.0
 11
-9.87972
 21
-126.908796
 31
0.0
  0
ARC
  8
DETAIL
  6
CONTINUOUS
 62
     5
 10
11.1
 20
-122.888516
 30
0.0
 40
0.5
 50
0.0
 51
90.0
  0
ARC
  8
DETAIL
  6
CONTINUOUS
 62
     5
 10
11.1
 20
-112.888516
 30
0.0
 40
0.5
 50
270.0
 51
0.0
  0
ARC
  8
DETAIL
  6
CONTINUOUS
 62
     5
 10
11.405769
 20
-117.888514
 30
0.0
 40
7.994231
 50
312.435939
 51
47.564061
  0
LINE
  8
DETAIL
  6
CONTINUOUS
 62
     5
 10
18.999038
 20
-119.656281
 30
0.0
 11
19.119471
 21
-119.372854
 31
0.0
  0
LINE
  8
DETAIL
  6
CONTINUOUS
 62
     5
 10
19.119471
 20
-119.372854
 30
0.0
 11
19.218762
 21
-119.085358
 31
0.0
  0
LINE
  8
DETAIL
  6
CONTINUOUS
 62
     5
 10
19.218762
 20
-119.085358
 30
0.0
 11
19.296638
 21
-118.794581
 31
0.0
  0
LINE
  8
DETAIL
  6
CONTINUOUS
 62
     5
 10
19.296638
 20
-118.794581
 30
0.0
 11
19.352886
 21
-118.501321
 31
0.0
  0
LINE
  8
DETAIL
  6
CONTINUOUS
 62
     5
 10
19.352886
 20
-118.501321
 30
0.0
 11
19.387351
 21
-118.206381
 31
0.0
  0
LINE
  8
DETAIL
  6
CONTINUOUS
 62
     5
 10
19.387351
 20
-118.206381
 30
0.0
 11
19.4
 21
-117.888514
 31
0.0
  0
LINE
  8
DETAIL
  6
CONTINUOUS
 62
     5
 10
16.8
 20
-123.788514
 30
0.0
 11
16.8
 21
-111.988514
 31
0.0
  0
LINE
  8
DETAIL
  6
CONTINUOUS
 62
     5
 10
11.1
 20
-122.388516
 30
0.0
 11
11.1
 21
-113.388516
 31
0.0
  0
LINE
  8
DETAIL
  6
CONTINUOUS
 62
     5
 10
10.6
 20
-122.387819
 30
0.0
 11
10.6
 21
-113.389213
 31
0.0
  0
LINE
  8
DETAIL
  6
CONTINUOUS
 62
     5
 10
9.6
 20
-119.888514
 30
0.0
 11
9.6
 21
-132.388516
 31
0.0
  0
LINE
  8
DETAIL
  6
CONTINUOUS
 62
     5
 10
6.3
 20
-120.388514
 30
0.0
 11
6.3
 21
-115.388514
 31
0.0
  0
LINE
  8
DETAIL
  6
CONTINUOUS
 62
     5
 10
18.999038
 20
-116.120747
 30
0.0
 11
19.119471
 21
-116.404175
 31
0.0
  0
LINE
  8
DETAIL
  6
CONTINUOUS
 62
     5
 10
19.119471
 20
-116.404175
 30
0.0
 11
19.218762
 21
-116.691671
 31
0.0
  0
LINE
  8
DETAIL
  6
CONTINUOUS
 62
     5
 10
19.218762
 20
-116.691671
 30
0.0
 11
19.296638
 21
-116.982447
 31
0.0
  0
LINE
  8
DETAIL
  6
CONTINUOUS
 62
     5
 10
19.296638
 20
-116.982447
 30
0.0
 11
19.352886
 21
-117.275707
 31
0.0
  0
LINE
  8
DETAIL
  6
CONTINUOUS
 62
     5
 10
19.352886
 20
-117.275707
 30
0.0
 11
19.387351
 21
-117.570647
 31
0.0
  0
LINE
  8
DETAIL
  6
CONTINUOUS
 62
     5
 10
19.387351
 20
-117.570647
 30
0.0
 11
19.4
 21
-117.888514
 31
0.0
  0
LINE
  8
DETAIL
  6
CONTINUOUS
 62
     5
 10
3.6
 20
-132.388516
 30
0.0
 11
3.6
 21
-136.488516
 31
0.0
  0
LINE
  8
DETAIL
  6
CONTINUOUS
 62
     5
 10
0.4
 20
-132.388516
 30
0.0
 11
0.4
 21
-136.488516
 31
0.0
  0
LINE
  8
DETAIL
  6
CONTINUOUS
 62
     5
 10
14.3
 20
-110.057111
 30
0.0
 11
16.3
 21
-110.057111
 31
0.0
  0
LINE
  8
DETAIL
  6
CONTINUOUS
 62
     5
 10
14.3
 20
-110.852204
 30
0.0
 11
16.3
 21
-110.852204
 31
0.0
  0
LINE
  8
DETAIL
  6
CONTINUOUS
 62
     5
 10
16.8
 20
-111.988514
 30
0.0
 11
16.3
 21
-111.988514
 31
0.0
  0
LINE
  8
DETAIL
  6
CONTINUOUS
 62
     5
 10
11.1
 20
-113.388516
 30
0.0
 11
10.6
 21
-113.388516
 31
0.0
  0
LINE
  8
DETAIL
  6
CONTINUOUS
 62
     5
 10
13.6
 20
-114.388514
 30
0.0
 11
14.3
 21
-114.388514
 31
0.0
  0
LINE
  8
DETAIL
  6
CONTINUOUS
 62
     5
 10
14.3
 20
-115.34699
 30
0.0
 11
16.3
 21
-115.34699
 31
0.0
  0
LINE
  8
DETAIL
  6
CONTINUOUS
 62
     5
 10
10.6
 20
-115.388514
 30
0.0
 11
6.3
 21
-115.388514
 31
0.0
  0
LINE
  8
DETAIL
  6
CONTINUOUS
 62
     5
 10
10.6
 20
-115.888514
 30
0.0
 11
6.3
 21
-115.888514
 31
0.0
  0
LINE
  8
DETAIL
  6
CONTINUOUS
 62
     5
 10
11.6
 20
-117.888516
 30
0.0
 11
10.6
 21
-117.888516
 31
0.0
  0
LINE
  8
DETAIL
  6
CONTINUOUS
 62
     5
 10
10.6
 20
-119.888514
 30
0.0
 11
6.3
 21
-119.888514
 31
0.0
  0
LINE
  8
DETAIL
  6
CONTINUOUS
 62
     5
 10
10.6
 20
-120.388514
 30
0.0
 11
6.3
 21
-120.388514
 31
0.0
  0
LINE
  8
DETAIL
  6
CONTINUOUS
 62
     5
 10
13.6
 20
-121.388514
 30
0.0
 11
14.3
 21
-121.388514
 31
0.0
  0
LINE
  8
DETAIL
  6
CONTINUOUS
 62
     5
 10
11.1
 20
-122.388516
 30
0.0
 11
10.6
 21
-122.388516
 31
0.0
  0
LINE
  8
DETAIL
  6
CONTINUOUS
 62
     5
 10
16.8
 20
-123.788514
 30
0.0
 11
16.3
 21
-123.788514
 31
0.0
  0
LINE
  8
DETAIL
  6
CONTINUOUS
 62
     5
 10
11.6
 20
-130.388516
 30
0.0
 11
13.6
 21
-130.388516
 31
0.0
  0
LINE
  8
DETAIL
  6
CONTINUOUS
 62
     5
 10
13.6
 20
-132.388516
 30
0.0
 11
11.6
 21
-132.388516
 31
0.0
  0
LINE
  8
DETAIL
  6
CONTINUOUS
 62
     5
 10
-15.4
 20
-103.388516
 30
0.0
 11
11.6
 21
-103.388516
 31
0.0
  0
ARC
  8
DETAIL
  6
CONTINUOUS
 62
     5
 10
-15.4
 20
-105.388516
 30
0.0
 40
2.0
 50
90.0
 51
180.0
  0
LINE
  8
DETAIL
  6
CONTINUOUS
 62
     5
 10
-17.999934
 20
-73.538583
 30
0.0
 11
-17.499916
 21
-73.038599
 31
0.0
  0
LINE
  8
DETAIL
  6
CONTINUOUS
 62
     5
 10
-17.499999
 20
-77.938516
 30
0.0
 11
-17.499999
 21
-73.038516
 31
0.0
  0
LINE
  8
DETAIL
  6
CONTINUOUS
 62
     5
 10
-18.0
 20
-77.438515
 30
0.0
 11
-18.0
 21
-73.538517
 31
0.0
  0
LINE
  8
DETAIL
  6
CONTINUOUS
 62
     5
 10
-17.999934
 20
-77.438449
 30
0.0
 11
-17.499916
 21
-77.938433
 31
0.0
  0
LINE
  8
DETAIL
  6
CONTINUOUS
 62
     5
 10
-17.4
 20
-73.038516
 30
0.0
 11
-17.499999
 21
-73.038516
 31
0.0
  0
LINE
  8
DETAIL
  6
CONTINUOUS
 62
     5
 10
-17.4
 20
-77.938516
 30
0.0
 11
-17.499999
 21
-77.938516
 31
0.0
  0
ARC
  8
DETAIL
  6
CONTINUOUS
 62
     5
 10
4.1
 20
-79.388516
 30
0.0
 40
0.1
 50
270.0
 51
0.0
  0
ARC
  8
DETAIL
  6
CONTINUOUS
 62
     5
 10
3.7
 20
-79.388516
 30
0.0
 40
0.1
 50
180.0
 51
270.0
  0
LINE
  8
DETAIL
  6
CONTINUOUS
 62
     5
 10
4.1
 20
-79.488516
 30
0.0
 11
3.7
 21
-79.488516
 31
0.0
  0
LINE
  8
DETAIL
  6
CONTINUOUS
 62
     5
 10
11.6
 20
-103.388516
 30
0.0
 11
13.6
 21
-103.388516
 31
0.0
  0
LINE
  8
DETAIL
  6
CONTINUOUS
 62
     5
 10
11.6
 20
-105.388516
 30
0.0
 11
13.6
 21
-105.388516
 31
0.0
  0
LINE
  8
DETAIL
  6
CONTINUOUS
 62
     5
 10
-17.4
 20
51.5
 30
0.0
 11
-38.0
 21
51.5
 31
0.0
  0
LINE
  8
DETAIL
  6
CONTINUOUS
 62
     5
 10
-17.4
 20
43.544429
 30
0.0
 11
-38.0
 21
43.544429
 31
0.0
  0
LINE
  8
DETAIL
  6
CONTINUOUS
 62
     5
 10
-17.4
 20
43.243973
 30
0.0
 11
-38.0
 21
43.243973
 31
0.0
  0
LINE
  8
DETAIL
  6
CONTINUOUS
 62
     5
 10
-17.4
 20
14.347341
 30
0.0
 11
-40.0
 21
14.347341
 31
0.0
  0
LINE
  8
DETAIL
  6
CONTINUOUS
 62
     5
 10
-17.4
 20
-47.5
 30
0.0
 11
-38.0
 21
-47.5
 31
0.0
  0
LINE
  8
DETAIL
  6
CONTINUOUS
 62
     5
 10
-17.4
 20
-55.455571
 30
0.0
 11
-38.0
 21
-55.455571
 31
0.0
  0
LINE
  8
DETAIL
  6
CONTINUOUS
 62
     5
 10
-17.4
 20
-55.756027
 30
0.0
 11
-38.0
 21
-55.756027
 31
0.0
  0
LINE
  8
DETAIL
  6
CONTINUOUS
 62
     5
 10
-40.0
 20
-45.5
 30
0.0
 11
-40.0
 21
41.608134
 31
0.0
  0
ARC
  8
DETAIL
  6
CONTINUOUS
 62
     5
 10
-38.0
 20
-45.5
 30
0.0
 40
2.0
 50
180.0
 51
270.0
  0
LINE
  8
DETAIL
  6
CONTINUOUS
 62
     5
 10
-38.0
 20
-55.756027
 30
0.0
 11
-38.22531
 21
-55.768468
 31
0.0
  0
LINE
  8
DETAIL
  6
CONTINUOUS
 62
     5
 10
-38.22531
 20
-55.768468
 30
0.0
 11
-38.445042
 21
-55.804574
 31
0.0
  0
LINE
  8
DETAIL
  6
CONTINUOUS
 62
     5
 10
-38.445042
 20
-55.804574
 30
0.0
 11
-38.660519
 21
-55.864793
 31
0.0
  0
LINE
  8
DETAIL
  6
CONTINUOUS
 62
     5
 10
-38.660519
 20
-55.864793
 30
0.0
 11
-38.867767
 21
-55.94778
 31
0.0
  0
LINE
  8
DETAIL
  6
CONTINUOUS
 62
     5
 10
-38.867767
 20
-55.94778
 30
0.0
 11
-39.064001
 21
-56.052911
 31
0.0
  0
LINE
  8
DETAIL
  6
CONTINUOUS
 62
     5
 10
-39.064001
 20
-56.052911
 30
0.0
 11
-39.24698
 21
-56.178465
 31
0.0
  0
LINE
  8
DETAIL
  6
CONTINUOUS
 62
     5
 10
-39.24698
 20
-56.178465
 30
0.0
 11
-39.41413
 21
-56.323236
 31
0.0
  0
LINE
  8
DETAIL
  6
CONTINUOUS
 62
     5
 10
-39.41413
 20
-56.323236
 30
0.0
 11
-39.563663
 21
-56.485062
 31
0.0
  0
LINE
  8
DETAIL
  6
CONTINUOUS
 62
     5
 10
-39.563663
 20
-56.485062
 30
0.0
 11
-39.693348
 21
-56.662212
 31
0.0
  0
LINE
  8
DETAIL
  6
CONTINUOUS
 62
     5
 10
-39.693348
 20
-56.662212
 30
0.0
 11
-39.801938
 21
-56.852195
 31
0.0
  0
LINE
  8
DETAIL
  6
CONTINUOUS
 62
     5
 10
-39.801938
 20
-56.852195
 30
0.0
 11
-39.887655
 21
-57.052842
 31
0.0
  0
LINE
  8
DETAIL
  6
CONTINUOUS
 62
     5
 10
-39.887655
 20
-57.052842
 30
0.0
 11
-39.949856
 21
-57.261456
 31
0.0
  0
LINE
  8
DETAIL
  6
CONTINUOUS
 62
     5
 10
-39.949856
 20
-57.261456
 30
0.0
 11
-39.98715
 21
-57.474188
 31
0.0
  0
LINE
  8
DETAIL
  6
CONTINUOUS
 62
     5
 10
-39.98715
 20
-57.474188
 30
0.0
 11
-40.0
 21
-57.692322
 31
0.0
  0
LINE
  8
DETAIL
  6
CONTINUOUS
 62
     5
 10
-40.0
 20
-57.391866
 30
0.0
 11
-39.98715
 21
-57.173732
 31
0.0
  0
LINE
  8
DETAIL
  6
CONTINUOUS
 62
     5
 10
-39.98715
 20
-57.173732
 30
0.0
 11
-39.949856
 21
-56.961
 31
0.0
  0
LINE
  8
DETAIL
  6
CONTINUOUS
 62
     5
 10
-39.949856
 20
-56.961
 30
0.0
 11
-39.887655
 21
-56.752386
 31
0.0
  0
LINE
  8
DETAIL
  6
CONTINUOUS
 62
     5
 10
-39.887655
 20
-56.752386
 30
0.0
 11
-39.801938
 21
-56.551739
 31
0.0
  0
LINE
  8
DETAIL
  6
CONTINUOUS
 62
     5
 10
-39.801938
 20
-56.551739
 30
0.0
 11
-39.693348
 21
-56.361756
 31
0.0
  0
LINE
  8
DETAIL
  6
CONTINUOUS
 62
     5
 10
-39.693348
 20
-56.361756
 30
0.0
 11
-39.563663
 21
-56.184606
 31
0.0
  0
LINE
  8
DETAIL
  6
CONTINUOUS
 62
     5
 10
-39.563663
 20
-56.184606
 30
0.0
 11
-39.41413
 21
-56.02278
 31
0.0
  0
LINE
  8
DETAIL
  6
CONTINUOUS
 62
     5
 10
-39.41413
 20
-56.02278
 30
0.0
 11
-39.24698
 21
-55.878009
 31
0.0
  0
LINE
  8
DETAIL
  6
CONTINUOUS
 62
     5
 10
-39.24698
 20
-55.878009
 30
0.0
 11
-39.064001
 21
-55.752455
 31
0.0
  0
LINE
  8
DETAIL
  6
CONTINUOUS
 62
     5
 10
-39.064001
 20
-55.752455
 30
0.0
 11
-38.867767
 21
-55.647324
 31
0.0
  0
LINE
  8
DETAIL
  6
CONTINUOUS
 62
     5
 10
-38.867767
 20
-55.647324
 30
0.0
 11
-38.660519
 21
-55.564337
 31
0.0
  0
LINE
  8
DETAIL
  6
CONTINUOUS
 62
     5
 10
-38.660519
 20
-55.564337
 30
0.0
 11
-38.445042
 21
-55.504118
 31
0.0
  0
LINE
  8
DETAIL
  6
CONTINUOUS
 62
     5
 10
-38.445042
 20
-55.504118
 30
0.0
 11
-38.22531
 21
-55.468012
 31
0.0
  0
LINE
  8
DETAIL
  6
CONTINUOUS
 62
     5
 10
-38.22531
 20
-55.468012
 30
0.0
 11
-38.0
 21
-55.455571
 31
0.0
  0
LINE
  8
DETAIL
  6
CONTINUOUS
 62
     5
 10
-38.0
 20
-55.756027
 30
0.0
 11
-38.0
 21
-55.455571
 31
0.0
  0
ARC
  8
DETAIL
  6
CONTINUOUS
 62
     5
 10
-38.0
 20
53.5
 30
0.0
 40
2.0
 50
180.0
 51
270.0
  0
LINE
  8
DETAIL
  6
CONTINUOUS
 62
     5
 10
-38.0
 20
43.243973
 30
0.0
 11
-38.22531
 21
43.231532
 31
0.0
  0
LINE
  8
DETAIL
  6
CONTINUOUS
 62
     5
 10
-38.22531
 20
43.231532
 30
0.0
 11
-38.445042
 21
43.195426
 31
0.0
  0
LINE
  8
DETAIL
  6
CONTINUOUS
 62
     5
 10
-38.445042
 20
43.195426
 30
0.0
 11
-38.660519
 21
43.135207
 31
0.0
  0
LINE
  8
DETAIL
  6
CONTINUOUS
 62
     5
 10
-38.660519
 20
43.135207
 30
0.0
 11
-38.867767
 21
43.05222
 31
0.0
  0
LINE
  8
DETAIL
  6
CONTINUOUS
 62
     5
 10
-38.867767
 20
43.05222
 30
0.0
 11
-39.064001
 21
42.947089
 31
0.0
  0
LINE
  8
DETAIL
  6
CONTINUOUS
 62
     5
 10
-39.064001
 20
42.947089
 30
0.0
 11
-39.24698
 21
42.821535
 31
0.0
  0
LINE
  8
DETAIL
  6
CONTINUOUS
 62
     5
 10
-39.24698
 20
42.821535
 30
0.0
 11
-39.41413
 21
42.676764
 31
0.0
  0
LINE
  8
DETAIL
  6
CONTINUOUS
 62
     5
 10
-39.41413
 20
42.676764
 30
0.0
 11
-39.563663
 21
42.514938
 31
0.0
  0
LINE
  8
DETAIL
  6
CONTINUOUS
 62
     5
 10
-39.563663
 20
42.514938
 30
0.0
 11
-39.693348
 21
42.337788
 31
0.0
  0
LINE
  8
DETAIL
  6
CONTINUOUS
 62
     5
 10
-39.693348
 20
42.337788
 30
0.0
 11
-39.801938
 21
42.147805
 31
0.0
  0
LINE
  8
DETAIL
  6
CONTINUOUS
 62
     5
 10
-39.801938
 20
42.147805
 30
0.0
 11
-39.887655
 21
41.947158
 31
0.0
  0
LINE
  8
DETAIL
  6
CONTINUOUS
 62
     5
 10
-39.887655
 20
41.947158
 30
0.0
 11
-39.949856
 21
41.738544
 31
0.0
  0
LINE
  8
DETAIL
  6
CONTINUOUS
 62
     5
 10
-39.949856
 20
41.738544
 30
0.0
 11
-39.98715
 21
41.525812
 31
0.0
  0
LINE
  8
DETAIL
  6
CONTINUOUS
 62
     5
 10
-39.98715
 20
41.525812
 30
0.0
 11
-40.0
 21
41.307678
 31
0.0
  0
LINE
  8
DETAIL
  6
CONTINUOUS
 62
     5
 10
-40.0
 20
41.608134
 30
0.0
 11
-39.98715
 21
41.826268
 31
0.0
  0
LINE
  8
DETAIL
  6
CONTINUOUS
 62
     5
 10
-39.98715
 20
41.826268
 30
0.0
 11
-39.949856
 21
42.039
 31
0.0
  0
LINE
  8
DETAIL
  6
CONTINUOUS
 62
     5
 10
-39.949856
 20
42.039
 30
0.0
 11
-39.887655
 21
42.247614
 31
0.0
  0
LINE
  8
DETAIL
  6
CONTINUOUS
 62
     5
 10
-39.887655
 20
42.247614
 30
0.0
 11
-39.801938
 21
42.448261
 31
0.0
  0
LINE
  8
DETAIL
  6
CONTINUOUS
 62
     5
 10
-39.801938
 20
42.448261
 30
0.0
 11
-39.693348
 21
42.638244
 31
0.0
  0
LINE
  8
DETAIL
  6
CONTINUOUS
 62
     5
 10
-39.693348
 20
42.638244
 30
0.0
 11
-39.563663
 21
42.815394
 31
0.0
  0
LINE
  8
DETAIL
  6
CONTINUOUS
 62
     5
 10
-39.563663
 20
42.815394
 30
0.0
 11
-39.41413
 21
42.97722
 31
0.0
  0
LINE
  8
DETAIL
  6
CONTINUOUS
 62
     5
 10
-39.41413
 20
42.97722
 30
0.0
 11
-39.24698
 21
43.121991
 31
0.0
  0
LINE
  8
DETAIL
  6
CONTINUOUS
 62
     5
 10
-39.24698
 20
43.121991
 30
0.0
 11
-39.064001
 21
43.247545
 31
0.0
  0
LINE
  8
DETAIL
  6
CONTINUOUS
 62
     5
 10
-39.064001
 20
43.247545
 30
0.0
 11
-38.867767
 21
43.352676
 31
0.0
  0
LINE
  8
DETAIL
  6
CONTINUOUS
 62
     5
 10
-38.867767
 20
43.352676
 30
0.0
 11
-38.660519
 21
43.435663
 31
0.0
  0
LINE
  8
DETAIL
  6
CONTINUOUS
 62
     5
 10
-38.660519
 20
43.435663
 30
0.0
 11
-38.445042
 21
43.495882
 31
0.0
  0
LINE
  8
DETAIL
  6
CONTINUOUS
 62
     5
 10
-38.445042
 20
43.495882
 30
0.0
 11
-38.22531
 21
43.531988
 31
0.0
  0
LINE
  8
DETAIL
  6
CONTINUOUS
 62
     5
 10
-38.22531
 20
43.531988
 30
0.0
 11
-38.0
 21
43.544429
 31
0.0
  0
LINE
  8
DETAIL
  6
CONTINUOUS
 62
     5
 10
-38.0
 20
43.243973
 30
0.0
 11
-38.0
 21
43.544429
 31
0.0
  0
LINE
  8
DETAIL
  6
CONTINUOUS
 62
     5
 10
3.6
 20
30.511484
 30
0.0
 11
3.6
 21
-37.488516
 31
0.0
  0
LINE
  8
DETAIL
  6
CONTINUOUS
 62
     5
 10
0.4
 20
30.511484
 30
0.0
 11
0.4
 21
-37.488516
 31
0.0
  0
LINE
  8
DETAIL
  6
CONTINUOUS
 62
     5
 10
-1.4
 20
-67.488516
 30
0.0
 11
-1.4
 21
-38.488516
 31
0.0
  0
LINE
  8
DETAIL
  6
CONTINUOUS
 62
     5
 10
0.0
 20
-56.056483
 30
0.0
 11
-0.01542
 21
-55.988787
 31
0.0
  0
LINE
  8
DETAIL
  6
CONTINUOUS
 62
     5
 10
-0.01542
 20
-55.988787
 30
0.0
 11
-0.060173
 21
-55.922767
 31
0.0
  0
LINE
  8
DETAIL
  6
CONTINUOUS
 62
     5
 10
-0.060173
 20
-55.922767
 30
0.0
 11
-0.134814
 21
-55.858026
 31
0.0
  0
LINE
  8
DETAIL
  6
CONTINUOUS
 62
     5
 10
-0.134814
 20
-55.858026
 30
0.0
 11
-0.237675
 21
-55.795757
 31
0.0
  0
LINE
  8
DETAIL
  6
CONTINUOUS
 62
     5
 10
-0.237675
 20
-55.795757
 30
0.0
 11
-0.367982
 21
-55.736797
 31
0.0
  0
LINE
  8
DETAIL
  6
CONTINUOUS
 62
     5
 10
-0.367982
 20
-55.736797
 30
0.0
 11
-0.523604
 21
-55.68182
 31
0.0
  0
LINE
  8
DETAIL
  6
CONTINUOUS
 62
     5
 10
-0.523604
 20
-55.68182
 30
0.0
 11
-0.703044
 21
-55.631599
 31
0.0
  0
LINE
  8
DETAIL
  6
CONTINUOUS
 62
     5
 10
-0.703044
 20
-55.631599
 30
0.0
 11
-0.903624
 21
-55.586671
 31
0.0
  0
LINE
  8
DETAIL
  6
CONTINUOUS
 62
     5
 10
-0.903624
 20
-55.586671
 30
0.0
 11
-1.123199
 21
-55.547706
 31
0.0
  0
LINE
  8
DETAIL
  6
CONTINUOUS
 62
     5
 10
-1.123199
 20
-55.547706
 30
0.0
 11
-1.358679
 21
-55.51508
 31
0.0
  0
LINE
  8
DETAIL
  6
CONTINUOUS
 62
     5
 10
-1.358679
 20
-55.51508
 30
0.0
 11
-1.4
 21
-55.510801
 31
0.0
  0
LINE
  8
DETAIL
  6
CONTINUOUS
 62
     5
 10
0.0
 20
-63.615082
 30
0.0
 11
-1.2
 21
-63.615082
 31
0.0
  0
LINE
  8
DETAIL
  6
CONTINUOUS
 62
     5
 10
3.6
 20
-68.488516
 30
0.0
 11
-0.4
 21
-68.488516
 31
0.0
  0
ARC
  8
DETAIL
  6
CONTINUOUS
 62
     5
 10
-0.4
 20
-67.488516
 30
0.0
 40
1.0
 50
180.0
 51
270.0
  0
LINE
  8
DETAIL
  6
CONTINUOUS
 62
     5
 10
-1.4
 20
-55.891581
 30
0.0
 11
-1.36077
 21
-55.906255
 31
0.0
  0
LINE
  8
DETAIL
  6
CONTINUOUS
 62
     5
 10
-1.36077
 20
-55.906255
 30
0.0
 11
-1.291466
 21
-55.941516
 31
0.0
  0
LINE
  8
DETAIL
  6
CONTINUOUS
 62
     5
 10
-1.291466
 20
-55.941516
 30
0.0
 11
-1.240889
 21
-55.978719
 31
0.0
  0
LINE
  8
DETAIL
  6
CONTINUOUS
 62
     5
 10
-1.240889
 20
-55.978719
 30
0.0
 11
-1.210571
 21
-56.016938
 31
0.0
  0
LINE
  8
DETAIL
  6
CONTINUOUS
 62
     5
 10
-1.210571
 20
-56.016938
 30
0.0
 11
-1.2
 21
-56.056483
 31
0.0
  0
LINE
  8
DETAIL
  6
CONTINUOUS
 62
     5
 10
-1.2
 20
-68.086487
 30
0.0
 11
-1.2
 21
-56.056483
 31
0.0
  0
ARC
  8
DETAIL
  6
CONTINUOUS
 62
     5
 10
4.1
 20
-71.588516
 30
0.0
 40
0.1
 50
0.0
 51
90.0
  0
ARC
  8
DETAIL
  6
CONTINUOUS
 62
     5
 10
3.7
 20
-71.588516
 30
0.0
 40
0.1
 50
90.0
 51
180.0
  0
LINE
  8
DETAIL
  6
CONTINUOUS
 62
     5
 10
0.0
 20
-56.056483
 30
0.0
 11
0.0
 21
-68.488516
 31
0.0
  0
LINE
  8
DETAIL
  6
CONTINUOUS
 62
     5
 10
4.1
 20
-71.488516
 30
0.0
 11
3.7
 21
-71.488516
 31
0.0
  0
LINE
  8
DETAIL
  6
CONTINUOUS
 62
     5
 10
3.6
 20
-37.488516
 30
0.0
 11
-0.4
 21
-37.488516
 31
0.0
  0
ARC
  8
DETAIL
  6
CONTINUOUS
 62
     5
 10
-0.4
 20
-38.488516
 30
0.0
 40
1.0
 50
90.0
 51
180.0
  0
LINE
  8
DETAIL
  6
CONTINUOUS
 62
     5
 10
-17.4
 20
25.961484
 30
0.0
 11
-17.499999
 21
25.961484
 31
0.0
  0
LINE
  8
DETAIL
  6
CONTINUOUS
 62
     5
 10
-17.4
 20
21.061484
 30
0.0
 11
-17.499999
 21
21.061484
 31
0.0
  0
LINE
  8
DETAIL
  6
CONTINUOUS
 62
     5
 10
-17.999934
 20
21.561551
 30
0.0
 11
-17.499916
 21
21.061567
 31
0.0
  0
LINE
  8
DETAIL
  6
CONTINUOUS
 62
     5
 10
-17.499999
 20
21.061484
 30
0.0
 11
-17.499999
 21
25.961484
 31
0.0
  0
LINE
  8
DETAIL
  6
CONTINUOUS
 62
     5
 10
-18.0
 20
21.561485
 30
0.0
 11
-18.0
 21
25.461483
 31
0.0
  0
LINE
  8
DETAIL
  6
CONTINUOUS
 62
     5
 10
-17.999934
 20
25.461417
 30
0.0
 11
-17.499916
 21
25.961401
 31
0.0
  0
ARC
  8
DETAIL
  6
CONTINUOUS
 62
     5
 10
4.1
 20
27.411484
 30
0.0
 40
0.1
 50
0.0
 51
90.0
  0
ARC
  8
DETAIL
  6
CONTINUOUS
 62
     5
 10
4.1
 20
19.611484
 30
0.0
 40
0.1
 50
270.0
 51
0.0
  0
ARC
  8
DETAIL
  6
CONTINUOUS
 62
     5
 10
3.7
 20
27.411484
 30
0.0
 40
0.1
 50
90.0
 51
180.0
  0
ARC
  8
DETAIL
  6
CONTINUOUS
 62
     5
 10
3.7
 20
19.611484
 30
0.0
 40
0.1
 50
180.0
 51
270.0
  0
LINE
  8
DETAIL
  6
CONTINUOUS
 62
     5
 10
4.1
 20
27.511484
 30
0.0
 11
3.7
 21
27.511484
 31
0.0
  0
LINE
  8
DETAIL
  6
CONTINUOUS
 62
     5
 10
4.1
 20
19.511484
 30
0.0
 11
3.7
 21
19.511484
 31
0.0
  0
LINE
  8
DETAIL
  6
CONTINUOUS
 62
     5
 10
4.2
 20
27.411484
 30
0.0
 11
4.2
 21
19.611484
 31
0.0
  0
LINE
  8
DETAIL
  6
CONTINUOUS
 62
     5
 10
4.1
 20
27.511484
 30
0.0
 11
4.1
 21
19.511484
 31
0.0
  0
LINE
  8
DETAIL
  6
CONTINUOUS
 62
     5
 10
3.7
 20
19.511484
 30
0.0
 11
3.7
 21
27.511484
 31
0.0
  0
LINE
  8
DETAIL
  6
CONTINUOUS
 62
     5
 10
3.6
 20
61.511484
 30
0.0
 11
-0.4
 21
61.511484
 31
0.0
  0
LINE
  8
DETAIL
  6
CONTINUOUS
 62
     5
 10
0.0
 20
35.384918
 30
0.0
 11
-1.2
 21
35.384918
 31
0.0
  0
LINE
  8
DETAIL
  6
CONTINUOUS
 62
     5
 10
3.6
 20
30.511484
 30
0.0
 11
-0.4
 21
30.511484
 31
0.0
  0
LINE
  8
DETAIL
  6
CONTINUOUS
 62
     5
 10
0.0
 20
42.943517
 30
0.0
 11
-0.01542
 21
43.011213
 31
0.0
  0
LINE
  8
DETAIL
  6
CONTINUOUS
 62
     5
 10
-0.01542
 20
43.011213
 30
0.0
 11
-0.060173
 21
43.077233
 31
0.0
  0
LINE
  8
DETAIL
  6
CONTINUOUS
 62
     5
 10
-0.060173
 20
43.077233
 30
0.0
 11
-0.134814
 21
43.141974
 31
0.0
  0
LINE
  8
DETAIL
  6
CONTINUOUS
 62
     5
 10
-0.134814
 20
43.141974
 30
0.0
 11
-0.237675
 21
43.204243
 31
0.0
  0
LINE
  8
DETAIL
  6
CONTINUOUS
 62
     5
 10
-0.237675
 20
43.204243
 30
0.0
 11
-0.367982
 21
43.263203
 31
0.0
  0
LINE
  8
DETAIL
  6
CONTINUOUS
 62
     5
 10
-0.367982
 20
43.263203
 30
0.0
 11
-0.523604
 21
43.31818
 31
0.0
  0
LINE
  8
DETAIL
  6
CONTINUOUS
 62
     5
 10
-0.523604
 20
43.31818
 30
0.0
 11
-0.703044
 21
43.368401
 31
0.0
  0
LINE
  8
DETAIL
  6
CONTINUOUS
 62
     5
 10
-0.703044
 20
43.368401
 30
0.0
 11
-0.903624
 21
43.413329
 31
0.0
  0
LINE
  8
DETAIL
  6
CONTINUOUS
 62
     5
 10
-0.903624
 20
43.413329
 30
0.0
 11
-1.123199
 21
43.452294
 31
0.0
  0
LINE
  8
DETAIL
  6
CONTINUOUS
 62
     5
 10
-1.123199
 20
43.452294
 30
0.0
 11
-1.358679
 21
43.48492
 31
0.0
  0
LINE
  8
DETAIL
  6
CONTINUOUS
 62
     5
 10
-1.358679
 20
43.48492
 30
0.0
 11
-1.4
 21
43.489199
 31
0.0
  0
ARC
  8
DETAIL
  6
CONTINUOUS
 62
     5
 10
-0.4
 20
60.511484
 30
0.0
 40
1.0
 50
90.0
 51
180.0
  0
ARC
  8
DETAIL
  6
CONTINUOUS
 62
     5
 10
-0.4
 20
31.511484
 30
0.0
 40
1.0
 50
180.0
 51
270.0
  0
LINE
  8
DETAIL
  6
CONTINUOUS
 62
     5
 10
-1.4
 20
43.108419
 30
0.0
 11
-1.36077
 21
43.093745
 31
0.0
  0
LINE
  8
DETAIL
  6
CONTINUOUS
 62
     5
 10
-1.36077
 20
43.093745
 30
0.0
 11
-1.291466
 21
43.058484
 31
0.0
  0
LINE
  8
DETAIL
  6
CONTINUOUS
 62
     5
 10
-1.291466
 20
43.058484
 30
0.0
 11
-1.240889
 21
43.021281
 31
0.0
  0
LINE
  8
DETAIL
  6
CONTINUOUS
 62
     5
 10
-1.240889
 20
43.021281
 30
0.0
 11
-1.210571
 21
42.983062
 31
0.0
  0
LINE
  8
DETAIL
  6
CONTINUOUS
 62
     5
 10
-1.210571
 20
42.983062
 30
0.0
 11
-1.2
 21
42.943517
 31
0.0
  0
LINE
  8
DETAIL
  6
CONTINUOUS
 62
     5
 10
-1.2
 20
30.913513
 30
0.0
 11
-1.2
 21
42.943517
 31
0.0
  0
LINE
  8
DETAIL
  6
CONTINUOUS
 62
     5
 10
-1.4
 20
31.511484
 30
0.0
 11
-1.4
 21
60.511484
 31
0.0
  0
LINE
  8
DETAIL
  6
CONTINUOUS
 62
     5
 10
0.0
 20
42.943517
 30
0.0
 11
0.0
 21
30.511484
 31
0.0
  0
LINE
  8
DETAIL
  6
CONTINUOUS
 62
     5
 10
-40.0
 20
212.573898
 30
0.0
 11
-209.5
 21
212.573898
 31
0.0
  0
LINE
  8
DETAIL
  6
CONTINUOUS
 62
     5
 10
-40.0
 20
212.42367
 30
0.0
 11
-209.5
 21
212.42367
 31
0.0
  0
LINE
  8
DETAIL
  6
CONTINUOUS
 62
     5
 10
-17.4
 20
147.858352
 30
0.0
 11
-232.1
 21
147.858352
 31
0.0
  0
LINE
  8
DETAIL
  6
CONTINUOUS
 62
     5
 10
-17.4
 20
147.558352
 30
0.0
 11
-232.1
 21
147.558352
 31
0.0
  0
LINE
  8
DETAIL
  6
CONTINUOUS
 62
     5
 10
-17.4
 20
147.120984
 30
0.0
 11
-232.1
 21
147.120984
 31
0.0
  0
LINE
  8
DETAIL
  6
CONTINUOUS
 62
     5
 10
-232.1
 20
144.32854
 30
0.0
 11
-17.4
 21
144.32854
 31
0.0
  0
LINE
  8
DETAIL
  6
CONTINUOUS
 62
     5
 10
-232.1
 20
143.533895
 30
0.0
 11
-17.4
 21
143.533895
 31
0.0
  0
LINE
  8
DETAIL
  6
CONTINUOUS
 62
     5
 10
-40.0
 20
113.573898
 30
0.0
 11
-209.5
 21
113.573898
 31
0.0
  0
LINE
  8
DETAIL
  6
CONTINUOUS
 62
     5
 10
-40.0
 20
113.42367
 30
0.0
 11
-209.5
 21
113.42367
 31
0.0
  0
LINE
  8
DETAIL
  6
CONTINUOUS
 62
     5
 10
-209.5
 20
239.307678
 30
0.0
 11
-209.5
 21
152.5
 31
0.0
  0
LINE
  8
DETAIL
  6
CONTINUOUS
 62
     5
 10
-249.9
 20
228.511484
 30
0.0
 11
-249.9
 21
160.511484
 31
0.0
  0
LINE
  8
DETAIL
  6
CONTINUOUS
 62
     5
 10
-253.1
 20
228.511484
 30
0.0
 11
-253.1
 21
160.511484
 31
0.0
  0
LINE
  8
DETAIL
  6
CONTINUOUS
 62
     5
 10
-255.5
 20
178.0
 30
0.0
 11
-255.5
 21
246.120952
 31
0.0
  0
ARC
  8
DETAIL
  6
CONTINUOUS
 62
     5
 10
-249.1
 20
130.511484
 30
0.0
 40
1.0
 50
270.0
 51
0.0
  0
ARC
  8
DETAIL
  6
CONTINUOUS
 62
     5
 10
-254.7
 20
103.19997
 30
0.0
 40
0.8
 50
90.5
 51
180.0
  0
ARC
  8
DETAIL
  6
CONTINUOUS
 62
     5
 10
-254.7
 20
112.80003
 30
0.0
 40
0.8
 50
180.0
 51
269.5
  0
ARC
  8
DETAIL
  6
CONTINUOUS
 62
     5
 10
-253.6
 20
118.611484
 30
0.0
 40
0.1
 50
180.0
 51
270.0
  0
ARC
  8
DETAIL
  6
CONTINUOUS
 62
     5
 10
-253.6
 20
126.411484
 30
0.0
 40
0.1
 50
90.0
 51
180.0
  0
ARC
  8
DETAIL
  6
CONTINUOUS
 62
     5
 10
-253.2
 20
118.611484
 30
0.0
 40
0.1
 50
270.0
 51
0.0
  0
ARC
  8
DETAIL
  6
CONTINUOUS
 62
     5
 10
-253.2
 20
126.411484
 30
0.0
 40
0.1
 50
0.0
 51
90.0
  0
ARC
  8
DETAIL
  6
CONTINUOUS
 62
     5
 10
-257.175
 20
111.675
 30
0.0
 40
0.325
 50
90.0
 51
180.0
  0
ARC
  8
DETAIL
  6
CONTINUOUS
 62
     5
 10
-257.175
 20
104.325
 30
0.0
 40
0.325
 50
180.0
 51
270.0
  0
ARC
  8
DETAIL
  6
CONTINUOUS
 62
     5
 10
-256.7
 20
111.8
 30
0.0
 40
0.2
 50
0.0
 51
90.0
  0
ARC
  8
DETAIL
  6
CONTINUOUS
 62
     5
 10
-256.7
 20
104.2
 30
0.0
 40
0.2
 50
270.0
 51
0.0
  0
LINE
  8
DETAIL
  6
CONTINUOUS
 62
     5
 10
-253.6
 20
126.511484
 30
0.0
 11
-253.2
 21
126.511484
 31
0.0
  0
LINE
  8
DETAIL
  6
CONTINUOUS
 62
     5
 10
-253.6
 20
118.511484
 30
0.0
 11
-253.2
 21
118.511484
 31
0.0
  0
LINE
  8
DETAIL
  6
CONTINUOUS
 62
     5
 10
-254.706981
 20
112.000061
 30
0.0
 11
-253.1
 21
111.986037
 31
0.0
  0
LINE
  8
DETAIL
  6
CONTINUOUS
 62
     5
 10
-255.5
 20
115.0
 30
0.0
 11
-256.5
 21
115.0
 31
0.0
  0
LINE
  8
DETAIL
  6
CONTINUOUS
 62
     5
 10
-253.1
 20
113.573898
 30
0.0
 11
-255.5
 21
113.573898
 31
0.0
  0
LINE
  8
DETAIL
  6
CONTINUOUS
 62
     5
 10
-253.1
 20
113.42367
 30
0.0
 11
-255.5
 21
113.42367
 31
0.0
  0
LINE
  8
DETAIL
  6
CONTINUOUS
 62
     5
 10
-256.7
 20
112.0
 30
0.0
 11
-257.175
 21
112.0
 31
0.0
  0
LINE
  8
DETAIL
  6
CONTINUOUS
 62
     5
 10
-255.5
 20
111.110731
 30
0.0
 11
-256.5
 21
111.110731
 31
0.0
  0
LINE
  8
DETAIL
  6
CONTINUOUS
 62
     5
 10
-255.5
 20
109.999756
 30
0.0
 11
-256.5
 21
109.999756
 31
0.0
  0
LINE
  8
DETAIL
  6
CONTINUOUS
 62
     5
 10
-256.5
 20
106.000244
 30
0.0
 11
-255.5
 21
106.000244
 31
0.0
  0
LINE
  8
DETAIL
  6
CONTINUOUS
 62
     5
 10
-256.5
 20
104.889269
 30
0.0
 11
-255.5
 21
104.889269
 31
0.0
  0
LINE
  8
DETAIL
  6
CONTINUOUS
 62
     5
 10
-256.7
 20
104.0
 30
0.0
 11
-257.175
 21
104.0
 31
0.0
  0
LINE
  8
DETAIL
  6
CONTINUOUS
 62
     5
 10
-255.5
 20
101.0
 30
0.0
 11
-256.5
 21
101.0
 31
0.0
  0
LINE
  8
DETAIL
  6
CONTINUOUS
 62
     5
 10
-254.706981
 20
103.999939
 30
0.0
 11
-253.1
 21
104.013963
 31
0.0
  0
LINE
  8
DETAIL
  6
CONTINUOUS
 62
     5
 10
-253.2
 20
126.511484
 30
0.0
 11
-253.2
 21
118.511484
 31
0.0
  0
LINE
  8
DETAIL
  6
CONTINUOUS
 62
     5
 10
-253.6
 20
118.511484
 30
0.0
 11
-253.6
 21
126.511484
 31
0.0
  0
LINE
  8
DETAIL
  6
CONTINUOUS
 62
     5
 10
-253.7
 20
126.411484
 30
0.0
 11
-253.7
 21
118.611484
 31
0.0
  0
LINE
  8
DETAIL
  6
CONTINUOUS
 62
     5
 10
-254.706981
 20
103.999939
 30
0.0
 11
-254.706981
 21
112.000061
 31
0.0
  0
LINE
  8
DETAIL
  6
CONTINUOUS
 62
     5
 10
-256.5
 20
101.000558
 30
0.0
 11
-256.5
 21
114.999438
 31
0.0
  0
LINE
  8
DETAIL
  6
CONTINUOUS
 62
     5
 10
-256.7
 20
112.0
 30
0.0
 11
-256.7
 21
104.0
 31
0.0
  0
LINE
  8
DETAIL
  6
CONTINUOUS
 62
     5
 10
-257.175
 20
104.0
 30
0.0
 11
-257.175
 21
112.0
 31
0.0
  0
LINE
  8
DETAIL
  6
CONTINUOUS
 62
     5
 10
-209.5
 20
113.347341
 30
0.0
 11
-232.1
 21
113.347341
 31
0.0
  0
LINE
  8
DETAIL
  6
CONTINUOUS
 62
     5
 10
-232.1
 20
124.961484
 30
0.0
 11
-232.000001
 21
124.961484
 31
0.0
  0
LINE
  8
DETAIL
  6
CONTINUOUS
 62
     5
 10
-232.1
 20
120.061484
 30
0.0
 11
-232.000001
 21
120.061484
 31
0.0
  0
LINE
  8
DETAIL
  6
CONTINUOUS
 62
     5
 10
-231.500066
 20
124.461417
 30
0.0
 11
-232.000084
 21
124.961401
 31
0.0
  0
LINE
  8
DETAIL
  6
CONTINUOUS
 62
     5
 10
-231.5
 20
124.461483
 30
0.0
 11
-231.5
 21
120.561485
 31
0.0
  0
LINE
  8
DETAIL
  6
CONTINUOUS
 62
     5
 10
-232.000001
 20
124.961484
 30
0.0
 11
-232.000001
 21
120.061484
 31
0.0
  0
LINE
  8
DETAIL
  6
CONTINUOUS
 62
     5
 10
-231.500066
 20
120.561551
 30
0.0
 11
-232.000084
 21
120.061567
 31
0.0
  0
CIRCLE
  8
DETAIL
  6
CONTINUOUS
 62
     5
 10
-280.0
 20
140.0
 30
0.0
 40
4.0
  0
ARC
  8
DETAIL
  6
CONTINUOUS
 62
     5
 10
-249.1
 20
159.511484
 30
0.0
 40
1.0
 50
0.0
 51
90.0
  0
LINE
  8
DETAIL
  6
CONTINUOUS
 62
     5
 10
-253.1
 20
160.511484
 30
0.0
 11
-249.1
 21
160.511484
 31
0.0
  0
LINE
  8
DETAIL
  6
CONTINUOUS
 62
     5
 10
-248.1
 20
142.489199
 30
0.0
 11
-248.141321
 21
142.48492
 31
0.0
  0
LINE
  8
DETAIL
  6
CONTINUOUS
 62
     5
 10
-248.141321
 20
142.48492
 30
0.0
 11
-248.376801
 21
142.452294
 31
0.0
  0
LINE
  8
DETAIL
  6
CONTINUOUS
 62
     5
 10
-248.376801
 20
142.452294
 30
0.0
 11
-248.596376
 21
142.413329
 31
0.0
  0
LINE
  8
DETAIL
  6
CONTINUOUS
 62
     5
 10
-248.596376
 20
142.413329
 30
0.0
 11
-248.796956
 21
142.368401
 31
0.0
  0
LINE
  8
DETAIL
  6
CONTINUOUS
 62
     5
 10
-248.796956
 20
142.368401
 30
0.0
 11
-248.976396
 21
142.31818
 31
0.0
  0
LINE
  8
DETAIL
  6
CONTINUOUS
 62
     5
 10
-248.976396
 20
142.31818
 30
0.0
 11
-249.132018
 21
142.263203
 31
0.0
  0
LINE
  8
DETAIL
  6
CONTINUOUS
 62
     5
 10
-249.132018
 20
142.263203
 30
0.0
 11
-249.262325
 21
142.204243
 31
0.0
  0
LINE
  8
DETAIL
  6
CONTINUOUS
 62
     5
 10
-249.262325
 20
142.204243
 30
0.0
 11
-249.365186
 21
142.141974
 31
0.0
  0
LINE
  8
DETAIL
  6
CONTINUOUS
 62
     5
 10
-249.365186
 20
142.141974
 30
0.0
 11
-249.439827
 21
142.077233
 31
0.0
  0
LINE
  8
DETAIL
  6
CONTINUOUS
 62
     5
 10
-249.439827
 20
142.077233
 30
0.0
 11
-249.48458
 21
142.011213
 31
0.0
  0
LINE
  8
DETAIL
  6
CONTINUOUS
 62
     5
 10
-249.48458
 20
142.011213
 30
0.0
 11
-249.5
 21
141.943517
 31
0.0
  0
LINE
  8
DETAIL
  6
CONTINUOUS
 62
     5
 10
-248.1
 20
147.858352
 30
0.0
 11
-255.5
 21
147.858352
 31
0.0
  0
LINE
  8
DETAIL
  6
CONTINUOUS
 62
     5
 10
-248.1
 20
147.558352
 30
0.0
 11
-255.5
 21
147.558352
 31
0.0
  0
LINE
  8
DETAIL
  6
CONTINUOUS
 62
     5
 10
-248.1
 20
147.120984
 30
0.0
 11
-255.5
 21
147.120984
 31
0.0
  0
LINE
  8
DETAIL
  6
CONTINUOUS
 62
     5
 10
-255.5
 20
144.32854
 30
0.0
 11
-248.1
 21
144.32854
 31
0.0
  0
LINE
  8
DETAIL
  6
CONTINUOUS
 62
     5
 10
-255.5
 20
143.533895
 30
0.0
 11
-248.1
 21
143.533895
 31
0.0
  0
LINE
  8
DETAIL
  6
CONTINUOUS
 62
     5
 10
-248.3
 20
134.384918
 30
0.0
 11
-249.5
 21
134.384918
 31
0.0
  0
LINE
  8
DETAIL
  6
CONTINUOUS
 62
     5
 10
-253.1
 20
129.511484
 30
0.0
 11
-249.1
 21
129.511484
 31
0.0
  0
LINE
  8
DETAIL
  6
CONTINUOUS
 62
     5
 10
-248.1
 20
159.511484
 30
0.0
 11
-248.1
 21
130.511484
 31
0.0
  0
LINE
  8
DETAIL
  6
CONTINUOUS
 62
     5
 10
-248.3
 20
141.943517
 30
0.0
 11
-248.3
 21
129.913513
 31
0.0
  0
LINE
  8
DETAIL
  6
CONTINUOUS
 62
     5
 10
-249.5
 20
129.511484
 30
0.0
 11
-249.5
 21
141.943517
 31
0.0
  0
LINE
  8
DETAIL
  6
CONTINUOUS
 62
     5
 10
-248.3
 20
141.943517
 30
0.0
 11
-248.289429
 21
141.983062
 31
0.0
  0
LINE
  8
DETAIL
  6
CONTINUOUS
 62
     5
 10
-248.289429
 20
141.983062
 30
0.0
 11
-248.259111
 21
142.021281
 31
0.0
  0
LINE
  8
DETAIL
  6
CONTINUOUS
 62
     5
 10
-248.259111
 20
142.021281
 30
0.0
 11
-248.208534
 21
142.058484
 31
0.0
  0
LINE
  8
DETAIL
  6
CONTINUOUS
 62
     5
 10
-248.208534
 20
142.058484
 30
0.0
 11
-248.13923
 21
142.093745
 31
0.0
  0
LINE
  8
DETAIL
  6
CONTINUOUS
 62
     5
 10
-248.13923
 20
142.093745
 30
0.0
 11
-248.1
 21
142.108419
 31
0.0
  0
ARC
  8
DETAIL
  6
CONTINUOUS
 62
     5
 10
-256.7
 20
172.2
 30
0.0
 40
0.8
 50
90.0
 51
174.375
  0
ARC
  8
DETAIL
  6
CONTINUOUS
 62
     5
 10
-256.7
 20
179.8
 30
0.0
 40
0.8
 50
180.0
 51
270.0
  0
LINE
  8
DETAIL
  6
CONTINUOUS
 62
     5
 10
-256.7
 20
179.0
 30
0.0
 11
-256.5
 21
179.0
 31
0.0
  0
LINE
  8
DETAIL
  6
CONTINUOUS
 62
     5
 10
-253.75
 20
178.0
 30
0.0
 11
-256.5
 21
178.0
 31
0.0
  0
LINE
  8
DETAIL
  6
CONTINUOUS
 62
     5
 10
-253.75
 20
174.0
 30
0.0
 11
-256.5
 21
174.0
 31
0.0
  0
LINE
  8
DETAIL
  6
CONTINUOUS
 62
     5
 10
-256.7
 20
173.0
 30
0.0
 11
-256.5
 21
173.0
 31
0.0
  0
LINE
  8
DETAIL
  6
CONTINUOUS
 62
     5
 10
-253.75
 20
178.0
 30
0.0
 11
-253.75
 21
174.0
 31
0.0
  0
LINE
  8
DETAIL
  6
CONTINUOUS
 62
     5
 10
-256.5
 20
179.0
 30
0.0
 11
-256.5
 21
173.0
 31
0.0
  0
LINE
  8
DETAIL
  6
CONTINUOUS
 62
     5
 10
-256.7
 20
179.0
 30
0.0
 11
-256.7
 21
173.0
 31
0.0
  0
LINE
  8
DETAIL
  6
CONTINUOUS
 62
     5
 10
-211.5
 20
150.5
 30
0.0
 11
-232.1
 21
150.5
 31
0.0
  0
LINE
  8
DETAIL
  6
CONTINUOUS
 62
     5
 10
-211.5
 20
142.544429
 30
0.0
 11
-232.1
 21
142.544429
 31
0.0
  0
LINE
  8
DETAIL
  6
CONTINUOUS
 62
     5
 10
-211.5
 20
142.243973
 30
0.0
 11
-232.1
 21
142.243973
 31
0.0
  0
ARC
  8
DETAIL
  6
CONTINUOUS
 62
     5
 10
-211.5
 20
152.5
 30
0.0
 40
2.0
 50
270.0
 51
0.0
  0
LINE
  8
DETAIL
  6
CONTINUOUS
 62
     5
 10
-211.5
 20
142.544429
 30
0.0
 11
-211.27469
 21
142.531988
 31
0.0
  0
LINE
  8
DETAIL
  6
CONTINUOUS
 62
     5
 10
-211.27469
 20
142.531988
 30
0.0
 11
-211.054958
 21
142.495882
 31
0.0
  0
LINE
  8
DETAIL
  6
CONTINUOUS
 62
     5
 10
-211.054958
 20
142.495882
 30
0.0
 11
-210.839481
 21
142.435663
 31
0.0
  0
LINE
  8
DETAIL
  6
CONTINUOUS
 62
     5
 10
-210.839481
 20
142.435663
 30
0.0
 11
-210.632233
 21
142.352676
 31
0.0
  0
LINE
  8
DETAIL
  6
CONTINUOUS
 62
     5
 10
-210.632233
 20
142.352676
 30
0.0
 11
-210.435999
 21
142.247545
 31
0.0
  0
LINE
  8
DETAIL
  6
CONTINUOUS
 62
     5
 10
-210.435999
 20
142.247545
 30
0.0
 11
-210.25302
 21
142.121991
 31
0.0
  0
LINE
  8
DETAIL
  6
CONTINUOUS
 62
     5
 10
-210.25302
 20
142.121991
 30
0.0
 11
-210.08587
 21
141.97722
 31
0.0
  0
LINE
  8
DETAIL
  6
CONTINUOUS
 62
     5
 10
-210.08587
 20
141.97722
 30
0.0
 11
-209.936337
 21
141.815394
 31
0.0
  0
LINE
  8
DETAIL
  6
CONTINUOUS
 62
     5
 10
-209.936337
 20
141.815394
 30
0.0
 11
-209.806652
 21
141.638244
 31
0.0
  0
LINE
  8
DETAIL
  6
CONTINUOUS
 62
     5
 10
-209.806652
 20
141.638244
 30
0.0
 11
-209.698062
 21
141.448261
 31
0.0
  0
LINE
  8
DETAIL
  6
CONTINUOUS
 62
     5
 10
-209.698062
 20
141.448261
 30
0.0
 11
-209.612345
 21
141.247614
 31
0.0
  0
LINE
  8
DETAIL
  6
CONTINUOUS
 62
     5
 10
-209.612345
 20
141.247614
 30
0.0
 11
-209.550144
 21
141.039
 31
0.0
  0
LINE
  8
DETAIL
  6
CONTINUOUS
 62
     5
 10
-209.550144
 20
141.039
 30
0.0
 11
-209.51285
 21
140.826268
 31
0.0
  0
LINE
  8
DETAIL
  6
CONTINUOUS
 62
     5
 10
-209.51285
 20
140.826268
 30
0.0
 11
-209.5
 21
140.608134
 31
0.0
  0
LINE
  8
DETAIL
  6
CONTINUOUS
 62
     5
 10
-209.5
 20
140.307678
 30
0.0
 11
-209.51285
 21
140.525812
 31
0.0
  0
LINE
  8
DETAIL
  6
CONTINUOUS
 62
     5
 10
-209.51285
 20
140.525812
 30
0.0
 11
-209.550144
 21
140.738544
 31
0.0
  0
LINE
  8
DETAIL
  6
CONTINUOUS
 62
     5
 10
-209.550144
 20
140.738544
 30
0.0
 11
-209.612345
 21
140.947158
 31
0.0
  0
LINE
  8
DETAIL
  6
CONTINUOUS
 62
     5
 10
-209.612345
 20
140.947158
 30
0.0
 11
-209.698062
 21
141.147805
 31
0.0
  0
LINE
  8
DETAIL
  6
CONTINUOUS
 62
     5
 10
-209.698062
 20
141.147805
 30
0.0
 11
-209.806652
 21
141.337788
 31
0.0
  0
LINE
  8
DETAIL
  6
CONTINUOUS
 62
     5
 10
-209.806652
 20
141.337788
 30
0.0
 11
-209.936337
 21
141.514938
 31
0.0
  0
LINE
  8
DETAIL
  6
CONTINUOUS
 62
     5
 10
-209.936337
 20
141.514938
 30
0.0
 11
-210.08587
 21
141.676764
 31
0.0
  0
LINE
  8
DETAIL
  6
CONTINUOUS
 62
     5
 10
-210.08587
 20
141.676764
 30
0.0
 11
-210.25302
 21
141.821535
 31
0.0
  0
LINE
  8
DETAIL
  6
CONTINUOUS
 62
     5
 10
-210.25302
 20
141.821535
 30
0.0
 11
-210.435999
 21
141.947089
 31
0.0
  0
LINE
  8
DETAIL
  6
CONTINUOUS
 62
     5
 10
-210.435999
 20
141.947089
 30
0.0
 11
-210.632233
 21
142.05222
 31
0.0
  0
LINE
  8
DETAIL
  6
CONTINUOUS
 62
     5
 10
-210.632233
 20
142.05222
 30
0.0
 11
-210.839481
 21
142.135207
 31
0.0
  0
LINE
  8
DETAIL
  6
CONTINUOUS
 62
     5
 10
-210.839481
 20
142.135207
 30
0.0
 11
-211.054958
 21
142.195426
 31
0.0
  0
LINE
  8
DETAIL
  6
CONTINUOUS
 62
     5
 10
-211.054958
 20
142.195426
 30
0.0
 11
-211.27469
 21
142.231532
 31
0.0
  0
LINE
  8
DETAIL
  6
CONTINUOUS
 62
     5
 10
-211.27469
 20
142.231532
 30
0.0
 11
-211.5
 21
142.243973
 31
0.0
  0
LINE
  8
DETAIL
  6
CONTINUOUS
 62
     5
 10
-211.5
 20
142.544429
 30
0.0
 11
-211.5
 21
142.243973
 31
0.0
  0
LINE
  8
DETAIL
  6
CONTINUOUS
 62
     5
 10
-261.0
 20
305.0
 30
0.0
 11
-261.0
 21
262.5
 31
0.0
  0
LINE
  8
DETAIL
  6
CONTINUOUS
 62
     5
 10
-262.0
 20
305.0
 30
0.0
 11
-262.0
 21
262.5
 31
0.0
  0
LINE
  8
DETAIL
  6
CONTINUOUS
 62
     5
 10
-262.2
 20
305.0
 30
0.0
 11
-262.2
 21
262.5
 31
0.0
  0
LINE
  8
DETAIL
  6
CONTINUOUS
 62
     5
 10
-263.0
 20
305.0
 30
0.0
 11
-263.0
 21
259.0
 31
0.0
  0
CIRCLE
  8
DETAIL
  6
CONTINUOUS
 62
     5
 10
-242.6
 20
220.511484
 30
0.0
 40
3.0
  0
LINE
  8
DETAIL
  6
CONTINUOUS
 62
     5
 10
-211.5
 20
241.544429
 30
0.0
 11
-247.1
 21
241.544429
 31
0.0
  0
LINE
  8
DETAIL
  6
CONTINUOUS
 62
     5
 10
-211.5
 20
241.243973
 30
0.0
 11
-247.1
 21
241.243973
 31
0.0
  0
LINE
  8
DETAIL
  6
CONTINUOUS
 62
     5
 10
-253.1
 20
228.511484
 30
0.0
 11
-234.1
 21
228.511484
 31
0.0
  0
LINE
  8
DETAIL
  6
CONTINUOUS
 62
     5
 10
-243.8
 20
219.061484
 30
0.0
 11
-239.975528
 21
219.061484
 31
0.0
  0
LINE
  8
DETAIL
  6
CONTINUOUS
 62
     5
 10
-247.1
 20
228.511484
 30
0.0
 11
-247.1
 21
241.243973
 31
0.0
  0
LINE
  8
DETAIL
  6
CONTINUOUS
 62
     5
 10
-248.3
 20
240.943517
 30
0.0
 11
-248.3
 21
228.511484
 31
0.0
  0
LINE
  8
DETAIL
  6
CONTINUOUS
 62
     5
 10
-249.5
 20
228.511484
 30
0.0
 11
-249.5
 21
240.943517
 31
0.0
  0
ARC
  8
DETAIL
  6
CONTINUOUS
 62
     5
 10
-254.7
 20
202.19997
 30
0.0
 40
0.8
 50
90.5
 51
180.0
  0
ARC
  8
DETAIL
  6
CONTINUOUS
 62
     5
 10
-254.7
 20
211.80003
 30
0.0
 40
0.8
 50
180.0
 51
269.5
  0
ARC
  8
DETAIL
  6
CONTINUOUS
 62
     5
 10
-253.6
 20
217.611484
 30
0.0
 40
0.1
 50
180.0
 51
270.0
  0
ARC
  8
DETAIL
  6
CONTINUOUS
 62
     5
 10
-253.6
 20
225.411484
 30
0.0
 40
0.1
 50
90.0
 51
180.0
  0
ARC
  8
DETAIL
  6
CONTINUOUS
 62
     5
 10
-253.2
 20
217.611484
 30
0.0
 40
0.1
 50
270.0
 51
0.0
  0
ARC
  8
DETAIL
  6
CONTINUOUS
 62
     5
 10
-253.2
 20
225.411484
 30
0.0
 40
0.1
 50
0.0
 51
90.0
  0
ARC
  8
DETAIL
  6
CONTINUOUS
 62
     5
 10
-257.175
 20
210.675
 30
0.0
 40
0.325
 50
90.0
 51
180.0
  0
ARC
  8
DETAIL
  6
CONTINUOUS
 62
     5
 10
-257.175
 20
203.325
 30
0.0
 40
0.325
 50
180.0
 51
270.0
  0
ARC
  8
DETAIL
  6
CONTINUOUS
 62
     5
 10
-256.7
 20
210.8
 30
0.0
 40
0.2
 50
0.0
 51
90.0
  0
ARC
  8
DETAIL
  6
CONTINUOUS
 62
     5
 10
-256.7
 20
203.2
 30
0.0
 40
0.2
 50
270.0
 51
0.0
  0
LINE
  8
DETAIL
  6
CONTINUOUS
 62
     5
 10
-253.6
 20
225.511484
 30
0.0
 11
-253.2
 21
225.511484
 31
0.0
  0
LINE
  8
DETAIL
  6
CONTINUOUS
 62
     5
 10
-243.9
 20
219.486484
 30
0.0
 11
-243.8
 21
219.486484
 31
0.0
  0
LINE
  8
DETAIL
  6
CONTINUOUS
 62
     5
 10
-245.0
 20
219.061484
 30
0.0
 11
-244.5
 21
219.061484
 31
0.0
  0
LINE
  8
DETAIL
  6
CONTINUOUS
 62
     5
 10
-253.6
 20
217.511484
 30
0.0
 11
-253.2
 21
217.511484
 31
0.0
  0
LINE
  8
DETAIL
  6
CONTINUOUS
 62
     5
 10
-255.5
 20
214.0
 30
0.0
 11
-256.5
 21
214.0
 31
0.0
  0
LINE
  8
DETAIL
  6
CONTINUOUS
 62
     5
 10
-253.1
 20
212.573898
 30
0.0
 11
-255.5
 21
212.573898
 31
0.0
  0
LINE
  8
DETAIL
  6
CONTINUOUS
 62
     5
 10
-253.1
 20
212.42367
 30
0.0
 11
-255.5
 21
212.42367
 31
0.0
  0
LINE
  8
DETAIL
  6
CONTINUOUS
 62
     5
 10
-256.7
 20
211.0
 30
0.0
 11
-257.175
 21
211.0
 31
0.0
  0
LINE
  8
DETAIL
  6
CONTINUOUS
 62
     5
 10
-254.706981
 20
211.000061
 30
0.0
 11
-253.1
 21
210.986037
 31
0.0
  0
LINE
  8
DETAIL
  6
CONTINUOUS
 62
     5
 10
-255.5
 20
210.110731
 30
0.0
 11
-256.5
 21
210.110731
 31
0.0
  0
LINE
  8
DETAIL
  6
CONTINUOUS
 62
     5
 10
-255.5
 20
208.999756
 30
0.0
 11
-256.5
 21
208.999756
 31
0.0
  0
LINE
  8
DETAIL
  6
CONTINUOUS
 62
     5
 10
-256.5
 20
205.000244
 30
0.0
 11
-255.5
 21
205.000244
 31
0.0
  0
LINE
  8
DETAIL
  6
CONTINUOUS
 62
     5
 10
-256.5
 20
203.889269
 30
0.0
 11
-255.5
 21
203.889269
 31
0.0
  0
LINE
  8
DETAIL
  6
CONTINUOUS
 62
     5
 10
-256.7
 20
203.0
 30
0.0
 11
-257.175
 21
203.0
 31
0.0
  0
LINE
  8
DETAIL
  6
CONTINUOUS
 62
     5
 10
-255.5
 20
200.0
 30
0.0
 11
-256.5
 21
200.0
 31
0.0
  0
LINE
  8
DETAIL
  6
CONTINUOUS
 62
     5
 10
-254.706981
 20
202.999939
 30
0.0
 11
-253.1
 21
203.013963
 31
0.0
  0
LINE
  8
DETAIL
  6
CONTINUOUS
 62
     5
 10
-243.8
 20
223.258721
 30
0.0
 11
-243.8
 21
219.061484
 31
0.0
  0
LINE
  8
DETAIL
  6
CONTINUOUS
 62
     5
 10
-243.9
 20
223.215073
 30
0.0
 11
-243.9
 21
217.807895
 31
0.0
  0
LINE
  8
DETAIL
  6
CONTINUOUS
 62
     5
 10
-244.5
 20
218.191411
 30
0.0
 11
-244.5
 21
222.831557
 31
0.0
  0
LINE
  8
DETAIL
  6
CONTINUOUS
 62
     5
 10
-245.0
 20
222.308066
 30
0.0
 11
-245.0
 21
218.714902
 31
0.0
  0
LINE
  8
DETAIL
  6
CONTINUOUS
 62
     5
 10
-253.2
 20
225.511484
 30
0.0
 11
-253.2
 21
217.511484
 31
0.0
  0
LINE
  8
DETAIL
  6
CONTINUOUS
 62
     5
 10
-253.6
 20
217.511484
 30
0.0
 11
-253.6
 21
225.511484
 31
0.0
  0
LINE
  8
DETAIL
  6
CONTINUOUS
 62
     5
 10
-253.7
 20
225.411484
 30
0.0
 11
-253.7
 21
217.611484
 31
0.0
  0
LINE
  8
DETAIL
  6
CONTINUOUS
 62
     5
 10
-254.706981
 20
202.999939
 30
0.0
 11
-254.706981
 21
211.000061
 31
0.0
  0
LINE
  8
DETAIL
  6
CONTINUOUS
 62
     5
 10
-256.5
 20
200.000558
 30
0.0
 11
-256.5
 21
213.999438
 31
0.0
  0
LINE
  8
DETAIL
  6
CONTINUOUS
 62
     5
 10
-256.7
 20
211.0
 30
0.0
 11
-256.7
 21
203.0
 31
0.0
  0
LINE
  8
DETAIL
  6
CONTINUOUS
 62
     5
 10
-257.175
 20
203.0
 30
0.0
 11
-257.175
 21
211.0
 31
0.0
  0
LINE
  8
DETAIL
  6
CONTINUOUS
 62
     5
 10
-263.0
 20
262.5
 30
0.0
 11
-258.1
 21
262.5
 31
0.0
  0
LINE
  8
DETAIL
  6
CONTINUOUS
 62
     5
 10
-263.0
 20
259.0
 30
0.0
 11
-260.5
 21
259.0
 31
0.0
  0
LINE
  8
DETAIL
  6
CONTINUOUS
 62
     5
 10
-258.1
 20
260.0
 30
0.0
 11
-258.218154
 21
259.993985
 31
0.0
  0
LINE
  8
DETAIL
  6
CONTINUOUS
 62
     5
 10
-258.218154
 20
259.993985
 30
0.0
 11
-258.334067
 21
259.976736
 31
0.0
  0
LINE
  8
DETAIL
  6
CONTINUOUS
 62
     5
 10
-258.334067
 20
259.976736
 30
0.0
 11
-258.44828
 21
259.948108
 31
0.0
  0
LINE
  8
DETAIL
  6
CONTINUOUS
 62
     5
 10
-258.44828
 20
259.948108
 30
0.0
 11
-258.559171
 21
259.908536
 31
0.0
  0
LINE
  8
DETAIL
  6
CONTINUOUS
 62
     5
 10
-258.559171
 20
259.908536
 30
0.0
 11
-258.665626
 21
259.858201
 31
0.0
  0
LINE
  8
DETAIL
  6
CONTINUOUS
 62
     5
 10
-258.665626
 20
259.858201
 30
0.0
 11
-258.766654
 21
259.797719
 31
0.0
  0
LINE
  8
DETAIL
  6
CONTINUOUS
 62
     5
 10
-258.766654
 20
259.797719
 30
0.0
 11
-258.861128
 21
259.727458
 31
0.0
  0
LINE
  8
DETAIL
  6
CONTINUOUS
 62
     5
 10
-258.861128
 20
259.727458
 30
0.0
 11
-258.948339
 21
259.648339
 31
0.0
  0
LINE
  8
DETAIL
  6
CONTINUOUS
 62
     5
 10
-258.948339
 20
259.648339
 30
0.0
 11
-259.027458
 21
259.561128
 31
0.0
  0
LINE
  8
DETAIL
  6
CONTINUOUS
 62
     5
 10
-259.027458
 20
259.561128
 30
0.0
 11
-259.097719
 21
259.466654
 31
0.0
  0
LINE
  8
DETAIL
  6
CONTINUOUS
 62
     5
 10
-259.097719
 20
259.466654
 30
0.0
 11
-259.158201
 21
259.365626
 31
0.0
  0
LINE
  8
DETAIL
  6
CONTINUOUS
 62
     5
 10
-259.158201
 20
259.365626
 30
0.0
 11
-259.208536
 21
259.259171
 31
0.0
  0
LINE
  8
DETAIL
  6
CONTINUOUS
 62
     5
 10
-259.208536
 20
259.259171
 30
0.0
 11
-259.248108
 21
259.14828
 31
0.0
  0
LINE
  8
DETAIL
  6
CONTINUOUS
 62
     5
 10
-259.248108
 20
259.14828
 30
0.0
 11
-259.276736
 21
259.034067
 31
0.0
  0
LINE
  8
DETAIL
  6
CONTINUOUS
 62
     5
 10
-259.276736
 20
259.034067
 30
0.0
 11
-259.293985
 21
258.918154
 31
0.0
  0
LINE
  8
DETAIL
  6
CONTINUOUS
 62
     5
 10
-259.293985
 20
258.918154
 30
0.0
 11
-259.3
 21
258.8
 31
0.0
  0
LINE
  8
DETAIL
  6
CONTINUOUS
 62
     5
 10
-259.3
 20
248.0
 30
0.0
 11
-260.5
 21
248.0
 31
0.0
  0
LINE
  8
DETAIL
  6
CONTINUOUS
 62
     5
 10
-247.1
 20
241.544429
 30
0.0
 11
-247.370373
 21
241.540568
 31
0.0
  0
LINE
  8
DETAIL
  6
CONTINUOUS
 62
     5
 10
-247.370373
 20
241.540568
 30
0.0
 11
-247.63405
 21
241.529363
 31
0.0
  0
LINE
  8
DETAIL
  6
CONTINUOUS
 62
     5
 10
-247.63405
 20
241.529363
 30
0.0
 11
-247.892623
 21
241.510674
 31
0.0
  0
LINE
  8
DETAIL
  6
CONTINUOUS
 62
     5
 10
-247.892623
 20
241.510674
 30
0.0
 11
-248.141321
 21
241.48492
 31
0.0
  0
LINE
  8
DETAIL
  6
CONTINUOUS
 62
     5
 10
-248.141321
 20
241.48492
 30
0.0
 11
-248.376801
 21
241.452294
 31
0.0
  0
LINE
  8
DETAIL
  6
CONTINUOUS
 62
     5
 10
-248.376801
 20
241.452294
 30
0.0
 11
-248.596376
 21
241.413329
 31
0.0
  0
LINE
  8
DETAIL
  6
CONTINUOUS
 62
     5
 10
-248.596376
 20
241.413329
 30
0.0
 11
-248.796956
 21
241.368401
 31
0.0
  0
LINE
  8
DETAIL
  6
CONTINUOUS
 62
     5
 10
-248.796956
 20
241.368401
 30
0.0
 11
-248.976396
 21
241.31818
 31
0.0
  0
LINE
  8
DETAIL
  6
CONTINUOUS
 62
     5
 10
-248.976396
 20
241.31818
 30
0.0
 11
-249.132018
 21
241.263203
 31
0.0
  0
LINE
  8
DETAIL
  6
CONTINUOUS
 62
     5
 10
-249.132018
 20
241.263203
 30
0.0
 11
-249.262325
 21
241.204243
 31
0.0
  0
LINE
  8
DETAIL
  6
CONTINUOUS
 62
     5
 10
-249.262325
 20
241.204243
 30
0.0
 11
-249.365186
 21
241.141974
 31
0.0
  0
LINE
  8
DETAIL
  6
CONTINUOUS
 62
     5
 10
-249.365186
 20
241.141974
 30
0.0
 11
-249.439827
 21
241.077233
 31
0.0
  0
LINE
  8
DETAIL
  6
CONTINUOUS
 62
     5
 10
-249.439827
 20
241.077233
 30
0.0
 11
-249.48458
 21
241.011213
 31
0.0
  0
LINE
  8
DETAIL
  6
CONTINUOUS
 62
     5
 10
-249.48458
 20
241.011213
 30
0.0
 11
-249.5
 21
240.943517
 31
0.0
  0
LINE
  8
DETAIL
  6
CONTINUOUS
 62
     5
 10
-259.5
 20
239.0
 30
0.0
 11
-257.5
 21
239.0
 31
0.0
  0
LINE
  8
DETAIL
  6
CONTINUOUS
 62
     5
 10
-260.5
 20
239.0
 30
0.0
 11
-259.5
 21
239.0
 31
0.0
  0
LINE
  8
DETAIL
  6
CONTINUOUS
 62
     5
 10
-248.3
 20
233.384918
 30
0.0
 11
-249.5
 21
233.384918
 31
0.0
  0
LINE
  8
DETAIL
  6
CONTINUOUS
 62
     5
 10
-258.1
 20
250.121093
 30
0.0
 11
-253.481072
 21
246.120984
 31
0.0
  0
LINE
  8
DETAIL
  6
CONTINUOUS
 62
     5
 10
-260.5
 20
258.8
 30
0.0
 11
-260.492426
 21
258.988863
 31
0.0
  0
LINE
  8
DETAIL
  6
CONTINUOUS
 62
     5
 10
-258.1
 20
250.121093
 30
0.0
 11
-258.1
 21
262.5
 31
0.0
  0
LINE
  8
DETAIL
  6
CONTINUOUS
 62
     5
 10
-259.3
 20
258.8
 30
0.0
 11
-259.3
 21
248.0
 31
0.0
  0
LINE
  8
DETAIL
  6
CONTINUOUS
 62
     5
 10
-259.626687
 20
248.0
 30
0.0
 11
-259.626687
 21
239.0
 31
0.0
  0
LINE
  8
DETAIL
  6
CONTINUOUS
 62
     5
 10
-260.447214
 20
248.0
 30
0.0
 11
-260.447214
 21
239.0
 31
0.0
  0
LINE
  8
DETAIL
  6
CONTINUOUS
 62
     5
 10
-260.492426
 20
258.988863
 30
0.0
 11
-260.470315
 21
259.175421
 31
0.0
  0
LINE
  8
DETAIL
  6
CONTINUOUS
 62
     5
 10
-260.470315
 20
259.175421
 30
0.0
 11
-260.433548
 21
259.36024
 31
0.0
  0
LINE
  8
DETAIL
  6
CONTINUOUS
 62
     5
 10
-260.433548
 20
259.36024
 30
0.0
 11
-260.382478
 21
259.541622
 31
0.0
  0
LINE
  8
DETAIL
  6
CONTINUOUS
 62
     5
 10
-260.382478
 20
259.541622
 30
0.0
 11
-260.31723
 21
259.718407
 31
0.0
  0
LINE
  8
DETAIL
  6
CONTINUOUS
 62
     5
 10
-260.31723
 20
259.718407
 30
0.0
 11
-260.238358
 21
259.889548
 31
0.0
  0
LINE
  8
DETAIL
  6
CONTINUOUS
 62
     5
 10
-260.238358
 20
259.889548
 30
0.0
 11
-260.146213
 21
260.053916
 31
0.0
  0
LINE
  8
DETAIL
  6
CONTINUOUS
 62
     5
 10
-260.146213
 20
260.053916
 30
0.0
 11
-260.041524
 21
260.2106
 31
0.0
  0
LINE
  8
DETAIL
  6
CONTINUOUS
 62
     5
 10
-260.041524
 20
260.2106
 30
0.0
 11
-259.924892
 21
260.358615
 31
0.0
  0
LINE
  8
DETAIL
  6
CONTINUOUS
 62
     5
 10
-259.924892
 20
260.358615
 30
0.0
 11
-259.797056
 21
260.497056
 31
0.0
  0
LINE
  8
DETAIL
  6
CONTINUOUS
 62
     5
 10
-259.797056
 20
260.497056
 30
0.0
 11
-259.658615
 21
260.624892
 31
0.0
  0
LINE
  8
DETAIL
  6
CONTINUOUS
 62
     5
 10
-259.658615
 20
260.624892
 30
0.0
 11
-259.5106
 21
260.741524
 31
0.0
  0
LINE
  8
DETAIL
  6
CONTINUOUS
 62
     5
 10
-259.5106
 20
260.741524
 30
0.0
 11
-259.353916
 21
260.846213
 31
0.0
  0
LINE
  8
DETAIL
  6
CONTINUOUS
 62
     5
 10
-259.353916
 20
260.846213
 30
0.0
 11
-259.189548
 21
260.938358
 31
0.0
  0
LINE
  8
DETAIL
  6
CONTINUOUS
 62
     5
 10
-259.189548
 20
260.938358
 30
0.0
 11
-259.018407
 21
261.01723
 31
0.0
  0
LINE
  8
DETAIL
  6
CONTINUOUS
 62
     5
 10
-259.018407
 20
261.01723
 30
0.0
 11
-258.841622
 21
261.082478
 31
0.0
  0
LINE
  8
DETAIL
  6
CONTINUOUS
 62
     5
 10
-258.841622
 20
261.082478
 30
0.0
 11
-258.66024
 21
261.133548
 31
0.0
  0
LINE
  8
DETAIL
  6
CONTINUOUS
 62
     5
 10
-258.66024
 20
261.133548
 30
0.0
 11
-258.475421
 21
261.170315
 31
0.0
  0
LINE
  8
DETAIL
  6
CONTINUOUS
 62
     5
 10
-258.475421
 20
261.170315
 30
0.0
 11
-258.288863
 21
261.192426
 31
0.0
  0
LINE
  8
DETAIL
  6
CONTINUOUS
 62
     5
 10
-258.288863
 20
261.192426
 30
0.0
 11
-258.1
 21
261.2
 31
0.0
  0
LINE
  8
DETAIL
  6
CONTINUOUS
 62
     5
 10
-248.3
 20
240.943517
 30
0.0
 11
-248.289429
 21
240.983062
 31
0.0
  0
LINE
  8
DETAIL
  6
CONTINUOUS
 62
     5
 10
-248.289429
 20
240.983062
 30
0.0
 11
-248.259111
 21
241.021281
 31
0.0
  0
LINE
  8
DETAIL
  6
CONTINUOUS
 62
     5
 10
-248.259111
 20
241.021281
 30
0.0
 11
-248.208534
 21
241.058484
 31
0.0
  0
LINE
  8
DETAIL
  6
CONTINUOUS
 62
     5
 10
-248.208534
 20
241.058484
 30
0.0
 11
-248.13923
 21
241.093745
 31
0.0
  0
LINE
  8
DETAIL
  6
CONTINUOUS
 62
     5
 10
-248.13923
 20
241.093745
 30
0.0
 11
-248.05192
 21
241.126403
 31
0.0
  0
LINE
  8
DETAIL
  6
CONTINUOUS
 62
     5
 10
-248.05192
 20
241.126403
 30
0.0
 11
-247.948528
 21
241.155972
 31
0.0
  0
LINE
  8
DETAIL
  6
CONTINUOUS
 62
     5
 10
-247.948528
 20
241.155972
 30
0.0
 11
-247.830434
 21
241.181859
 31
0.0
  0
LINE
  8
DETAIL
  6
CONTINUOUS
 62
     5
 10
-247.830434
 20
241.181859
 30
0.0
 11
-247.7
 21
241.20372
 31
0.0
  0
LINE
  8
DETAIL
  6
CONTINUOUS
 62
     5
 10
-247.7
 20
241.20372
 30
0.0
 11
-247.55917
 21
241.221072
 31
0.0
  0
LINE
  8
DETAIL
  6
CONTINUOUS
 62
     5
 10
-247.55917
 20
241.221072
 30
0.0
 11
-247.410583
 21
241.233735
 31
0.0
  0
LINE
  8
DETAIL
  6
CONTINUOUS
 62
     5
 10
-247.410583
 20
241.233735
 30
0.0
 11
-247.257937
 21
241.241327
 31
0.0
  0
LINE
  8
DETAIL
  6
CONTINUOUS
 62
     5
 10
-247.257937
 20
241.241327
 30
0.0
 11
-247.1
 21
241.243973
 31
0.0
  0
LINE
  8
DETAIL
  6
CONTINUOUS
 62
     5
 10
-209.5
 20
212.347341
 30
0.0
 11
-232.1
 21
212.347341
 31
0.0
  0
ARC
  8
DETAIL
  6
CONTINUOUS
 62
     5
 10
-234.1
 20
226.511484
 30
0.0
 40
2.0
 50
0.0
 51
90.0
  0
LINE
  8
DETAIL
  6
CONTINUOUS
 62
     5
 10
-232.1
 20
223.961484
 30
0.0
 11
-232.000001
 21
223.961484
 31
0.0
  0
LINE
  8
DETAIL
  6
CONTINUOUS
 62
     5
 10
-232.1
 20
219.061484
 30
0.0
 11
-232.000001
 21
219.061484
 31
0.0
  0
LINE
  8
DETAIL
  6
CONTINUOUS
 62
     5
 10
-231.500066
 20
223.461417
 30
0.0
 11
-232.000084
 21
223.961401
 31
0.0
  0
LINE
  8
DETAIL
  6
CONTINUOUS
 62
     5
 10
-231.5
 20
223.461483
 30
0.0
 11
-231.5
 21
219.561485
 31
0.0
  0
LINE
  8
DETAIL
  6
CONTINUOUS
 62
     5
 10
-232.000001
 20
223.961484
 30
0.0
 11
-232.000001
 21
219.061484
 31
0.0
  0
LINE
  8
DETAIL
  6
CONTINUOUS
 62
     5
 10
-231.500066
 20
219.561551
 30
0.0
 11
-232.000084
 21
219.061567
 31
0.0
  0
LINE
  8
DETAIL
  6
CONTINUOUS
 62
     5
 10
-211.5
 20
241.544429
 30
0.0
 11
-211.27469
 21
241.531988
 31
0.0
  0
LINE
  8
DETAIL
  6
CONTINUOUS
 62
     5
 10
-211.27469
 20
241.531988
 30
0.0
 11
-211.054958
 21
241.495882
 31
0.0
  0
LINE
  8
DETAIL
  6
CONTINUOUS
 62
     5
 10
-211.054958
 20
241.495882
 30
0.0
 11
-210.839481
 21
241.435663
 31
0.0
  0
LINE
  8
DETAIL
  6
CONTINUOUS
 62
     5
 10
-210.839481
 20
241.435663
 30
0.0
 11
-210.632233
 21
241.352676
 31
0.0
  0
LINE
  8
DETAIL
  6
CONTINUOUS
 62
     5
 10
-210.632233
 20
241.352676
 30
0.0
 11
-210.435999
 21
241.247545
 31
0.0
  0
LINE
  8
DETAIL
  6
CONTINUOUS
 62
     5
 10
-210.435999
 20
241.247545
 30
0.0
 11
-210.25302
 21
241.121991
 31
0.0
  0
LINE
  8
DETAIL
  6
CONTINUOUS
 62
     5
 10
-210.25302
 20
241.121991
 30
0.0
 11
-210.08587
 21
240.97722
 31
0.0
  0
LINE
  8
DETAIL
  6
CONTINUOUS
 62
     5
 10
-210.08587
 20
240.97722
 30
0.0
 11
-209.936337
 21
240.815394
 31
0.0
  0
LINE
  8
DETAIL
  6
CONTINUOUS
 62
     5
 10
-209.936337
 20
240.815394
 30
0.0
 11
-209.806652
 21
240.638244
 31
0.0
  0
LINE
  8
DETAIL
  6
CONTINUOUS
 62
     5
 10
-209.806652
 20
240.638244
 30
0.0
 11
-209.698062
 21
240.448261
 31
0.0
  0
LINE
  8
DETAIL
  6
CONTINUOUS
 62
     5
 10
-209.698062
 20
240.448261
 30
0.0
 11
-209.612345
 21
240.247614
 31
0.0
  0
LINE
  8
DETAIL
  6
CONTINUOUS
 62
     5
 10
-209.612345
 20
240.247614
 30
0.0
 11
-209.550144
 21
240.039
 31
0.0
  0
LINE
  8
DETAIL
  6
CONTINUOUS
 62
     5
 10
-209.550144
 20
240.039
 30
0.0
 11
-209.51285
 21
239.826268
 31
0.0
  0
LINE
  8
DETAIL
  6
CONTINUOUS
 62
     5
 10
-209.51285
 20
239.826268
 30
0.0
 11
-209.5
 21
239.608134
 31
0.0
  0
LINE
  8
DETAIL
  6
CONTINUOUS
 62
     5
 10
-209.5
 20
239.307678
 30
0.0
 11
-209.51285
 21
239.525812
 31
0.0
  0
LINE
  8
DETAIL
  6
CONTINUOUS
 62
     5
 10
-209.51285
 20
239.525812
 30
0.0
 11
-209.550144
 21
239.738544
 31
0.0
  0
LINE
  8
DETAIL
  6
CONTINUOUS
 62
     5
 10
-209.550144
 20
239.738544
 30
0.0
 11
-209.612345
 21
239.947158
 31
0.0
  0
LINE
  8
DETAIL
  6
CONTINUOUS
 62
     5
 10
-209.612345
 20
239.947158
 30
0.0
 11
-209.698062
 21
240.147805
 31
0.0
  0
LINE
  8
DETAIL
  6
CONTINUOUS
 62
     5
 10
-209.698062
 20
240.147805
 30
0.0
 11
-209.806652
 21
240.337788
 31
0.0
  0
LINE
  8
DETAIL
  6
CONTINUOUS
 62
     5
 10
-209.806652
 20
240.337788
 30
0.0
 11
-209.936337
 21
240.514938
 31
0.0
  0
LINE
  8
DETAIL
  6
CONTINUOUS
 62
     5
 10
-209.936337
 20
240.514938
 30
0.0
 11
-210.08587
 21
240.676764
 31
0.0
  0
LINE
  8
DETAIL
  6
CONTINUOUS
 62
     5
 10
-210.08587
 20
240.676764
 30
0.0
 11
-210.25302
 21
240.821535
 31
0.0
  0
LINE
  8
DETAIL
  6
CONTINUOUS
 62
     5
 10
-210.25302
 20
240.821535
 30
0.0
 11
-210.435999
 21
240.947089
 31
0.0
  0
LINE
  8
DETAIL
  6
CONTINUOUS
 62
     5
 10
-210.435999
 20
240.947089
 30
0.0
 11
-210.632233
 21
241.05222
 31
0.0
  0
LINE
  8
DETAIL
  6
CONTINUOUS
 62
     5
 10
-210.632233
 20
241.05222
 30
0.0
 11
-210.839481
 21
241.135207
 31
0.0
  0
LINE
  8
DETAIL
  6
CONTINUOUS
 62
     5
 10
-210.839481
 20
241.135207
 30
0.0
 11
-211.054958
 21
241.195426
 31
0.0
  0
LINE
  8
DETAIL
  6
CONTINUOUS
 62
     5
 10
-211.054958
 20
241.195426
 30
0.0
 11
-211.27469
 21
241.231532
 31
0.0
  0
LINE
  8
DETAIL
  6
CONTINUOUS
 62
     5
 10
-211.27469
 20
241.231532
 30
0.0
 11
-211.5
 21
241.243973
 31
0.0
  0
LINE
  8
DETAIL
  6
CONTINUOUS
 62
     5
 10
-211.5
 20
241.544429
 30
0.0
 11
-211.5
 21
241.243973
 31
0.0
  0
CIRCLE
  8
DETAIL
  6
CONTINUOUS
 62
     5
 10
-140.0
 20
280.0
 30
0.0
 40
4.0
  0
LINE
  8
DETAIL
  6
CONTINUOUS
 62
     5
 10
3.6
 20
228.511484
 30
0.0
 11
3.6
 21
160.511484
 31
0.0
  0
LINE
  8
DETAIL
  6
CONTINUOUS
 62
     5
 10
0.4
 20
228.511484
 30
0.0
 11
0.4
 21
160.511484
 31
0.0
  0
LINE
  8
DETAIL
  6
CONTINUOUS
 62
     5
 10
-40.0
 20
152.5
 30
0.0
 11
-40.0
 21
239.608134
 31
0.0
  0
LINE
  8
DETAIL
  6
CONTINUOUS
 62
     5
 10
-17.4
 20
150.5
 30
0.0
 11
-38.0
 21
150.5
 31
0.0
  0
LINE
  8
DETAIL
  6
CONTINUOUS
 62
     5
 10
-17.4
 20
142.544429
 30
0.0
 11
-38.0
 21
142.544429
 31
0.0
  0
LINE
  8
DETAIL
  6
CONTINUOUS
 62
     5
 10
-17.4
 20
142.243973
 30
0.0
 11
-38.0
 21
142.243973
 31
0.0
  0
LINE
  8
DETAIL
  6
CONTINUOUS
 62
     5
 10
-17.4
 20
113.347341
 30
0.0
 11
-40.0
 21
113.347341
 31
0.0
  0
ARC
  8
DETAIL
  6
CONTINUOUS
 62
     5
 10
-38.0
 20
152.5
 30
0.0
 40
2.0
 50
180.0
 51
270.0
  0
LINE
  8
DETAIL
  6
CONTINUOUS
 62
     5
 10
-38.0
 20
142.243973
 30
0.0
 11
-38.22531
 21
142.231532
 31
0.0
  0
LINE
  8
DETAIL
  6
CONTINUOUS
 62
     5
 10
-38.22531
 20
142.231532
 30
0.0
 11
-38.445042
 21
142.195426
 31
0.0
  0
LINE
  8
DETAIL
  6
CONTINUOUS
 62
     5
 10
-38.445042
 20
142.195426
 30
0.0
 11
-38.660519
 21
142.135207
 31
0.0
  0
LINE
  8
DETAIL
  6
CONTINUOUS
 62
     5
 10
-38.660519
 20
142.135207
 30
0.0
 11
-38.867767
 21
142.05222
 31
0.0
  0
LINE
  8
DETAIL
  6
CONTINUOUS
 62
     5
 10
-38.867767
 20
142.05222
 30
0.0
 11
-39.064001
 21
141.947089
 31
0.0
  0
LINE
  8
DETAIL
  6
CONTINUOUS
 62
     5
 10
-39.064001
 20
141.947089
 30
0.0
 11
-39.24698
 21
141.821535
 31
0.0
  0
LINE
  8
DETAIL
  6
CONTINUOUS
 62
     5
 10
-39.24698
 20
141.821535
 30
0.0
 11
-39.41413
 21
141.676764
 31
0.0
  0
LINE
  8
DETAIL
  6
CONTINUOUS
 62
     5
 10
-39.41413
 20
141.676764
 30
0.0
 11
-39.563663
 21
141.514938
 31
0.0
  0
LINE
  8
DETAIL
  6
CONTINUOUS
 62
     5
 10
-39.563663
 20
141.514938
 30
0.0
 11
-39.693348
 21
141.337788
 31
0.0
  0
LINE
  8
DETAIL
  6
CONTINUOUS
 62
     5
 10
-39.693348
 20
141.337788
 30
0.0
 11
-39.801938
 21
141.147805
 31
0.0
  0
LINE
  8
DETAIL
  6
CONTINUOUS
 62
     5
 10
-39.801938
 20
141.147805
 30
0.0
 11
-39.887655
 21
140.947158
 31
0.0
  0
LINE
  8
DETAIL
  6
CONTINUOUS
 62
     5
 10
-39.887655
 20
140.947158
 30
0.0
 11
-39.949856
 21
140.738544
 31
0.0
  0
LINE
  8
DETAIL
  6
CONTINUOUS
 62
     5
 10
-39.949856
 20
140.738544
 30
0.0
 11
-39.98715
 21
140.525812
 31
0.0
  0
LINE
  8
DETAIL
  6
CONTINUOUS
 62
     5
 10
-39.98715
 20
140.525812
 30
0.0
 11
-40.0
 21
140.307678
 31
0.0
  0
LINE
  8
DETAIL
  6
CONTINUOUS
 62
     5
 10
-40.0
 20
140.608134
 30
0.0
 11
-39.98715
 21
140.826268
 31
0.0
  0
LINE
  8
DETAIL
  6
CONTINUOUS
 62
     5
 10
-39.98715
 20
140.826268
 30
0.0
 11
-39.949856
 21
141.039
 31
0.0
  0
LINE
  8
DETAIL
  6
CONTINUOUS
 62
     5
 10
-39.949856
 20
141.039
 30
0.0
 11
-39.887655
 21
141.247614
 31
0.0
  0
LINE
  8
DETAIL
  6
CONTINUOUS
 62
     5
 10
-39.887655
 20
141.247614
 30
0.0
 11
-39.801938
 21
141.448261
 31
0.0
  0
LINE
  8
DETAIL
  6
CONTINUOUS
 62
     5
 10
-39.801938
 20
141.448261
 30
0.0
 11
-39.693348
 21
141.638244
 31
0.0
  0
LINE
  8
DETAIL
  6
CONTINUOUS
 62
     5
 10
-39.693348
 20
141.638244
 30
0.0
 11
-39.563663
 21
141.815394
 31
0.0
  0
LINE
  8
DETAIL
  6
CONTINUOUS
 62
     5
 10
-39.563663
 20
141.815394
 30
0.0
 11
-39.41413
 21
141.97722
 31
0.0
  0
LINE
  8
DETAIL
  6
CONTINUOUS
 62
     5
 10
-39.41413
 20
141.97722
 30
0.0
 11
-39.24698
 21
142.121991
 31
0.0
  0
LINE
  8
DETAIL
  6
CONTINUOUS
 62
     5
 10
-39.24698
 20
142.121991
 30
0.0
 11
-39.064001
 21
142.247545
 31
0.0
  0
LINE
  8
DETAIL
  6
CONTINUOUS
 62
     5
 10
-39.064001
 20
142.247545
 30
0.0
 11
-38.867767
 21
142.352676
 31
0.0
  0
LINE
  8
DETAIL
  6
CONTINUOUS
 62
     5
 10
-38.867767
 20
142.352676
 30
0.0
 11
-38.660519
 21
142.435663
 31
0.0
  0
LINE
  8
DETAIL
  6
CONTINUOUS
 62
     5
 10
-38.660519
 20
142.435663
 30
0.0
 11
-38.445042
 21
142.495882
 31
0.0
  0
LINE
  8
DETAIL
  6
CONTINUOUS
 62
     5
 10
-38.445042
 20
142.495882
 30
0.0
 11
-38.22531
 21
142.531988
 31
0.0
  0
LINE
  8
DETAIL
  6
CONTINUOUS
 62
     5
 10
-38.22531
 20
142.531988
 30
0.0
 11
-38.0
 21
142.544429
 31
0.0
  0
LINE
  8
DETAIL
  6
CONTINUOUS
 62
     5
 10
-38.0
 20
142.243973
 30
0.0
 11
-38.0
 21
142.544429
 31
0.0
  0
ARC
  8
DETAIL
  6
CONTINUOUS
 62
     5
 10
-0.4
 20
130.511484
 30
0.0
 40
1.0
 50
180.0
 51
270.0
  0
LINE
  8
DETAIL
  6
CONTINUOUS
 62
     5
 10
-17.4
 20
124.961484
 30
0.0
 11
-17.499999
 21
124.961484
 31
0.0
  0
LINE
  8
DETAIL
  6
CONTINUOUS
 62
     5
 10
-17.4
 20
120.061484
 30
0.0
 11
-17.499999
 21
120.061484
 31
0.0
  0
LINE
  8
DETAIL
  6
CONTINUOUS
 62
     5
 10
-17.999934
 20
120.561551
 30
0.0
 11
-17.499916
 21
120.061567
 31
0.0
  0
LINE
  8
DETAIL
  6
CONTINUOUS
 62
     5
 10
-17.499999
 20
120.061484
 30
0.0
 11
-17.499999
 21
124.961484
 31
0.0
  0
LINE
  8
DETAIL
  6
CONTINUOUS
 62
     5
 10
-18.0
 20
120.561485
 30
0.0
 11
-18.0
 21
124.461483
 31
0.0
  0
LINE
  8
DETAIL
  6
CONTINUOUS
 62
     5
 10
-17.999934
 20
124.461417
 30
0.0
 11
-17.499916
 21
124.961401
 31
0.0
  0
ARC
  8
DETAIL
  6
CONTINUOUS
 62
     5
 10
4.1
 20
126.411484
 30
0.0
 40
0.1
 50
0.0
 51
90.0
  0
ARC
  8
DETAIL
  6
CONTINUOUS
 62
     5
 10
4.1
 20
118.611484
 30
0.0
 40
0.1
 50
270.0
 51
0.0
  0
ARC
  8
DETAIL
  6
CONTINUOUS
 62
     5
 10
3.7
 20
126.411484
 30
0.0
 40
0.1
 50
90.0
 51
180.0
  0
ARC
  8
DETAIL
  6
CONTINUOUS
 62
     5
 10
3.7
 20
118.611484
 30
0.0
 40
0.1
 50
180.0
 51
270.0
  0
LINE
  8
DETAIL
  6
CONTINUOUS
 62
     5
 10
4.1
 20
126.511484
 30
0.0
 11
3.7
 21
126.511484
 31
0.0
  0
LINE
  8
DETAIL
  6
CONTINUOUS
 62
     5
 10
4.1
 20
118.511484
 30
0.0
 11
3.7
 21
118.511484
 31
0.0
  0
LINE
  8
DETAIL
  6
CONTINUOUS
 62
     5
 10
4.2
 20
126.411484
 30
0.0
 11
4.2
 21
118.611484
 31
0.0
  0
LINE
  8
DETAIL
  6
CONTINUOUS
 62
     5
 10
4.1
 20
126.511484
 30
0.0
 11
4.1
 21
118.511484
 31
0.0
  0
LINE
  8
DETAIL
  6
CONTINUOUS
 62
     5
 10
3.7
 20
118.511484
 30
0.0
 11
3.7
 21
126.511484
 31
0.0
  0
LINE
  8
DETAIL
  6
CONTINUOUS
 62
     5
 10
3.6
 20
160.511484
 30
0.0
 11
-0.4
 21
160.511484
 31
0.0
  0
LINE
  8
DETAIL
  6
CONTINUOUS
 62
     5
 10
0.0
 20
134.384918
 30
0.0
 11
-1.2
 21
134.384918
 31
0.0
  0
LINE
  8
DETAIL
  6
CONTINUOUS
 62
     5
 10
3.6
 20
129.511484
 30
0.0
 11
-0.4
 21
129.511484
 31
0.0
  0
LINE
  8
DETAIL
  6
CONTINUOUS
 62
     5
 10
0.0
 20
141.943517
 30
0.0
 11
-0.01542
 21
142.011213
 31
0.0
  0
LINE
  8
DETAIL
  6
CONTINUOUS
 62
     5
 10
-0.01542
 20
142.011213
 30
0.0
 11
-0.060173
 21
142.077233
 31
0.0
  0
LINE
  8
DETAIL
  6
CONTINUOUS
 62
     5
 10
-0.060173
 20
142.077233
 30
0.0
 11
-0.134814
 21
142.141974
 31
0.0
  0
LINE
  8
DETAIL
  6
CONTINUOUS
 62
     5
 10
-0.134814
 20
142.141974
 30
0.0
 11
-0.237675
 21
142.204243
 31
0.0
  0
LINE
  8
DETAIL
  6
CONTINUOUS
 62
     5
 10
-0.237675
 20
142.204243
 30
0.0
 11
-0.367982
 21
142.263203
 31
0.0
  0
LINE
  8
DETAIL
  6
CONTINUOUS
 62
     5
 10
-0.367982
 20
142.263203
 30
0.0
 11
-0.523604
 21
142.31818
 31
0.0
  0
LINE
  8
DETAIL
  6
CONTINUOUS
 62
     5
 10
-0.523604
 20
142.31818
 30
0.0
 11
-0.703044
 21
142.368401
 31
0.0
  0
LINE
  8
DETAIL
  6
CONTINUOUS
 62
     5
 10
-0.703044
 20
142.368401
 30
0.0
 11
-0.903624
 21
142.413329
 31
0.0
  0
LINE
  8
DETAIL
  6
CONTINUOUS
 62
     5
 10
-0.903624
 20
142.413329
 30
0.0
 11
-1.123199
 21
142.452294
 31
0.0
  0
LINE
  8
DETAIL
  6
CONTINUOUS
 62
     5
 10
-1.123199
 20
142.452294
 30
0.0
 11
-1.358679
 21
142.48492
 31
0.0
  0
LINE
  8
DETAIL
  6
CONTINUOUS
 62
     5
 10
-1.358679
 20
142.48492
 30
0.0
 11
-1.4
 21
142.489199
 31
0.0
  0
ARC
  8
DETAIL
  6
CONTINUOUS
 62
     5
 10
-0.4
 20
159.511484
 30
0.0
 40
1.0
 50
90.0
 51
180.0
  0
LINE
  8
DETAIL
  6
CONTINUOUS
 62
     5
 10
-1.4
 20
142.108419
 30
0.0
 11
-1.36077
 21
142.093745
 31
0.0
  0
LINE
  8
DETAIL
  6
CONTINUOUS
 62
     5
 10
-1.36077
 20
142.093745
 30
0.0
 11
-1.291466
 21
142.058484
 31
0.0
  0
LINE
  8
DETAIL
  6
CONTINUOUS
 62
     5
 10
-1.291466
 20
142.058484
 30
0.0
 11
-1.240889
 21
142.021281
 31
0.0
  0
LINE
  8
DETAIL
  6
CONTINUOUS
 62
     5
 10
-1.240889
 20
142.021281
 30
0.0
 11
-1.210571
 21
141.983062
 31
0.0
  0
LINE
  8
DETAIL
  6
CONTINUOUS
 62
     5
 10
-1.210571
 20
141.983062
 30
0.0
 11
-1.2
 21
141.943517
 31
0.0
  0
LINE
  8
DETAIL
  6
CONTINUOUS
 62
     5
 10
-1.2
 20
129.913513
 30
0.0
 11
-1.2
 21
141.943517
 31
0.0
  0
LINE
  8
DETAIL
  6
CONTINUOUS
 62
     5
 10
-1.4
 20
130.511484
 30
0.0
 11
-1.4
 21
159.511484
 31
0.0
  0
LINE
  8
DETAIL
  6
CONTINUOUS
 62
     5
 10
0.0
 20
141.943517
 30
0.0
 11
0.0
 21
129.511484
 31
0.0
  0
LINE
  8
DETAIL
  6
CONTINUOUS
 62
     5
 10
-2.4
 20
241.544429
 30
0.0
 11
-38.0
 21
241.544429
 31
0.0
  0
LINE
  8
DETAIL
  6
CONTINUOUS
 62
     5
 10
-2.4
 20
241.243973
 30
0.0
 11
-38.0
 21
241.243973
 31
0.0
  0
LINE
  8
DETAIL
  6
CONTINUOUS
 62
     5
 10
-17.4
 20
212.347341
 30
0.0
 11
-40.0
 21
212.347341
 31
0.0
  0
LINE
  8
DETAIL
  6
CONTINUOUS
 62
     5
 10
-38.0
 20
241.243973
 30
0.0
 11
-38.22531
 21
241.231532
 31
0.0
  0
LINE
  8
DETAIL
  6
CONTINUOUS
 62
     5
 10
-38.22531
 20
241.231532
 30
0.0
 11
-38.445042
 21
241.195426
 31
0.0
  0
LINE
  8
DETAIL
  6
CONTINUOUS
 62
     5
 10
-38.445042
 20
241.195426
 30
0.0
 11
-38.660519
 21
241.135207
 31
0.0
  0
LINE
  8
DETAIL
  6
CONTINUOUS
 62
     5
 10
-38.660519
 20
241.135207
 30
0.0
 11
-38.867767
 21
241.05222
 31
0.0
  0
LINE
  8
DETAIL
  6
CONTINUOUS
 62
     5
 10
-38.867767
 20
241.05222
 30
0.0
 11
-39.064001
 21
240.947089
 31
0.0
  0
LINE
  8
DETAIL
  6
CONTINUOUS
 62
     5
 10
-39.064001
 20
240.947089
 30
0.0
 11
-39.24698
 21
240.821535
 31
0.0
  0
LINE
  8
DETAIL
  6
CONTINUOUS
 62
     5
 10
-39.24698
 20
240.821535
 30
0.0
 11
-39.41413
 21
240.676764
 31
0.0
  0
LINE
  8
DETAIL
  6
CONTINUOUS
 62
     5
 10
-39.41413
 20
240.676764
 30
0.0
 11
-39.563663
 21
240.514938
 31
0.0
  0
LINE
  8
DETAIL
  6
CONTINUOUS
 62
     5
 10
-39.563663
 20
240.514938
 30
0.0
 11
-39.693348
 21
240.337788
 31
0.0
  0
LINE
  8
DETAIL
  6
CONTINUOUS
 62
     5
 10
-39.693348
 20
240.337788
 30
0.0
 11
-39.801938
 21
240.147805
 31
0.0
  0
LINE
  8
DETAIL
  6
CONTINUOUS
 62
     5
 10
-39.801938
 20
240.147805
 30
0.0
 11
-39.887655
 21
239.947158
 31
0.0
  0
LINE
  8
DETAIL
  6
CONTINUOUS
 62
     5
 10
-39.887655
 20
239.947158
 30
0.0
 11
-39.949856
 21
239.738544
 31
0.0
  0
LINE
  8
DETAIL
  6
CONTINUOUS
 62
     5
 10
-39.949856
 20
239.738544
 30
0.0
 11
-39.98715
 21
239.525812
 31
0.0
  0
LINE
  8
DETAIL
  6
CONTINUOUS
 62
     5
 10
-39.98715
 20
239.525812
 30
0.0
 11
-40.0
 21
239.307678
 31
0.0
  0
LINE
  8
DETAIL
  6
CONTINUOUS
 62
     5
 10
-40.0
 20
239.608134
 30
0.0
 11
-39.98715
 21
239.826268
 31
0.0
  0
LINE
  8
DETAIL
  6
CONTINUOUS
 62
     5
 10
-39.98715
 20
239.826268
 30
0.0
 11
-39.949856
 21
240.039
 31
0.0
  0
LINE
  8
DETAIL
  6
CONTINUOUS
 62
     5
 10
-39.949856
 20
240.039
 30
0.0
 11
-39.887655
 21
240.247614
 31
0.0
  0
LINE
  8
DETAIL
  6
CONTINUOUS
 62
     5
 10
-39.887655
 20
240.247614
 30
0.0
 11
-39.801938
 21
240.448261
 31
0.0
  0
LINE
  8
DETAIL
  6
CONTINUOUS
 62
     5
 10
-39.801938
 20
240.448261
 30
0.0
 11
-39.693348
 21
240.638244
 31
0.0
  0
LINE
  8
DETAIL
  6
CONTINUOUS
 62
     5
 10
-39.693348
 20
240.638244
 30
0.0
 11
-39.563663
 21
240.815394
 31
0.0
  0
LINE
  8
DETAIL
  6
CONTINUOUS
 62
     5
 10
-39.563663
 20
240.815394
 30
0.0
 11
-39.41413
 21
240.97722
 31
0.0
  0
LINE
  8
DETAIL
  6
CONTINUOUS
 62
     5
 10
-39.41413
 20
240.97722
 30
0.0
 11
-39.24698
 21
241.121991
 31
0.0
  0
LINE
  8
DETAIL
  6
CONTINUOUS
 62
     5
 10
-39.24698
 20
241.121991
 30
0.0
 11
-39.064001
 21
241.247545
 31
0.0
  0
LINE
  8
DETAIL
  6
CONTINUOUS
 62
     5
 10
-39.064001
 20
241.247545
 30
0.0
 11
-38.867767
 21
241.352676
 31
0.0
  0
LINE
  8
DETAIL
  6
CONTINUOUS
 62
     5
 10
-38.867767
 20
241.352676
 30
0.0
 11
-38.660519
 21
241.435663
 31
0.0
  0
LINE
  8
DETAIL
  6
CONTINUOUS
 62
     5
 10
-38.660519
 20
241.435663
 30
0.0
 11
-38.445042
 21
241.495882
 31
0.0
  0
LINE
  8
DETAIL
  6
CONTINUOUS
 62
     5
 10
-38.445042
 20
241.495882
 30
0.0
 11
-38.22531
 21
241.531988
 31
0.0
  0
LINE
  8
DETAIL
  6
CONTINUOUS
 62
     5
 10
-38.22531
 20
241.531988
 30
0.0
 11
-38.0
 21
241.544429
 31
0.0
  0
LINE
  8
DETAIL
  6
CONTINUOUS
 62
     5
 10
-38.0
 20
241.243973
 30
0.0
 11
-38.0
 21
241.544429
 31
0.0
  0
LINE
  8
DETAIL
  6
CONTINUOUS
 62
     5
 10
0.0
 20
240.943517
 30
0.0
 11
0.0
 21
228.511484
 31
0.0
  0
LINE
  8
DETAIL
  6
CONTINUOUS
 62
     5
 10
-1.2
 20
228.511484
 30
0.0
 11
-1.2
 21
240.943517
 31
0.0
  0
LINE
  8
DETAIL
  6
CONTINUOUS
 62
     5
 10
-2.4
 20
241.243973
 30
0.0
 11
-2.4
 21
228.511484
 31
0.0
  0
LINE
  8
DETAIL
  6
CONTINUOUS
 62
     5
 10
-15.4
 20
228.511484
 30
0.0
 11
3.6
 21
228.511484
 31
0.0
  0
CIRCLE
  8
DETAIL
  6
CONTINUOUS
 62
     5
 10
-6.9
 20
220.511484
 30
0.0
 40
3.0
  0
ARC
  8
DETAIL
  6
CONTINUOUS
 62
     5
 10
-15.4
 20
226.511484
 30
0.0
 40
2.0
 50
90.0
 51
180.0
  0
LINE
  8
DETAIL
  6
CONTINUOUS
 62
     5
 10
-17.4
 20
223.961484
 30
0.0
 11
-17.499999
 21
223.961484
 31
0.0
  0
LINE
  8
DETAIL
  6
CONTINUOUS
 62
     5
 10
-5.6
 20
219.486484
 30
0.0
 11
-5.7
 21
219.486484
 31
0.0
  0
LINE
  8
DETAIL
  6
CONTINUOUS
 62
     5
 10
-17.4
 20
219.061484
 30
0.0
 11
-17.499999
 21
219.061484
 31
0.0
  0
LINE
  8
DETAIL
  6
CONTINUOUS
 62
     5
 10
-5.7
 20
219.061484
 30
0.0
 11
-9.524492
 21
219.061484
 31
0.0
  0
LINE
  8
DETAIL
  6
CONTINUOUS
 62
     5
 10
-4.5
 20
219.061484
 30
0.0
 11
-5.0
 21
219.061484
 31
0.0
  0
LINE
  8
DETAIL
  6
CONTINUOUS
 62
     5
 10
-17.999934
 20
219.561551
 30
0.0
 11
-17.499916
 21
219.061567
 31
0.0
  0
LINE
  8
DETAIL
  6
CONTINUOUS
 62
     5
 10
-4.5
 20
218.714891
 30
0.0
 11
-4.5
 21
222.308077
 31
0.0
  0
LINE
  8
DETAIL
  6
CONTINUOUS
 62
     5
 10
-5.0
 20
222.831527
 30
0.0
 11
-5.0
 21
218.191441
 31
0.0
  0
LINE
  8
DETAIL
  6
CONTINUOUS
 62
     5
 10
-5.6
 20
217.807857
 30
0.0
 11
-5.6
 21
223.215111
 31
0.0
  0
LINE
  8
DETAIL
  6
CONTINUOUS
 62
     5
 10
-5.7
 20
219.061484
 30
0.0
 11
-5.7
 21
223.258721
 31
0.0
  0
LINE
  8
DETAIL
  6
CONTINUOUS
 62
     5
 10
-17.499999
 20
219.061484
 30
0.0
 11
-17.499999
 21
223.961484
 31
0.0
  0
LINE
  8
DETAIL
  6
CONTINUOUS
 62
     5
 10
-18.0
 20
219.561485
 30
0.0
 11
-18.0
 21
223.461483
 31
0.0
  0
LINE
  8
DETAIL
  6
CONTINUOUS
 62
     5
 10
-17.999934
 20
223.461417
 30
0.0
 11
-17.499916
 21
223.961401
 31
0.0
  0
ARC
  8
DETAIL
  6
CONTINUOUS
 62
     5
 10
4.1
 20
225.411484
 30
0.0
 40
0.1
 50
0.0
 51
90.0
  0
ARC
  8
DETAIL
  6
CONTINUOUS
 62
     5
 10
4.1
 20
217.611484
 30
0.0
 40
0.1
 50
270.0
 51
0.0
  0
ARC
  8
DETAIL
  6
CONTINUOUS
 62
     5
 10
3.7
 20
225.411484
 30
0.0
 40
0.1
 50
90.0
 51
180.0
  0
ARC
  8
DETAIL
  6
CONTINUOUS
 62
     5
 10
3.7
 20
217.611484
 30
0.0
 40
0.1
 50
180.0
 51
270.0
  0
LINE
  8
DETAIL
  6
CONTINUOUS
 62
     5
 10
4.1
 20
225.511484
 30
0.0
 11
3.7
 21
225.511484
 31
0.0
  0
LINE
  8
DETAIL
  6
CONTINUOUS
 62
     5
 10
4.1
 20
217.511484
 30
0.0
 11
3.7
 21
217.511484
 31
0.0
  0
LINE
  8
DETAIL
  6
CONTINUOUS
 62
     5
 10
4.2
 20
225.411484
 30
0.0
 11
4.2
 21
217.611484
 31
0.0
  0
LINE
  8
DETAIL
  6
CONTINUOUS
 62
     5
 10
4.1
 20
225.511484
 30
0.0
 11
4.1
 21
217.511484
 31
0.0
  0
LINE
  8
DETAIL
  6
CONTINUOUS
 62
     5
 10
3.7
 20
217.511484
 30
0.0
 11
3.7
 21
225.511484
 31
0.0
  0
LINE
  8
DETAIL
  6
CONTINUOUS
 62
     5
 10
0.0
 20
233.384918
 30
0.0
 11
-1.2
 21
233.384918
 31
0.0
  0
LINE
  8
DETAIL
  6
CONTINUOUS
 62
     5
 10
0.0
 20
240.943517
 30
0.0
 11
-0.01542
 21
241.011213
 31
0.0
  0
LINE
  8
DETAIL
  6
CONTINUOUS
 62
     5
 10
-0.01542
 20
241.011213
 30
0.0
 11
-0.060173
 21
241.077233
 31
0.0
  0
LINE
  8
DETAIL
  6
CONTINUOUS
 62
     5
 10
-0.060173
 20
241.077233
 30
0.0
 11
-0.134814
 21
241.141974
 31
0.0
  0
LINE
  8
DETAIL
  6
CONTINUOUS
 62
     5
 10
-0.134814
 20
241.141974
 30
0.0
 11
-0.237675
 21
241.204243
 31
0.0
  0
LINE
  8
DETAIL
  6
CONTINUOUS
 62
     5
 10
-0.237675
 20
241.204243
 30
0.0
 11
-0.367982
 21
241.263203
 31
0.0
  0
LINE
  8
DETAIL
  6
CONTINUOUS
 62
     5
 10
-0.367982
 20
241.263203
 30
0.0
 11
-0.523604
 21
241.31818
 31
0.0
  0
LINE
  8
DETAIL
  6
CONTINUOUS
 62
     5
 10
-0.523604
 20
241.31818
 30
0.0
 11
-0.703044
 21
241.368401
 31
0.0
  0
LINE
  8
DETAIL
  6
CONTINUOUS
 62
     5
 10
-0.703044
 20
241.368401
 30
0.0
 11
-0.903624
 21
241.413329
 31
0.0
  0
LINE
  8
DETAIL
  6
CONTINUOUS
 62
     5
 10
-0.903624
 20
241.413329
 30
0.0
 11
-1.123199
 21
241.452294
 31
0.0
  0
LINE
  8
DETAIL
  6
CONTINUOUS
 62
     5
 10
-1.123199
 20
241.452294
 30
0.0
 11
-1.358679
 21
241.48492
 31
0.0
  0
LINE
  8
DETAIL
  6
CONTINUOUS
 62
     5
 10
-1.358679
 20
241.48492
 30
0.0
 11
-1.607377
 21
241.510674
 31
0.0
  0
LINE
  8
DETAIL
  6
CONTINUOUS
 62
     5
 10
-1.607377
 20
241.510674
 30
0.0
 11
-1.86595
 21
241.529363
 31
0.0
  0
LINE
  8
DETAIL
  6
CONTINUOUS
 62
     5
 10
-1.86595
 20
241.529363
 30
0.0
 11
-2.129627
 21
241.540568
 31
0.0
  0
LINE
  8
DETAIL
  6
CONTINUOUS
 62
     5
 10
-2.129627
 20
241.540568
 30
0.0
 11
-2.4
 21
241.544429
 31
0.0
  0
LINE
  8
DETAIL
  6
CONTINUOUS
 62
     5
 10
-2.4
 20
241.243973
 30
0.0
 11
-2.242063
 21
241.241327
 31
0.0
  0
LINE
  8
DETAIL
  6
CONTINUOUS
 62
     5
 10
-2.242063
 20
241.241327
 30
0.0
 11
-2.089417
 21
241.233735
 31
0.0
  0
LINE
  8
DETAIL
  6
CONTINUOUS
 62
     5
 10
-2.089417
 20
241.233735
 30
0.0
 11
-1.94083
 21
241.221072
 31
0.0
  0
LINE
  8
DETAIL
  6
CONTINUOUS
 62
     5
 10
-1.94083
 20
241.221072
 30
0.0
 11
-1.8
 21
241.20372
 31
0.0
  0
LINE
  8
DETAIL
  6
CONTINUOUS
 62
     5
 10
-1.8
 20
241.20372
 30
0.0
 11
-1.669566
 21
241.181859
 31
0.0
  0
LINE
  8
DETAIL
  6
CONTINUOUS
 62
     5
 10
-1.669566
 20
241.181859
 30
0.0
 11
-1.551472
 21
241.155972
 31
0.0
  0
LINE
  8
DETAIL
  6
CONTINUOUS
 62
     5
 10
-1.551472
 20
241.155972
 30
0.0
 11
-1.44808
 21
241.126403
 31
0.0
  0
LINE
  8
DETAIL
  6
CONTINUOUS
 62
     5
 10
-1.44808
 20
241.126403
 30
0.0
 11
-1.36077
 21
241.093745
 31
0.0
  0
LINE
  8
DETAIL
  6
CONTINUOUS
 62
     5
 10
-1.36077
 20
241.093745
 30
0.0
 11
-1.291466
 21
241.058484
 31
0.0
  0
LINE
  8
DETAIL
  6
CONTINUOUS
 62
     5
 10
-1.291466
 20
241.058484
 30
0.0
 11
-1.240889
 21
241.021281
 31
0.0
  0
LINE
  8
DETAIL
  6
CONTINUOUS
 62
     5
 10
-1.240889
 20
241.021281
 30
0.0
 11
-1.210571
 21
240.983062
 31
0.0
  0
LINE
  8
DETAIL
  6
CONTINUOUS
 62
     5
 10
-1.210571
 20
240.983062
 30
0.0
 11
-1.2
 21
240.943517
 31
0.0
  0
LINE
  8
DETAIL
  6
CONTINUOUS
 62
     5
 10
255.5
 20
-20.0
 30
0.0
 11
255.5
 21
174.0
 31
0.0
  0
LINE
  8
DETAIL
  6
CONTINUOUS
 62
     5
 10
253.1
 20
129.511484
 30
0.0
 11
253.1
 21
61.511484
 31
0.0
  0
LINE
  8
DETAIL
  6
CONTINUOUS
 62
     5
 10
249.9
 20
129.511484
 30
0.0
 11
249.9
 21
61.511484
 31
0.0
  0
LINE
  8
DETAIL
  6
CONTINUOUS
 62
     5
 10
209.5
 20
53.5
 30
0.0
 11
209.5
 21
140.608134
 31
0.0
  0
LINE
  8
DETAIL
  6
CONTINUOUS
 62
     5
 10
209.5
 20
-144.5
 30
0.0
 11
209.5
 21
-57.391866
 31
0.0
  0
LINE
  8
DETAIL
  6
CONTINUOUS
 62
     5
 10
143.17972
 20
-206.92028
 30
0.0
 11
146.22028
 21
-203.87972
 31
0.0
  0
LINE
  8
DETAIL
  6
CONTINUOUS
 62
     5
 10
146.22028
 20
-206.92028
 30
0.0
 11
143.17972
 21
-203.87972
 31
0.0
  0
LINE
  8
DETAIL
  6
CONTINUOUS
 62
     5
 10
209.5
 20
-183.426102
 30
0.0
 11
160.167779
 21
-183.426102
 31
0.0
  0
LINE
  8
DETAIL
  6
CONTINUOUS
 62
     5
 10
209.5
 20
-183.57633
 30
0.0
 11
160.270012
 21
-183.57633
 31
0.0
  0
ARC
  8
DETAIL
  6
CONTINUOUS
 62
     5
 10
158.9
 20
-184.4
 30
0.0
 40
1.6
 50
0.0
 51
90.0
  0
ARC
  8
DETAIL
  6
CONTINUOUS
 62
     5
 10
158.7
 20
-196.1
 30
0.0
 40
1.0
 50
270.0
 51
0.0
  0
ARC
  8
DETAIL
  6
CONTINUOUS
 62
     5
 10
158.9
 20
-184.4
 30
0.0
 40
0.8
 50
0.0
 51
35.549308
  0
LINE
  8
DETAIL
  6
CONTINUOUS
 62
     5
 10
160.5
 20
-184.4
 30
0.0
 11
160.5
 21
-197.1
 31
0.0
  0
LINE
  8
DETAIL
  6
CONTINUOUS
 62
     5
 10
159.7
 20
-197.1
 30
0.0
 11
159.7
 21
-196.1
 31
0.0
  0
LINE
  8
DETAIL
  6
CONTINUOUS
 62
     5
 10
159.7
 20
-184.4
 30
0.0
 11
159.7
 21
-196.1
 31
0.0
  0
LINE
  8
DETAIL
  6
CONTINUOUS
 62
     5
 10
159.585811
 20
-184.044261
 30
0.0
 11
159.7
 21
-184.4
 31
0.0
  0
LINE
  8
DETAIL
  6
CONTINUOUS
 62
     5
 10
158.9
 20
-182.8
 30
0.0
 11
158.957041
 21
-182.810025
 31
0.0
  0
LINE
  8
DETAIL
  6
CONTINUOUS
 62
     5
 10
158.957041
 20
-182.810025
 30
0.0
 11
159.014189
 21
-182.840048
 31
0.0
  0
LINE
  8
DETAIL
  6
CONTINUOUS
 62
     5
 10
159.014189
 20
-182.840048
 30
0.0
 11
159.071525
 21
-182.889887
 31
0.0
  0
LINE
  8
DETAIL
  6
CONTINUOUS
 62
     5
 10
159.071525
 20
-182.889887
 30
0.0
 11
159.128813
 21
-182.958779
 31
0.0
  0
LINE
  8
DETAIL
  6
CONTINUOUS
 62
     5
 10
159.128813
 20
-182.958779
 30
0.0
 11
159.185705
 21
-183.045226
 31
0.0
  0
LINE
  8
DETAIL
  6
CONTINUOUS
 62
     5
 10
159.185705
 20
-183.045226
 30
0.0
 11
159.242616
 21
-183.148598
 31
0.0
  0
LINE
  8
DETAIL
  6
CONTINUOUS
 62
     5
 10
159.242616
 20
-183.148598
 30
0.0
 11
159.3
 21
-183.268629
 31
0.0
  0
LINE
  8
DETAIL
  6
CONTINUOUS
 62
     5
 10
159.3
 20
-183.268629
 30
0.0
 11
159.357384
 21
-183.403008
 31
0.0
  0
LINE
  8
DETAIL
  6
CONTINUOUS
 62
     5
 10
159.357384
 20
-183.403008
 30
0.0
 11
159.414295
 21
-183.548772
 31
0.0
  0
LINE
  8
DETAIL
  6
CONTINUOUS
 62
     5
 10
159.414295
 20
-183.548772
 30
0.0
 11
159.471187
 21
-183.705103
 31
0.0
  0
LINE
  8
DETAIL
  6
CONTINUOUS
 62
     5
 10
159.471187
 20
-183.705103
 30
0.0
 11
159.528475
 21
-183.871267
 31
0.0
  0
LINE
  8
DETAIL
  6
CONTINUOUS
 62
     5
 10
159.528475
 20
-183.871267
 30
0.0
 11
159.585811
 21
-184.044261
 31
0.0
  0
LINE
  8
DETAIL
  6
CONTINUOUS
 62
     5
 10
160.5
 20
-184.4
 30
0.0
 11
159.7
 21
-184.4
 31
0.0
  0
LINE
  8
DETAIL
  6
CONTINUOUS
 62
     5
 10
159.7
 20
-196.1
 30
0.0
 11
160.5
 21
-196.1
 31
0.0
  0
LINE
  8
DETAIL
  6
CONTINUOUS
 62
     5
 10
159.7
 20
-197.1
 30
0.0
 11
160.5
 21
-197.1
 31
0.0
  0
LINE
  8
DETAIL
  6
CONTINUOUS
 62
     5
 10
232.000001
 20
-176.938516
 30
0.0
 11
232.000001
 21
-172.038516
 31
0.0
  0
LINE
  8
DETAIL
  6
CONTINUOUS
 62
     5
 10
231.5
 20
-176.438515
 30
0.0
 11
231.5
 21
-172.538517
 31
0.0
  0
LINE
  8
DETAIL
  6
CONTINUOUS
 62
     5
 10
232.1
 20
-183.652659
 30
0.0
 11
209.5
 21
-183.652659
 31
0.0
  0
LINE
  8
DETAIL
  6
CONTINUOUS
 62
     5
 10
231.500066
 20
-176.438449
 30
0.0
 11
232.000084
 21
-176.938433
 31
0.0
  0
LINE
  8
DETAIL
  6
CONTINUOUS
 62
     5
 10
232.1
 20
-176.938516
 30
0.0
 11
232.000001
 21
-176.938516
 31
0.0
  0
LINE
  8
DETAIL
  6
CONTINUOUS
 62
     5
 10
232.1
 20
-146.5
 30
0.0
 11
211.5
 21
-146.5
 31
0.0
  0
LINE
  8
DETAIL
  6
CONTINUOUS
 62
     5
 10
232.1
 20
-154.455571
 30
0.0
 11
211.5
 21
-154.455571
 31
0.0
  0
LINE
  8
DETAIL
  6
CONTINUOUS
 62
     5
 10
232.1
 20
-154.756027
 30
0.0
 11
211.5
 21
-154.756027
 31
0.0
  0
ARC
  8
DETAIL
  6
CONTINUOUS
 62
     5
 10
211.5
 20
-144.5
 30
0.0
 40
2.0
 50
180.0
 51
270.0
  0
LINE
  8
DETAIL
  6
CONTINUOUS
 62
     5
 10
209.51285
 20
-156.474188
 30
0.0
 11
209.5
 21
-156.692322
 31
0.0
  0
LINE
  8
DETAIL
  6
CONTINUOUS
 62
     5
 10
209.5
 20
-156.391866
 30
0.0
 11
209.51285
 21
-156.173732
 31
0.0
  0
LINE
  8
DETAIL
  6
CONTINUOUS
 62
     5
 10
209.51285
 20
-156.173732
 30
0.0
 11
209.550144
 21
-155.961
 31
0.0
  0
LINE
  8
DETAIL
  6
CONTINUOUS
 62
     5
 10
209.550144
 20
-155.961
 30
0.0
 11
209.612345
 21
-155.752386
 31
0.0
  0
LINE
  8
DETAIL
  6
CONTINUOUS
 62
     5
 10
209.612345
 20
-155.752386
 30
0.0
 11
209.698062
 21
-155.551739
 31
0.0
  0
LINE
  8
DETAIL
  6
CONTINUOUS
 62
     5
 10
209.698062
 20
-155.551739
 30
0.0
 11
209.806652
 21
-155.361756
 31
0.0
  0
LINE
  8
DETAIL
  6
CONTINUOUS
 62
     5
 10
209.806652
 20
-155.361756
 30
0.0
 11
209.936337
 21
-155.184606
 31
0.0
  0
LINE
  8
DETAIL
  6
CONTINUOUS
 62
     5
 10
209.936337
 20
-155.184606
 30
0.0
 11
210.08587
 21
-155.02278
 31
0.0
  0
LINE
  8
DETAIL
  6
CONTINUOUS
 62
     5
 10
210.08587
 20
-155.02278
 30
0.0
 11
210.25302
 21
-154.878009
 31
0.0
  0
LINE
  8
DETAIL
  6
CONTINUOUS
 62
     5
 10
210.25302
 20
-154.878009
 30
0.0
 11
210.435999
 21
-154.752455
 31
0.0
  0
LINE
  8
DETAIL
  6
CONTINUOUS
 62
     5
 10
210.435999
 20
-154.752455
 30
0.0
 11
210.632233
 21
-154.647324
 31
0.0
  0
LINE
  8
DETAIL
  6
CONTINUOUS
 62
     5
 10
210.632233
 20
-154.647324
 30
0.0
 11
210.839481
 21
-154.564337
 31
0.0
  0
LINE
  8
DETAIL
  6
CONTINUOUS
 62
     5
 10
210.839481
 20
-154.564337
 30
0.0
 11
211.054958
 21
-154.504118
 31
0.0
  0
LINE
  8
DETAIL
  6
CONTINUOUS
 62
     5
 10
211.054958
 20
-154.504118
 30
0.0
 11
211.27469
 21
-154.468012
 31
0.0
  0
LINE
  8
DETAIL
  6
CONTINUOUS
 62
     5
 10
211.27469
 20
-154.468012
 30
0.0
 11
211.5
 21
-154.455571
 31
0.0
  0
LINE
  8
DETAIL
  6
CONTINUOUS
 62
     5
 10
211.5
 20
-154.756027
 30
0.0
 11
211.5
 21
-154.455571
 31
0.0
  0
LINE
  8
DETAIL
  6
CONTINUOUS
 62
     5
 10
211.5
 20
-154.756027
 30
0.0
 11
211.27469
 21
-154.768468
 31
0.0
  0
LINE
  8
DETAIL
  6
CONTINUOUS
 62
     5
 10
211.27469
 20
-154.768468
 30
0.0
 11
211.054958
 21
-154.804574
 31
0.0
  0
LINE
  8
DETAIL
  6
CONTINUOUS
 62
     5
 10
211.054958
 20
-154.804574
 30
0.0
 11
210.839481
 21
-154.864793
 31
0.0
  0
LINE
  8
DETAIL
  6
CONTINUOUS
 62
     5
 10
210.839481
 20
-154.864793
 30
0.0
 11
210.632233
 21
-154.94778
 31
0.0
  0
LINE
  8
DETAIL
  6
CONTINUOUS
 62
     5
 10
210.632233
 20
-154.94778
 30
0.0
 11
210.435999
 21
-155.052911
 31
0.0
  0
LINE
  8
DETAIL
  6
CONTINUOUS
 62
     5
 10
210.435999
 20
-155.052911
 30
0.0
 11
210.25302
 21
-155.178465
 31
0.0
  0
LINE
  8
DETAIL
  6
CONTINUOUS
 62
     5
 10
210.25302
 20
-155.178465
 30
0.0
 11
210.08587
 21
-155.323236
 31
0.0
  0
LINE
  8
DETAIL
  6
CONTINUOUS
 62
     5
 10
210.08587
 20
-155.323236
 30
0.0
 11
209.936337
 21
-155.485062
 31
0.0
  0
LINE
  8
DETAIL
  6
CONTINUOUS
 62
     5
 10
209.936337
 20
-155.485062
 30
0.0
 11
209.806652
 21
-155.662212
 31
0.0
  0
LINE
  8
DETAIL
  6
CONTINUOUS
 62
     5
 10
209.806652
 20
-155.662212
 30
0.0
 11
209.698062
 21
-155.852195
 31
0.0
  0
LINE
  8
DETAIL
  6
CONTINUOUS
 62
     5
 10
209.698062
 20
-155.852195
 30
0.0
 11
209.612345
 21
-156.052842
 31
0.0
  0
LINE
  8
DETAIL
  6
CONTINUOUS
 62
     5
 10
209.612345
 20
-156.052842
 30
0.0
 11
209.550144
 21
-156.261456
 31
0.0
  0
LINE
  8
DETAIL
  6
CONTINUOUS
 62
     5
 10
209.550144
 20
-156.261456
 30
0.0
 11
209.51285
 21
-156.474188
 31
0.0
  0
LINE
  8
DETAIL
  6
CONTINUOUS
 62
     5
 10
231.500066
 20
-172.538583
 30
0.0
 11
232.000084
 21
-172.038599
 31
0.0
  0
LINE
  8
DETAIL
  6
CONTINUOUS
 62
     5
 10
232.1
 20
-172.038516
 30
0.0
 11
232.000001
 21
-172.038516
 31
0.0
  0
CIRCLE
  8
DETAIL
  6
CONTINUOUS
 62
     5
 10
236.3
 20
-116.588516
 30
0.0
 40
2.0
  0
CIRCLE
  8
DETAIL
  6
CONTINUOUS
 62
     5
 10
238.1
 20
-125.388516
 30
0.0
 40
2.0
  0
LINE
  8
DETAIL
  6
CONTINUOUS
 62
     5
 10
232.1
 20
-84.652659
 30
0.0
 11
209.5
 21
-84.652659
 31
0.0
  0
LINE
  8
DETAIL
  6
CONTINUOUS
 62
     5
 10
232.000001
 20
-77.938516
 30
0.0
 11
232.000001
 21
-73.038516
 31
0.0
  0
LINE
  8
DETAIL
  6
CONTINUOUS
 62
     5
 10
231.5
 20
-77.438515
 30
0.0
 11
231.5
 21
-73.538517
 31
0.0
  0
LINE
  8
DETAIL
  6
CONTINUOUS
 62
     5
 10
231.500066
 20
-73.538583
 30
0.0
 11
232.000084
 21
-73.038599
 31
0.0
  0
LINE
  8
DETAIL
  6
CONTINUOUS
 62
     5
 10
231.500066
 20
-77.438449
 30
0.0
 11
232.000084
 21
-77.938433
 31
0.0
  0
LINE
  8
DETAIL
  6
CONTINUOUS
 62
     5
 10
232.1
 20
-73.038516
 30
0.0
 11
232.000001
 21
-73.038516
 31
0.0
  0
LINE
  8
DETAIL
  6
CONTINUOUS
 62
     5
 10
232.1
 20
-77.938516
 30
0.0
 11
232.000001
 21
-77.938516
 31
0.0
  0
LINE
  8
DETAIL
  6
CONTINUOUS
 62
     5
 10
209.5
 20
-45.5
 30
0.0
 11
209.5
 21
41.608134
 31
0.0
  0
LINE
  8
DETAIL
  6
CONTINUOUS
 62
     5
 10
232.1
 20
-47.5
 30
0.0
 11
211.5
 21
-47.5
 31
0.0
  0
LINE
  8
DETAIL
  6
CONTINUOUS
 62
     5
 10
232.1
 20
-55.455571
 30
0.0
 11
211.5
 21
-55.455571
 31
0.0
  0
LINE
  8
DETAIL
  6
CONTINUOUS
 62
     5
 10
232.1
 20
-55.756027
 30
0.0
 11
211.5
 21
-55.756027
 31
0.0
  0
ARC
  8
DETAIL
  6
CONTINUOUS
 62
     5
 10
211.5
 20
-45.5
 30
0.0
 40
2.0
 50
180.0
 51
270.0
  0
LINE
  8
DETAIL
  6
CONTINUOUS
 62
     5
 10
209.51285
 20
-57.474188
 30
0.0
 11
209.5
 21
-57.692322
 31
0.0
  0
LINE
  8
DETAIL
  6
CONTINUOUS
 62
     5
 10
209.5
 20
-57.391866
 30
0.0
 11
209.51285
 21
-57.173732
 31
0.0
  0
LINE
  8
DETAIL
  6
CONTINUOUS
 62
     5
 10
209.51285
 20
-57.173732
 30
0.0
 11
209.550144
 21
-56.961
 31
0.0
  0
LINE
  8
DETAIL
  6
CONTINUOUS
 62
     5
 10
209.550144
 20
-56.961
 30
0.0
 11
209.612345
 21
-56.752386
 31
0.0
  0
LINE
  8
DETAIL
  6
CONTINUOUS
 62
     5
 10
209.612345
 20
-56.752386
 30
0.0
 11
209.698062
 21
-56.551739
 31
0.0
  0
LINE
  8
DETAIL
  6
CONTINUOUS
 62
     5
 10
209.698062
 20
-56.551739
 30
0.0
 11
209.806652
 21
-56.361756
 31
0.0
  0
LINE
  8
DETAIL
  6
CONTINUOUS
 62
     5
 10
209.806652
 20
-56.361756
 30
0.0
 11
209.936337
 21
-56.184606
 31
0.0
  0
LINE
  8
DETAIL
  6
CONTINUOUS
 62
     5
 10
209.936337
 20
-56.184606
 30
0.0
 11
210.08587
 21
-56.02278
 31
0.0
  0
LINE
  8
DETAIL
  6
CONTINUOUS
 62
     5
 10
210.08587
 20
-56.02278
 30
0.0
 11
210.25302
 21
-55.878009
 31
0.0
  0
LINE
  8
DETAIL
  6
CONTINUOUS
 62
     5
 10
210.25302
 20
-55.878009
 30
0.0
 11
210.435999
 21
-55.752455
 31
0.0
  0
LINE
  8
DETAIL
  6
CONTINUOUS
 62
     5
 10
210.435999
 20
-55.752455
 30
0.0
 11
210.632233
 21
-55.647324
 31
0.0
  0
LINE
  8
DETAIL
  6
CONTINUOUS
 62
     5
 10
210.632233
 20
-55.647324
 30
0.0
 11
210.839481
 21
-55.564337
 31
0.0
  0
LINE
  8
DETAIL
  6
CONTINUOUS
 62
     5
 10
210.839481
 20
-55.564337
 30
0.0
 11
211.054958
 21
-55.504118
 31
0.0
  0
LINE
  8
DETAIL
  6
CONTINUOUS
 62
     5
 10
211.054958
 20
-55.504118
 30
0.0
 11
211.27469
 21
-55.468012
 31
0.0
  0
LINE
  8
DETAIL
  6
CONTINUOUS
 62
     5
 10
211.27469
 20
-55.468012
 30
0.0
 11
211.5
 21
-55.455571
 31
0.0
  0
LINE
  8
DETAIL
  6
CONTINUOUS
 62
     5
 10
211.5
 20
-55.756027
 30
0.0
 11
211.5
 21
-55.455571
 31
0.0
  0
LINE
  8
DETAIL
  6
CONTINUOUS
 62
     5
 10
211.5
 20
-55.756027
 30
0.0
 11
211.27469
 21
-55.768468
 31
0.0
  0
LINE
  8
DETAIL
  6
CONTINUOUS
 62
     5
 10
211.27469
 20
-55.768468
 30
0.0
 11
211.054958
 21
-55.804574
 31
0.0
  0
LINE
  8
DETAIL
  6
CONTINUOUS
 62
     5
 10
211.054958
 20
-55.804574
 30
0.0
 11
210.839481
 21
-55.864793
 31
0.0
  0
LINE
  8
DETAIL
  6
CONTINUOUS
 62
     5
 10
210.839481
 20
-55.864793
 30
0.0
 11
210.632233
 21
-55.94778
 31
0.0
  0
LINE
  8
DETAIL
  6
CONTINUOUS
 62
     5
 10
210.632233
 20
-55.94778
 30
0.0
 11
210.435999
 21
-56.052911
 31
0.0
  0
LINE
  8
DETAIL
  6
CONTINUOUS
 62
     5
 10
210.435999
 20
-56.052911
 30
0.0
 11
210.25302
 21
-56.178465
 31
0.0
  0
LINE
  8
DETAIL
  6
CONTINUOUS
 62
     5
 10
210.25302
 20
-56.178465
 30
0.0
 11
210.08587
 21
-56.323236
 31
0.0
  0
LINE
  8
DETAIL
  6
CONTINUOUS
 62
     5
 10
210.08587
 20
-56.323236
 30
0.0
 11
209.936337
 21
-56.485062
 31
0.0
  0
LINE
  8
DETAIL
  6
CONTINUOUS
 62
     5
 10
209.936337
 20
-56.485062
 30
0.0
 11
209.806652
 21
-56.662212
 31
0.0
  0
LINE
  8
DETAIL
  6
CONTINUOUS
 62
     5
 10
209.806652
 20
-56.662212
 30
0.0
 11
209.698062
 21
-56.852195
 31
0.0
  0
LINE
  8
DETAIL
  6
CONTINUOUS
 62
     5
 10
209.698062
 20
-56.852195
 30
0.0
 11
209.612345
 21
-57.052842
 31
0.0
  0
LINE
  8
DETAIL
  6
CONTINUOUS
 62
     5
 10
209.612345
 20
-57.052842
 30
0.0
 11
209.550144
 21
-57.261456
 31
0.0
  0
LINE
  8
DETAIL
  6
CONTINUOUS
 62
     5
 10
209.550144
 20
-57.261456
 30
0.0
 11
209.51285
 21
-57.474188
 31
0.0
  0
LINE
  8
DETAIL
  6
CONTINUOUS
 62
     5
 10
232.1
 20
14.347341
 30
0.0
 11
209.5
 21
14.347341
 31
0.0
  0
LINE
  8
DETAIL
  6
CONTINUOUS
 62
     5
 10
232.000001
 20
21.061484
 30
0.0
 11
232.000001
 21
25.961484
 31
0.0
  0
LINE
  8
DETAIL
  6
CONTINUOUS
 62
     5
 10
231.5
 20
21.561485
 30
0.0
 11
231.5
 21
25.461483
 31
0.0
  0
LINE
  8
DETAIL
  6
CONTINUOUS
 62
     5
 10
231.500066
 20
21.561551
 30
0.0
 11
232.000084
 21
21.061567
 31
0.0
  0
LINE
  8
DETAIL
  6
CONTINUOUS
 62
     5
 10
231.500066
 20
25.461417
 30
0.0
 11
232.000084
 21
25.961401
 31
0.0
  0
LINE
  8
DETAIL
  6
CONTINUOUS
 62
     5
 10
232.1
 20
25.961484
 30
0.0
 11
232.000001
 21
25.961484
 31
0.0
  0
LINE
  8
DETAIL
  6
CONTINUOUS
 62
     5
 10
232.1
 20
21.061484
 30
0.0
 11
232.000001
 21
21.061484
 31
0.0
  0
LINE
  8
DETAIL
  6
CONTINUOUS
 62
     5
 10
232.1
 20
51.5
 30
0.0
 11
211.5
 21
51.5
 31
0.0
  0
LINE
  8
DETAIL
  6
CONTINUOUS
 62
     5
 10
232.1
 20
43.544429
 30
0.0
 11
211.5
 21
43.544429
 31
0.0
  0
LINE
  8
DETAIL
  6
CONTINUOUS
 62
     5
 10
232.1
 20
43.243973
 30
0.0
 11
211.5
 21
43.243973
 31
0.0
  0
ARC
  8
DETAIL
  6
CONTINUOUS
 62
     5
 10
211.5
 20
53.5
 30
0.0
 40
2.0
 50
180.0
 51
270.0
  0
LINE
  8
DETAIL
  6
CONTINUOUS
 62
     5
 10
209.51285
 20
41.525812
 30
0.0
 11
209.5
 21
41.307678
 31
0.0
  0
LINE
  8
DETAIL
  6
CONTINUOUS
 62
     5
 10
209.5
 20
41.608134
 30
0.0
 11
209.51285
 21
41.826268
 31
0.0
  0
LINE
  8
DETAIL
  6
CONTINUOUS
 62
     5
 10
209.51285
 20
41.826268
 30
0.0
 11
209.550144
 21
42.039
 31
0.0
  0
LINE
  8
DETAIL
  6
CONTINUOUS
 62
     5
 10
209.550144
 20
42.039
 30
0.0
 11
209.612345
 21
42.247614
 31
0.0
  0
LINE
  8
DETAIL
  6
CONTINUOUS
 62
     5
 10
209.612345
 20
42.247614
 30
0.0
 11
209.698062
 21
42.448261
 31
0.0
  0
LINE
  8
DETAIL
  6
CONTINUOUS
 62
     5
 10
209.698062
 20
42.448261
 30
0.0
 11
209.806652
 21
42.638244
 31
0.0
  0
LINE
  8
DETAIL
  6
CONTINUOUS
 62
     5
 10
209.806652
 20
42.638244
 30
0.0
 11
209.936337
 21
42.815394
 31
0.0
  0
LINE
  8
DETAIL
  6
CONTINUOUS
 62
     5
 10
209.936337
 20
42.815394
 30
0.0
 11
210.08587
 21
42.97722
 31
0.0
  0
LINE
  8
DETAIL
  6
CONTINUOUS
 62
     5
 10
210.08587
 20
42.97722
 30
0.0
 11
210.25302
 21
43.121991
 31
0.0
  0
LINE
  8
DETAIL
  6
CONTINUOUS
 62
     5
 10
210.25302
 20
43.121991
 30
0.0
 11
210.435999
 21
43.247545
 31
0.0
  0
LINE
  8
DETAIL
  6
CONTINUOUS
 62
     5
 10
210.435999
 20
43.247545
 30
0.0
 11
210.632233
 21
43.352676
 31
0.0
  0
LINE
  8
DETAIL
  6
CONTINUOUS
 62
     5
 10
210.632233
 20
43.352676
 30
0.0
 11
210.839481
 21
43.435663
 31
0.0
  0
LINE
  8
DETAIL
  6
CONTINUOUS
 62
     5
 10
210.839481
 20
43.435663
 30
0.0
 11
211.054958
 21
43.495882
 31
0.0
  0
LINE
  8
DETAIL
  6
CONTINUOUS
 62
     5
 10
211.054958
 20
43.495882
 30
0.0
 11
211.27469
 21
43.531988
 31
0.0
  0
LINE
  8
DETAIL
  6
CONTINUOUS
 62
     5
 10
211.27469
 20
43.531988
 30
0.0
 11
211.5
 21
43.544429
 31
0.0
  0
LINE
  8
DETAIL
  6
CONTINUOUS
 62
     5
 10
211.5
 20
43.243973
 30
0.0
 11
211.5
 21
43.544429
 31
0.0
  0
LINE
  8
DETAIL
  6
CONTINUOUS
 62
     5
 10
211.5
 20
43.243973
 30
0.0
 11
211.27469
 21
43.231532
 31
0.0
  0
LINE
  8
DETAIL
  6
CONTINUOUS
 62
     5
 10
211.27469
 20
43.231532
 30
0.0
 11
211.054958
 21
43.195426
 31
0.0
  0
LINE
  8
DETAIL
  6
CONTINUOUS
 62
     5
 10
211.054958
 20
43.195426
 30
0.0
 11
210.839481
 21
43.135207
 31
0.0
  0
LINE
  8
DETAIL
  6
CONTINUOUS
 62
     5
 10
210.839481
 20
43.135207
 30
0.0
 11
210.632233
 21
43.05222
 31
0.0
  0
LINE
  8
DETAIL
  6
CONTINUOUS
 62
     5
 10
210.632233
 20
43.05222
 30
0.0
 11
210.435999
 21
42.947089
 31
0.0
  0
LINE
  8
DETAIL
  6
CONTINUOUS
 62
     5
 10
210.435999
 20
42.947089
 30
0.0
 11
210.25302
 21
42.821535
 31
0.0
  0
LINE
  8
DETAIL
  6
CONTINUOUS
 62
     5
 10
210.25302
 20
42.821535
 30
0.0
 11
210.08587
 21
42.676764
 31
0.0
  0
LINE
  8
DETAIL
  6
CONTINUOUS
 62
     5
 10
210.08587
 20
42.676764
 30
0.0
 11
209.936337
 21
42.514938
 31
0.0
  0
LINE
  8
DETAIL
  6
CONTINUOUS
 62
     5
 10
209.936337
 20
42.514938
 30
0.0
 11
209.806652
 21
42.337788
 31
0.0
  0
LINE
  8
DETAIL
  6
CONTINUOUS
 62
     5
 10
209.806652
 20
42.337788
 30
0.0
 11
209.698062
 21
42.147805
 31
0.0
  0
LINE
  8
DETAIL
  6
CONTINUOUS
 62
     5
 10
209.698062
 20
42.147805
 30
0.0
 11
209.612345
 21
41.947158
 31
0.0
  0
LINE
  8
DETAIL
  6
CONTINUOUS
 62
     5
 10
209.612345
 20
41.947158
 30
0.0
 11
209.550144
 21
41.738544
 31
0.0
  0
LINE
  8
DETAIL
  6
CONTINUOUS
 62
     5
 10
209.550144
 20
41.738544
 30
0.0
 11
209.51285
 21
41.525812
 31
0.0
  0
LINE
  8
DETAIL
  6
CONTINUOUS
 62
     5
 10
253.7
 20
-71.588516
 30
0.0
 11
253.7
 21
-79.388516
 31
0.0
  0
LINE
  8
DETAIL
  6
CONTINUOUS
 62
     5
 10
253.6
 20
-71.488516
 30
0.0
 11
253.6
 21
-79.488516
 31
0.0
  0
LINE
  8
DETAIL
  6
CONTINUOUS
 62
     5
 10
253.2
 20
-79.488516
 30
0.0
 11
253.2
 21
-71.488516
 31
0.0
  0
LINE
  8
DETAIL
  6
CONTINUOUS
 62
     5
 10
253.1
 20
-68.488516
 30
0.0
 11
253.1
 21
-136.488516
 31
0.0
  0
LINE
  8
DETAIL
  6
CONTINUOUS
 62
     5
 10
249.9
 20
-68.488516
 30
0.0
 11
249.9
 21
-136.488516
 31
0.0
  0
CIRCLE
  8
DETAIL
  6
CONTINUOUS
 62
     5
 10
280.0
 20
-140.0
 30
0.0
 40
4.0
  0
LINE
  8
DETAIL
  6
CONTINUOUS
 62
     5
 10
248.1
 20
-166.488516
 30
0.0
 11
248.1
 21
-137.488516
 31
0.0
  0
LINE
  8
DETAIL
  6
CONTINUOUS
 62
     5
 10
253.7
 20
-170.588516
 30
0.0
 11
253.7
 21
-178.388516
 31
0.0
  0
LINE
  8
DETAIL
  6
CONTINUOUS
 62
     5
 10
253.6
 20
-170.488516
 30
0.0
 11
253.6
 21
-178.488516
 31
0.0
  0
LINE
  8
DETAIL
  6
CONTINUOUS
 62
     5
 10
253.2
 20
-178.488516
 30
0.0
 11
253.2
 21
-170.488516
 31
0.0
  0
ARC
  8
DETAIL
  6
CONTINUOUS
 62
     5
 10
254.7
 20
-184.19997
 30
0.0
 40
0.8
 50
270.5
 51
0.0
  0
ARC
  8
DETAIL
  6
CONTINUOUS
 62
     5
 10
254.7
 20
-193.80003
 30
0.0
 40
0.8
 50
0.0
 51
89.5
  0
ARC
  8
DETAIL
  6
CONTINUOUS
 62
     5
 10
253.6
 20
-178.388516
 30
0.0
 40
0.1
 50
270.0
 51
0.0
  0
ARC
  8
DETAIL
  6
CONTINUOUS
 62
     5
 10
253.2
 20
-178.388516
 30
0.0
 40
0.1
 50
180.0
 51
270.0
  0
ARC
  8
DETAIL
  6
CONTINUOUS
 62
     5
 10
257.175
 20
-192.675
 30
0.0
 40
0.325
 50
270.0
 51
0.0
  0
ARC
  8
DETAIL
  6
CONTINUOUS
 62
     5
 10
257.175
 20
-185.325
 30
0.0
 40
0.325
 50
0.0
 51
90.0
  0
ARC
  8
DETAIL
  6
CONTINUOUS
 62
     5
 10
256.7
 20
-192.8
 30
0.0
 40
0.2
 50
180.0
 51
270.0
  0
ARC
  8
DETAIL
  6
CONTINUOUS
 62
     5
 10
256.7
 20
-185.2
 30
0.0
 40
0.2
 50
90.0
 51
180.0
  0
LINE
  8
DETAIL
  6
CONTINUOUS
 62
     5
 10
257.175
 20
-185.0
 30
0.0
 11
257.175
 21
-193.0
 31
0.0
  0
LINE
  8
DETAIL
  6
CONTINUOUS
 62
     5
 10
256.7
 20
-193.0
 30
0.0
 11
256.7
 21
-185.0
 31
0.0
  0
LINE
  8
DETAIL
  6
CONTINUOUS
 62
     5
 10
256.5
 20
-182.000562
 30
0.0
 11
256.5
 21
-195.999442
 31
0.0
  0
LINE
  8
DETAIL
  6
CONTINUOUS
 62
     5
 10
254.706981
 20
-184.999939
 30
0.0
 11
254.706981
 21
-193.000061
 31
0.0
  0
LINE
  8
DETAIL
  6
CONTINUOUS
 62
     5
 10
253.6
 20
-178.488516
 30
0.0
 11
253.2
 21
-178.488516
 31
0.0
  0
LINE
  8
DETAIL
  6
CONTINUOUS
 62
     5
 10
255.5
 20
-182.0
 30
0.0
 11
256.5
 21
-182.0
 31
0.0
  0
LINE
  8
DETAIL
  6
CONTINUOUS
 62
     5
 10
255.5
 20
-183.426102
 30
0.0
 11
253.1
 21
-183.426102
 31
0.0
  0
LINE
  8
DETAIL
  6
CONTINUOUS
 62
     5
 10
255.5
 20
-183.57633
 30
0.0
 11
253.1
 21
-183.57633
 31
0.0
  0
LINE
  8
DETAIL
  6
CONTINUOUS
 62
     5
 10
256.7
 20
-185.0
 30
0.0
 11
257.175
 21
-185.0
 31
0.0
  0
LINE
  8
DETAIL
  6
CONTINUOUS
 62
     5
 10
254.706981
 20
-184.999939
 30
0.0
 11
253.1
 21
-185.013963
 31
0.0
  0
LINE
  8
DETAIL
  6
CONTINUOUS
 62
     5
 10
254.706981
 20
-193.000061
 30
0.0
 11
253.1
 21
-192.986037
 31
0.0
  0
LINE
  8
DETAIL
  6
CONTINUOUS
 62
     5
 10
256.7
 20
-193.0
 30
0.0
 11
257.175
 21
-193.0
 31
0.0
  0
LINE
  8
DETAIL
  6
CONTINUOUS
 62
     5
 10
255.5
 20
-196.0
 30
0.0
 11
256.5
 21
-196.0
 31
0.0
  0
ARC
  8
DETAIL
  6
CONTINUOUS
 62
     5
 10
249.1
 20
-166.488516
 30
0.0
 40
1.0
 50
180.0
 51
270.0
  0
ARC
  8
DETAIL
  6
CONTINUOUS
 62
     5
 10
253.6
 20
-170.588516
 30
0.0
 40
0.1
 50
0.0
 51
90.0
  0
ARC
  8
DETAIL
  6
CONTINUOUS
 62
     5
 10
253.2
 20
-170.588516
 30
0.0
 40
0.1
 50
90.0
 51
180.0
  0
LINE
  8
DETAIL
  6
CONTINUOUS
 62
     5
 10
249.5
 20
-155.056483
 30
0.0
 11
249.5
 21
-167.488516
 31
0.0
  0
LINE
  8
DETAIL
  6
CONTINUOUS
 62
     5
 10
248.3
 20
-167.086487
 30
0.0
 11
248.3
 21
-155.056483
 31
0.0
  0
LINE
  8
DETAIL
  6
CONTINUOUS
 62
     5
 10
249.5
 20
-155.056483
 30
0.0
 11
249.48458
 21
-154.988787
 31
0.0
  0
LINE
  8
DETAIL
  6
CONTINUOUS
 62
     5
 10
249.48458
 20
-154.988787
 30
0.0
 11
249.439827
 21
-154.922767
 31
0.0
  0
LINE
  8
DETAIL
  6
CONTINUOUS
 62
     5
 10
249.439827
 20
-154.922767
 30
0.0
 11
249.365186
 21
-154.858026
 31
0.0
  0
LINE
  8
DETAIL
  6
CONTINUOUS
 62
     5
 10
249.365186
 20
-154.858026
 30
0.0
 11
249.262325
 21
-154.795757
 31
0.0
  0
LINE
  8
DETAIL
  6
CONTINUOUS
 62
     5
 10
249.262325
 20
-154.795757
 30
0.0
 11
249.132018
 21
-154.736797
 31
0.0
  0
LINE
  8
DETAIL
  6
CONTINUOUS
 62
     5
 10
249.132018
 20
-154.736797
 30
0.0
 11
248.976396
 21
-154.68182
 31
0.0
  0
LINE
  8
DETAIL
  6
CONTINUOUS
 62
     5
 10
248.976396
 20
-154.68182
 30
0.0
 11
248.796956
 21
-154.631599
 31
0.0
  0
LINE
  8
DETAIL
  6
CONTINUOUS
 62
     5
 10
248.796956
 20
-154.631599
 30
0.0
 11
248.596376
 21
-154.586671
 31
0.0
  0
LINE
  8
DETAIL
  6
CONTINUOUS
 62
     5
 10
248.596376
 20
-154.586671
 30
0.0
 11
248.376801
 21
-154.547706
 31
0.0
  0
LINE
  8
DETAIL
  6
CONTINUOUS
 62
     5
 10
248.376801
 20
-154.547706
 30
0.0
 11
248.141321
 21
-154.51508
 31
0.0
  0
LINE
  8
DETAIL
  6
CONTINUOUS
 62
     5
 10
248.141321
 20
-154.51508
 30
0.0
 11
248.1
 21
-154.510801
 31
0.0
  0
LINE
  8
DETAIL
  6
CONTINUOUS
 62
     5
 10
248.1
 20
-154.891581
 30
0.0
 11
248.13923
 21
-154.906255
 31
0.0
  0
LINE
  8
DETAIL
  6
CONTINUOUS
 62
     5
 10
248.13923
 20
-154.906255
 30
0.0
 11
248.208534
 21
-154.941516
 31
0.0
  0
LINE
  8
DETAIL
  6
CONTINUOUS
 62
     5
 10
248.208534
 20
-154.941516
 30
0.0
 11
248.259111
 21
-154.978719
 31
0.0
  0
LINE
  8
DETAIL
  6
CONTINUOUS
 62
     5
 10
248.259111
 20
-154.978719
 30
0.0
 11
248.289429
 21
-155.016938
 31
0.0
  0
LINE
  8
DETAIL
  6
CONTINUOUS
 62
     5
 10
248.289429
 20
-155.016938
 30
0.0
 11
248.3
 21
-155.056483
 31
0.0
  0
LINE
  8
DETAIL
  6
CONTINUOUS
 62
     5
 10
255.5
 20
-149.141648
 30
0.0
 11
248.1
 21
-149.141648
 31
0.0
  0
LINE
  8
DETAIL
  6
CONTINUOUS
 62
     5
 10
255.5
 20
-149.441648
 30
0.0
 11
248.1
 21
-149.441648
 31
0.0
  0
LINE
  8
DETAIL
  6
CONTINUOUS
 62
     5
 10
255.5
 20
-149.879016
 30
0.0
 11
248.1
 21
-149.879016
 31
0.0
  0
LINE
  8
DETAIL
  6
CONTINUOUS
 62
     5
 10
248.1
 20
-152.67146
 30
0.0
 11
255.5
 21
-152.67146
 31
0.0
  0
LINE
  8
DETAIL
  6
CONTINUOUS
 62
     5
 10
248.1
 20
-153.466105
 30
0.0
 11
255.5
 21
-153.466105
 31
0.0
  0
LINE
  8
DETAIL
  6
CONTINUOUS
 62
     5
 10
249.5
 20
-162.615082
 30
0.0
 11
248.3
 21
-162.615082
 31
0.0
  0
LINE
  8
DETAIL
  6
CONTINUOUS
 62
     5
 10
253.1
 20
-167.488516
 30
0.0
 11
249.1
 21
-167.488516
 31
0.0
  0
LINE
  8
DETAIL
  6
CONTINUOUS
 62
     5
 10
253.6
 20
-170.488516
 30
0.0
 11
253.2
 21
-170.488516
 31
0.0
  0
ARC
  8
DETAIL
  6
CONTINUOUS
 62
     5
 10
249.1
 20
-137.488516
 30
0.0
 40
1.0
 50
90.0
 51
180.0
  0
CIRCLE
  8
DETAIL
  6
CONTINUOUS
 62
     5
 10
243.1
 20
-110.388516
 30
0.0
 40
2.0
  0
CIRCLE
  8
DETAIL
  6
CONTINUOUS
 62
     5
 10
244.6
 20
-119.388516
 30
0.0
 40
2.0
  0
LINE
  8
DETAIL
  6
CONTINUOUS
 62
     5
 10
253.1
 20
-136.488516
 30
0.0
 11
249.1
 21
-136.488516
 31
0.0
  0
ARC
  8
DETAIL
  6
CONTINUOUS
 62
     5
 10
254.7
 20
-85.19997
 30
0.0
 40
0.8
 50
270.5
 51
0.0
  0
ARC
  8
DETAIL
  6
CONTINUOUS
 62
     5
 10
254.7
 20
-94.80003
 30
0.0
 40
0.8
 50
0.0
 51
89.5
  0
ARC
  8
DETAIL
  6
CONTINUOUS
 62
     5
 10
253.6
 20
-79.388516
 30
0.0
 40
0.1
 50
270.0
 51
0.0
  0
ARC
  8
DETAIL
  6
CONTINUOUS
 62
     5
 10
253.2
 20
-79.388516
 30
0.0
 40
0.1
 50
180.0
 51
270.0
  0
ARC
  8
DETAIL
  6
CONTINUOUS
 62
     5
 10
257.175
 20
-93.675
 30
0.0
 40
0.325
 50
270.0
 51
0.0
  0
ARC
  8
DETAIL
  6
CONTINUOUS
 62
     5
 10
257.175
 20
-86.325
 30
0.0
 40
0.325
 50
0.0
 51
90.0
  0
ARC
  8
DETAIL
  6
CONTINUOUS
 62
     5
 10
256.7
 20
-93.8
 30
0.0
 40
0.2
 50
180.0
 51
270.0
  0
ARC
  8
DETAIL
  6
CONTINUOUS
 62
     5
 10
256.7
 20
-86.2
 30
0.0
 40
0.2
 50
90.0
 51
180.0
  0
LINE
  8
DETAIL
  6
CONTINUOUS
 62
     5
 10
257.175
 20
-86.0
 30
0.0
 11
257.175
 21
-94.0
 31
0.0
  0
LINE
  8
DETAIL
  6
CONTINUOUS
 62
     5
 10
256.7
 20
-94.0
 30
0.0
 11
256.7
 21
-86.0
 31
0.0
  0
LINE
  8
DETAIL
  6
CONTINUOUS
 62
     5
 10
256.5
 20
-83.000562
 30
0.0
 11
256.5
 21
-96.999442
 31
0.0
  0
LINE
  8
DETAIL
  6
CONTINUOUS
 62
     5
 10
254.706981
 20
-85.999939
 30
0.0
 11
254.706981
 21
-94.000061
 31
0.0
  0
LINE
  8
DETAIL
  6
CONTINUOUS
 62
     5
 10
254.706981
 20
-94.000061
 30
0.0
 11
253.1
 21
-93.986037
 31
0.0
  0
LINE
  8
DETAIL
  6
CONTINUOUS
 62
     5
 10
253.6
 20
-79.488516
 30
0.0
 11
253.2
 21
-79.488516
 31
0.0
  0
LINE
  8
DETAIL
  6
CONTINUOUS
 62
     5
 10
255.5
 20
-83.0
 30
0.0
 11
256.5
 21
-83.0
 31
0.0
  0
LINE
  8
DETAIL
  6
CONTINUOUS
 62
     5
 10
255.5
 20
-84.426102
 30
0.0
 11
253.1
 21
-84.426102
 31
0.0
  0
LINE
  8
DETAIL
  6
CONTINUOUS
 62
     5
 10
255.5
 20
-84.57633
 30
0.0
 11
253.1
 21
-84.57633
 31
0.0
  0
LINE
  8
DETAIL
  6
CONTINUOUS
 62
     5
 10
256.7
 20
-86.0
 30
0.0
 11
257.175
 21
-86.0
 31
0.0
  0
LINE
  8
DETAIL
  6
CONTINUOUS
 62
     5
 10
256.7
 20
-94.0
 30
0.0
 11
257.175
 21
-94.0
 31
0.0
  0
LINE
  8
DETAIL
  6
CONTINUOUS
 62
     5
 10
254.706981
 20
-85.999939
 30
0.0
 11
253.1
 21
-86.013963
 31
0.0
  0
LINE
  8
DETAIL
  6
CONTINUOUS
 62
     5
 10
255.5
 20
-97.0
 30
0.0
 11
256.5
 21
-97.0
 31
0.0
  0
LINE
  8
DETAIL
  6
CONTINUOUS
 62
     5
 10
253.1
 20
30.511484
 30
0.0
 11
253.1
 21
-37.488516
 31
0.0
  0
LINE
  8
DETAIL
  6
CONTINUOUS
 62
     5
 10
249.9
 20
30.511484
 30
0.0
 11
249.9
 21
-37.488516
 31
0.0
  0
LINE
  8
DETAIL
  6
CONTINUOUS
 62
     5
 10
248.1
 20
-67.488516
 30
0.0
 11
248.1
 21
-38.488516
 31
0.0
  0
ARC
  8
DETAIL
  6
CONTINUOUS
 62
     5
 10
249.1
 20
-67.488516
 30
0.0
 40
1.0
 50
180.0
 51
270.0
  0
ARC
  8
DETAIL
  6
CONTINUOUS
 62
     5
 10
253.6
 20
-71.588516
 30
0.0
 40
0.1
 50
0.0
 51
90.0
  0
ARC
  8
DETAIL
  6
CONTINUOUS
 62
     5
 10
253.2
 20
-71.588516
 30
0.0
 40
0.1
 50
90.0
 51
180.0
  0
LINE
  8
DETAIL
  6
CONTINUOUS
 62
     5
 10
249.5
 20
-56.056483
 30
0.0
 11
249.48458
 21
-55.988787
 31
0.0
  0
LINE
  8
DETAIL
  6
CONTINUOUS
 62
     5
 10
249.48458
 20
-55.988787
 30
0.0
 11
249.439827
 21
-55.922767
 31
0.0
  0
LINE
  8
DETAIL
  6
CONTINUOUS
 62
     5
 10
249.439827
 20
-55.922767
 30
0.0
 11
249.365186
 21
-55.858026
 31
0.0
  0
LINE
  8
DETAIL
  6
CONTINUOUS
 62
     5
 10
249.365186
 20
-55.858026
 30
0.0
 11
249.262325
 21
-55.795757
 31
0.0
  0
LINE
  8
DETAIL
  6
CONTINUOUS
 62
     5
 10
249.262325
 20
-55.795757
 30
0.0
 11
249.132018
 21
-55.736797
 31
0.0
  0
LINE
  8
DETAIL
  6
CONTINUOUS
 62
     5
 10
249.132018
 20
-55.736797
 30
0.0
 11
248.976396
 21
-55.68182
 31
0.0
  0
LINE
  8
DETAIL
  6
CONTINUOUS
 62
     5
 10
248.976396
 20
-55.68182
 30
0.0
 11
248.796956
 21
-55.631599
 31
0.0
  0
LINE
  8
DETAIL
  6
CONTINUOUS
 62
     5
 10
248.796956
 20
-55.631599
 30
0.0
 11
248.596376
 21
-55.586671
 31
0.0
  0
LINE
  8
DETAIL
  6
CONTINUOUS
 62
     5
 10
248.596376
 20
-55.586671
 30
0.0
 11
248.376801
 21
-55.547706
 31
0.0
  0
LINE
  8
DETAIL
  6
CONTINUOUS
 62
     5
 10
248.376801
 20
-55.547706
 30
0.0
 11
248.141321
 21
-55.51508
 31
0.0
  0
LINE
  8
DETAIL
  6
CONTINUOUS
 62
     5
 10
248.141321
 20
-55.51508
 30
0.0
 11
248.1
 21
-55.510801
 31
0.0
  0
LINE
  8
DETAIL
  6
CONTINUOUS
 62
     5
 10
249.5
 20
-56.056483
 30
0.0
 11
249.5
 21
-68.488516
 31
0.0
  0
LINE
  8
DETAIL
  6
CONTINUOUS
 62
     5
 10
248.3
 20
-68.086487
 30
0.0
 11
248.3
 21
-56.056483
 31
0.0
  0
LINE
  8
DETAIL
  6
CONTINUOUS
 62
     5
 10
248.1
 20
-55.891581
 30
0.0
 11
248.13923
 21
-55.906255
 31
0.0
  0
LINE
  8
DETAIL
  6
CONTINUOUS
 62
     5
 10
248.13923
 20
-55.906255
 30
0.0
 11
248.208534
 21
-55.941516
 31
0.0
  0
LINE
  8
DETAIL
  6
CONTINUOUS
 62
     5
 10
248.208534
 20
-55.941516
 30
0.0
 11
248.259111
 21
-55.978719
 31
0.0
  0
LINE
  8
DETAIL
  6
CONTINUOUS
 62
     5
 10
248.259111
 20
-55.978719
 30
0.0
 11
248.289429
 21
-56.016938
 31
0.0
  0
LINE
  8
DETAIL
  6
CONTINUOUS
 62
     5
 10
248.289429
 20
-56.016938
 30
0.0
 11
248.3
 21
-56.056483
 31
0.0
  0
LINE
  8
DETAIL
  6
CONTINUOUS
 62
     5
 10
255.5
 20
-50.141648
 30
0.0
 11
248.1
 21
-50.141648
 31
0.0
  0
LINE
  8
DETAIL
  6
CONTINUOUS
 62
     5
 10
255.5
 20
-50.441648
 30
0.0
 11
248.1
 21
-50.441648
 31
0.0
  0
LINE
  8
DETAIL
  6
CONTINUOUS
 62
     5
 10
255.5
 20
-50.879016
 30
0.0
 11
248.1
 21
-50.879016
 31
0.0
  0
LINE
  8
DETAIL
  6
CONTINUOUS
 62
     5
 10
248.1
 20
-53.67146
 30
0.0
 11
255.5
 21
-53.67146
 31
0.0
  0
LINE
  8
DETAIL
  6
CONTINUOUS
 62
     5
 10
248.1
 20
-54.466105
 30
0.0
 11
255.5
 21
-54.466105
 31
0.0
  0
LINE
  8
DETAIL
  6
CONTINUOUS
 62
     5
 10
249.5
 20
-63.615082
 30
0.0
 11
248.3
 21
-63.615082
 31
0.0
  0
LINE
  8
DETAIL
  6
CONTINUOUS
 62
     5
 10
253.1
 20
-68.488516
 30
0.0
 11
249.1
 21
-68.488516
 31
0.0
  0
LINE
  8
DETAIL
  6
CONTINUOUS
 62
     5
 10
253.6
 20
-71.488516
 30
0.0
 11
253.2
 21
-71.488516
 31
0.0
  0
ARC
  8
DETAIL
  6
CONTINUOUS
 62
     5
 10
249.1
 20
-38.488516
 30
0.0
 40
1.0
 50
90.0
 51
180.0
  0
ARC
  8
DETAIL
  6
CONTINUOUS
 62
     5
 10
256.7
 20
-25.8
 30
0.0
 40
0.8
 50
0.0
 51
90.0
  0
ARC
  8
DETAIL
  6
CONTINUOUS
 62
     5
 10
256.7
 20
-18.2
 30
0.0
 40
0.8
 50
270.0
 51
354.375
  0
LINE
  8
DETAIL
  6
CONTINUOUS
 62
     5
 10
256.7
 20
-25.0
 30
0.0
 11
256.7
 21
-19.0
 31
0.0
  0
LINE
  8
DETAIL
  6
CONTINUOUS
 62
     5
 10
256.5
 20
-25.0
 30
0.0
 11
256.5
 21
-19.0
 31
0.0
  0
LINE
  8
DETAIL
  6
CONTINUOUS
 62
     5
 10
253.75
 20
-24.0
 30
0.0
 11
253.75
 21
-20.0
 31
0.0
  0
LINE
  8
DETAIL
  6
CONTINUOUS
 62
     5
 10
256.7
 20
-19.0
 30
0.0
 11
256.5
 21
-19.0
 31
0.0
  0
LINE
  8
DETAIL
  6
CONTINUOUS
 62
     5
 10
253.75
 20
-20.0
 30
0.0
 11
256.5
 21
-20.0
 31
0.0
  0
LINE
  8
DETAIL
  6
CONTINUOUS
 62
     5
 10
253.75
 20
-24.0
 30
0.0
 11
256.5
 21
-24.0
 31
0.0
  0
LINE
  8
DETAIL
  6
CONTINUOUS
 62
     5
 10
256.7
 20
-25.0
 30
0.0
 11
256.5
 21
-25.0
 31
0.0
  0
LINE
  8
DETAIL
  6
CONTINUOUS
 62
     5
 10
253.1
 20
-37.488516
 30
0.0
 11
249.1
 21
-37.488516
 31
0.0
  0
ARC
  8
DETAIL
  6
CONTINUOUS
 62
     5
 10
254.7
 20
13.80003
 30
0.0
 40
0.8
 50
270.5
 51
0.0
  0
ARC
  8
DETAIL
  6
CONTINUOUS
 62
     5
 10
254.7
 20
4.19997
 30
0.0
 40
0.8
 50
0.0
 51
89.5
  0
ARC
  8
DETAIL
  6
CONTINUOUS
 62
     5
 10
253.6
 20
27.411484
 30
0.0
 40
0.1
 50
0.0
 51
90.0
  0
ARC
  8
DETAIL
  6
CONTINUOUS
 62
     5
 10
253.6
 20
19.611484
 30
0.0
 40
0.1
 50
270.0
 51
0.0
  0
ARC
  8
DETAIL
  6
CONTINUOUS
 62
     5
 10
253.2
 20
27.411484
 30
0.0
 40
0.1
 50
90.0
 51
180.0
  0
ARC
  8
DETAIL
  6
CONTINUOUS
 62
     5
 10
253.2
 20
19.611484
 30
0.0
 40
0.1
 50
180.0
 51
270.0
  0
ARC
  8
DETAIL
  6
CONTINUOUS
 62
     5
 10
257.175
 20
5.325
 30
0.0
 40
0.325
 50
270.0
 51
0.0
  0
ARC
  8
DETAIL
  6
CONTINUOUS
 62
     5
 10
257.175
 20
12.675
 30
0.0
 40
0.325
 50
0.0
 51
90.0
  0
ARC
  8
DETAIL
  6
CONTINUOUS
 62
     5
 10
256.7
 20
5.2
 30
0.0
 40
0.2
 50
180.0
 51
270.0
  0
ARC
  8
DETAIL
  6
CONTINUOUS
 62
     5
 10
256.7
 20
12.8
 30
0.0
 40
0.2
 50
90.0
 51
180.0
  0
LINE
  8
DETAIL
  6
CONTINUOUS
 62
     5
 10
257.175
 20
13.0
 30
0.0
 11
257.175
 21
5.0
 31
0.0
  0
LINE
  8
DETAIL
  6
CONTINUOUS
 62
     5
 10
256.7
 20
5.0
 30
0.0
 11
256.7
 21
13.0
 31
0.0
  0
LINE
  8
DETAIL
  6
CONTINUOUS
 62
     5
 10
256.5
 20
15.999438
 30
0.0
 11
256.5
 21
2.000558
 31
0.0
  0
LINE
  8
DETAIL
  6
CONTINUOUS
 62
     5
 10
254.706981
 20
13.000061
 30
0.0
 11
254.706981
 21
4.999939
 31
0.0
  0
LINE
  8
DETAIL
  6
CONTINUOUS
 62
     5
 10
253.7
 20
27.411484
 30
0.0
 11
253.7
 21
19.611484
 31
0.0
  0
LINE
  8
DETAIL
  6
CONTINUOUS
 62
     5
 10
253.6
 20
27.511484
 30
0.0
 11
253.6
 21
19.511484
 31
0.0
  0
LINE
  8
DETAIL
  6
CONTINUOUS
 62
     5
 10
253.2
 20
19.511484
 30
0.0
 11
253.2
 21
27.511484
 31
0.0
  0
LINE
  8
DETAIL
  6
CONTINUOUS
 62
     5
 10
253.6
 20
27.511484
 30
0.0
 11
253.2
 21
27.511484
 31
0.0
  0
LINE
  8
DETAIL
  6
CONTINUOUS
 62
     5
 10
254.706981
 20
4.999939
 30
0.0
 11
253.1
 21
5.013963
 31
0.0
  0
LINE
  8
DETAIL
  6
CONTINUOUS
 62
     5
 10
253.6
 20
19.511484
 30
0.0
 11
253.2
 21
19.511484
 31
0.0
  0
LINE
  8
DETAIL
  6
CONTINUOUS
 62
     5
 10
255.5
 20
16.0
 30
0.0
 11
256.5
 21
16.0
 31
0.0
  0
LINE
  8
DETAIL
  6
CONTINUOUS
 62
     5
 10
255.5
 20
14.573898
 30
0.0
 11
253.1
 21
14.573898
 31
0.0
  0
LINE
  8
DETAIL
  6
CONTINUOUS
 62
     5
 10
255.5
 20
14.42367
 30
0.0
 11
253.1
 21
14.42367
 31
0.0
  0
LINE
  8
DETAIL
  6
CONTINUOUS
 62
     5
 10
256.7
 20
13.0
 30
0.0
 11
257.175
 21
13.0
 31
0.0
  0
LINE
  8
DETAIL
  6
CONTINUOUS
 62
     5
 10
256.7
 20
5.0
 30
0.0
 11
257.175
 21
5.0
 31
0.0
  0
LINE
  8
DETAIL
  6
CONTINUOUS
 62
     5
 10
255.5
 20
2.0
 30
0.0
 11
256.5
 21
2.0
 31
0.0
  0
LINE
  8
DETAIL
  6
CONTINUOUS
 62
     5
 10
254.706981
 20
13.000061
 30
0.0
 11
253.1
 21
12.986037
 31
0.0
  0
ARC
  8
DETAIL
  6
CONTINUOUS
 62
     5
 10
249.1
 20
60.511484
 30
0.0
 40
1.0
 50
90.0
 51
180.0
  0
ARC
  8
DETAIL
  6
CONTINUOUS
 62
     5
 10
249.1
 20
31.511484
 30
0.0
 40
1.0
 50
180.0
 51
270.0
  0
LINE
  8
DETAIL
  6
CONTINUOUS
 62
     5
 10
249.5
 20
42.943517
 30
0.0
 11
249.48458
 21
43.011213
 31
0.0
  0
LINE
  8
DETAIL
  6
CONTINUOUS
 62
     5
 10
249.48458
 20
43.011213
 30
0.0
 11
249.439827
 21
43.077233
 31
0.0
  0
LINE
  8
DETAIL
  6
CONTINUOUS
 62
     5
 10
249.439827
 20
43.077233
 30
0.0
 11
249.365186
 21
43.141974
 31
0.0
  0
LINE
  8
DETAIL
  6
CONTINUOUS
 62
     5
 10
249.365186
 20
43.141974
 30
0.0
 11
249.262325
 21
43.204243
 31
0.0
  0
LINE
  8
DETAIL
  6
CONTINUOUS
 62
     5
 10
249.262325
 20
43.204243
 30
0.0
 11
249.132018
 21
43.263203
 31
0.0
  0
LINE
  8
DETAIL
  6
CONTINUOUS
 62
     5
 10
249.132018
 20
43.263203
 30
0.0
 11
248.976396
 21
43.31818
 31
0.0
  0
LINE
  8
DETAIL
  6
CONTINUOUS
 62
     5
 10
248.976396
 20
43.31818
 30
0.0
 11
248.796956
 21
43.368401
 31
0.0
  0
LINE
  8
DETAIL
  6
CONTINUOUS
 62
     5
 10
248.796956
 20
43.368401
 30
0.0
 11
248.596376
 21
43.413329
 31
0.0
  0
LINE
  8
DETAIL
  6
CONTINUOUS
 62
     5
 10
248.596376
 20
43.413329
 30
0.0
 11
248.376801
 21
43.452294
 31
0.0
  0
LINE
  8
DETAIL
  6
CONTINUOUS
 62
     5
 10
248.376801
 20
43.452294
 30
0.0
 11
248.141321
 21
43.48492
 31
0.0
  0
LINE
  8
DETAIL
  6
CONTINUOUS
 62
     5
 10
248.141321
 20
43.48492
 30
0.0
 11
248.1
 21
43.489199
 31
0.0
  0
LINE
  8
DETAIL
  6
CONTINUOUS
 62
     5
 10
249.5
 20
42.943517
 30
0.0
 11
249.5
 21
30.511484
 31
0.0
  0
LINE
  8
DETAIL
  6
CONTINUOUS
 62
     5
 10
248.3
 20
30.913513
 30
0.0
 11
248.3
 21
42.943517
 31
0.0
  0
LINE
  8
DETAIL
  6
CONTINUOUS
 62
     5
 10
248.1
 20
31.511484
 30
0.0
 11
248.1
 21
60.511484
 31
0.0
  0
LINE
  8
DETAIL
  6
CONTINUOUS
 62
     5
 10
248.1
 20
43.108419
 30
0.0
 11
248.13923
 21
43.093745
 31
0.0
  0
LINE
  8
DETAIL
  6
CONTINUOUS
 62
     5
 10
248.13923
 20
43.093745
 30
0.0
 11
248.208534
 21
43.058484
 31
0.0
  0
LINE
  8
DETAIL
  6
CONTINUOUS
 62
     5
 10
248.208534
 20
43.058484
 30
0.0
 11
248.259111
 21
43.021281
 31
0.0
  0
LINE
  8
DETAIL
  6
CONTINUOUS
 62
     5
 10
248.259111
 20
43.021281
 30
0.0
 11
248.289429
 21
42.983062
 31
0.0
  0
LINE
  8
DETAIL
  6
CONTINUOUS
 62
     5
 10
248.289429
 20
42.983062
 30
0.0
 11
248.3
 21
42.943517
 31
0.0
  0
LINE
  8
DETAIL
  6
CONTINUOUS
 62
     5
 10
253.1
 20
61.511484
 30
0.0
 11
249.1
 21
61.511484
 31
0.0
  0
LINE
  8
DETAIL
  6
CONTINUOUS
 62
     5
 10
255.5
 20
48.858352
 30
0.0
 11
248.1
 21
48.858352
 31
0.0
  0
LINE
  8
DETAIL
  6
CONTINUOUS
 62
     5
 10
255.5
 20
48.558352
 30
0.0
 11
248.1
 21
48.558352
 31
0.0
  0
LINE
  8
DETAIL
  6
CONTINUOUS
 62
     5
 10
255.5
 20
48.120984
 30
0.0
 11
248.1
 21
48.120984
 31
0.0
  0
LINE
  8
DETAIL
  6
CONTINUOUS
 62
     5
 10
248.1
 20
45.32854
 30
0.0
 11
255.5
 21
45.32854
 31
0.0
  0
LINE
  8
DETAIL
  6
CONTINUOUS
 62
     5
 10
248.1
 20
44.533895
 30
0.0
 11
255.5
 21
44.533895
 31
0.0
  0
LINE
  8
DETAIL
  6
CONTINUOUS
 62
     5
 10
249.5
 20
35.384918
 30
0.0
 11
248.3
 21
35.384918
 31
0.0
  0
LINE
  8
DETAIL
  6
CONTINUOUS
 62
     5
 10
253.1
 20
30.511484
 30
0.0
 11
249.1
 21
30.511484
 31
0.0
  0
CIRCLE
  8
DETAIL
  6
CONTINUOUS
 62
     5
 10
242.6
 20
220.511484
 30
0.0
 40
3.0
  0
LINE
  8
DETAIL
  6
CONTINUOUS
 62
     5
 10
247.1
 20
241.544429
 30
0.0
 11
211.5
 21
241.544429
 31
0.0
  0
LINE
  8
DETAIL
  6
CONTINUOUS
 62
     5
 10
247.1
 20
241.243973
 30
0.0
 11
211.5
 21
241.243973
 31
0.0
  0
LINE
  8
DETAIL
  6
CONTINUOUS
 62
     5
 10
234.1
 20
228.511484
 30
0.0
 11
253.1
 21
228.511484
 31
0.0
  0
LINE
  8
DETAIL
  6
CONTINUOUS
 62
     5
 10
243.8
 20
219.061484
 30
0.0
 11
239.975508
 21
219.061484
 31
0.0
  0
LINE
  8
DETAIL
  6
CONTINUOUS
 62
     5
 10
209.5
 20
152.5
 30
0.0
 11
209.5
 21
239.608134
 31
0.0
  0
LINE
  8
DETAIL
  6
CONTINUOUS
 62
     5
 10
232.1
 20
113.347341
 30
0.0
 11
209.5
 21
113.347341
 31
0.0
  0
LINE
  8
DETAIL
  6
CONTINUOUS
 62
     5
 10
231.500066
 20
120.561551
 30
0.0
 11
232.000084
 21
120.061567
 31
0.0
  0
LINE
  8
DETAIL
  6
CONTINUOUS
 62
     5
 10
232.000001
 20
120.061484
 30
0.0
 11
232.000001
 21
124.961484
 31
0.0
  0
LINE
  8
DETAIL
  6
CONTINUOUS
 62
     5
 10
231.5
 20
120.561485
 30
0.0
 11
231.5
 21
124.461483
 31
0.0
  0
LINE
  8
DETAIL
  6
CONTINUOUS
 62
     5
 10
232.1
 20
124.961484
 30
0.0
 11
232.000001
 21
124.961484
 31
0.0
  0
LINE
  8
DETAIL
  6
CONTINUOUS
 62
     5
 10
232.1
 20
120.061484
 30
0.0
 11
232.000001
 21
120.061484
 31
0.0
  0
LINE
  8
DETAIL
  6
CONTINUOUS
 62
     5
 10
231.500066
 20
124.461417
 30
0.0
 11
232.000084
 21
124.961401
 31
0.0
  0
LINE
  8
DETAIL
  6
CONTINUOUS
 62
     5
 10
232.1
 20
150.5
 30
0.0
 11
211.5
 21
150.5
 31
0.0
  0
LINE
  8
DETAIL
  6
CONTINUOUS
 62
     5
 10
232.1
 20
142.544429
 30
0.0
 11
211.5
 21
142.544429
 31
0.0
  0
LINE
  8
DETAIL
  6
CONTINUOUS
 62
     5
 10
232.1
 20
142.243973
 30
0.0
 11
211.5
 21
142.243973
 31
0.0
  0
ARC
  8
DETAIL
  6
CONTINUOUS
 62
     5
 10
211.5
 20
152.5
 30
0.0
 40
2.0
 50
180.0
 51
270.0
  0
LINE
  8
DETAIL
  6
CONTINUOUS
 62
     5
 10
209.51285
 20
140.525812
 30
0.0
 11
209.5
 21
140.307678
 31
0.0
  0
LINE
  8
DETAIL
  6
CONTINUOUS
 62
     5
 10
209.5
 20
140.608134
 30
0.0
 11
209.51285
 21
140.826268
 31
0.0
  0
LINE
  8
DETAIL
  6
CONTINUOUS
 62
     5
 10
209.51285
 20
140.826268
 30
0.0
 11
209.550144
 21
141.039
 31
0.0
  0
LINE
  8
DETAIL
  6
CONTINUOUS
 62
     5
 10
209.550144
 20
141.039
 30
0.0
 11
209.612345
 21
141.247614
 31
0.0
  0
LINE
  8
DETAIL
  6
CONTINUOUS
 62
     5
 10
209.612345
 20
141.247614
 30
0.0
 11
209.698062
 21
141.448261
 31
0.0
  0
LINE
  8
DETAIL
  6
CONTINUOUS
 62
     5
 10
209.698062
 20
141.448261
 30
0.0
 11
209.806652
 21
141.638244
 31
0.0
  0
LINE
  8
DETAIL
  6
CONTINUOUS
 62
     5
 10
209.806652
 20
141.638244
 30
0.0
 11
209.936337
 21
141.815394
 31
0.0
  0
LINE
  8
DETAIL
  6
CONTINUOUS
 62
     5
 10
209.936337
 20
141.815394
 30
0.0
 11
210.08587
 21
141.97722
 31
0.0
  0
LINE
  8
DETAIL
  6
CONTINUOUS
 62
     5
 10
210.08587
 20
141.97722
 30
0.0
 11
210.25302
 21
142.121991
 31
0.0
  0
LINE
  8
DETAIL
  6
CONTINUOUS
 62
     5
 10
210.25302
 20
142.121991
 30
0.0
 11
210.435999
 21
142.247545
 31
0.0
  0
LINE
  8
DETAIL
  6
CONTINUOUS
 62
     5
 10
210.435999
 20
142.247545
 30
0.0
 11
210.632233
 21
142.352676
 31
0.0
  0
LINE
  8
DETAIL
  6
CONTINUOUS
 62
     5
 10
210.632233
 20
142.352676
 30
0.0
 11
210.839481
 21
142.435663
 31
0.0
  0
LINE
  8
DETAIL
  6
CONTINUOUS
 62
     5
 10
210.839481
 20
142.435663
 30
0.0
 11
211.054958
 21
142.495882
 31
0.0
  0
LINE
  8
DETAIL
  6
CONTINUOUS
 62
     5
 10
211.054958
 20
142.495882
 30
0.0
 11
211.27469
 21
142.531988
 31
0.0
  0
LINE
  8
DETAIL
  6
CONTINUOUS
 62
     5
 10
211.27469
 20
142.531988
 30
0.0
 11
211.5
 21
142.544429
 31
0.0
  0
LINE
  8
DETAIL
  6
CONTINUOUS
 62
     5
 10
211.5
 20
142.243973
 30
0.0
 11
211.5
 21
142.544429
 31
0.0
  0
LINE
  8
DETAIL
  6
CONTINUOUS
 62
     5
 10
211.5
 20
142.243973
 30
0.0
 11
211.27469
 21
142.231532
 31
0.0
  0
LINE
  8
DETAIL
  6
CONTINUOUS
 62
     5
 10
211.27469
 20
142.231532
 30
0.0
 11
211.054958
 21
142.195426
 31
0.0
  0
LINE
  8
DETAIL
  6
CONTINUOUS
 62
     5
 10
211.054958
 20
142.195426
 30
0.0
 11
210.839481
 21
142.135207
 31
0.0
  0
LINE
  8
DETAIL
  6
CONTINUOUS
 62
     5
 10
210.839481
 20
142.135207
 30
0.0
 11
210.632233
 21
142.05222
 31
0.0
  0
LINE
  8
DETAIL
  6
CONTINUOUS
 62
     5
 10
210.632233
 20
142.05222
 30
0.0
 11
210.435999
 21
141.947089
 31
0.0
  0
LINE
  8
DETAIL
  6
CONTINUOUS
 62
     5
 10
210.435999
 20
141.947089
 30
0.0
 11
210.25302
 21
141.821535
 31
0.0
  0
LINE
  8
DETAIL
  6
CONTINUOUS
 62
     5
 10
210.25302
 20
141.821535
 30
0.0
 11
210.08587
 21
141.676764
 31
0.0
  0
LINE
  8
DETAIL
  6
CONTINUOUS
 62
     5
 10
210.08587
 20
141.676764
 30
0.0
 11
209.936337
 21
141.514938
 31
0.0
  0
LINE
  8
DETAIL
  6
CONTINUOUS
 62
     5
 10
209.936337
 20
141.514938
 30
0.0
 11
209.806652
 21
141.337788
 31
0.0
  0
LINE
  8
DETAIL
  6
CONTINUOUS
 62
     5
 10
209.806652
 20
141.337788
 30
0.0
 11
209.698062
 21
141.147805
 31
0.0
  0
LINE
  8
DETAIL
  6
CONTINUOUS
 62
     5
 10
209.698062
 20
141.147805
 30
0.0
 11
209.612345
 21
140.947158
 31
0.0
  0
LINE
  8
DETAIL
  6
CONTINUOUS
 62
     5
 10
209.612345
 20
140.947158
 30
0.0
 11
209.550144
 21
140.738544
 31
0.0
  0
LINE
  8
DETAIL
  6
CONTINUOUS
 62
     5
 10
209.550144
 20
140.738544
 30
0.0
 11
209.51285
 21
140.525812
 31
0.0
  0
CIRCLE
  8
DETAIL
  6
CONTINUOUS
 62
     5
 10
140.0
 20
280.0
 30
0.0
 40
4.0
  0
LINE
  8
DETAIL
  6
CONTINUOUS
 62
     5
 10
232.1
 20
212.347341
 30
0.0
 11
209.5
 21
212.347341
 31
0.0
  0
ARC
  8
DETAIL
  6
CONTINUOUS
 62
     5
 10
234.1
 20
226.511484
 30
0.0
 40
2.0
 50
90.0
 51
180.0
  0
LINE
  8
DETAIL
  6
CONTINUOUS
 62
     5
 10
231.500066
 20
219.561551
 30
0.0
 11
232.000084
 21
219.061567
 31
0.0
  0
LINE
  8
DETAIL
  6
CONTINUOUS
 62
     5
 10
232.1
 20
223.961484
 30
0.0
 11
232.000001
 21
223.961484
 31
0.0
  0
LINE
  8
DETAIL
  6
CONTINUOUS
 62
     5
 10
232.1
 20
219.061484
 30
0.0
 11
232.000001
 21
219.061484
 31
0.0
  0
LINE
  8
DETAIL
  6
CONTINUOUS
 62
     5
 10
232.000001
 20
219.061484
 30
0.0
 11
232.000001
 21
223.961484
 31
0.0
  0
LINE
  8
DETAIL
  6
CONTINUOUS
 62
     5
 10
231.5
 20
219.561485
 30
0.0
 11
231.5
 21
223.461483
 31
0.0
  0
LINE
  8
DETAIL
  6
CONTINUOUS
 62
     5
 10
231.500066
 20
223.461417
 30
0.0
 11
232.000084
 21
223.961401
 31
0.0
  0
LINE
  8
DETAIL
  6
CONTINUOUS
 62
     5
 10
211.5
 20
241.243973
 30
0.0
 11
211.27469
 21
241.231532
 31
0.0
  0
LINE
  8
DETAIL
  6
CONTINUOUS
 62
     5
 10
211.27469
 20
241.231532
 30
0.0
 11
211.054958
 21
241.195426
 31
0.0
  0
LINE
  8
DETAIL
  6
CONTINUOUS
 62
     5
 10
211.054958
 20
241.195426
 30
0.0
 11
210.839481
 21
241.135207
 31
0.0
  0
LINE
  8
DETAIL
  6
CONTINUOUS
 62
     5
 10
210.839481
 20
241.135207
 30
0.0
 11
210.632233
 21
241.05222
 31
0.0
  0
LINE
  8
DETAIL
  6
CONTINUOUS
 62
     5
 10
210.632233
 20
241.05222
 30
0.0
 11
210.435999
 21
240.947089
 31
0.0
  0
LINE
  8
DETAIL
  6
CONTINUOUS
 62
     5
 10
210.435999
 20
240.947089
 30
0.0
 11
210.25302
 21
240.821535
 31
0.0
  0
LINE
  8
DETAIL
  6
CONTINUOUS
 62
     5
 10
210.25302
 20
240.821535
 30
0.0
 11
210.08587
 21
240.676764
 31
0.0
  0
LINE
  8
DETAIL
  6
CONTINUOUS
 62
     5
 10
210.08587
 20
240.676764
 30
0.0
 11
209.936337
 21
240.514938
 31
0.0
  0
LINE
  8
DETAIL
  6
CONTINUOUS
 62
     5
 10
209.936337
 20
240.514938
 30
0.0
 11
209.806652
 21
240.337788
 31
0.0
  0
LINE
  8
DETAIL
  6
CONTINUOUS
 62
     5
 10
209.806652
 20
240.337788
 30
0.0
 11
209.698062
 21
240.147805
 31
0.0
  0
LINE
  8
DETAIL
  6
CONTINUOUS
 62
     5
 10
209.698062
 20
240.147805
 30
0.0
 11
209.612345
 21
239.947158
 31
0.0
  0
LINE
  8
DETAIL
  6
CONTINUOUS
 62
     5
 10
209.612345
 20
239.947158
 30
0.0
 11
209.550144
 21
239.738544
 31
0.0
  0
LINE
  8
DETAIL
  6
CONTINUOUS
 62
     5
 10
209.550144
 20
239.738544
 30
0.0
 11
209.51285
 21
239.525812
 31
0.0
  0
LINE
  8
DETAIL
  6
CONTINUOUS
 62
     5
 10
209.51285
 20
239.525812
 30
0.0
 11
209.5
 21
239.307678
 31
0.0
  0
LINE
  8
DETAIL
  6
CONTINUOUS
 62
     5
 10
209.5
 20
239.608134
 30
0.0
 11
209.51285
 21
239.826268
 31
0.0
  0
LINE
  8
DETAIL
  6
CONTINUOUS
 62
     5
 10
209.51285
 20
239.826268
 30
0.0
 11
209.550144
 21
240.039
 31
0.0
  0
LINE
  8
DETAIL
  6
CONTINUOUS
 62
     5
 10
209.550144
 20
240.039
 30
0.0
 11
209.612345
 21
240.247614
 31
0.0
  0
LINE
  8
DETAIL
  6
CONTINUOUS
 62
     5
 10
209.612345
 20
240.247614
 30
0.0
 11
209.698062
 21
240.448261
 31
0.0
  0
LINE
  8
DETAIL
  6
CONTINUOUS
 62
     5
 10
209.698062
 20
240.448261
 30
0.0
 11
209.806652
 21
240.638244
 31
0.0
  0
LINE
  8
DETAIL
  6
CONTINUOUS
 62
     5
 10
209.806652
 20
240.638244
 30
0.0
 11
209.936337
 21
240.815394
 31
0.0
  0
LINE
  8
DETAIL
  6
CONTINUOUS
 62
     5
 10
209.936337
 20
240.815394
 30
0.0
 11
210.08587
 21
240.97722
 31
0.0
  0
LINE
  8
DETAIL
  6
CONTINUOUS
 62
     5
 10
210.08587
 20
240.97722
 30
0.0
 11
210.25302
 21
241.121991
 31
0.0
  0
LINE
  8
DETAIL
  6
CONTINUOUS
 62
     5
 10
210.25302
 20
241.121991
 30
0.0
 11
210.435999
 21
241.247545
 31
0.0
  0
LINE
  8
DETAIL
  6
CONTINUOUS
 62
     5
 10
210.435999
 20
241.247545
 30
0.0
 11
210.632233
 21
241.352676
 31
0.0
  0
LINE
  8
DETAIL
  6
CONTINUOUS
 62
     5
 10
210.632233
 20
241.352676
 30
0.0
 11
210.839481
 21
241.435663
 31
0.0
  0
LINE
  8
DETAIL
  6
CONTINUOUS
 62
     5
 10
210.839481
 20
241.435663
 30
0.0
 11
211.054958
 21
241.495882
 31
0.0
  0
LINE
  8
DETAIL
  6
CONTINUOUS
 62
     5
 10
211.054958
 20
241.495882
 30
0.0
 11
211.27469
 21
241.531988
 31
0.0
  0
LINE
  8
DETAIL
  6
CONTINUOUS
 62
     5
 10
211.27469
 20
241.531988
 30
0.0
 11
211.5
 21
241.544429
 31
0.0
  0
LINE
  8
DETAIL
  6
CONTINUOUS
 62
     5
 10
211.5
 20
241.243973
 30
0.0
 11
211.5
 21
241.544429
 31
0.0
  0
LINE
  8
DETAIL
  6
CONTINUOUS
 62
     5
 10
255.5
 20
178.0
 30
0.0
 11
255.5
 21
246.120952
 31
0.0
  0
LINE
  8
DETAIL
  6
CONTINUOUS
 62
     5
 10
253.1
 20
228.511484
 30
0.0
 11
253.1
 21
160.511484
 31
0.0
  0
LINE
  8
DETAIL
  6
CONTINUOUS
 62
     5
 10
249.9
 20
228.511484
 30
0.0
 11
249.9
 21
160.511484
 31
0.0
  0
ARC
  8
DETAIL
  6
CONTINUOUS
 62
     5
 10
249.1
 20
130.511484
 30
0.0
 40
1.0
 50
180.0
 51
270.0
  0
ARC
  8
DETAIL
  6
CONTINUOUS
 62
     5
 10
254.7
 20
112.80003
 30
0.0
 40
0.8
 50
270.5
 51
0.0
  0
ARC
  8
DETAIL
  6
CONTINUOUS
 62
     5
 10
254.7
 20
103.19997
 30
0.0
 40
0.8
 50
0.0
 51
89.5
  0
ARC
  8
DETAIL
  6
CONTINUOUS
 62
     5
 10
253.6
 20
126.411484
 30
0.0
 40
0.1
 50
0.0
 51
90.0
  0
ARC
  8
DETAIL
  6
CONTINUOUS
 62
     5
 10
253.6
 20
118.611484
 30
0.0
 40
0.1
 50
270.0
 51
0.0
  0
ARC
  8
DETAIL
  6
CONTINUOUS
 62
     5
 10
253.2
 20
126.411484
 30
0.0
 40
0.1
 50
90.0
 51
180.0
  0
ARC
  8
DETAIL
  6
CONTINUOUS
 62
     5
 10
253.2
 20
118.611484
 30
0.0
 40
0.1
 50
180.0
 51
270.0
  0
ARC
  8
DETAIL
  6
CONTINUOUS
 62
     5
 10
257.175
 20
104.325
 30
0.0
 40
0.325
 50
270.0
 51
0.0
  0
ARC
  8
DETAIL
  6
CONTINUOUS
 62
     5
 10
257.175
 20
111.675
 30
0.0
 40
0.325
 50
0.0
 51
90.0
  0
ARC
  8
DETAIL
  6
CONTINUOUS
 62
     5
 10
256.7
 20
104.2
 30
0.0
 40
0.2
 50
180.0
 51
270.0
  0
ARC
  8
DETAIL
  6
CONTINUOUS
 62
     5
 10
256.7
 20
111.8
 30
0.0
 40
0.2
 50
90.0
 51
180.0
  0
LINE
  8
DETAIL
  6
CONTINUOUS
 62
     5
 10
257.175
 20
112.0
 30
0.0
 11
257.175
 21
104.0
 31
0.0
  0
LINE
  8
DETAIL
  6
CONTINUOUS
 62
     5
 10
256.7
 20
104.0
 30
0.0
 11
256.7
 21
112.0
 31
0.0
  0
LINE
  8
DETAIL
  6
CONTINUOUS
 62
     5
 10
256.5
 20
114.999438
 30
0.0
 11
256.5
 21
101.000558
 31
0.0
  0
LINE
  8
DETAIL
  6
CONTINUOUS
 62
     5
 10
254.706981
 20
112.000061
 30
0.0
 11
254.706981
 21
103.999939
 31
0.0
  0
LINE
  8
DETAIL
  6
CONTINUOUS
 62
     5
 10
253.7
 20
126.411484
 30
0.0
 11
253.7
 21
118.611484
 31
0.0
  0
LINE
  8
DETAIL
  6
CONTINUOUS
 62
     5
 10
253.6
 20
126.511484
 30
0.0
 11
253.6
 21
118.511484
 31
0.0
  0
LINE
  8
DETAIL
  6
CONTINUOUS
 62
     5
 10
253.2
 20
118.511484
 30
0.0
 11
253.2
 21
126.511484
 31
0.0
  0
LINE
  8
DETAIL
  6
CONTINUOUS
 62
     5
 10
253.6
 20
126.511484
 30
0.0
 11
253.2
 21
126.511484
 31
0.0
  0
LINE
  8
DETAIL
  6
CONTINUOUS
 62
     5
 10
253.6
 20
118.511484
 30
0.0
 11
253.2
 21
118.511484
 31
0.0
  0
LINE
  8
DETAIL
  6
CONTINUOUS
 62
     5
 10
254.706981
 20
103.999939
 30
0.0
 11
253.1
 21
104.013963
 31
0.0
  0
LINE
  8
DETAIL
  6
CONTINUOUS
 62
     5
 10
255.5
 20
115.0
 30
0.0
 11
256.5
 21
115.0
 31
0.0
  0
LINE
  8
DETAIL
  6
CONTINUOUS
 62
     5
 10
255.5
 20
113.573898
 30
0.0
 11
253.1
 21
113.573898
 31
0.0
  0
LINE
  8
DETAIL
  6
CONTINUOUS
 62
     5
 10
255.5
 20
113.42367
 30
0.0
 11
253.1
 21
113.42367
 31
0.0
  0
LINE
  8
DETAIL
  6
CONTINUOUS
 62
     5
 10
256.7
 20
112.0
 30
0.0
 11
257.175
 21
112.0
 31
0.0
  0
LINE
  8
DETAIL
  6
CONTINUOUS
 62
     5
 10
256.7
 20
104.0
 30
0.0
 11
257.175
 21
104.0
 31
0.0
  0
LINE
  8
DETAIL
  6
CONTINUOUS
 62
     5
 10
255.5
 20
101.0
 30
0.0
 11
256.5
 21
101.0
 31
0.0
  0
LINE
  8
DETAIL
  6
CONTINUOUS
 62
     5
 10
254.706981
 20
112.000061
 30
0.0
 11
253.1
 21
111.986037
 31
0.0
  0
CIRCLE
  8
DETAIL
  6
CONTINUOUS
 62
     5
 10
280.0
 20
140.0
 30
0.0
 40
4.0
  0
ARC
  8
DETAIL
  6
CONTINUOUS
 62
     5
 10
249.1
 20
159.511484
 30
0.0
 40
1.0
 50
90.0
 51
180.0
  0
LINE
  8
DETAIL
  6
CONTINUOUS
 62
     5
 10
249.5
 20
141.943517
 30
0.0
 11
249.48458
 21
142.011213
 31
0.0
  0
LINE
  8
DETAIL
  6
CONTINUOUS
 62
     5
 10
249.48458
 20
142.011213
 30
0.0
 11
249.439827
 21
142.077233
 31
0.0
  0
LINE
  8
DETAIL
  6
CONTINUOUS
 62
     5
 10
249.439827
 20
142.077233
 30
0.0
 11
249.365186
 21
142.141974
 31
0.0
  0
LINE
  8
DETAIL
  6
CONTINUOUS
 62
     5
 10
249.365186
 20
142.141974
 30
0.0
 11
249.262325
 21
142.204243
 31
0.0
  0
LINE
  8
DETAIL
  6
CONTINUOUS
 62
     5
 10
249.262325
 20
142.204243
 30
0.0
 11
249.132018
 21
142.263203
 31
0.0
  0
LINE
  8
DETAIL
  6
CONTINUOUS
 62
     5
 10
249.132018
 20
142.263203
 30
0.0
 11
248.976396
 21
142.31818
 31
0.0
  0
LINE
  8
DETAIL
  6
CONTINUOUS
 62
     5
 10
248.976396
 20
142.31818
 30
0.0
 11
248.796956
 21
142.368401
 31
0.0
  0
LINE
  8
DETAIL
  6
CONTINUOUS
 62
     5
 10
248.796956
 20
142.368401
 30
0.0
 11
248.596376
 21
142.413329
 31
0.0
  0
LINE
  8
DETAIL
  6
CONTINUOUS
 62
     5
 10
248.596376
 20
142.413329
 30
0.0
 11
248.376801
 21
142.452294
 31
0.0
  0
LINE
  8
DETAIL
  6
CONTINUOUS
 62
     5
 10
248.376801
 20
142.452294
 30
0.0
 11
248.141321
 21
142.48492
 31
0.0
  0
LINE
  8
DETAIL
  6
CONTINUOUS
 62
     5
 10
248.141321
 20
142.48492
 30
0.0
 11
248.1
 21
142.489199
 31
0.0
  0
LINE
  8
DETAIL
  6
CONTINUOUS
 62
     5
 10
248.1
 20
142.108419
 30
0.0
 11
248.13923
 21
142.093745
 31
0.0
  0
LINE
  8
DETAIL
  6
CONTINUOUS
 62
     5
 10
248.13923
 20
142.093745
 30
0.0
 11
248.208534
 21
142.058484
 31
0.0
  0
LINE
  8
DETAIL
  6
CONTINUOUS
 62
     5
 10
248.208534
 20
142.058484
 30
0.0
 11
248.259111
 21
142.021281
 31
0.0
  0
LINE
  8
DETAIL
  6
CONTINUOUS
 62
     5
 10
248.259111
 20
142.021281
 30
0.0
 11
248.289429
 21
141.983062
 31
0.0
  0
LINE
  8
DETAIL
  6
CONTINUOUS
 62
     5
 10
248.289429
 20
141.983062
 30
0.0
 11
248.3
 21
141.943517
 31
0.0
  0
LINE
  8
DETAIL
  6
CONTINUOUS
 62
     5
 10
249.5
 20
141.943517
 30
0.0
 11
249.5
 21
129.511484
 31
0.0
  0
LINE
  8
DETAIL
  6
CONTINUOUS
 62
     5
 10
248.3
 20
129.913513
 30
0.0
 11
248.3
 21
141.943517
 31
0.0
  0
LINE
  8
DETAIL
  6
CONTINUOUS
 62
     5
 10
248.1
 20
130.511484
 30
0.0
 11
248.1
 21
159.511484
 31
0.0
  0
LINE
  8
DETAIL
  6
CONTINUOUS
 62
     5
 10
253.1
 20
160.511484
 30
0.0
 11
249.1
 21
160.511484
 31
0.0
  0
LINE
  8
DETAIL
  6
CONTINUOUS
 62
     5
 10
255.5
 20
147.858352
 30
0.0
 11
248.1
 21
147.858352
 31
0.0
  0
LINE
  8
DETAIL
  6
CONTINUOUS
 62
     5
 10
255.5
 20
147.558352
 30
0.0
 11
248.1
 21
147.558352
 31
0.0
  0
LINE
  8
DETAIL
  6
CONTINUOUS
 62
     5
 10
255.5
 20
147.120984
 30
0.0
 11
248.1
 21
147.120984
 31
0.0
  0
LINE
  8
DETAIL
  6
CONTINUOUS
 62
     5
 10
248.1
 20
144.32854
 30
0.0
 11
255.5
 21
144.32854
 31
0.0
  0
LINE
  8
DETAIL
  6
CONTINUOUS
 62
     5
 10
248.1
 20
143.533895
 30
0.0
 11
255.5
 21
143.533895
 31
0.0
  0
LINE
  8
DETAIL
  6
CONTINUOUS
 62
     5
 10
249.5
 20
134.384918
 30
0.0
 11
248.3
 21
134.384918
 31
0.0
  0
LINE
  8
DETAIL
  6
CONTINUOUS
 62
     5
 10
253.1
 20
129.511484
 30
0.0
 11
249.1
 21
129.511484
 31
0.0
  0
ARC
  8
DETAIL
  6
CONTINUOUS
 62
     5
 10
256.7
 20
172.2
 30
0.0
 40
0.8
 50
0.0
 51
90.0
  0
ARC
  8
DETAIL
  6
CONTINUOUS
 62
     5
 10
256.7
 20
179.8
 30
0.0
 40
0.8
 50
270.0
 51
354.375
  0
LINE
  8
DETAIL
  6
CONTINUOUS
 62
     5
 10
256.7
 20
173.0
 30
0.0
 11
256.7
 21
179.0
 31
0.0
  0
LINE
  8
DETAIL
  6
CONTINUOUS
 62
     5
 10
256.5
 20
173.0
 30
0.0
 11
256.5
 21
179.0
 31
0.0
  0
LINE
  8
DETAIL
  6
CONTINUOUS
 62
     5
 10
253.75
 20
174.0
 30
0.0
 11
253.75
 21
178.0
 31
0.0
  0
LINE
  8
DETAIL
  6
CONTINUOUS
 62
     5
 10
256.7
 20
179.0
 30
0.0
 11
256.5
 21
179.0
 31
0.0
  0
LINE
  8
DETAIL
  6
CONTINUOUS
 62
     5
 10
253.75
 20
178.0
 30
0.0
 11
256.5
 21
178.0
 31
0.0
  0
LINE
  8
DETAIL
  6
CONTINUOUS
 62
     5
 10
253.75
 20
174.0
 30
0.0
 11
256.5
 21
174.0
 31
0.0
  0
LINE
  8
DETAIL
  6
CONTINUOUS
 62
     5
 10
256.7
 20
173.0
 30
0.0
 11
256.5
 21
173.0
 31
0.0
  0
LINE
  8
DETAIL
  6
CONTINUOUS
 62
     5
 10
305.0
 20
262.5
 30
0.0
 11
259.5
 21
262.5
 31
0.0
  0
LINE
  8
DETAIL
  6
CONTINUOUS
 62
     5
 10
305.0
 20
261.7
 30
0.0
 11
263.0
 21
261.7
 31
0.0
  0
LINE
  8
DETAIL
  6
CONTINUOUS
 62
     5
 10
305.0
 20
261.5
 30
0.0
 11
263.0
 21
261.5
 31
0.0
  0
LINE
  8
DETAIL
  6
CONTINUOUS
 62
     5
 10
305.0
 20
260.5
 30
0.0
 11
263.0
 21
260.5
 31
0.0
  0
LINE
  8
DETAIL
  6
CONTINUOUS
 62
     5
 10
249.5
 20
240.943517
 30
0.0
 11
249.5
 21
228.511484
 31
0.0
  0
LINE
  8
DETAIL
  6
CONTINUOUS
 62
     5
 10
248.3
 20
228.511484
 30
0.0
 11
248.3
 21
240.943517
 31
0.0
  0
LINE
  8
DETAIL
  6
CONTINUOUS
 62
     5
 10
247.1
 20
241.243973
 30
0.0
 11
247.1
 21
228.511484
 31
0.0
  0
ARC
  8
DETAIL
  6
CONTINUOUS
 62
     5
 10
254.7
 20
211.80003
 30
0.0
 40
0.8
 50
270.5
 51
0.0
  0
ARC
  8
DETAIL
  6
CONTINUOUS
 62
     5
 10
254.7
 20
202.19997
 30
0.0
 40
0.8
 50
0.0
 51
89.5
  0
ARC
  8
DETAIL
  6
CONTINUOUS
 62
     5
 10
253.6
 20
225.411484
 30
0.0
 40
0.1
 50
0.0
 51
90.0
  0
ARC
  8
DETAIL
  6
CONTINUOUS
 62
     5
 10
253.6
 20
217.611484
 30
0.0
 40
0.1
 50
270.0
 51
0.0
  0
ARC
  8
DETAIL
  6
CONTINUOUS
 62
     5
 10
253.2
 20
225.411484
 30
0.0
 40
0.1
 50
90.0
 51
180.0
  0
ARC
  8
DETAIL
  6
CONTINUOUS
 62
     5
 10
253.2
 20
217.611484
 30
0.0
 40
0.1
 50
180.0
 51
270.0
  0
ARC
  8
DETAIL
  6
CONTINUOUS
 62
     5
 10
257.175
 20
203.325
 30
0.0
 40
0.325
 50
270.0
 51
0.0
  0
ARC
  8
DETAIL
  6
CONTINUOUS
 62
     5
 10
257.175
 20
210.675
 30
0.0
 40
0.325
 50
0.0
 51
90.0
  0
ARC
  8
DETAIL
  6
CONTINUOUS
 62
     5
 10
256.7
 20
203.2
 30
0.0
 40
0.2
 50
180.0
 51
270.0
  0
ARC
  8
DETAIL
  6
CONTINUOUS
 62
     5
 10
256.7
 20
210.8
 30
0.0
 40
0.2
 50
90.0
 51
180.0
  0
LINE
  8
DETAIL
  6
CONTINUOUS
 62
     5
 10
253.6
 20
225.511484
 30
0.0
 11
253.2
 21
225.511484
 31
0.0
  0
LINE
  8
DETAIL
  6
CONTINUOUS
 62
     5
 10
243.9
 20
219.486484
 30
0.0
 11
243.8
 21
219.486484
 31
0.0
  0
LINE
  8
DETAIL
  6
CONTINUOUS
 62
     5
 10
245.0
 20
219.061484
 30
0.0
 11
244.5
 21
219.061484
 31
0.0
  0
LINE
  8
DETAIL
  6
CONTINUOUS
 62
     5
 10
253.6
 20
217.511484
 30
0.0
 11
253.2
 21
217.511484
 31
0.0
  0
LINE
  8
DETAIL
  6
CONTINUOUS
 62
     5
 10
255.5
 20
214.0
 30
0.0
 11
256.5
 21
214.0
 31
0.0
  0
LINE
  8
DETAIL
  6
CONTINUOUS
 62
     5
 10
255.5
 20
212.573898
 30
0.0
 11
253.1
 21
212.573898
 31
0.0
  0
LINE
  8
DETAIL
  6
CONTINUOUS
 62
     5
 10
255.5
 20
212.42367
 30
0.0
 11
253.1
 21
212.42367
 31
0.0
  0
LINE
  8
DETAIL
  6
CONTINUOUS
 62
     5
 10
256.7
 20
211.0
 30
0.0
 11
257.175
 21
211.0
 31
0.0
  0
LINE
  8
DETAIL
  6
CONTINUOUS
 62
     5
 10
257.175
 20
211.0
 30
0.0
 11
257.175
 21
203.0
 31
0.0
  0
LINE
  8
DETAIL
  6
CONTINUOUS
 62
     5
 10
256.7
 20
203.0
 30
0.0
 11
256.7
 21
211.0
 31
0.0
  0
LINE
  8
DETAIL
  6
CONTINUOUS
 62
     5
 10
256.5
 20
213.999438
 30
0.0
 11
256.5
 21
200.000558
 31
0.0
  0
LINE
  8
DETAIL
  6
CONTINUOUS
 62
     5
 10
254.706981
 20
211.000061
 30
0.0
 11
254.706981
 21
202.999939
 31
0.0
  0
LINE
  8
DETAIL
  6
CONTINUOUS
 62
     5
 10
253.7
 20
225.411484
 30
0.0
 11
253.7
 21
217.611484
 31
0.0
  0
LINE
  8
DETAIL
  6
CONTINUOUS
 62
     5
 10
253.6
 20
225.511484
 30
0.0
 11
253.6
 21
217.511484
 31
0.0
  0
LINE
  8
DETAIL
  6
CONTINUOUS
 62
     5
 10
253.2
 20
217.511484
 30
0.0
 11
253.2
 21
225.511484
 31
0.0
  0
LINE
  8
DETAIL
  6
CONTINUOUS
 62
     5
 10
254.706981
 20
202.999939
 30
0.0
 11
253.1
 21
203.013963
 31
0.0
  0
LINE
  8
DETAIL
  6
CONTINUOUS
 62
     5
 10
256.7
 20
203.0
 30
0.0
 11
257.175
 21
203.0
 31
0.0
  0
LINE
  8
DETAIL
  6
CONTINUOUS
 62
     5
 10
255.5
 20
200.0
 30
0.0
 11
256.5
 21
200.0
 31
0.0
  0
LINE
  8
DETAIL
  6
CONTINUOUS
 62
     5
 10
254.706981
 20
211.000061
 30
0.0
 11
253.1
 21
210.986037
 31
0.0
  0
LINE
  8
DETAIL
  6
CONTINUOUS
 62
     5
 10
245.0
 20
218.714891
 30
0.0
 11
245.0
 21
222.308077
 31
0.0
  0
LINE
  8
DETAIL
  6
CONTINUOUS
 62
     5
 10
244.5
 20
222.831527
 30
0.0
 11
244.5
 21
218.191441
 31
0.0
  0
LINE
  8
DETAIL
  6
CONTINUOUS
 62
     5
 10
243.9
 20
217.807857
 30
0.0
 11
243.9
 21
223.215111
 31
0.0
  0
LINE
  8
DETAIL
  6
CONTINUOUS
 62
     5
 10
243.8
 20
219.061484
 30
0.0
 11
243.8
 21
223.258721
 31
0.0
  0
LINE
  8
DETAIL
  6
CONTINUOUS
 62
     5
 10
260.5
 20
257.6
 30
0.0
 11
263.0
 21
257.6
 31
0.0
  0
LINE
  8
DETAIL
  6
CONTINUOUS
 62
     5
 10
259.488863
 20
259.992426
 30
0.0
 11
259.675421
 21
259.970315
 31
0.0
  0
LINE
  8
DETAIL
  6
CONTINUOUS
 62
     5
 10
259.675421
 20
259.970315
 30
0.0
 11
259.86024
 21
259.933548
 31
0.0
  0
LINE
  8
DETAIL
  6
CONTINUOUS
 62
     5
 10
259.86024
 20
259.933548
 30
0.0
 11
260.041622
 21
259.882478
 31
0.0
  0
LINE
  8
DETAIL
  6
CONTINUOUS
 62
     5
 10
260.041622
 20
259.882478
 30
0.0
 11
260.218407
 21
259.81723
 31
0.0
  0
LINE
  8
DETAIL
  6
CONTINUOUS
 62
     5
 10
260.218407
 20
259.81723
 30
0.0
 11
260.389548
 21
259.738358
 31
0.0
  0
LINE
  8
DETAIL
  6
CONTINUOUS
 62
     5
 10
260.389548
 20
259.738358
 30
0.0
 11
260.553916
 21
259.646213
 31
0.0
  0
LINE
  8
DETAIL
  6
CONTINUOUS
 62
     5
 10
260.553916
 20
259.646213
 30
0.0
 11
260.7106
 21
259.541524
 31
0.0
  0
LINE
  8
DETAIL
  6
CONTINUOUS
 62
     5
 10
260.7106
 20
259.541524
 30
0.0
 11
260.858615
 21
259.424892
 31
0.0
  0
LINE
  8
DETAIL
  6
CONTINUOUS
 62
     5
 10
260.858615
 20
259.424892
 30
0.0
 11
260.997056
 21
259.297056
 31
0.0
  0
LINE
  8
DETAIL
  6
CONTINUOUS
 62
     5
 10
260.997056
 20
259.297056
 30
0.0
 11
261.124892
 21
259.158615
 31
0.0
  0
LINE
  8
DETAIL
  6
CONTINUOUS
 62
     5
 10
261.124892
 20
259.158615
 30
0.0
 11
261.241524
 21
259.0106
 31
0.0
  0
LINE
  8
DETAIL
  6
CONTINUOUS
 62
     5
 10
261.241524
 20
259.0106
 30
0.0
 11
261.346213
 21
258.853916
 31
0.0
  0
LINE
  8
DETAIL
  6
CONTINUOUS
 62
     5
 10
261.346213
 20
258.853916
 30
0.0
 11
261.438358
 21
258.689548
 31
0.0
  0
LINE
  8
DETAIL
  6
CONTINUOUS
 62
     5
 10
261.438358
 20
258.689548
 30
0.0
 11
261.51723
 21
258.518407
 31
0.0
  0
LINE
  8
DETAIL
  6
CONTINUOUS
 62
     5
 10
261.51723
 20
258.518407
 30
0.0
 11
261.582478
 21
258.341622
 31
0.0
  0
LINE
  8
DETAIL
  6
CONTINUOUS
 62
     5
 10
261.582478
 20
258.341622
 30
0.0
 11
261.633548
 21
258.16024
 31
0.0
  0
LINE
  8
DETAIL
  6
CONTINUOUS
 62
     5
 10
261.633548
 20
258.16024
 30
0.0
 11
261.670315
 21
257.975421
 31
0.0
  0
LINE
  8
DETAIL
  6
CONTINUOUS
 62
     5
 10
261.670315
 20
257.975421
 30
0.0
 11
261.692426
 21
257.788863
 31
0.0
  0
LINE
  8
DETAIL
  6
CONTINUOUS
 62
     5
 10
261.692426
 20
257.788863
 30
0.0
 11
261.7
 21
257.6
 31
0.0
  0
LINE
  8
DETAIL
  6
CONTINUOUS
 62
     5
 10
249.5
 20
240.943517
 30
0.0
 11
249.48458
 21
241.011213
 31
0.0
  0
LINE
  8
DETAIL
  6
CONTINUOUS
 62
     5
 10
249.48458
 20
241.011213
 30
0.0
 11
249.439827
 21
241.077233
 31
0.0
  0
LINE
  8
DETAIL
  6
CONTINUOUS
 62
     5
 10
249.439827
 20
241.077233
 30
0.0
 11
249.365186
 21
241.141974
 31
0.0
  0
LINE
  8
DETAIL
  6
CONTINUOUS
 62
     5
 10
249.365186
 20
241.141974
 30
0.0
 11
249.262325
 21
241.204243
 31
0.0
  0
LINE
  8
DETAIL
  6
CONTINUOUS
 62
     5
 10
249.262325
 20
241.204243
 30
0.0
 11
249.132018
 21
241.263203
 31
0.0
  0
LINE
  8
DETAIL
  6
CONTINUOUS
 62
     5
 10
249.132018
 20
241.263203
 30
0.0
 11
248.976396
 21
241.31818
 31
0.0
  0
LINE
  8
DETAIL
  6
CONTINUOUS
 62
     5
 10
248.976396
 20
241.31818
 30
0.0
 11
248.796956
 21
241.368401
 31
0.0
  0
LINE
  8
DETAIL
  6
CONTINUOUS
 62
     5
 10
248.796956
 20
241.368401
 30
0.0
 11
248.596376
 21
241.413329
 31
0.0
  0
LINE
  8
DETAIL
  6
CONTINUOUS
 62
     5
 10
248.596376
 20
241.413329
 30
0.0
 11
248.376801
 21
241.452294
 31
0.0
  0
LINE
  8
DETAIL
  6
CONTINUOUS
 62
     5
 10
248.376801
 20
241.452294
 30
0.0
 11
248.141321
 21
241.48492
 31
0.0
  0
LINE
  8
DETAIL
  6
CONTINUOUS
 62
     5
 10
248.141321
 20
241.48492
 30
0.0
 11
247.892623
 21
241.510674
 31
0.0
  0
LINE
  8
DETAIL
  6
CONTINUOUS
 62
     5
 10
247.892623
 20
241.510674
 30
0.0
 11
247.63405
 21
241.529363
 31
0.0
  0
LINE
  8
DETAIL
  6
CONTINUOUS
 62
     5
 10
247.63405
 20
241.529363
 30
0.0
 11
247.370373
 21
241.540568
 31
0.0
  0
LINE
  8
DETAIL
  6
CONTINUOUS
 62
     5
 10
247.370373
 20
241.540568
 30
0.0
 11
247.1
 21
241.544429
 31
0.0
  0
LINE
  8
DETAIL
  6
CONTINUOUS
 62
     5
 10
259.3
 20
260.0
 30
0.0
 11
259.488863
 21
259.992426
 31
0.0
  0
LINE
  8
DETAIL
  6
CONTINUOUS
 62
     5
 10
247.1
 20
241.243973
 30
0.0
 11
247.257937
 21
241.241327
 31
0.0
  0
LINE
  8
DETAIL
  6
CONTINUOUS
 62
     5
 10
247.257937
 20
241.241327
 30
0.0
 11
247.410583
 21
241.233735
 31
0.0
  0
LINE
  8
DETAIL
  6
CONTINUOUS
 62
     5
 10
247.410583
 20
241.233735
 30
0.0
 11
247.55917
 21
241.221072
 31
0.0
  0
LINE
  8
DETAIL
  6
CONTINUOUS
 62
     5
 10
247.55917
 20
241.221072
 30
0.0
 11
247.7
 21
241.20372
 31
0.0
  0
LINE
  8
DETAIL
  6
CONTINUOUS
 62
     5
 10
247.7
 20
241.20372
 30
0.0
 11
247.830434
 21
241.181859
 31
0.0
  0
LINE
  8
DETAIL
  6
CONTINUOUS
 62
     5
 10
247.830434
 20
241.181859
 30
0.0
 11
247.948528
 21
241.155972
 31
0.0
  0
LINE
  8
DETAIL
  6
CONTINUOUS
 62
     5
 10
247.948528
 20
241.155972
 30
0.0
 11
248.05192
 21
241.126403
 31
0.0
  0
LINE
  8
DETAIL
  6
CONTINUOUS
 62
     5
 10
248.05192
 20
241.126403
 30
0.0
 11
248.13923
 21
241.093745
 31
0.0
  0
LINE
  8
DETAIL
  6
CONTINUOUS
 62
     5
 10
248.13923
 20
241.093745
 30
0.0
 11
248.208534
 21
241.058484
 31
0.0
  0
LINE
  8
DETAIL
  6
CONTINUOUS
 62
     5
 10
248.208534
 20
241.058484
 30
0.0
 11
248.259111
 21
241.021281
 31
0.0
  0
LINE
  8
DETAIL
  6
CONTINUOUS
 62
     5
 10
248.259111
 20
241.021281
 30
0.0
 11
248.289429
 21
240.983062
 31
0.0
  0
LINE
  8
DETAIL
  6
CONTINUOUS
 62
     5
 10
248.289429
 20
240.983062
 30
0.0
 11
248.3
 21
240.943517
 31
0.0
  0
LINE
  8
DETAIL
  6
CONTINUOUS
 62
     5
 10
259.3
 20
258.8
 30
0.0
 11
248.5
 21
258.8
 31
0.0
  0
LINE
  8
DETAIL
  6
CONTINUOUS
 62
     5
 10
259.5
 20
239.0
 30
0.0
 11
257.5
 21
239.0
 31
0.0
  0
LINE
  8
DETAIL
  6
CONTINUOUS
 62
     5
 10
260.5
 20
239.0
 30
0.0
 11
259.5
 21
239.0
 31
0.0
  0
LINE
  8
DETAIL
  6
CONTINUOUS
 62
     5
 10
249.5
 20
233.384918
 30
0.0
 11
248.3
 21
233.384918
 31
0.0
  0
LINE
  8
DETAIL
  6
CONTINUOUS
 62
     5
 10
260.447214
 20
239.0
 30
0.0
 11
260.447214
 21
254.434752
 31
0.0
  0
LINE
  8
DETAIL
  6
CONTINUOUS
 62
     5
 10
259.626687
 20
239.0
 30
0.0
 11
259.626687
 21
252.6
 31
0.0
  0
LINE
  8
DETAIL
  6
CONTINUOUS
 62
     5
 10
259.5
 20
260.0
 30
0.0
 11
259.5
 21
262.5
 31
0.0
  0
LINE
  8
DETAIL
  6
CONTINUOUS
 62
     5
 10
259.5
 20
250.121093
 30
0.0
 11
259.5
 21
258.781806
 31
0.0
  0
LINE
  8
DETAIL
  6
CONTINUOUS
 62
     5
 10
260.5
 20
257.6
 30
0.0
 11
260.493985
 21
257.718154
 31
0.0
  0
LINE
  8
DETAIL
  6
CONTINUOUS
 62
     5
 10
260.493985
 20
257.718154
 30
0.0
 11
260.476736
 21
257.834067
 31
0.0
  0
LINE
  8
DETAIL
  6
CONTINUOUS
 62
     5
 10
260.476736
 20
257.834067
 30
0.0
 11
260.448108
 21
257.94828
 31
0.0
  0
LINE
  8
DETAIL
  6
CONTINUOUS
 62
     5
 10
260.448108
 20
257.94828
 30
0.0
 11
260.408536
 21
258.059171
 31
0.0
  0
LINE
  8
DETAIL
  6
CONTINUOUS
 62
     5
 10
260.408536
 20
258.059171
 30
0.0
 11
260.358201
 21
258.165626
 31
0.0
  0
LINE
  8
DETAIL
  6
CONTINUOUS
 62
     5
 10
260.358201
 20
258.165626
 30
0.0
 11
260.297719
 21
258.266654
 31
0.0
  0
LINE
  8
DETAIL
  6
CONTINUOUS
 62
     5
 10
260.297719
 20
258.266654
 30
0.0
 11
260.227458
 21
258.361128
 31
0.0
  0
LINE
  8
DETAIL
  6
CONTINUOUS
 62
     5
 10
260.227458
 20
258.361128
 30
0.0
 11
260.148339
 21
258.448339
 31
0.0
  0
LINE
  8
DETAIL
  6
CONTINUOUS
 62
     5
 10
260.148339
 20
258.448339
 30
0.0
 11
260.061128
 21
258.527458
 31
0.0
  0
LINE
  8
DETAIL
  6
CONTINUOUS
 62
     5
 10
260.061128
 20
258.527458
 30
0.0
 11
259.966654
 21
258.597719
 31
0.0
  0
LINE
  8
DETAIL
  6
CONTINUOUS
 62
     5
 10
259.966654
 20
258.597719
 30
0.0
 11
259.865626
 21
258.658201
 31
0.0
  0
LINE
  8
DETAIL
  6
CONTINUOUS
 62
     5
 10
259.865626
 20
258.658201
 30
0.0
 11
259.759171
 21
258.708536
 31
0.0
  0
LINE
  8
DETAIL
  6
CONTINUOUS
 62
     5
 10
259.759171
 20
258.708536
 30
0.0
 11
259.64828
 21
258.748108
 31
0.0
  0
LINE
  8
DETAIL
  6
CONTINUOUS
 62
     5
 10
259.64828
 20
258.748108
 30
0.0
 11
259.534067
 21
258.776736
 31
0.0
  0
LINE
  8
DETAIL
  6
CONTINUOUS
 62
     5
 10
259.534067
 20
258.776736
 30
0.0
 11
259.418154
 21
258.793985
 31
0.0
  0
LINE
  8
DETAIL
  6
CONTINUOUS
 62
     5
 10
259.418154
 20
258.793985
 30
0.0
 11
259.3
 21
258.8
 31
0.0
  0
LINE
  8
DETAIL
  6
CONTINUOUS
 62
     5
 10
248.5
 20
258.8
 30
0.0
 11
248.5
 21
260.0
 31
0.0
  0
LINE
  8
DETAIL
  6
CONTINUOUS
 62
     5
 10
260.447214
 20
254.434752
 30
0.0
 11
260.463492
 21
254.474383
 31
0.0
  0
LINE
  8
DETAIL
  6
CONTINUOUS
 62
     5
 10
260.463492
 20
254.474383
 30
0.0
 11
260.476771
 21
254.513244
 31
0.0
  0
LINE
  8
DETAIL
  6
CONTINUOUS
 62
     5
 10
260.476771
 20
254.513244
 30
0.0
 11
260.487042
 21
254.551497
 31
0.0
  0
LINE
  8
DETAIL
  6
CONTINUOUS
 62
     5
 10
260.487042
 20
254.551497
 30
0.0
 11
260.494328
 21
254.588652
 31
0.0
  0
LINE
  8
DETAIL
  6
CONTINUOUS
 62
     5
 10
260.494328
 20
254.588652
 30
0.0
 11
260.49865
 21
254.624218
 31
0.0
  0
LINE
  8
DETAIL
  6
CONTINUOUS
 62
     5
 10
260.49865
 20
254.624218
 30
0.0
 11
260.5
 21
254.658359
 31
0.0
  0
LINE
  8
DETAIL
  6
CONTINUOUS
 62
     5
 10
260.447214
 20
254.434752
 30
0.0
 11
259.626687
 21
252.6
 31
0.0
  0
LINE
  8
DETAIL
  6
CONTINUOUS
 62
     5
 10
254.881072
 20
246.120984
 30
0.0
 11
259.5
 21
250.121093
 31
0.0
  0
LINE
  8
DETAIL
  6
CONTINUOUS
 62
     5
 10
263.0
 20
257.6
 30
0.0
 11
263.0
 21
262.5
 31
0.0
  0
CIRCLE
  8
DETAIL
  6
CONTINUOUS
 62
     5
 10
280.0
 20
280.0
 30
0.0
 40
7.0
  0
ARC
  8
DETAIL
  6
CONTINUOUS
 62
     5
 10
289.0
 20
289.0
 30
0.0
 40
16.0
 50
0.0
 51
90.0
  0
ARC
  8
DETAIL
  6
CONTINUOUS
 62
     5
 39
50.0
 10
166.792249
 20
-240.278449
 30
0.0
 40
11.002641
 50
0.214111
 51
85.066066
  0
LINE
  8
DETAIL
  6
CONTINUOUS
 62
     5
 39
50.0
 10
167.738553
 20
-229.316578
 30
0.0
 11
163.5
 21
-229.316578
 31
0.0
  0
ARC
  8
DETAIL
  6
CONTINUOUS
 62
     5
 39
50.0
 10
162.553696
 20
-249.276583
 30
0.0
 40
11.002641
 50
61.885345
 51
85.066066
  0
ARC
  8
DETAIL
  6
CONTINUOUS
 62
     5
 10
211.5
 20
-243.5
 30
0.0
 40
2.0
 50
180.0
 51
270.0
  0
LINE
  8
DETAIL
  6
CONTINUOUS
 62
     5
 10
167.738553
 20
-305.0
 30
0.0
 11
-289.0
 21
-305.0
 31
0.0
  0
LINE
  8
DETAIL
  6
CONTINUOUS
 62
     5
 10
167.738553
 20
-262.4
 30
0.0
 11
-259.5
 21
-262.4
 31
0.0
  0
LINE
  8
DETAIL
  6
CONTINUOUS
 62
     5
 10
167.738553
 20
-260.0
 30
0.0
 11
-259.5
 21
-260.0
 31
0.0
  0
LINE
  8
DETAIL
  6
CONTINUOUS
 62
     5
 10
177.794812
 20
-258.8
 30
0.0
 11
257.3
 21
-258.8
 31
0.0
  0
LINE
  8
DETAIL
  6
CONTINUOUS
 62
     5
 10
177.787385
 20
-378.467305
 30
0.0
 11
176.889681
 21
-376.912437
 31
0.0
  0
LINE
  8
DETAIL
  6
CONTINUOUS
 62
     5
 10
180.125653
 20
-377.117305
 30
0.0
 11
176.247392
 21
-370.399959
 31
0.0
  0
LINE
  8
DETAIL
  6
CONTINUOUS
 62
     5
 10
178.480205
 20
-378.067305
 30
0.0
 11
181.480205
 21
-383.263457
 31
0.0
  0
LINE
  8
DETAIL
  6
CONTINUOUS
 62
     5
 10
179.432833
 20
-377.517305
 30
0.0
 11
182.432833
 21
-382.713457
 31
0.0
  0
LINE
  8
DETAIL
  6
CONTINUOUS
 62
     5
 10
180.125654
 20
-377.117305
 30
0.0
 11
177.787384
 21
-378.467305
 31
0.0
  0
LINE
  8
DETAIL
  6
CONTINUOUS
 62
     5
 10
181.480205
 20
-383.263457
 30
0.0
 11
182.432833
 21
-382.713457
 31
0.0
  0
ENDSEC
  0
EOF
