  0
SECTION
  2
HEADER
  9
$ACADVER
  1
AC1009
  9
$DWGCODEPAGE
  3
dos932
  9
$INSBASE
 10
0.0
 20
0.0
 30
0.0
  9
$EXTMIN
 10
-834.76866
 20
-554.03136
 30
-0.001526
  9
$EXTMAX
 10
866.944897
 20
801.406869
 30
50.001526
  9
$LIMMIN
 10
-2970.0
 20
-2100.0
  9
$LIMMAX
 10
2970.0
 20
2100.0
  9
$ORTHOMODE
 70
     1
  9
$REGENMODE
 70
     1
  9
$FILLMODE
 70
     1
  9
$QTEXTMODE
 70
     0
  9
$MIRRTEXT
 70
     0
  9
$DRAGMODE
 70
     2
  9
$LTSCALE
 40
20.0
  9
$OSMODE
 70
  3071
  9
$ATTMODE
 70
     1
  9
$TEXTSIZE
 40
64.0
  9
$TRACEWID
 40
0.05
  9
$TEXTSTYLE
  7
STANDARD
  9
$CLAYER
  8
SIZE
  9
$CELTYPE
  6
CONTINUOUS
  9
$CECOLOR
 62
     7
  9
$DIMSCALE
 40
1.0
  9
$DIMASZ
 40
12.0
  9
$DIMEXO
 40
20.0
  9
$DIMDLI
 40
200.0
  9
$DIMRND
 40
0.0
  9
$DIMDLE
 40
0.0
  9
$DIMEXE
 40
20.0
  9
$DIMTP
 40
0.0
  9
$DIMTM
 40
0.0
  9
$DIMTXT
 40
64.0
  9
$DIMCEN
 40
0.09
  9
$DIMTSZ
 40
0.0
  9
$DIMTOL
 70
     0
  9
$DIMLIM
 70
     0
  9
$DIMTIH
 70
     0
  9
$DIMTOH
 70
     0
  9
$DIMSE1
 70
     0
  9
$DIMSE2
 70
     0
  9
$DIMTAD
 70
     1
  9
$DIMZIN
 70
     8
  9
$DIMBLK
  1
DOT1
  9
$DIMASO
 70
     1
  9
$DIMSHO
 70
     0
  9
$DIMPOST
  1

  9
$DIMAPOST
  1

  9
$DIMALT
 70
     0
  9
$DIMALTD
 70
     2
  9
$DIMALTF
 40
25.4
  9
$DIMLFAC
 40
1.0
  9
$DIMTOFL
 70
     1
  9
$DIMTVP
 40
0.0
  9
$DIMTIX
 70
     1
  9
$DIMSOXD
 70
     0
  9
$DIMSAH
 70
     1
  9
$DIMBLK1
  1
_ORIGIN
  9
$DIMBLK2
  1
_ORIGIN
  9
$DIMSTYLE
  2
STANDARD
  9
$DIMCLRD
 70
     7
  9
$DIMCLRE
 70
     7
  9
$DIMCLRT
 70
     7
  9
$DIMTFAC
 40
1.0
  9
$DIMGAP
 40
25.0
  9
$LUNITS
 70
     2
  9
$LUPREC
 70
     4
  9
$SKETCHINC
 40
0.1
  9
$FILLETRAD
 40
3.0
  9
$AUNITS
 70
     1
  9
$AUPREC
 70
     3
  9
$MENU
  1
ACAD
  9
$ELEVATION
 40
0.0
  9
$PELEVATION
 40
0.0
  9
$THICKNESS
 40
50.0
  9
$LIMCHECK
 70
     0
  9
$BLIPMODE
 70
     0
  9
$CHAMFERA
 40
0.0
  9
$CHAMFERB
 40
0.0
  9
$SKPOLY
 70
     0
  9
$TDCREATE
 40
2453019.62301037
  9
$TDUPDATE
 40
2454524.577197662
  9
$TDINDWG
 40
1.3053843981
  9
$TDUSRTIMER
 40
1.3053843981
  9
$USRTIMER
 70
     1
  9
$ANGBASE
 50
0.0
  9
$ANGDIR
 70
     0
  9
$PDMODE
 70
     3
  9
$PDSIZE
 40
-2.0
  9
$PLINEWID
 40
0.0
  9
$COORDS
 70
     2
  9
$SPLFRAME
 70
     0
  9
$SPLINETYPE
 70
     6
  9
$SPLINESEGS
 70
     8
  9
$ATTDIA
 70
     1
  9
$ATTREQ
 70
     1
  9
$HANDLING
 70
     0
  9
$HANDSEED
  5
A64C
  9
$SURFTAB1
 70
     6
  9
$SURFTAB2
 70
     6
  9
$SURFTYPE
 70
     6
  9
$SURFU
 70
     6
  9
$SURFV
 70
     6
  9
$UCSNAME
  2

  9
$UCSORG
 10
0.0
 20
0.0
 30
0.0
  9
$UCSXDIR
 10
1.0
 20
0.0
 30
0.0
  9
$UCSYDIR
 10
0.0
 20
1.0
 30
0.0
  9
$PUCSNAME
  2

  9
$PUCSORG
 10
0.0
 20
0.0
 30
0.0
  9
$PUCSXDIR
 10
1.0
 20
0.0
 30
0.0
  9
$PUCSYDIR
 10
0.0
 20
1.0
 30
0.0
  9
$USERI1
 70
     0
  9
$USERI2
 70
     0
  9
$USERI3
 70
     0
  9
$USERI4
 70
     0
  9
$USERI5
 70
     0
  9
$USERR1
 40
20.0
  9
$USERR2
 40
0.0
  9
$USERR3
 40
0.0
  9
$USERR4
 40
0.0
  9
$USERR5
 40
0.0
  9
$WORLDVIEW
 70
     1
  9
$SHADEDGE
 70
     3
  9
$SHADEDIF
 70
    70
  9
$TILEMODE
 70
     1
  9
$MAXACTVP
 70
    48
  9
$PINSBASE
 10
0.0
 20
0.0
 30
0.0
  9
$PLIMCHECK
 70
     0
  9
$PEXTMIN
 10
-100000000000000000000.0
 20
-100000000000000000000.0
 30
-100000000000000000000.0
  9
$PEXTMAX
 10
100000000000000000000.0
 20
100000000000000000000.0
 30
100000000000000000000.0
  9
$PLIMMIN
 10
0.0
 20
0.0
  9
$PLIMMAX
 10
12.0
 20
9.0
  9
$UNITMODE
 70
     0
  9
$VISRETAIN
 70
     0
  9
$PLINEGEN
 70
     0
  9
$PSLTSCALE
 70
     0
  9
$TREEDEPTH
 70
  3020
  0
ENDSEC
  0
SECTION
  2
TABLES
  0
TABLE
  2
LTYPE
 70
     3
  0
LTYPE
  2
CONTINUOUS
 70
     0
  3
実線
 72
    65
 73
     0
 40
0.0
  0
LTYPE
  2
DASHDOT
 70
     0
  3
____ _ ____ _ ____ _ ____ _ ____ _ ____ _ ____
 72
    65
 73
     4
 40
5.5
 49
4.0
 49
-0.6
 49
0.3
 49
-0.6
  0
LTYPE
  2
DASHED
 70
     0
  3
-- -- -- -- -- -- -- -- -- -- -- -- -- -- --
 72
    65
 73
     2
 40
0.75
 49
0.5
 49
-0.25
  0
ENDTAB
  0
TABLE
  2
LAYER
 70
    12
  0
LAYER
  2
0
 70
     0
 62
     7
  6
CONTINUOUS
  0
LAYER
  2
BASIS
 70
     0
 62
     6
  6
DASHDOT
  0
LAYER
  2
OUTLINE
 70
     0
 62
     3
  6
CONTINUOUS
  0
LAYER
  2
DETAIL
 70
     0
 62
     5
  6
CONTINUOUS
  0
LAYER
  2
SIZE
 70
     0
 62
    30
  6
CONTINUOUS
  0
LAYER
  2
ARRANGE
 70
     0
 62
     1
  6
CONTINUOUS
  0
LAYER
  2
DEFPOINTS
 70
     0
 62
     7
  6
CONTINUOUS
  0
LAYER
  2
ETC
 70
     0
 62
    61
  6
CONTINUOUS
  0
LAYER
  2
FIX
 70
     0
 62
    11
  6
CONTINUOUS
  0
LAYER
  2
NOTE
 70
     0
 62
     4
  6
CONTINUOUS
  0
LAYER
  2
SERVICESPACE
 70
    64
 62
     2
  6
DASHDOT
  0
LAYER
  2
SYMBOLLINE
 70
    64
 62
    15
  6
CONTINUOUS
  0
ENDTAB
  0
TABLE
  2
STYLE
 70
     1
  0
STYLE
  2
STANDARD
 70
     0
 40
64.0
 41
0.9
 50
0.0
 71
     0
 42
64.0
  3
SIMPLEX.shx
  4
BIGFONT.shx
  0
ENDTAB
  0
TABLE
  2
APPID
 70
    13
  0
APPID
  2
ACAD
 70
     0
  0
APPID
  2
AUTOCAD_POSTSCRIPT_FIGURE
 70
     0
  0
APPID
  2
ACAD_EXEMPT_FROM_CAD_STANDARDS
 70
     0
  0
APPID
  2
ACAD_PSEXT
 70
     0
  0
APPID
  2
ACAUTHENVIRON
 70
     0
  0
APPID
  2
GENIUS_GENOENT_13
 70
     0
  0
APPID
  2
GENIUS_GENCFG_13
 70
     0
  0
APPID
  2
GENIUS_GENCFG0_13
 70
     0
  0
APPID
  2
GENIUS_GENCFG1_13
 70
     0
  0
APPID
  2
GENIUS_GENCFG2_13
 70
     0
  0
APPID
  2
GENIUS_GENCFG3_13
 70
     0
  0
APPID
  2
GENIUS_GENCFG4_13
 70
     0
  0
APPID
  2
GENIUS_GEVCFG0_13
 70
     0
  0
ENDTAB
  0
TABLE
  2
DIMSTYLE
 70
     1
  0
DIMSTYLE
  2
STANDARD
 70
     0
  3

  4

  5

  6

  7

 40
1.0
 41
0.18
 42
0.0625
 43
0.38
 44
0.18
 45
0.0
 46
0.0
 47
0.0
 48
0.0
140
0.18
141
0.09
142
0.0
143
25.4
144
1.0
145
0.0
146
1.0
147
0.09
 71
     0
 72
     0
 73
     1
 74
     1
 75
     0
 76
     0
 77
     0
 78
     0
170
     0
171
     2
172
     0
173
     0
174
     0
175
     0
176
     7
177
     7
178
     7
  0
ENDTAB
  0
TABLE
  2
VIEW
 70
     1
  0
VIEW
  2
ALL
 70
     0
 40
4282.619808
 10
0.0
 20
41.309904
 41
5940.0
 11
0.0
 21
0.0
 31
1.0
 12
0.0
 22
0.0
 32
0.0
 42
50.0
 43
0.0
 44
0.0
 50
0.0
 71
     0
  0
ENDTAB
  0
TABLE
  2
UCS
 70
     0
  0
ENDTAB
  0
TABLE
  2
VPORT
 70
     1
  0
VPORT
  2
*ACTIVE
 70
     0
 10
0.0
 20
0.0
 11
1.0
 21
1.0
 12
16.088118
 22
123.687754
 13
0.0
 23
0.0
 14
1.0
 24
1.0
 15
0.0
 25
0.0
 16
0.0
 26
0.0
 36
1.0
 17
0.0
 27
0.0
 37
0.0
 40
1371.510619
 41
1.754455
 42
50.0
 43
0.0
 44
0.0
 50
0.0
 51
0.0
 71
     0
 72
  1000
 73
     1
 74
     0
 75
     0
 76
     0
 77
     0
 78
     0
  0
ENDTAB
  0
ENDSEC
  0
SECTION
  2
BLOCKS
  0
BLOCK
  8
0
  2
DOT1
 70
     0
 10
0.0
 20
0.0
 30
0.0
  3
DOT1
  1

  0
CIRCLE
  8
SIZE
  6
CONTINUOUS
 62
     7
 10
0.0
 20
0.0
 30
0.0
 40
3.0
  0
ENDBLK
  8
0
  0
BLOCK
  8
0
  2
_ORIGIN
 70
     0
 10
0.0
 20
0.0
 30
0.0
  3
_ORIGIN
  1

  0
CIRCLE
  8
0
  6
CONTINUOUS
 62
     7
 10
0.0
 20
0.0
 30
0.0
 40
0.5
  0
LINE
  8
0
  6
CONTINUOUS
 62
     7
 10
0.0
 20
0.0
 30
0.0
 11
-1.0
 21
0.0
 31
0.0
  0
ENDBLK
  8
0
  0
ENDSEC
  0
SECTION
  2
ENTITIES
  0
TEXT
  8
ETC
  6
CONTINUOUS
 62
    61
 10
546.210777
 20
686.862501
 30
0.0
 40
40.0
  1
PS-50TW3_2
 41
0.9
  0
TEXT
  8
ETC
  6
CONTINUOUS
 62
    61
 10
542.024783
 20
626.166222
 30
0.0
 40
40.0
  1
システム部材
 41
0.9
  0
TEXT
  8
ETC
  6
CONTINUOUS
 62
    61
 10
592.632286
 20
544.296111
 30
0.0
 40
40.0
  1
PS-50TW3
 41
0.9
  0
CIRCLE
  8
ARRANGE
  6
CONTINUOUS
 62
     1
 10
0.0
 20
0.0
 30
0.0
 40
40.0
  0
LINE
  8
DETAIL
  6
CONTINUOUS
 62
     5
 10
-285.5
 20
298.5
 30
0.0
 11
-285.75
 21
298.5
 31
0.0
  0
LINE
  8
DETAIL
  6
CONTINUOUS
 62
     5
 10
-298.5
 20
298.5
 30
0.0
 11
-297.5
 21
298.5
 31
0.0
  0
ARC
  8
DETAIL
  6
CONTINUOUS
 62
     5
 10
-298.5
 20
297.5
 30
0.0
 40
1.0
 50
90.0
 51
120.0
  0
LINE
  8
DETAIL
  6
CONTINUOUS
 62
     5
 10
-285.5
 20
299.0
 30
0.0
 11
-285.5
 21
298.5
 31
0.0
  0
LINE
  8
BASIS
  6
DASHDOT
 62
     6
 10
-461.328432
 20
0.0
 30
0.0
 11
461.328432
 21
0.0
 31
0.0
  0
LINE
  8
BASIS
  6
DASHDOT
 62
     6
 10
0.0
 20
394.756987
 30
0.0
 11
0.0
 21
-394.756987
 31
0.0
  0
ARC
  8
DETAIL
  6
CONTINUOUS
 62
     5
 10
-335.0
 20
335.0
 30
0.0
 40
10.0
 50
90.0
 51
180.0
  0
LINE
  8
DETAIL
  6
CONTINUOUS
 62
     5
 10
-345.0
 20
315.0
 30
0.0
 11
-345.0
 21
335.0
 31
0.0
  0
LINE
  8
DETAIL
  6
CONTINUOUS
 62
     5
 10
-335.0
 20
345.0
 30
0.0
 11
0.0
 21
345.0
 31
0.0
  0
LINE
  8
DETAIL
  6
CONTINUOUS
 62
     5
 10
-345.0
 20
315.0
 30
0.0
 11
-313.0
 21
315.0
 31
0.0
  0
LINE
  8
DETAIL
  6
CONTINUOUS
 62
     5
 10
-313.0
 20
313.8
 30
0.0
 11
0.0
 21
313.8
 31
0.0
  0
LINE
  8
DETAIL
  6
CONTINUOUS
 62
     5
 10
-313.5
 20
313.0
 30
0.0
 11
-299.0
 21
313.0
 31
0.0
  0
LINE
  8
DETAIL
  6
CONTINUOUS
 62
     5
 10
-311.5
 20
313.0
 30
0.0
 11
-311.5
 21
313.8
 31
0.0
  0
LINE
  8
DETAIL
  6
CONTINUOUS
 62
     5
 10
-313.0
 20
313.0
 30
0.0
 11
-313.0
 21
315.0
 31
0.0
  0
LINE
  8
DETAIL
  6
CONTINUOUS
 62
     5
 10
-313.7
 20
315.0
 30
0.0
 11
-313.7
 21
345.0
 31
0.0
  0
LINE
  8
DETAIL
  6
CONTINUOUS
 62
     5
 10
-299.0
 20
299.0
 30
0.0
 11
-299.0
 21
313.8
 31
0.0
  0
LINE
  8
DETAIL
  6
CONTINUOUS
 62
     5
 10
-299.0
 20
299.0
 30
0.0
 11
0.0
 21
299.0
 31
0.0
  0
ARC
  8
DETAIL
  6
CONTINUOUS
 62
     5
 10
-335.0
 20
335.0
 30
0.0
 40
10.0
 50
90.0
 51
180.0
  0
LINE
  8
DETAIL
  6
CONTINUOUS
 62
     5
 10
-299.0
 20
313.0
 30
0.0
 11
-315.0
 21
313.0
 31
0.0
  0
LINE
  8
DETAIL
  6
CONTINUOUS
 62
     5
 10
-313.8
 20
0.0
 30
0.0
 11
-313.8
 21
313.0
 31
0.0
  0
LINE
  8
DETAIL
  6
CONTINUOUS
 62
     5
 10
-345.0
 20
0.0
 30
0.0
 11
-345.0
 21
335.0
 31
0.0
  0
LINE
  8
DETAIL
  6
CONTINUOUS
 62
     5
 10
-315.0
 20
345.0
 30
0.0
 11
-335.0
 21
345.0
 31
0.0
  0
LINE
  8
DETAIL
  6
CONTINUOUS
 62
     5
 10
-315.0
 20
313.0
 30
0.0
 11
-315.0
 21
315.0
 31
0.0
  0
LINE
  8
DETAIL
  6
CONTINUOUS
 62
     5
 10
-299.0
 20
0.0
 30
0.0
 11
-299.0
 21
313.0
 31
0.0
  0
LINE
  8
DETAIL
  6
CONTINUOUS
 62
     5
 10
-283.75
 20
299.0
 30
0.0
 11
-283.75
 21
296.5
 31
0.0
  0
LINE
  8
DETAIL
  6
CONTINUOUS
 62
     5
 10
-299.0
 20
297.0
 30
0.0
 11
-299.0
 21
285.75
 31
0.0
  0
LINE
  8
DETAIL
  6
CONTINUOUS
 62
     5
 10
-285.75
 20
296.5
 30
0.0
 11
-285.75
 21
299.0
 31
0.0
  0
LINE
  8
DETAIL
  6
CONTINUOUS
 62
     5
 10
-296.5
 20
283.75
 30
0.0
 11
-299.0
 21
283.75
 31
0.0
  0
LINE
  8
DETAIL
  6
CONTINUOUS
 62
     5
 10
-299.0
 20
285.75
 30
0.0
 11
-296.5
 21
285.75
 31
0.0
  0
LINE
  8
DETAIL
  6
CONTINUOUS
 62
     5
 10
-285.75
 20
299.0
 30
0.0
 11
-297.0
 21
299.0
 31
0.0
  0
LINE
  8
DETAIL
  6
CONTINUOUS
 62
     5
 10
-246.428932
 20
298.0
 30
0.0
 11
-292.964466
 21
251.464466
 31
0.0
  0
LINE
  8
DETAIL
  6
CONTINUOUS
 62
     5
 10
-299.0
 20
297.0
 30
0.0
 11
-297.0
 21
299.0
 31
0.0
  0
ARC
  8
DETAIL
  6
CONTINUOUS
 62
     5
 10
-284.75
 20
296.5
 30
0.0
 40
1.0
 50
180.0
 51
0.0
  0
ARC
  8
DETAIL
  6
CONTINUOUS
 62
     5
 10
-296.5
 20
284.75
 30
0.0
 40
1.0
 50
270.0
 51
90.0
  0
LINE
  8
DETAIL
  6
CONTINUOUS
 62
     5
 10
-281.732412
 20
275.934136
 30
0.0
 11
-284.065864
 21
278.267588
 31
0.0
  0
LINE
  8
DETAIL
  6
CONTINUOUS
 62
     5
 10
-275.934136
 20
281.732412
 30
0.0
 11
-278.267588
 21
284.065864
 31
0.0
  0
ARC
  8
DETAIL
  6
CONTINUOUS
 62
     5
 10
-278.833274
 20
278.833274
 30
0.0
 40
4.1
 50
225.0
 51
45.0
  0
ARC
  8
DETAIL
  6
CONTINUOUS
 62
     5
 10
-281.166726
 20
281.166726
 30
0.0
 40
4.1
 50
45.0
 51
225.0
  0
LINE
  8
DETAIL
  6
CONTINUOUS
 62
     5
 10
-283.75
 20
296.5
 30
0.0
 11
-283.75
 21
299.0
 31
0.0
  0
LINE
  8
DETAIL
  6
CONTINUOUS
 62
     5
 10
-285.75
 20
299.0
 30
0.0
 11
-285.75
 21
296.5
 31
0.0
  0
LINE
  8
DETAIL
  6
CONTINUOUS
 62
     5
 10
-285.75
 20
299.0
 30
0.0
 11
-297.0
 21
299.0
 31
0.0
  0
LINE
  8
DETAIL
  6
CONTINUOUS
 62
     5
 10
-296.5
 20
285.75
 30
0.0
 11
-299.0
 21
285.75
 31
0.0
  0
LINE
  8
DETAIL
  6
CONTINUOUS
 62
     5
 10
-299.0
 20
285.75
 30
0.0
 11
-299.0
 21
297.0
 31
0.0
  0
LINE
  8
DETAIL
  6
CONTINUOUS
 62
     5
 10
-297.0
 20
299.0
 30
0.0
 11
-299.0
 21
297.0
 31
0.0
  0
ARC
  8
DETAIL
  6
CONTINUOUS
 62
     5
 10
-284.75
 20
296.5
 30
0.0
 40
1.0
 50
180.0
 51
0.0
  0
LINE
  8
DETAIL
  6
CONTINUOUS
 62
     5
 10
-299.0
 20
245.428932
 30
0.0
 11
-245.428932
 21
299.0
 31
0.0
  0
ARC
  8
DETAIL
  6
CONTINUOUS
 62
     5
 10
-296.5
 20
284.75
 30
0.0
 40
1.0
 50
270.0
 51
90.0
  0
LINE
  8
DETAIL
  6
CONTINUOUS
 62
     5
 10
-299.0
 20
283.75
 30
0.0
 11
-296.5
 21
283.75
 31
0.0
  0
CIRCLE
  8
DETAIL
  6
CONTINUOUS
 62
     5
 10
-280.0
 20
280.0
 30
0.0
 40
4.0
  0
LINE
  8
DETAIL
  6
CONTINUOUS
 62
     5
 10
-284.880415
 20
279.429339
 30
0.0
 11
-283.986954
 21
280.3228
 31
0.0
  0
LINE
  8
DETAIL
  6
CONTINUOUS
 62
     5
 10
-279.429339
 20
284.880415
 30
0.0
 11
-280.3228
 21
283.986954
 31
0.0
  0
LINE
  8
DETAIL
  6
CONTINUOUS
 62
     5
 10
-283.75
 20
296.821782
 30
0.0
 11
-285.75
 21
296.821782
 31
0.0
  0
LINE
  8
DETAIL
  6
CONTINUOUS
 62
     5
 10
-296.821782
 20
283.75
 30
0.0
 11
-296.821782
 21
285.75
 31
0.0
  0
LINE
  8
NOTE
  6
CONTINUOUS
 62
     4
 10
-330.0
 20
310.0
 30
0.0
 11
-330.0
 21
350.0
 31
0.0
  0
LINE
  8
NOTE
  6
CONTINUOUS
 62
     4
 10
-350.0
 20
330.0
 30
0.0
 11
-310.0
 21
330.0
 31
0.0
  0
LINE
  8
NOTE
  6
CONTINUOUS
 62
     4
 10
330.0
 20
310.0
 30
0.0
 11
330.0
 21
350.0
 31
0.0
  0
LINE
  8
NOTE
  6
CONTINUOUS
 62
     4
 10
310.0
 20
330.0
 30
0.0
 11
350.0
 21
330.0
 31
0.0
  0
LINE
  8
NOTE
  6
CONTINUOUS
 62
     4
 10
330.0
 20
-350.0
 30
0.0
 11
330.0
 21
-310.0
 31
0.0
  0
LINE
  8
NOTE
  6
CONTINUOUS
 62
     4
 10
310.0
 20
-330.0
 30
0.0
 11
350.0
 21
-330.0
 31
0.0
  0
LINE
  8
NOTE
  6
CONTINUOUS
 62
     4
 10
-330.0
 20
-350.0
 30
0.0
 11
-330.0
 21
-310.0
 31
0.0
  0
LINE
  8
NOTE
  6
CONTINUOUS
 62
     4
 10
-350.0
 20
-330.0
 30
0.0
 11
-310.0
 21
-330.0
 31
0.0
  0
LINE
  8
NOTE
  6
CONTINUOUS
 62
     4
 10
-280.0
 20
260.0
 30
0.0
 11
-280.0
 21
300.0
 31
0.0
  0
LINE
  8
NOTE
  6
CONTINUOUS
 62
     4
 10
-300.0
 20
280.0
 30
0.0
 11
-260.0
 21
280.0
 31
0.0
  0
LINE
  8
NOTE
  6
CONTINUOUS
 62
     4
 10
280.0
 20
260.0
 30
0.0
 11
280.0
 21
300.0
 31
0.0
  0
LINE
  8
NOTE
  6
CONTINUOUS
 62
     4
 10
260.0
 20
280.0
 30
0.0
 11
300.0
 21
280.0
 31
0.0
  0
LINE
  8
NOTE
  6
CONTINUOUS
 62
     4
 10
280.0
 20
-300.0
 30
0.0
 11
280.0
 21
-260.0
 31
0.0
  0
LINE
  8
NOTE
  6
CONTINUOUS
 62
     4
 10
260.0
 20
-280.0
 30
0.0
 11
300.0
 21
-280.0
 31
0.0
  0
LINE
  8
NOTE
  6
CONTINUOUS
 62
     4
 10
-280.0
 20
-300.0
 30
0.0
 11
-280.0
 21
-260.0
 31
0.0
  0
LINE
  8
NOTE
  6
CONTINUOUS
 62
     4
 10
-300.0
 20
-280.0
 30
0.0
 11
-260.0
 21
-280.0
 31
0.0
  0
LINE
  8
DETAIL
  6
CONTINUOUS
 62
     5
 10
0.0
 20
298.0
 30
0.0
 11
-246.428932
 21
298.0
 31
0.0
  0
LINE
  8
DETAIL
  6
CONTINUOUS
 62
     5
 10
-298.0
 20
246.428932
 30
0.0
 11
-298.0
 21
0.0
 31
0.0
  0
POINT
  8
ARRANGE
  6
CONTINUOUS
 62
     1
 10
0.0
 20
0.0
 30
0.0
 39
50.0
  0
TEXT
  8
NOTE
  6
CONTINUOUS
 62
     4
 10
-707.995869
 20
474.986105
 30
0.0
 40
64.0
  1
4-φ16
 41
0.9
  0
LINE
  8
NOTE
  6
CONTINUOUS
 62
     4
 39
50.0
 10
-717.360665
 20
453.200541
 30
0.0
 11
-430.334834
 21
453.200541
 31
0.0
  0
LINE
  8
NOTE
  6
CONTINUOUS
 62
     4
 10
-362.822426
 20
352.862379
 30
0.0
 11
-330.0
 21
330.0
 31
0.0
  0
LINE
  8
NOTE
  6
CONTINUOUS
 62
     4
 10
-330.0
 20
330.0
 30
0.0
 11
-346.993864
 21
366.210614
 31
0.0
  0
LINE
  8
NOTE
  6
CONTINUOUS
 62
     4
 39
50.0
 10
-330.0
 20
330.0
 30
0.0
 11
-430.334834
 21
453.200541
 31
0.0
  0
TEXT
  8
NOTE
  6
CONTINUOUS
 62
     4
 10
418.038245
 20
-138.4607
 30
0.0
 40
64.0
  1
4-M12
 41
0.9
  0
LINE
  8
NOTE
  6
CONTINUOUS
 62
     4
 39
50.0
 10
416.51364
 20
-157.719657
 30
0.0
 11
723.012202
 21
-157.719657
 31
0.0
  0
LINE
  8
NOTE
  6
CONTINUOUS
 62
     4
 10
303.414067
 20
-242.826979
 30
0.0
 11
283.058586
 21
-277.260311
 31
0.0
  0
LINE
  8
NOTE
  6
CONTINUOUS
 62
     4
 10
283.058586
 20
-277.260311
 30
0.0
 11
317.903616
 21
-257.617911
 31
0.0
  0
LINE
  8
NOTE
  6
CONTINUOUS
 62
     4
 39
50.0
 10
416.51364
 20
-157.719657
 30
0.0
 11
283.058586
 21
-277.260311
 31
0.0
  0
CIRCLE
  8
FIX
  6
CONTINUOUS
 62
    11
 39
50.0
 10
280.0
 20
-280.0
 30
0.0
 40
4.0
  0
CIRCLE
  8
FIX
  6
CONTINUOUS
 62
    11
 39
50.0
 10
-280.0
 20
-280.0
 30
0.0
 40
4.0
  0
CIRCLE
  8
FIX
  6
CONTINUOUS
 62
    11
 39
50.0
 10
-280.0
 20
280.0
 30
0.0
 40
4.0
  0
CIRCLE
  8
FIX
  6
CONTINUOUS
 62
    11
 39
50.0
 10
280.0
 20
280.0
 30
0.0
 40
4.0
  0
LINE
  8
DETAIL
  6
CONTINUOUS
 62
     5
 10
285.5
 20
298.5
 30
0.0
 11
285.75
 21
298.5
 31
0.0
  0
LINE
  8
DETAIL
  6
CONTINUOUS
 62
     5
 10
298.5
 20
298.5
 30
0.0
 11
297.5
 21
298.5
 31
0.0
  0
ARC
  8
DETAIL
  6
CONTINUOUS
 62
     5
 10
298.5
 20
297.5
 30
0.0
 40
1.0
 50
60.0
 51
90.0
  0
LINE
  8
DETAIL
  6
CONTINUOUS
 62
     5
 10
285.5
 20
299.0
 30
0.0
 11
285.5
 21
298.5
 31
0.0
  0
ARC
  8
DETAIL
  6
CONTINUOUS
 62
     5
 10
335.0
 20
335.0
 30
0.0
 40
10.0
 50
0.0
 51
90.0
  0
LINE
  8
DETAIL
  6
CONTINUOUS
 62
     5
 10
345.0
 20
315.0
 30
0.0
 11
345.0
 21
335.0
 31
0.0
  0
LINE
  8
DETAIL
  6
CONTINUOUS
 62
     5
 10
335.0
 20
345.0
 30
0.0
 11
0.0
 21
345.0
 31
0.0
  0
LINE
  8
DETAIL
  6
CONTINUOUS
 62
     5
 10
345.0
 20
315.0
 30
0.0
 11
313.0
 21
315.0
 31
0.0
  0
LINE
  8
DETAIL
  6
CONTINUOUS
 62
     5
 10
313.0
 20
313.8
 30
0.0
 11
0.0
 21
313.8
 31
0.0
  0
LINE
  8
DETAIL
  6
CONTINUOUS
 62
     5
 10
313.5
 20
313.0
 30
0.0
 11
299.0
 21
313.0
 31
0.0
  0
LINE
  8
DETAIL
  6
CONTINUOUS
 62
     5
 10
311.0
 20
313.0
 30
0.0
 11
311.0
 21
313.8
 31
0.0
  0
LINE
  8
DETAIL
  6
CONTINUOUS
 62
     5
 10
313.0
 20
313.0
 30
0.0
 11
313.0
 21
315.0
 31
0.0
  0
LINE
  8
DETAIL
  6
CONTINUOUS
 62
     5
 10
313.7
 20
315.0
 30
0.0
 11
313.7
 21
345.0
 31
0.0
  0
LINE
  8
DETAIL
  6
CONTINUOUS
 62
     5
 10
299.0
 20
299.0
 30
0.0
 11
299.0
 21
313.8
 31
0.0
  0
LINE
  8
DETAIL
  6
CONTINUOUS
 62
     5
 10
299.0
 20
299.0
 30
0.0
 11
0.0
 21
299.0
 31
0.0
  0
ARC
  8
DETAIL
  6
CONTINUOUS
 62
     5
 10
335.0
 20
335.0
 30
0.0
 40
10.0
 50
0.0
 51
90.0
  0
LINE
  8
DETAIL
  6
CONTINUOUS
 62
     5
 10
299.0
 20
313.0
 30
0.0
 11
314.5
 21
313.0
 31
0.0
  0
LINE
  8
DETAIL
  6
CONTINUOUS
 62
     5
 10
313.8
 20
0.0
 30
0.0
 11
313.8
 21
313.0
 31
0.0
  0
LINE
  8
DETAIL
  6
CONTINUOUS
 62
     5
 10
345.0
 20
0.0
 30
0.0
 11
345.0
 21
335.0
 31
0.0
  0
LINE
  8
DETAIL
  6
CONTINUOUS
 62
     5
 10
315.0
 20
345.0
 30
0.0
 11
335.0
 21
345.0
 31
0.0
  0
LINE
  8
DETAIL
  6
CONTINUOUS
 62
     5
 10
314.5
 20
313.0
 30
0.0
 11
314.5
 21
315.0
 31
0.0
  0
LINE
  8
DETAIL
  6
CONTINUOUS
 62
     5
 10
299.0
 20
0.0
 30
0.0
 11
299.0
 21
313.0
 31
0.0
  0
LINE
  8
DETAIL
  6
CONTINUOUS
 62
     5
 10
283.75
 20
299.0
 30
0.0
 11
283.75
 21
296.5
 31
0.0
  0
LINE
  8
DETAIL
  6
CONTINUOUS
 62
     5
 10
299.0
 20
297.0
 30
0.0
 11
299.0
 21
285.75
 31
0.0
  0
LINE
  8
DETAIL
  6
CONTINUOUS
 62
     5
 10
285.75
 20
296.5
 30
0.0
 11
285.75
 21
299.0
 31
0.0
  0
LINE
  8
DETAIL
  6
CONTINUOUS
 62
     5
 10
296.5
 20
283.75
 30
0.0
 11
299.0
 21
283.75
 31
0.0
  0
LINE
  8
DETAIL
  6
CONTINUOUS
 62
     5
 10
299.0
 20
285.75
 30
0.0
 11
296.5
 21
285.75
 31
0.0
  0
LINE
  8
DETAIL
  6
CONTINUOUS
 62
     5
 10
285.75
 20
299.0
 30
0.0
 11
297.0
 21
299.0
 31
0.0
  0
LINE
  8
DETAIL
  6
CONTINUOUS
 62
     5
 10
245.473773
 20
299.0
 30
0.0
 11
292.964466
 21
251.464466
 31
0.0
  0
LINE
  8
DETAIL
  6
CONTINUOUS
 62
     5
 10
299.0
 20
297.0
 30
0.0
 11
297.0
 21
299.0
 31
0.0
  0
ARC
  8
DETAIL
  6
CONTINUOUS
 62
     5
 10
284.75
 20
296.5
 30
0.0
 40
1.0
 50
180.0
 51
0.0
  0
ARC
  8
DETAIL
  6
CONTINUOUS
 62
     5
 10
296.5
 20
284.75
 30
0.0
 40
1.0
 50
90.0
 51
270.0
  0
LINE
  8
DETAIL
  6
CONTINUOUS
 62
     5
 10
281.732412
 20
275.934136
 30
0.0
 11
284.065864
 21
278.267588
 31
0.0
  0
LINE
  8
DETAIL
  6
CONTINUOUS
 62
     5
 10
275.934136
 20
281.732412
 30
0.0
 11
278.267588
 21
284.065864
 31
0.0
  0
ARC
  8
DETAIL
  6
CONTINUOUS
 62
     5
 10
278.833274
 20
278.833274
 30
0.0
 40
4.1
 50
135.0
 51
315.0
  0
ARC
  8
DETAIL
  6
CONTINUOUS
 62
     5
 10
281.166726
 20
281.166726
 30
0.0
 40
4.1
 50
315.0
 51
135.0
  0
LINE
  8
DETAIL
  6
CONTINUOUS
 62
     5
 10
283.75
 20
296.5
 30
0.0
 11
283.75
 21
299.0
 31
0.0
  0
LINE
  8
DETAIL
  6
CONTINUOUS
 62
     5
 10
285.75
 20
299.0
 30
0.0
 11
285.75
 21
296.5
 31
0.0
  0
LINE
  8
DETAIL
  6
CONTINUOUS
 62
     5
 10
285.75
 20
299.0
 30
0.0
 11
297.0
 21
299.0
 31
0.0
  0
LINE
  8
DETAIL
  6
CONTINUOUS
 62
     5
 10
296.5
 20
285.75
 30
0.0
 11
299.0
 21
285.75
 31
0.0
  0
LINE
  8
DETAIL
  6
CONTINUOUS
 62
     5
 10
299.0
 20
285.75
 30
0.0
 11
299.0
 21
297.0
 31
0.0
  0
LINE
  8
DETAIL
  6
CONTINUOUS
 62
     5
 10
297.0
 20
299.0
 30
0.0
 11
299.0
 21
297.0
 31
0.0
  0
ARC
  8
DETAIL
  6
CONTINUOUS
 62
     5
 10
284.75
 20
296.5
 30
0.0
 40
1.0
 50
180.0
 51
0.0
  0
LINE
  8
DETAIL
  6
CONTINUOUS
 62
     5
 10
299.0
 20
245.441483
 30
0.0
 11
245.473773
 21
299.0
 31
0.0
  0
ARC
  8
DETAIL
  6
CONTINUOUS
 62
     5
 10
296.5
 20
284.75
 30
0.0
 40
1.0
 50
90.0
 51
270.0
  0
LINE
  8
DETAIL
  6
CONTINUOUS
 62
     5
 10
299.0
 20
283.75
 30
0.0
 11
296.5
 21
283.75
 31
0.0
  0
CIRCLE
  8
DETAIL
  6
CONTINUOUS
 62
     5
 10
280.0
 20
280.0
 30
0.0
 40
4.0
  0
LINE
  8
DETAIL
  6
CONTINUOUS
 62
     5
 10
284.880415
 20
279.429339
 30
0.0
 11
283.986954
 21
280.3228
 31
0.0
  0
LINE
  8
DETAIL
  6
CONTINUOUS
 62
     5
 10
279.429339
 20
284.880415
 30
0.0
 11
280.3228
 21
283.986954
 31
0.0
  0
LINE
  8
DETAIL
  6
CONTINUOUS
 62
     5
 10
283.75
 20
296.821782
 30
0.0
 11
285.75
 21
296.821782
 31
0.0
  0
LINE
  8
DETAIL
  6
CONTINUOUS
 62
     5
 10
296.821782
 20
283.75
 30
0.0
 11
296.821782
 21
285.75
 31
0.0
  0
LINE
  8
DETAIL
  6
CONTINUOUS
 62
     5
 10
0.0
 20
298.0
 30
0.0
 11
246.475857
 21
298.0
 31
0.0
  0
LINE
  8
DETAIL
  6
CONTINUOUS
 62
     5
 10
298.0
 20
246.442087
 30
0.0
 11
298.0
 21
0.0
 31
0.0
  0
LINE
  8
DETAIL
  6
CONTINUOUS
 62
     5
 10
-285.5
 20
-298.5
 30
0.0
 11
-285.75
 21
-298.5
 31
0.0
  0
LINE
  8
DETAIL
  6
CONTINUOUS
 62
     5
 10
-298.5
 20
-298.5
 30
0.0
 11
-297.5
 21
-298.5
 31
0.0
  0
ARC
  8
DETAIL
  6
CONTINUOUS
 62
     5
 10
-298.5
 20
-297.5
 30
0.0
 40
1.0
 50
240.0
 51
270.0
  0
LINE
  8
DETAIL
  6
CONTINUOUS
 62
     5
 10
-285.5
 20
-299.0
 30
0.0
 11
-285.5
 21
-298.5
 31
0.0
  0
ARC
  8
DETAIL
  6
CONTINUOUS
 62
     5
 10
-335.0
 20
-335.0
 30
0.0
 40
10.0
 50
180.0
 51
270.0
  0
LINE
  8
DETAIL
  6
CONTINUOUS
 62
     5
 10
-345.0
 20
-315.0
 30
0.0
 11
-345.0
 21
-335.0
 31
0.0
  0
LINE
  8
DETAIL
  6
CONTINUOUS
 62
     5
 10
-335.0
 20
-345.0
 30
0.0
 11
0.0
 21
-345.0
 31
0.0
  0
LINE
  8
DETAIL
  6
CONTINUOUS
 62
     5
 10
-345.0
 20
-315.0
 30
0.0
 11
-313.5
 21
-315.0
 31
0.0
  0
LINE
  8
DETAIL
  6
CONTINUOUS
 62
     5
 10
-313.5
 20
-313.8
 30
0.0
 11
0.0
 21
-313.8
 31
0.0
  0
LINE
  8
DETAIL
  6
CONTINUOUS
 62
     5
 10
-313.5
 20
-313.0
 30
0.0
 11
-299.0
 21
-313.0
 31
0.0
  0
LINE
  8
DETAIL
  6
CONTINUOUS
 62
     5
 10
-311.5
 20
-313.0
 30
0.0
 11
-311.5
 21
-313.8
 31
0.0
  0
LINE
  8
DETAIL
  6
CONTINUOUS
 62
     5
 10
-313.5
 20
-313.0
 30
0.0
 11
-313.5
 21
-315.0
 31
0.0
  0
LINE
  8
DETAIL
  6
CONTINUOUS
 62
     5
 10
-313.7
 20
-315.0
 30
0.0
 11
-313.7
 21
-345.0
 31
0.0
  0
LINE
  8
DETAIL
  6
CONTINUOUS
 62
     5
 10
-299.0
 20
-299.0
 30
0.0
 11
-299.0
 21
-313.8
 31
0.0
  0
LINE
  8
DETAIL
  6
CONTINUOUS
 62
     5
 10
-299.0
 20
-299.0
 30
0.0
 11
0.0
 21
-299.0
 31
0.0
  0
ARC
  8
DETAIL
  6
CONTINUOUS
 62
     5
 10
-335.0
 20
-335.0
 30
0.0
 40
10.0
 50
180.0
 51
270.0
  0
LINE
  8
DETAIL
  6
CONTINUOUS
 62
     5
 10
-299.0
 20
-313.0
 30
0.0
 11
-315.0
 21
-313.0
 31
0.0
  0
LINE
  8
DETAIL
  6
CONTINUOUS
 62
     5
 10
-313.8
 20
0.0
 30
0.0
 11
-313.8
 21
-313.0
 31
0.0
  0
LINE
  8
DETAIL
  6
CONTINUOUS
 62
     5
 10
-345.0
 20
0.0
 30
0.0
 11
-345.0
 21
-335.0
 31
0.0
  0
LINE
  8
DETAIL
  6
CONTINUOUS
 62
     5
 10
-315.0
 20
-345.0
 30
0.0
 11
-335.0
 21
-345.0
 31
0.0
  0
LINE
  8
DETAIL
  6
CONTINUOUS
 62
     5
 10
-315.0
 20
-313.0
 30
0.0
 11
-315.0
 21
-315.0
 31
0.0
  0
LINE
  8
DETAIL
  6
CONTINUOUS
 62
     5
 10
-299.0
 20
0.0
 30
0.0
 11
-299.0
 21
-313.0
 31
0.0
  0
LINE
  8
DETAIL
  6
CONTINUOUS
 62
     5
 10
-283.75
 20
-299.0
 30
0.0
 11
-283.75
 21
-296.5
 31
0.0
  0
LINE
  8
DETAIL
  6
CONTINUOUS
 62
     5
 10
-299.0
 20
-297.0
 30
0.0
 11
-299.0
 21
-285.75
 31
0.0
  0
LINE
  8
DETAIL
  6
CONTINUOUS
 62
     5
 10
-285.75
 20
-296.5
 30
0.0
 11
-285.75
 21
-299.0
 31
0.0
  0
LINE
  8
DETAIL
  6
CONTINUOUS
 62
     5
 10
-296.5
 20
-283.75
 30
0.0
 11
-299.0
 21
-283.75
 31
0.0
  0
LINE
  8
DETAIL
  6
CONTINUOUS
 62
     5
 10
-299.0
 20
-285.75
 30
0.0
 11
-296.5
 21
-285.75
 31
0.0
  0
LINE
  8
DETAIL
  6
CONTINUOUS
 62
     5
 10
-285.75
 20
-299.0
 30
0.0
 11
-297.0
 21
-299.0
 31
0.0
  0
LINE
  8
DETAIL
  6
CONTINUOUS
 62
     5
 10
-251.464466
 20
-292.964466
 30
0.0
 11
-292.964466
 21
-251.464466
 31
0.0
  0
LINE
  8
DETAIL
  6
CONTINUOUS
 62
     5
 10
-299.0
 20
-297.0
 30
0.0
 11
-297.0
 21
-299.0
 31
0.0
  0
ARC
  8
DETAIL
  6
CONTINUOUS
 62
     5
 10
-284.75
 20
-296.5
 30
0.0
 40
1.0
 50
0.0
 51
180.0
  0
ARC
  8
DETAIL
  6
CONTINUOUS
 62
     5
 10
-296.5
 20
-284.75
 30
0.0
 40
1.0
 50
270.0
 51
90.0
  0
LINE
  8
DETAIL
  6
CONTINUOUS
 62
     5
 10
-281.732412
 20
-275.934136
 30
0.0
 11
-284.065864
 21
-278.267588
 31
0.0
  0
LINE
  8
DETAIL
  6
CONTINUOUS
 62
     5
 10
-275.934136
 20
-281.732412
 30
0.0
 11
-278.267588
 21
-284.065864
 31
0.0
  0
ARC
  8
DETAIL
  6
CONTINUOUS
 62
     5
 10
-278.833274
 20
-278.833274
 30
0.0
 40
4.1
 50
315.0
 51
135.0
  0
ARC
  8
DETAIL
  6
CONTINUOUS
 62
     5
 10
-281.166726
 20
-281.166726
 30
0.0
 40
4.1
 50
135.0
 51
315.0
  0
LINE
  8
DETAIL
  6
CONTINUOUS
 62
     5
 10
-283.75
 20
-296.5
 30
0.0
 11
-283.75
 21
-299.0
 31
0.0
  0
LINE
  8
DETAIL
  6
CONTINUOUS
 62
     5
 10
-285.75
 20
-299.0
 30
0.0
 11
-285.75
 21
-296.5
 31
0.0
  0
LINE
  8
DETAIL
  6
CONTINUOUS
 62
     5
 10
-285.75
 20
-299.0
 30
0.0
 11
-297.0
 21
-299.0
 31
0.0
  0
LINE
  8
DETAIL
  6
CONTINUOUS
 62
     5
 10
-296.5
 20
-285.75
 30
0.0
 11
-299.0
 21
-285.75
 31
0.0
  0
LINE
  8
DETAIL
  6
CONTINUOUS
 62
     5
 10
-299.0
 20
-285.75
 30
0.0
 11
-299.0
 21
-297.0
 31
0.0
  0
LINE
  8
DETAIL
  6
CONTINUOUS
 62
     5
 10
-297.0
 20
-299.0
 30
0.0
 11
-299.0
 21
-297.0
 31
0.0
  0
ARC
  8
DETAIL
  6
CONTINUOUS
 62
     5
 10
-284.75
 20
-296.5
 30
0.0
 40
1.0
 50
0.0
 51
180.0
  0
LINE
  8
DETAIL
  6
CONTINUOUS
 62
     5
 10
-299.0
 20
-245.428843
 30
0.0
 11
-245.428932
 21
-299.0
 31
0.0
  0
ARC
  8
DETAIL
  6
CONTINUOUS
 62
     5
 10
-296.5
 20
-284.75
 30
0.0
 40
1.0
 50
270.0
 51
90.0
  0
LINE
  8
DETAIL
  6
CONTINUOUS
 62
     5
 10
-299.0
 20
-283.75
 30
0.0
 11
-296.5
 21
-283.75
 31
0.0
  0
CIRCLE
  8
DETAIL
  6
CONTINUOUS
 62
     5
 10
-280.0
 20
-280.0
 30
0.0
 40
4.0
  0
LINE
  8
DETAIL
  6
CONTINUOUS
 62
     5
 10
-284.880415
 20
-279.429339
 30
0.0
 11
-283.986954
 21
-280.3228
 31
0.0
  0
LINE
  8
DETAIL
  6
CONTINUOUS
 62
     5
 10
-279.429339
 20
-284.880415
 30
0.0
 11
-280.3228
 21
-283.986954
 31
0.0
  0
LINE
  8
DETAIL
  6
CONTINUOUS
 62
     5
 10
-283.75
 20
-296.821782
 30
0.0
 11
-285.75
 21
-296.821782
 31
0.0
  0
LINE
  8
DETAIL
  6
CONTINUOUS
 62
     5
 10
-296.821782
 20
-283.75
 30
0.0
 11
-296.821782
 21
-285.75
 31
0.0
  0
LINE
  8
DETAIL
  6
CONTINUOUS
 62
     5
 10
0.0
 20
-298.0
 30
0.0
 11
-246.428932
 21
-298.0
 31
0.0
  0
LINE
  8
DETAIL
  6
CONTINUOUS
 62
     5
 10
-298.0
 20
-246.428844
 30
0.0
 11
-298.0
 21
0.0
 31
0.0
  0
LINE
  8
DETAIL
  6
CONTINUOUS
 62
     5
 10
285.5
 20
-298.5
 30
0.0
 11
285.75
 21
-298.5
 31
0.0
  0
LINE
  8
DETAIL
  6
CONTINUOUS
 62
     5
 10
298.5
 20
-298.5
 30
0.0
 11
297.5
 21
-298.5
 31
0.0
  0
ARC
  8
DETAIL
  6
CONTINUOUS
 62
     5
 10
298.5
 20
-297.5
 30
0.0
 40
1.0
 50
270.0
 51
300.0
  0
LINE
  8
DETAIL
  6
CONTINUOUS
 62
     5
 10
285.5
 20
-299.0
 30
0.0
 11
285.5
 21
-298.5
 31
0.0
  0
ARC
  8
DETAIL
  6
CONTINUOUS
 62
     5
 10
335.0
 20
-335.0
 30
0.0
 40
10.0
 50
270.0
 51
0.0
  0
LINE
  8
DETAIL
  6
CONTINUOUS
 62
     5
 10
345.0
 20
-315.0
 30
0.0
 11
345.0
 21
-335.0
 31
0.0
  0
LINE
  8
DETAIL
  6
CONTINUOUS
 62
     5
 10
335.0
 20
-345.0
 30
0.0
 11
0.0
 21
-345.0
 31
0.0
  0
LINE
  8
DETAIL
  6
CONTINUOUS
 62
     5
 10
345.0
 20
-315.0
 30
0.0
 11
313.0
 21
-315.0
 31
0.0
  0
LINE
  8
DETAIL
  6
CONTINUOUS
 62
     5
 10
313.0
 20
-313.8
 30
0.0
 11
0.0
 21
-313.8
 31
0.0
  0
LINE
  8
DETAIL
  6
CONTINUOUS
 62
     5
 10
313.5
 20
-313.0
 30
0.0
 11
299.0
 21
-313.0
 31
0.0
  0
LINE
  8
DETAIL
  6
CONTINUOUS
 62
     5
 10
311.0
 20
-313.0
 30
0.0
 11
311.0
 21
-313.8
 31
0.0
  0
LINE
  8
DETAIL
  6
CONTINUOUS
 62
     5
 10
313.0
 20
-313.0
 30
0.0
 11
313.0
 21
-315.0
 31
0.0
  0
LINE
  8
DETAIL
  6
CONTINUOUS
 62
     5
 10
313.7
 20
-315.0
 30
0.0
 11
313.7
 21
-345.0
 31
0.0
  0
LINE
  8
DETAIL
  6
CONTINUOUS
 62
     5
 10
299.0
 20
-299.0
 30
0.0
 11
299.0
 21
-313.8
 31
0.0
  0
LINE
  8
DETAIL
  6
CONTINUOUS
 62
     5
 10
299.0
 20
-299.0
 30
0.0
 11
0.0
 21
-299.0
 31
0.0
  0
ARC
  8
DETAIL
  6
CONTINUOUS
 62
     5
 10
335.0
 20
-335.0
 30
0.0
 40
10.0
 50
270.0
 51
0.0
  0
LINE
  8
DETAIL
  6
CONTINUOUS
 62
     5
 10
299.0
 20
-313.0
 30
0.0
 11
314.5
 21
-313.0
 31
0.0
  0
LINE
  8
DETAIL
  6
CONTINUOUS
 62
     5
 10
313.8
 20
0.0
 30
0.0
 11
313.8
 21
-313.0
 31
0.0
  0
LINE
  8
DETAIL
  6
CONTINUOUS
 62
     5
 10
345.0
 20
0.0
 30
0.0
 11
345.0
 21
-335.0
 31
0.0
  0
LINE
  8
DETAIL
  6
CONTINUOUS
 62
     5
 10
315.0
 20
-345.0
 30
0.0
 11
335.0
 21
-345.0
 31
0.0
  0
LINE
  8
DETAIL
  6
CONTINUOUS
 62
     5
 10
314.5
 20
-313.0
 30
0.0
 11
314.5
 21
-315.0
 31
0.0
  0
LINE
  8
DETAIL
  6
CONTINUOUS
 62
     5
 10
299.0
 20
0.0
 30
0.0
 11
299.0
 21
-313.0
 31
0.0
  0
LINE
  8
DETAIL
  6
CONTINUOUS
 62
     5
 10
283.75
 20
-299.0
 30
0.0
 11
283.75
 21
-296.5
 31
0.0
  0
LINE
  8
DETAIL
  6
CONTINUOUS
 62
     5
 10
299.0
 20
-297.0
 30
0.0
 11
299.0
 21
-285.75
 31
0.0
  0
LINE
  8
DETAIL
  6
CONTINUOUS
 62
     5
 10
285.75
 20
-296.5
 30
0.0
 11
285.75
 21
-299.0
 31
0.0
  0
LINE
  8
DETAIL
  6
CONTINUOUS
 62
     5
 10
296.5
 20
-283.75
 30
0.0
 11
299.0
 21
-283.75
 31
0.0
  0
LINE
  8
DETAIL
  6
CONTINUOUS
 62
     5
 10
299.0
 20
-285.75
 30
0.0
 11
296.5
 21
-285.75
 31
0.0
  0
LINE
  8
DETAIL
  6
CONTINUOUS
 62
     5
 10
285.75
 20
-299.0
 30
0.0
 11
297.0
 21
-299.0
 31
0.0
  0
LINE
  8
DETAIL
  6
CONTINUOUS
 62
     5
 10
245.428932
 20
-299.0
 30
0.0
 11
292.964466
 21
-251.464466
 31
0.0
  0
LINE
  8
DETAIL
  6
CONTINUOUS
 62
     5
 10
299.0
 20
-297.0
 30
0.0
 11
297.0
 21
-299.0
 31
0.0
  0
ARC
  8
DETAIL
  6
CONTINUOUS
 62
     5
 10
284.75
 20
-296.5
 30
0.0
 40
1.0
 50
0.0
 51
180.0
  0
ARC
  8
DETAIL
  6
CONTINUOUS
 62
     5
 10
296.5
 20
-284.75
 30
0.0
 40
1.0
 50
90.0
 51
270.0
  0
LINE
  8
DETAIL
  6
CONTINUOUS
 62
     5
 10
281.732412
 20
-275.934136
 30
0.0
 11
284.065864
 21
-278.267588
 31
0.0
  0
LINE
  8
DETAIL
  6
CONTINUOUS
 62
     5
 10
275.934136
 20
-281.732412
 30
0.0
 11
278.267588
 21
-284.065864
 31
0.0
  0
ARC
  8
DETAIL
  6
CONTINUOUS
 62
     5
 10
278.833274
 20
-278.833274
 30
0.0
 40
4.1
 50
45.0
 51
225.0
  0
ARC
  8
DETAIL
  6
CONTINUOUS
 62
     5
 10
281.166726
 20
-281.166726
 30
0.0
 40
4.1
 50
225.0
 51
45.0
  0
LINE
  8
DETAIL
  6
CONTINUOUS
 62
     5
 10
283.75
 20
-296.5
 30
0.0
 11
283.75
 21
-299.0
 31
0.0
  0
LINE
  8
DETAIL
  6
CONTINUOUS
 62
     5
 10
285.75
 20
-299.0
 30
0.0
 11
285.75
 21
-296.5
 31
0.0
  0
LINE
  8
DETAIL
  6
CONTINUOUS
 62
     5
 10
285.75
 20
-299.0
 30
0.0
 11
297.0
 21
-299.0
 31
0.0
  0
LINE
  8
DETAIL
  6
CONTINUOUS
 62
     5
 10
296.5
 20
-285.75
 30
0.0
 11
299.0
 21
-285.75
 31
0.0
  0
LINE
  8
DETAIL
  6
CONTINUOUS
 62
     5
 10
299.0
 20
-285.75
 30
0.0
 11
299.0
 21
-297.0
 31
0.0
  0
LINE
  8
DETAIL
  6
CONTINUOUS
 62
     5
 10
297.0
 20
-299.0
 30
0.0
 11
299.0
 21
-297.0
 31
0.0
  0
ARC
  8
DETAIL
  6
CONTINUOUS
 62
     5
 10
284.75
 20
-296.5
 30
0.0
 40
1.0
 50
0.0
 51
180.0
  0
LINE
  8
DETAIL
  6
CONTINUOUS
 62
     5
 10
299.0
 20
-245.428932
 30
0.0
 11
245.428932
 21
-299.0
 31
0.0
  0
ARC
  8
DETAIL
  6
CONTINUOUS
 62
     5
 10
296.5
 20
-284.75
 30
0.0
 40
1.0
 50
90.0
 51
270.0
  0
LINE
  8
DETAIL
  6
CONTINUOUS
 62
     5
 10
299.0
 20
-283.75
 30
0.0
 11
296.5
 21
-283.75
 31
0.0
  0
CIRCLE
  8
DETAIL
  6
CONTINUOUS
 62
     5
 10
280.0
 20
-280.0
 30
0.0
 40
4.0
  0
LINE
  8
DETAIL
  6
CONTINUOUS
 62
     5
 10
284.880415
 20
-279.429339
 30
0.0
 11
283.986954
 21
-280.3228
 31
0.0
  0
LINE
  8
DETAIL
  6
CONTINUOUS
 62
     5
 10
279.429339
 20
-284.880415
 30
0.0
 11
280.3228
 21
-283.986954
 31
0.0
  0
LINE
  8
DETAIL
  6
CONTINUOUS
 62
     5
 10
283.75
 20
-296.821782
 30
0.0
 11
285.75
 21
-296.821782
 31
0.0
  0
LINE
  8
DETAIL
  6
CONTINUOUS
 62
     5
 10
296.821782
 20
-283.75
 30
0.0
 11
296.821782
 21
-285.75
 31
0.0
  0
LINE
  8
DETAIL
  6
CONTINUOUS
 62
     5
 10
0.0
 20
-298.0
 30
0.0
 11
246.428932
 21
-298.0
 31
0.0
  0
LINE
  8
DETAIL
  6
CONTINUOUS
 62
     5
 10
298.0
 20
-246.428932
 30
0.0
 11
298.0
 21
0.0
 31
0.0
  0
ARC
  8
OUTLINE
  6
CONTINUOUS
 62
     3
 10
-335.0
 20
335.0
 30
0.0
 40
10.0
 50
90.0
 51
180.0
  0
LINE
  8
OUTLINE
  6
CONTINUOUS
 62
     3
 10
-345.0
 20
315.0
 30
0.0
 11
-345.0
 21
335.0
 31
0.0
  0
LINE
  8
OUTLINE
  6
CONTINUOUS
 62
     3
 10
-335.0
 20
345.0
 30
0.0
 11
0.0
 21
345.0
 31
0.0
  0
ARC
  8
OUTLINE
  6
CONTINUOUS
 62
     3
 10
-335.0
 20
335.0
 30
0.0
 40
10.0
 50
90.0
 51
180.0
  0
LINE
  8
OUTLINE
  6
CONTINUOUS
 62
     3
 10
-345.0
 20
0.0
 30
0.0
 11
-345.0
 21
335.0
 31
0.0
  0
LINE
  8
OUTLINE
  6
CONTINUOUS
 62
     3
 10
-315.0
 20
345.0
 30
0.0
 11
-335.0
 21
345.0
 31
0.0
  0
ARC
  8
OUTLINE
  6
CONTINUOUS
 62
     3
 10
335.0
 20
335.0
 30
0.0
 40
10.0
 50
0.0
 51
90.0
  0
LINE
  8
OUTLINE
  6
CONTINUOUS
 62
     3
 10
345.0
 20
315.0
 30
0.0
 11
345.0
 21
335.0
 31
0.0
  0
LINE
  8
OUTLINE
  6
CONTINUOUS
 62
     3
 10
335.0
 20
345.0
 30
0.0
 11
0.0
 21
345.0
 31
0.0
  0
ARC
  8
OUTLINE
  6
CONTINUOUS
 62
     3
 10
335.0
 20
335.0
 30
0.0
 40
10.0
 50
0.0
 51
90.0
  0
LINE
  8
OUTLINE
  6
CONTINUOUS
 62
     3
 10
345.0
 20
0.0
 30
0.0
 11
345.0
 21
335.0
 31
0.0
  0
LINE
  8
OUTLINE
  6
CONTINUOUS
 62
     3
 10
315.0
 20
345.0
 30
0.0
 11
335.0
 21
345.0
 31
0.0
  0
ARC
  8
OUTLINE
  6
CONTINUOUS
 62
     3
 10
-335.0
 20
-335.0
 30
0.0
 40
10.0
 50
180.0
 51
270.0
  0
LINE
  8
OUTLINE
  6
CONTINUOUS
 62
     3
 10
-345.0
 20
-315.0
 30
0.0
 11
-345.0
 21
-335.0
 31
0.0
  0
LINE
  8
OUTLINE
  6
CONTINUOUS
 62
     3
 10
-335.0
 20
-345.0
 30
0.0
 11
0.0
 21
-345.0
 31
0.0
  0
ARC
  8
OUTLINE
  6
CONTINUOUS
 62
     3
 10
-335.0
 20
-335.0
 30
0.0
 40
10.0
 50
180.0
 51
270.0
  0
LINE
  8
OUTLINE
  6
CONTINUOUS
 62
     3
 10
-345.0
 20
0.0
 30
0.0
 11
-345.0
 21
-335.0
 31
0.0
  0
LINE
  8
OUTLINE
  6
CONTINUOUS
 62
     3
 10
-315.0
 20
-345.0
 30
0.0
 11
-335.0
 21
-345.0
 31
0.0
  0
ARC
  8
OUTLINE
  6
CONTINUOUS
 62
     3
 10
335.0
 20
-335.0
 30
0.0
 40
10.0
 50
270.0
 51
0.0
  0
LINE
  8
OUTLINE
  6
CONTINUOUS
 62
     3
 10
345.0
 20
-315.0
 30
0.0
 11
345.0
 21
-335.0
 31
0.0
  0
LINE
  8
OUTLINE
  6
CONTINUOUS
 62
     3
 10
335.0
 20
-345.0
 30
0.0
 11
0.0
 21
-345.0
 31
0.0
  0
ARC
  8
OUTLINE
  6
CONTINUOUS
 62
     3
 10
335.0
 20
-335.0
 30
0.0
 40
10.0
 50
270.0
 51
0.0
  0
LINE
  8
OUTLINE
  6
CONTINUOUS
 62
     3
 10
345.0
 20
0.0
 30
0.0
 11
345.0
 21
-335.0
 31
0.0
  0
LINE
  8
OUTLINE
  6
CONTINUOUS
 62
     3
 10
315.0
 20
-345.0
 30
0.0
 11
335.0
 21
-345.0
 31
0.0
  0
CIRCLE
  8
DETAIL
  6
CONTINUOUS
 62
     5
 39
50.0
 10
-330.0
 20
-330.0
 30
0.0
 40
8.0
  0
CIRCLE
  8
DETAIL
  6
CONTINUOUS
 62
     5
 39
50.0
 10
330.0
 20
-330.0
 30
0.0
 40
8.0
  0
CIRCLE
  8
DETAIL
  6
CONTINUOUS
 62
     5
 39
50.0
 10
330.0
 20
330.0
 30
0.0
 40
8.0
  0
CIRCLE
  8
DETAIL
  6
CONTINUOUS
 62
     5
 39
50.0
 10
-330.0
 20
330.0
 30
0.0
 40
8.0
  0
CIRCLE
  8
FIX
  6
CONTINUOUS
 62
    11
 39
50.0
 10
-330.0
 20
330.0
 30
0.0
 40
8.0
  0
CIRCLE
  8
FIX
  6
CONTINUOUS
 62
    11
 39
50.0
 10
330.0
 20
330.0
 30
0.0
 40
8.0
  0
CIRCLE
  8
FIX
  6
CONTINUOUS
 62
    11
 39
50.0
 10
330.0
 20
-330.0
 30
0.0
 40
8.0
  0
CIRCLE
  8
FIX
  6
CONTINUOUS
 62
    11
 39
50.0
 10
-330.0
 20
-330.0
 30
0.0
 40
8.0
  0
LINE
  8
SIZE
  6
CONTINUOUS
 62
    30
 10
-345.0
 20
345.0
 30
0.0
 11
-345.0
 21
732.266204
 31
0.0
  0
LINE
  8
SIZE
  6
CONTINUOUS
 62
    30
 10
345.0
 20
350.0
 30
0.0
 11
345.0
 21
732.266204
 31
0.0
  0
LINE
  8
SIZE
  6
CONTINUOUS
 62
    30
 10
-333.0
 20
712.266204
 30
0.0
 11
333.0
 21
712.266204
 31
0.0
  0
CIRCLE
  8
SIZE
  6
CONTINUOUS
 62
    30
 10
-345.0
 20
712.266204
 30
0.0
 40
6.0
  0
LINE
  8
SIZE
  6
CONTINUOUS
 62
    30
 10
-345.0
 20
712.266204
 30
0.0
 11
-333.0
 21
712.266204
 31
0.0
  0
CIRCLE
  8
SIZE
  6
CONTINUOUS
 62
    30
 10
345.0
 20
712.266204
 30
0.0
 40
6.0
  0
LINE
  8
SIZE
  6
CONTINUOUS
 62
    30
 10
345.0
 20
712.266204
 30
0.0
 11
333.0
 21
712.266204
 31
0.0
  0
TEXT
  8
SIZE
  6
CONTINUOUS
 62
    30
 10
-80.928
 20
737.266204
 30
0.0
 40
64.0
  1
690
 50
0.0
 41
0.9
 51
0.0
  7
STANDARD
 71
     0
 72
     1
 11
0.0
 21
737.266204
 31
0.0
210
0.0
220
0.0
230
1.0
  0
POINT
  8
DEFPOINTS
  6
CONTINUOUS
 62
    30
 10
-345.0
 20
325.0
 30
0.0
  0
POINT
  8
DEFPOINTS
  6
CONTINUOUS
 62
    30
 10
345.0
 20
330.0
 30
0.0
  0
POINT
  8
DEFPOINTS
  6
CONTINUOUS
 62
    30
 10
345.0
 20
712.266204
 30
0.0
  0
LINE
  8
SIZE
  6
CONTINUOUS
 62
    30
 10
-350.0
 20
345.0
 30
0.0
 11
-765.618514
 21
345.0
 31
0.0
  0
LINE
  8
SIZE
  6
CONTINUOUS
 62
    30
 10
-350.0
 20
-345.0
 30
0.0
 11
-765.618514
 21
-345.0
 31
0.0
  0
LINE
  8
SIZE
  6
CONTINUOUS
 62
    30
 10
-745.618514
 20
333.0
 30
0.0
 11
-745.618514
 21
-333.0
 31
0.0
  0
CIRCLE
  8
SIZE
  6
CONTINUOUS
 62
    30
 10
-745.618514
 20
345.0
 30
0.0
 40
6.0
  0
LINE
  8
SIZE
  6
CONTINUOUS
 62
    30
 10
-745.618514
 20
345.0
 30
0.0
 11
-745.618514
 21
333.0
 31
0.0
  0
CIRCLE
  8
SIZE
  6
CONTINUOUS
 62
    30
 10
-745.618514
 20
-345.0
 30
0.0
 40
6.0
  0
LINE
  8
SIZE
  6
CONTINUOUS
 62
    30
 10
-745.618514
 20
-345.0
 30
0.0
 11
-745.618514
 21
-333.0
 31
0.0
  0
TEXT
  8
SIZE
  6
CONTINUOUS
 62
    30
 10
-770.618514
 20
-80.928
 30
0.0
 40
64.0
  1
690
 50
90.0
 41
0.9
 51
0.0
  7
STANDARD
 71
     0
 72
     1
 11
-770.618514
 21
0.0
 31
0.0
210
0.0
220
0.0
230
1.0
  0
POINT
  8
DEFPOINTS
  6
CONTINUOUS
 62
    30
 10
-330.0
 20
345.0
 30
0.0
  0
POINT
  8
DEFPOINTS
  6
CONTINUOUS
 62
    30
 10
-330.0
 20
-345.0
 30
0.0
  0
POINT
  8
DEFPOINTS
  6
CONTINUOUS
 62
    30
 10
-745.618514
 20
-345.0
 30
0.0
  0
LINE
  8
SIZE
  6
CONTINUOUS
 62
    30
 10
-330.0
 20
370.0
 30
0.0
 11
-330.0
 21
602.345658
 31
0.0
  0
LINE
  8
SIZE
  6
CONTINUOUS
 62
    30
 10
330.0
 20
370.0
 30
0.0
 11
330.0
 21
602.345658
 31
0.0
  0
LINE
  8
SIZE
  6
CONTINUOUS
 62
    30
 10
-318.0
 20
582.345658
 30
0.0
 11
318.0
 21
582.345658
 31
0.0
  0
CIRCLE
  8
SIZE
  6
CONTINUOUS
 62
    30
 10
-330.0
 20
582.345658
 30
0.0
 40
6.0
  0
LINE
  8
SIZE
  6
CONTINUOUS
 62
    30
 10
-330.0
 20
582.345658
 30
0.0
 11
-318.0
 21
582.345658
 31
0.0
  0
CIRCLE
  8
SIZE
  6
CONTINUOUS
 62
    30
 10
330.0
 20
582.345658
 30
0.0
 40
6.0
  0
LINE
  8
SIZE
  6
CONTINUOUS
 62
    30
 10
330.0
 20
582.345658
 30
0.0
 11
318.0
 21
582.345658
 31
0.0
  0
TEXT
  8
SIZE
  6
CONTINUOUS
 62
    30
 10
-80.928
 20
607.345658
 30
0.0
 40
64.0
  1
660
 50
0.0
 41
0.9
 51
0.0
  7
STANDARD
 71
     0
 72
     1
 11
0.0
 21
607.345658
 31
0.0
210
0.0
220
0.0
230
1.0
  0
POINT
  8
DEFPOINTS
  6
CONTINUOUS
 62
    30
 10
-330.0
 20
350.0
 30
0.0
  0
POINT
  8
DEFPOINTS
  6
CONTINUOUS
 62
    30
 10
330.0
 20
350.0
 30
0.0
  0
POINT
  8
DEFPOINTS
  6
CONTINUOUS
 62
    30
 10
330.0
 20
582.345658
 30
0.0
  0
LINE
  8
SIZE
  6
CONTINUOUS
 62
    30
 10
-280.0
 20
320.0
 30
0.0
 11
-280.0
 21
473.469587
 31
0.0
  0
LINE
  8
SIZE
  6
CONTINUOUS
 62
    30
 10
280.0
 20
320.0
 30
0.0
 11
280.0
 21
473.469587
 31
0.0
  0
LINE
  8
SIZE
  6
CONTINUOUS
 62
    30
 10
-268.0
 20
453.469587
 30
0.0
 11
268.0
 21
453.469587
 31
0.0
  0
CIRCLE
  8
SIZE
  6
CONTINUOUS
 62
    30
 10
-280.0
 20
453.469587
 30
0.0
 40
6.0
  0
LINE
  8
SIZE
  6
CONTINUOUS
 62
    30
 10
-280.0
 20
453.469587
 30
0.0
 11
-268.0
 21
453.469587
 31
0.0
  0
CIRCLE
  8
SIZE
  6
CONTINUOUS
 62
    30
 10
280.0
 20
453.469587
 30
0.0
 40
6.0
  0
LINE
  8
SIZE
  6
CONTINUOUS
 62
    30
 10
280.0
 20
453.469587
 30
0.0
 11
268.0
 21
453.469587
 31
0.0
  0
TEXT
  8
SIZE
  6
CONTINUOUS
 62
    30
 10
-80.928
 20
478.469587
 30
0.0
 40
64.0
  1
560
 50
0.0
 41
0.9
 51
0.0
  7
STANDARD
 71
     0
 72
     1
 11
0.0
 21
478.469587
 31
0.0
210
0.0
220
0.0
230
1.0
  0
POINT
  8
DEFPOINTS
  6
CONTINUOUS
 62
    30
 10
-280.0
 20
300.0
 30
0.0
  0
POINT
  8
DEFPOINTS
  6
CONTINUOUS
 62
    30
 10
280.0
 20
300.0
 30
0.0
  0
POINT
  8
DEFPOINTS
  6
CONTINUOUS
 62
    30
 10
280.0
 20
453.469587
 30
0.0
  0
LINE
  8
SIZE
  6
CONTINUOUS
 62
    30
 10
-370.0
 20
330.0
 30
0.0
 11
-627.38091
 21
330.0
 31
0.0
  0
LINE
  8
SIZE
  6
CONTINUOUS
 62
    30
 10
-370.0
 20
-330.0
 30
0.0
 11
-627.38091
 21
-330.0
 31
0.0
  0
LINE
  8
SIZE
  6
CONTINUOUS
 62
    30
 10
-607.38091
 20
318.0
 30
0.0
 11
-607.38091
 21
-318.0
 31
0.0
  0
CIRCLE
  8
SIZE
  6
CONTINUOUS
 62
    30
 10
-607.38091
 20
330.0
 30
0.0
 40
6.0
  0
LINE
  8
SIZE
  6
CONTINUOUS
 62
    30
 10
-607.38091
 20
330.0
 30
0.0
 11
-607.38091
 21
318.0
 31
0.0
  0
CIRCLE
  8
SIZE
  6
CONTINUOUS
 62
    30
 10
-607.38091
 20
-330.0
 30
0.0
 40
6.0
  0
LINE
  8
SIZE
  6
CONTINUOUS
 62
    30
 10
-607.38091
 20
-330.0
 30
0.0
 11
-607.38091
 21
-318.0
 31
0.0
  0
TEXT
  8
SIZE
  6
CONTINUOUS
 62
    30
 10
-632.38091
 20
-80.928
 30
0.0
 40
64.0
  1
660
 50
90.0
 41
0.9
 51
0.0
  7
STANDARD
 71
     0
 72
     1
 11
-632.38091
 21
0.0
 31
0.0
210
0.0
220
0.0
230
1.0
  0
POINT
  8
DEFPOINTS
  6
CONTINUOUS
 62
    30
 10
-350.0
 20
330.0
 30
0.0
  0
POINT
  8
DEFPOINTS
  6
CONTINUOUS
 62
    30
 10
-350.0
 20
-330.0
 30
0.0
  0
POINT
  8
DEFPOINTS
  6
CONTINUOUS
 62
    30
 10
-607.38091
 20
-330.0
 30
0.0
  0
LINE
  8
SIZE
  6
CONTINUOUS
 62
    30
 10
-320.0
 20
280.0
 30
0.0
 11
-514.501039
 21
280.0
 31
0.0
  0
LINE
  8
SIZE
  6
CONTINUOUS
 62
    30
 10
-320.0
 20
-280.0
 30
0.0
 11
-514.501039
 21
-280.0
 31
0.0
  0
LINE
  8
SIZE
  6
CONTINUOUS
 62
    30
 10
-494.501039
 20
268.0
 30
0.0
 11
-494.501039
 21
-268.0
 31
0.0
  0
CIRCLE
  8
SIZE
  6
CONTINUOUS
 62
    30
 10
-494.501039
 20
280.0
 30
0.0
 40
6.0
  0
LINE
  8
SIZE
  6
CONTINUOUS
 62
    30
 10
-494.501039
 20
280.0
 30
0.0
 11
-494.501039
 21
268.0
 31
0.0
  0
CIRCLE
  8
SIZE
  6
CONTINUOUS
 62
    30
 10
-494.501039
 20
-280.0
 30
0.0
 40
6.0
  0
LINE
  8
SIZE
  6
CONTINUOUS
 62
    30
 10
-494.501039
 20
-280.0
 30
0.0
 11
-494.501039
 21
-268.0
 31
0.0
  0
TEXT
  8
SIZE
  6
CONTINUOUS
 62
    30
 10
-519.501039
 20
-80.928
 30
0.0
 40
64.0
  1
560
 50
90.0
 41
0.9
 51
0.0
  7
STANDARD
 71
     0
 72
     1
 11
-519.501039
 21
0.0
 31
0.0
210
0.0
220
0.0
230
1.0
  0
POINT
  8
DEFPOINTS
  6
CONTINUOUS
 62
    30
 10
-300.0
 20
280.0
 30
0.0
  0
POINT
  8
DEFPOINTS
  6
CONTINUOUS
 62
    30
 10
-300.0
 20
-280.0
 30
0.0
  0
POINT
  8
DEFPOINTS
  6
CONTINUOUS
 62
    30
 10
-494.501039
 20
-280.0
 30
0.0
  0
LINE
  8
NOTE
  6
CONTINUOUS
 62
     4
 10
0.0
 20
310.0
 30
0.0
 11
0.0
 21
350.0
 31
0.0
  0
LINE
  8
NOTE
  6
CONTINUOUS
 62
     4
 10
-20.0
 20
330.0
 30
0.0
 11
20.0
 21
330.0
 31
0.0
  0
LINE
  8
NOTE
  6
CONTINUOUS
 62
     4
 10
0.0
 20
-350.0
 30
0.0
 11
0.0
 21
-310.0
 31
0.0
  0
LINE
  8
NOTE
  6
CONTINUOUS
 62
     4
 10
-20.0
 20
-330.0
 30
0.0
 11
20.0
 21
-330.0
 31
0.0
  0
CIRCLE
  8
DETAIL
  6
CONTINUOUS
 62
     5
 39
50.0
 10
0.0
 20
-330.0
 30
0.0
 40
7.5
  0
CIRCLE
  8
DETAIL
  6
CONTINUOUS
 62
     5
 39
50.0
 10
0.0
 20
330.0
 30
0.0
 40
7.5
  0
CIRCLE
  8
FIX
  6
CONTINUOUS
 62
    11
 39
50.0
 10
0.0
 20
330.0
 30
0.0
 40
7.5
  0
CIRCLE
  8
FIX
  6
CONTINUOUS
 62
    11
 39
50.0
 10
0.0
 20
-330.0
 30
0.0
 40
7.5
  0
TEXT
  8
NOTE
  6
CONTINUOUS
 62
     4
 10
149.650508
 20
-534.640056
 30
0.0
 40
64.0
  1
4-φ15
 41
0.9
  0
LINE
  8
NOTE
  6
CONTINUOUS
 62
     4
 39
50.0
 10
137.746983
 20
-553.899013
 30
0.0
 11
444.245546
 21
-553.899013
 31
0.0
  0
LINE
  8
NOTE
  6
CONTINUOUS
 62
     4
 10
33.814712
 20
-363.307186
 30
0.0
 11
4.84674
 21
-335.723557
 31
0.0
  0
LINE
  8
NOTE
  6
CONTINUOUS
 62
     4
 10
4.84674
 20
-335.723557
 30
0.0
 11
16.141924
 21
-374.095667
 31
0.0
  0
LINE
  8
NOTE
  6
CONTINUOUS
 62
     4
 39
50.0
 10
137.746983
 20
-553.899013
 30
0.0
 11
4.84674
 21
-335.723557
 31
0.0
  0
LINE
  8
NOTE
  6
CONTINUOUS
 62
     4
 10
-330.0
 20
-20.0
 30
0.0
 11
-330.0
 21
20.0
 31
0.0
  0
LINE
  8
NOTE
  6
CONTINUOUS
 62
     4
 10
-350.0
 20
0.0
 30
0.0
 11
-310.0
 21
0.0
 31
0.0
  0
LINE
  8
NOTE
  6
CONTINUOUS
 62
     4
 10
330.0
 20
-20.0
 30
0.0
 11
330.0
 21
20.0
 31
0.0
  0
LINE
  8
NOTE
  6
CONTINUOUS
 62
     4
 10
310.0
 20
0.0
 30
0.0
 11
350.0
 21
0.0
 31
0.0
  0
CIRCLE
  8
DETAIL
  6
CONTINUOUS
 62
     5
 39
50.0
 10
330.0
 20
0.0
 30
0.0
 40
7.5
  0
CIRCLE
  8
FIX
  6
CONTINUOUS
 62
    11
 39
50.0
 10
330.0
 20
0.0
 30
0.0
 40
7.5
  0
CIRCLE
  8
DETAIL
  6
CONTINUOUS
 62
     5
 39
50.0
 10
-330.0
 20
0.0
 30
0.0
 40
7.5
  0
CIRCLE
  8
FIX
  6
CONTINUOUS
 62
    11
 39
50.0
 10
-330.0
 20
0.0
 30
0.0
 40
7.5
  0
LINE
  8
SIZE
  6
CONTINUOUS
 62
    30
 10
-225.428932
 20
298.0
 30
0.0
 11
-175.543996
 21
298.0
 31
0.0
  0
LINE
  8
SIZE
  6
CONTINUOUS
 62
    30
 10
-225.428932
 20
-298.0
 30
0.0
 11
-175.543996
 21
-298.0
 31
0.0
  0
LINE
  8
SIZE
  6
CONTINUOUS
 62
    30
 10
-195.543996
 20
286.0
 30
0.0
 11
-195.543996
 21
-286.0
 31
0.0
  0
CIRCLE
  8
SIZE
  6
CONTINUOUS
 62
    30
 10
-195.543996
 20
298.0
 30
0.0
 40
6.0
  0
LINE
  8
SIZE
  6
CONTINUOUS
 62
    30
 10
-195.543996
 20
298.0
 30
0.0
 11
-195.543996
 21
286.0
 31
0.0
  0
CIRCLE
  8
SIZE
  6
CONTINUOUS
 62
    30
 10
-195.543996
 20
-298.0
 30
0.0
 40
6.0
  0
LINE
  8
SIZE
  6
CONTINUOUS
 62
    30
 10
-195.543996
 20
-298.0
 30
0.0
 11
-195.543996
 21
-286.0
 31
0.0
  0
TEXT
  8
SIZE
  6
CONTINUOUS
 62
    30
 10
-220.543996
 20
-80.352
 30
0.0
 40
64.0
  1
596
 50
90.0
 41
0.9
 51
0.0
  7
STANDARD
 71
     0
 72
     1
 11
-220.543996
 21
0.0
 31
0.0
210
0.0
220
0.0
230
1.0
  0
POINT
  8
DEFPOINTS
  6
CONTINUOUS
 62
    30
 10
-245.428932
 20
298.0
 30
0.0
  0
POINT
  8
DEFPOINTS
  6
CONTINUOUS
 62
    30
 10
-245.428932
 20
-298.0
 30
0.0
  0
POINT
  8
DEFPOINTS
  6
CONTINUOUS
 62
    30
 10
-195.543996
 20
-298.0
 30
0.0
  0
LINE
  8
SIZE
  6
CONTINUOUS
 62
    30
 10
-298.0
 20
-226.428844
 30
0.0
 11
-298.0
 21
-199.772508
 31
0.0
  0
LINE
  8
SIZE
  6
CONTINUOUS
 62
    30
 10
-286.0
 20
-219.772508
 30
0.0
 11
286.0
 21
-219.772508
 31
0.0
  0
CIRCLE
  8
SIZE
  6
CONTINUOUS
 62
    30
 10
-298.0
 20
-219.772508
 30
0.0
 40
6.0
  0
LINE
  8
SIZE
  6
CONTINUOUS
 62
    30
 10
-298.0
 20
-219.772508
 30
0.0
 11
-286.0
 21
-219.772508
 31
0.0
  0
CIRCLE
  8
SIZE
  6
CONTINUOUS
 62
    30
 10
298.0
 20
-219.772508
 30
0.0
 40
6.0
  0
LINE
  8
SIZE
  6
CONTINUOUS
 62
    30
 10
298.0
 20
-219.772508
 30
0.0
 11
286.0
 21
-219.772508
 31
0.0
  0
TEXT
  8
SIZE
  6
CONTINUOUS
 62
    30
 10
-80.352
 20
-194.772508
 30
0.0
 40
64.0
  1
596
 50
0.0
 41
0.9
 51
0.0
  7
STANDARD
 71
     0
 72
     1
 11
0.0
 21
-194.772508
 31
0.0
210
0.0
220
0.0
230
1.0
  0
POINT
  8
DEFPOINTS
  6
CONTINUOUS
 62
    30
 10
-298.0
 20
-246.428844
 30
0.0
  0
POINT
  8
DEFPOINTS
  6
CONTINUOUS
 62
    30
 10
298.0
 20
-219.772508
 30
0.0
  0
POINT
  8
DEFPOINTS
  6
CONTINUOUS
 62
    30
 10
298.0
 20
-219.772508
 30
0.0
  0
LINE
  8
DETAIL
  6
DASHED
 62
     5
 39
50.0
 10
-312.999999
 20
0.0
 30
0.0
 11
-312.999999
 21
313.0
 31
0.0
  0
LINE
  8
SIZE
  6
CONTINUOUS
 62
    30
 10
-312.999999
 20
162.553315
 30
0.0
 11
-312.999999
 21
136.5
 31
0.0
  0
LINE
  8
SIZE
  6
CONTINUOUS
 62
    30
 10
313.0
 20
168.715013
 30
0.0
 11
313.0
 21
136.5
 31
0.0
  0
LINE
  8
SIZE
  6
CONTINUOUS
 62
    30
 10
-300.999999
 20
156.5
 30
0.0
 11
301.0
 21
156.5
 31
0.0
  0
LINE
  8
SIZE
  6
CONTINUOUS
 62
    30
 10
313.0
 20
156.5
 30
0.0
 11
577.192777
 21
156.5
 31
0.0
  0
CIRCLE
  8
SIZE
  6
CONTINUOUS
 62
    30
 10
-312.999999
 20
156.5
 30
0.0
 40
6.0
  0
LINE
  8
SIZE
  6
CONTINUOUS
 62
    30
 10
-312.999999
 20
156.5
 30
0.0
 11
-300.999999
 21
156.5
 31
0.0
  0
CIRCLE
  8
SIZE
  6
CONTINUOUS
 62
    30
 10
313.0
 20
156.5
 30
0.0
 40
6.0
  0
LINE
  8
SIZE
  6
CONTINUOUS
 62
    30
 10
313.0
 20
156.5
 30
0.0
 11
301.0
 21
156.5
 31
0.0
  0
TEXT
  8
SIZE
  6
CONTINUOUS
 62
    30
 10
399.155063
 20
181.5
 30
0.0
 40
64.0
  1
626
 50
0.0
 41
0.9
 51
0.0
  7
STANDARD
 71
     0
 72
     1
 11
479.507063
 21
181.5
 31
0.0
210
0.0
220
0.0
230
1.0
  0
POINT
  8
DEFPOINTS
  6
CONTINUOUS
 62
    30
 10
-312.999999
 20
182.553315
 30
0.0
  0
POINT
  8
DEFPOINTS
  6
CONTINUOUS
 62
    30
 10
313.0
 20
188.715013
 30
0.0
  0
POINT
  8
DEFPOINTS
  6
CONTINUOUS
 62
    30
 10
313.0
 20
156.5
 30
0.0
  0
LINE
  8
DETAIL
  6
DASHED
 62
     5
 39
50.0
 10
313.0
 20
313.0
 30
0.0
 11
313.0
 21
0.0
 31
0.0
  0
ENDSEC
  0
EOF
