  0
SECTION
  2
HEADER
  9
$ACADVER
  1
AC1009
  9
$DWGCODEPAGE
  3
dos932
  9
$INSBASE
 10
0.0
 20
0.0
 30
0.0
  9
$EXTMIN
 10
-793.528731
 20
-569.091785
 30
-0.001526
  9
$EXTMAX
 10
800.779735
 20
841.46119
 30
50.001526
  9
$LIMMIN
 10
-2970.0
 20
-2100.0
  9
$LIMMAX
 10
2970.0
 20
2100.0
  9
$ORTHOMODE
 70
     0
  9
$REGENMODE
 70
     1
  9
$FILLMODE
 70
     1
  9
$QTEXTMODE
 70
     0
  9
$MIRRTEXT
 70
     0
  9
$DRAGMODE
 70
     2
  9
$LTSCALE
 40
5.0
  9
$OSMODE
 70
  3071
  9
$ATTMODE
 70
     1
  9
$TEXTSIZE
 40
64.0
  9
$TRACEWID
 40
0.05
  9
$TEXTSTYLE
  7
STANDARD
  9
$CLAYER
  8
SIZE
  9
$CELTYPE
  6
CONTINUOUS
  9
$CECOLOR
 62
     7
  9
$DIMSCALE
 40
1.0
  9
$DIMASZ
 40
12.0
  9
$DIMEXO
 40
20.0
  9
$DIMDLI
 40
200.0
  9
$DIMRND
 40
0.0
  9
$DIMDLE
 40
0.0
  9
$DIMEXE
 40
20.0
  9
$DIMTP
 40
0.0
  9
$DIMTM
 40
0.0
  9
$DIMTXT
 40
64.0
  9
$DIMCEN
 40
0.09
  9
$DIMTSZ
 40
0.0
  9
$DIMTOL
 70
     0
  9
$DIMLIM
 70
     0
  9
$DIMTIH
 70
     0
  9
$DIMTOH
 70
     0
  9
$DIMSE1
 70
     0
  9
$DIMSE2
 70
     0
  9
$DIMTAD
 70
     1
  9
$DIMZIN
 70
     8
  9
$DIMBLK
  1
DOT1
  9
$DIMASO
 70
     1
  9
$DIMSHO
 70
     0
  9
$DIMPOST
  1

  9
$DIMAPOST
  1

  9
$DIMALT
 70
     0
  9
$DIMALTD
 70
     2
  9
$DIMALTF
 40
25.4
  9
$DIMLFAC
 40
1.0
  9
$DIMTOFL
 70
     1
  9
$DIMTVP
 40
0.0
  9
$DIMTIX
 70
     1
  9
$DIMSOXD
 70
     0
  9
$DIMSAH
 70
     1
  9
$DIMBLK1
  1
_ORIGIN
  9
$DIMBLK2
  1
_ORIGIN
  9
$DIMSTYLE
  2
STANDARD
  9
$DIMCLRD
 70
     7
  9
$DIMCLRE
 70
     7
  9
$DIMCLRT
 70
     7
  9
$DIMTFAC
 40
1.0
  9
$DIMGAP
 40
25.0
  9
$LUNITS
 70
     2
  9
$LUPREC
 70
     4
  9
$SKETCHINC
 40
0.1
  9
$FILLETRAD
 40
3.0
  9
$AUNITS
 70
     1
  9
$AUPREC
 70
     3
  9
$MENU
  1
ACAD
  9
$ELEVATION
 40
0.0
  9
$PELEVATION
 40
0.0
  9
$THICKNESS
 40
50.0
  9
$LIMCHECK
 70
     0
  9
$BLIPMODE
 70
     0
  9
$CHAMFERA
 40
0.0
  9
$CHAMFERB
 40
0.0
  9
$SKPOLY
 70
     0
  9
$TDCREATE
 40
2453019.62301037
  9
$TDUPDATE
 40
2454524.577152453
  9
$TDINDWG
 40
1.2640345139
  9
$TDUSRTIMER
 40
1.2640345139
  9
$USRTIMER
 70
     1
  9
$ANGBASE
 50
0.0
  9
$ANGDIR
 70
     0
  9
$PDMODE
 70
     3
  9
$PDSIZE
 40
-2.0
  9
$PLINEWID
 40
0.0
  9
$COORDS
 70
     1
  9
$SPLFRAME
 70
     0
  9
$SPLINETYPE
 70
     6
  9
$SPLINESEGS
 70
     8
  9
$ATTDIA
 70
     1
  9
$ATTREQ
 70
     1
  9
$HANDLING
 70
     0
  9
$HANDSEED
  5
AF93
  9
$SURFTAB1
 70
     6
  9
$SURFTAB2
 70
     6
  9
$SURFTYPE
 70
     6
  9
$SURFU
 70
     6
  9
$SURFV
 70
     6
  9
$UCSNAME
  2

  9
$UCSORG
 10
0.0
 20
0.0
 30
0.0
  9
$UCSXDIR
 10
1.0
 20
0.0
 30
0.0
  9
$UCSYDIR
 10
0.0
 20
1.0
 30
0.0
  9
$PUCSNAME
  2

  9
$PUCSORG
 10
0.0
 20
0.0
 30
0.0
  9
$PUCSXDIR
 10
1.0
 20
0.0
 30
0.0
  9
$PUCSYDIR
 10
0.0
 20
1.0
 30
0.0
  9
$USERI1
 70
     0
  9
$USERI2
 70
     0
  9
$USERI3
 70
     0
  9
$USERI4
 70
     0
  9
$USERI5
 70
     0
  9
$USERR1
 40
20.0
  9
$USERR2
 40
0.0
  9
$USERR3
 40
0.0
  9
$USERR4
 40
0.0
  9
$USERR5
 40
0.0
  9
$WORLDVIEW
 70
     1
  9
$SHADEDGE
 70
     3
  9
$SHADEDIF
 70
    70
  9
$TILEMODE
 70
     1
  9
$MAXACTVP
 70
    48
  9
$PINSBASE
 10
0.0
 20
0.0
 30
0.0
  9
$PLIMCHECK
 70
     0
  9
$PEXTMIN
 10
-100000000000000000000.0
 20
-100000000000000000000.0
 30
-100000000000000000000.0
  9
$PEXTMAX
 10
100000000000000000000.0
 20
100000000000000000000.0
 30
100000000000000000000.0
  9
$PLIMMIN
 10
0.0
 20
0.0
  9
$PLIMMAX
 10
12.0
 20
9.0
  9
$UNITMODE
 70
     0
  9
$VISRETAIN
 70
     0
  9
$PLINEGEN
 70
     0
  9
$PSLTSCALE
 70
     0
  9
$TREEDEPTH
 70
  3020
  0
ENDSEC
  0
SECTION
  2
TABLES
  0
TABLE
  2
LTYPE
 70
     2
  0
LTYPE
  2
CONTINUOUS
 70
     0
  3
実線
 72
    65
 73
     0
 40
0.0
  0
LTYPE
  2
DASHDOT
 70
     0
  3
____ _ ____ _ ____ _ ____ _ ____ _ ____ _ ____
 72
    65
 73
     4
 40
5.5
 49
4.0
 49
-0.6
 49
0.3
 49
-0.6
  0
ENDTAB
  0
TABLE
  2
LAYER
 70
    12
  0
LAYER
  2
0
 70
     0
 62
     7
  6
CONTINUOUS
  0
LAYER
  2
BASIS
 70
     0
 62
     6
  6
DASHDOT
  0
LAYER
  2
OUTLINE
 70
     0
 62
     3
  6
CONTINUOUS
  0
LAYER
  2
DETAIL
 70
     0
 62
     5
  6
CONTINUOUS
  0
LAYER
  2
SIZE
 70
     0
 62
    30
  6
CONTINUOUS
  0
LAYER
  2
ARRANGE
 70
     0
 62
     1
  6
CONTINUOUS
  0
LAYER
  2
DEFPOINTS
 70
     0
 62
     7
  6
CONTINUOUS
  0
LAYER
  2
ETC
 70
     0
 62
    61
  6
CONTINUOUS
  0
LAYER
  2
FIX
 70
     0
 62
    11
  6
CONTINUOUS
  0
LAYER
  2
NOTE
 70
     0
 62
     4
  6
CONTINUOUS
  0
LAYER
  2
SERVICESPACE
 70
    64
 62
     2
  6
DASHDOT
  0
LAYER
  2
SYMBOLLINE
 70
    64
 62
    15
  6
CONTINUOUS
  0
ENDTAB
  0
TABLE
  2
STYLE
 70
     1
  0
STYLE
  2
STANDARD
 70
     0
 40
64.0
 41
0.9
 50
0.0
 71
     0
 42
64.0
  3
SIMPLEX.shx
  4
BIGFONT.shx
  0
ENDTAB
  0
TABLE
  2
APPID
 70
    13
  0
APPID
  2
ACAD
 70
     0
  0
APPID
  2
AUTOCAD_POSTSCRIPT_FIGURE
 70
     0
  0
APPID
  2
ACAD_EXEMPT_FROM_CAD_STANDARDS
 70
     0
  0
APPID
  2
ACAD_PSEXT
 70
     0
  0
APPID
  2
ACAUTHENVIRON
 70
     0
  0
APPID
  2
GENIUS_GENOENT_13
 70
     0
  0
APPID
  2
GENIUS_GENCFG_13
 70
     0
  0
APPID
  2
GENIUS_GENCFG0_13
 70
     0
  0
APPID
  2
GENIUS_GENCFG1_13
 70
     0
  0
APPID
  2
GENIUS_GENCFG2_13
 70
     0
  0
APPID
  2
GENIUS_GENCFG3_13
 70
     0
  0
APPID
  2
GENIUS_GENCFG4_13
 70
     0
  0
APPID
  2
GENIUS_GEVCFG0_13
 70
     0
  0
ENDTAB
  0
TABLE
  2
DIMSTYLE
 70
     1
  0
DIMSTYLE
  2
STANDARD
 70
     0
  3

  4

  5

  6

  7

 40
1.0
 41
0.18
 42
0.0625
 43
0.38
 44
0.18
 45
0.0
 46
0.0
 47
0.0
 48
0.0
140
0.18
141
0.09
142
0.0
143
25.4
144
1.0
145
0.0
146
1.0
147
0.09
 71
     0
 72
     0
 73
     1
 74
     1
 75
     0
 76
     0
 77
     0
 78
     0
170
     0
171
     2
172
     0
173
     0
174
     0
175
     0
176
     7
177
     7
178
     7
  0
ENDTAB
  0
TABLE
  2
VIEW
 70
     1
  0
VIEW
  2
ALL
 70
     0
 40
4282.619808
 10
0.0
 20
41.309904
 41
5940.0
 11
0.0
 21
0.0
 31
1.0
 12
0.0
 22
0.0
 32
0.0
 42
50.0
 43
0.0
 44
0.0
 50
0.0
 71
     0
  0
ENDTAB
  0
TABLE
  2
UCS
 70
     0
  0
ENDTAB
  0
TABLE
  2
VPORT
 70
     1
  0
VPORT
  2
*ACTIVE
 70
     0
 10
0.0
 20
0.0
 11
1.0
 21
1.0
 12
3.625502
 22
136.184702
 13
0.0
 23
0.0
 14
1.0
 24
1.0
 15
0.0
 25
0.0
 16
0.0
 26
0.0
 36
1.0
 17
0.0
 27
0.0
 37
0.0
 40
1427.2789
 41
1.754455
 42
50.0
 43
0.0
 44
0.0
 50
0.0
 51
0.0
 71
     0
 72
  1000
 73
     1
 74
     0
 75
     0
 76
     0
 77
     0
 78
     0
  0
ENDTAB
  0
ENDSEC
  0
SECTION
  2
BLOCKS
  0
BLOCK
  8
0
  2
DOT1
 70
     0
 10
0.0
 20
0.0
 30
0.0
  3
DOT1
  1

  0
CIRCLE
  8
SIZE
  6
CONTINUOUS
 62
     7
 10
0.0
 20
0.0
 30
0.0
 40
3.0
  0
ENDBLK
  8
0
  0
BLOCK
  8
0
  2
_ORIGIN
 70
     0
 10
0.0
 20
0.0
 30
0.0
  3
_ORIGIN
  1

  0
CIRCLE
  8
0
  6
CONTINUOUS
 62
     7
 10
0.0
 20
0.0
 30
0.0
 40
0.5
  0
LINE
  8
0
  6
CONTINUOUS
 62
     7
 10
0.0
 20
0.0
 30
0.0
 11
-1.0
 21
0.0
 31
0.0
  0
ENDBLK
  8
0
  0
ENDSEC
  0
SECTION
  2
ENTITIES
  0
TEXT
  8
ETC
  6
CONTINUOUS
 62
    61
 10
480.15471
 20
773.573055
 30
0.0
 40
40.0
  1
PS-50TW3_3
 41
0.9
  0
TEXT
  8
ETC
  6
CONTINUOUS
 62
    61
 10
475.968716
 20
712.876777
 30
0.0
 40
40.0
  1
システム部材
 41
0.9
  0
TEXT
  8
ETC
  6
CONTINUOUS
 62
    61
 10
526.576219
 20
631.006666
 30
0.0
 40
40.0
  1
PS-50TW3
 41
0.9
  0
CIRCLE
  8
ARRANGE
  6
CONTINUOUS
 62
     1
 10
0.0
 20
0.0
 30
0.0
 40
40.0
  0
LINE
  8
BASIS
  6
DASHDOT
 62
     6
 10
-405.474928
 20
0.0
 30
0.0
 11
393.876254
 21
0.0
 31
0.0
  0
LINE
  8
BASIS
  6
DASHDOT
 62
     6
 10
0.0
 20
384.021926
 30
0.0
 11
0.0
 21
-391.177472
 31
0.0
  0
POINT
  8
ARRANGE
  6
CONTINUOUS
 62
     1
 10
0.0
 20
0.0
 30
0.0
 39
50.0
  0
LINE
  8
DETAIL
  6
CONTINUOUS
 62
     5
 10
-303.2
 20
263.25
 30
0.0
 11
-312.75
 21
263.25
 31
0.0
  0
LINE
  8
DETAIL
  6
CONTINUOUS
 62
     5
 10
-303.2
 20
275.25
 30
0.0
 11
-312.75
 21
275.25
 31
0.0
  0
LINE
  8
DETAIL
  6
CONTINUOUS
 62
     5
 10
-299.5
 20
283.75
 30
0.0
 11
-299.5
 21
298.5
 31
0.0
  0
LINE
  8
DETAIL
  6
CONTINUOUS
 62
     5
 10
-300.5
 20
283.75
 30
0.0
 11
-300.5
 21
298.5
 31
0.0
  0
LINE
  8
DETAIL
  6
CONTINUOUS
 62
     5
 10
-283.75
 20
299.5
 30
0.0
 11
-297.5
 21
299.5
 31
0.0
  0
LINE
  8
DETAIL
  6
CONTINUOUS
 62
     5
 10
-255.0
 20
300.5
 30
0.0
 11
-247.0
 21
300.5
 31
0.0
  0
LINE
  8
DETAIL
  6
CONTINUOUS
 62
     5
 10
-300.5
 20
247.0
 30
0.0
 11
-300.5
 21
255.0
 31
0.0
  0
LINE
  8
DETAIL
  6
CONTINUOUS
 62
     5
 10
-299.5
 20
246.0
 30
0.0
 11
-299.5
 21
255.0
 31
0.0
  0
LINE
  8
DETAIL
  6
CONTINUOUS
 62
     5
 10
-302.0
 20
298.5
 30
0.0
 11
-312.75
 21
298.5
 31
0.0
  0
LINE
  8
DETAIL
  6
CONTINUOUS
 62
     5
 10
-246.0
 20
299.5
 30
0.0
 11
-255.0
 21
299.5
 31
0.0
  0
LINE
  8
DETAIL
  6
CONTINUOUS
 62
     5
 10
-297.5
 20
301.0
 30
0.0
 11
-297.5
 21
300.5
 31
0.0
  0
LINE
  8
DETAIL
  6
CONTINUOUS
 62
     5
 10
-298.5
 20
297.5
 30
0.0
 11
-298.5
 21
298.5
 31
0.0
  0
LINE
  8
DETAIL
  6
CONTINUOUS
 62
     5
 10
-299.5
 20
285.5
 30
0.0
 11
-299.0
 21
285.5
 31
0.0
  0
LINE
  8
DETAIL
  6
CONTINUOUS
 62
     5
 10
-299.5
 20
287.5
 30
0.0
 11
-299.0
 21
287.5
 31
0.0
  0
LINE
  8
DETAIL
  6
CONTINUOUS
 62
     5
 10
-297.5
 20
312.75
 30
0.0
 11
-297.5
 21
303.0
 31
0.0
  0
LINE
  8
DETAIL
  6
CONTINUOUS
 62
     5
 10
-298.5
 20
285.5
 30
0.0
 11
-298.5
 21
285.75
 31
0.0
  0
LINE
  8
DETAIL
  6
CONTINUOUS
 62
     5
 10
-300.5
 20
296.5
 30
0.0
 11
-299.5
 21
296.5
 31
0.0
  0
LINE
  8
DETAIL
  6
CONTINUOUS
 62
     5
 10
-299.5
 20
298.5
 30
0.0
 11
-301.0
 21
298.5
 31
0.0
  0
LINE
  8
DETAIL
  6
CONTINUOUS
 62
     5
 10
-297.5
 20
300.5
 30
0.0
 11
-283.75
 21
300.5
 31
0.0
  0
LINE
  8
DETAIL
  6
CONTINUOUS
 62
     5
 10
-312.75
 20
298.5
 30
0.0
 11
-312.75
 21
275.25
 31
0.0
  0
LINE
  8
DETAIL
  6
CONTINUOUS
 62
     5
 10
-312.75
 20
263.25
 30
0.0
 11
-312.75
 21
0.0
 31
0.0
  0
LINE
  8
DETAIL
  6
CONTINUOUS
 62
     5
 10
0.0
 20
312.75
 30
0.0
 11
-297.5
 21
312.75
 31
0.0
  0
ARC
  8
DETAIL
  6
CONTINUOUS
 62
     5
 10
-297.5
 20
298.5
 30
0.0
 40
1.0
 50
150.0
 51
180.0
  0
ARC
  8
DETAIL
  6
CONTINUOUS
 62
     5
 10
-297.5
 20
298.5
 30
0.0
 40
2.0
 50
90.0
 51
180.0
  0
LINE
  8
DETAIL
  6
CONTINUOUS
 62
     5
 10
-299.0
 20
285.5
 30
0.0
 11
-298.5
 21
285.5
 31
0.0
  0
ARC
  8
DETAIL
  6
CONTINUOUS
 62
     5
 10
-297.5
 20
298.5
 30
0.0
 40
1.0
 50
90.0
 51
150.0
  0
LINE
  8
DETAIL
  6
CONTINUOUS
 62
     5
 10
-245.5
 20
299.0
 30
0.0
 11
-255.0
 21
299.0
 31
0.0
  0
LINE
  8
DETAIL
  6
CONTINUOUS
 62
     5
 10
-283.75
 20
299.0
 30
0.0
 11
-298.366025
 21
299.0
 31
0.0
  0
LINE
  8
DETAIL
  6
CONTINUOUS
 62
     5
 10
-299.436492
 20
299.0
 30
0.0
 11
-313.0
 21
299.0
 31
0.0
  0
LINE
  8
DETAIL
  6
CONTINUOUS
 62
     5
 10
0.0
 20
345.0
 30
0.0
 11
-335.0
 21
345.0
 31
0.0
  0
ARC
  8
DETAIL
  6
CONTINUOUS
 62
     5
 10
-335.0
 20
335.0
 30
0.0
 40
10.0
 50
90.0
 51
180.0
  0
LINE
  8
DETAIL
  6
CONTINUOUS
 62
     5
 10
-345.0
 20
335.0
 30
0.0
 11
-345.0
 21
315.0
 31
0.0
  0
LINE
  8
DETAIL
  6
CONTINUOUS
 62
     5
 10
0.0
 20
313.0
 30
0.0
 11
-313.0
 21
313.0
 31
0.0
  0
LINE
  8
DETAIL
  6
CONTINUOUS
 62
     5
 10
-313.0
 20
299.0
 30
0.0
 11
-313.0
 21
315.0
 31
0.0
  0
LINE
  8
DETAIL
  6
CONTINUOUS
 62
     5
 10
-313.0
 20
315.0
 30
0.0
 11
-315.0
 21
315.0
 31
0.0
  0
LINE
  8
DETAIL
  6
CONTINUOUS
 62
     5
 10
-315.0
 20
315.0
 30
0.0
 11
-345.0
 21
315.0
 31
0.0
  0
LINE
  8
DETAIL
  6
CONTINUOUS
 62
     5
 10
-302.0
 20
299.0
 30
0.0
 11
-313.0
 21
299.0
 31
0.0
  0
LINE
  8
DETAIL
  6
CONTINUOUS
 62
     5
 10
-299.0
 20
255.0
 30
0.0
 11
-299.0
 21
245.5
 31
0.0
  0
LINE
  8
DETAIL
  6
CONTINUOUS
 62
     5
 10
-299.0
 20
285.5
 30
0.0
 11
-299.0
 21
283.75
 31
0.0
  0
LINE
  8
DETAIL
  6
CONTINUOUS
 62
     5
 10
-299.436492
 20
299.0
 30
0.0
 11
-301.0
 21
299.0
 31
0.0
  0
LINE
  8
DETAIL
  6
CONTINUOUS
 62
     5
 10
-345.0
 20
315.0
 30
0.0
 11
-345.0
 21
0.0
 31
0.0
  0
LINE
  8
DETAIL
  6
CONTINUOUS
 62
     5
 10
-315.0
 20
315.0
 30
0.0
 11
-315.0
 21
313.5
 31
0.0
  0
ARC
  8
DETAIL
  6
CONTINUOUS
 62
     5
 10
-335.0
 20
335.0
 30
0.0
 40
10.0
 50
90.0
 51
180.0
  0
LINE
  8
DETAIL
  6
CONTINUOUS
 62
     5
 10
-345.0
 20
335.0
 30
0.0
 11
-345.0
 21
315.0
 31
0.0
  0
LINE
  8
DETAIL
  6
CONTINUOUS
 62
     5
 10
-313.8
 20
313.5
 30
0.0
 11
-313.8
 21
0.0
 31
0.0
  0
LINE
  8
DETAIL
  6
CONTINUOUS
 62
     5
 10
-313.0
 20
299.0
 30
0.0
 11
-313.0
 21
0.0
 31
0.0
  0
LINE
  8
DETAIL
  6
CONTINUOUS
 62
     5
 10
-313.0
 20
313.5
 30
0.0
 11
-313.0
 21
299.0
 31
0.0
  0
LINE
  8
DETAIL
  6
CONTINUOUS
 62
     5
 10
-313.0
 20
313.5
 30
0.0
 11
-315.0
 21
313.5
 31
0.0
  0
LINE
  8
DETAIL
  6
CONTINUOUS
 62
     5
 10
-315.0
 20
314.5
 30
0.0
 11
-345.0
 21
314.5
 31
0.0
  0
LINE
  8
DETAIL
  6
CONTINUOUS
 62
     5
 10
-315.0
 20
345.0
 30
0.0
 11
-335.0
 21
345.0
 31
0.0
  0
LINE
  8
DETAIL
  6
CONTINUOUS
 62
     5
 10
-301.0
 20
283.75
 30
0.0
 11
-301.0
 21
301.0
 31
0.0
  0
LINE
  8
DETAIL
  6
CONTINUOUS
 62
     5
 10
-302.0
 20
283.75
 30
0.0
 11
-302.0
 21
301.0
 31
0.0
  0
LINE
  8
DETAIL
  6
CONTINUOUS
 62
     5
 10
-302.0
 20
0.0
 30
0.0
 11
-302.0
 21
255.0
 31
0.0
  0
LINE
  8
DETAIL
  6
CONTINUOUS
 62
     5
 10
-287.0
 20
303.0
 30
0.0
 11
-287.0
 21
302.0
 31
0.0
  0
LINE
  8
DETAIL
  6
CONTINUOUS
 62
     5
 10
-289.0
 20
303.0
 30
0.0
 11
-289.0
 21
302.0
 31
0.0
  0
LINE
  8
DETAIL
  6
CONTINUOUS
 62
     5
 10
-298.0
 20
244.5
 30
0.0
 11
-298.0
 21
0.0
 31
0.0
  0
LINE
  8
DETAIL
  6
CONTINUOUS
 62
     5
 10
-301.0
 20
247.5
 30
0.0
 11
-301.0
 21
255.0
 31
0.0
  0
LINE
  8
DETAIL
  6
CONTINUOUS
 62
     5
 10
-298.0
 20
244.5
 30
0.0
 11
-301.0
 21
247.5
 31
0.0
  0
LINE
  8
DETAIL
  6
CONTINUOUS
 62
     5
 10
-302.0
 20
247.5
 30
0.0
 11
-301.0
 21
247.5
 31
0.0
  0
LINE
  8
DETAIL
  6
CONTINUOUS
 62
     5
 10
-287.0
 20
302.0
 30
0.0
 11
-300.0
 21
302.0
 31
0.0
  0
LINE
  8
DETAIL
  6
CONTINUOUS
 62
     5
 10
-287.0
 20
303.0
 30
0.0
 11
-300.0
 21
303.0
 31
0.0
  0
ARC
  8
DETAIL
  6
CONTINUOUS
 62
     5
 10
-300.0
 20
301.0
 30
0.0
 40
2.0
 50
90.0
 51
180.0
  0
ARC
  8
DETAIL
  6
CONTINUOUS
 62
     5
 10
-300.0
 20
301.0
 30
0.0
 40
1.0
 50
90.0
 51
180.0
  0
LINE
  8
DETAIL
  6
CONTINUOUS
 62
     5
 10
-281.732412
 20
275.934136
 30
0.0
 11
-284.065864
 21
278.267588
 31
0.0
  0
ARC
  8
DETAIL
  6
CONTINUOUS
 62
     5
 10
-278.833274
 20
278.833274
 30
0.0
 40
4.1
 50
225.0
 51
45.0
  0
LINE
  8
DETAIL
  6
CONTINUOUS
 62
     5
 10
-275.934136
 20
281.732412
 30
0.0
 11
-278.267588
 21
284.065864
 31
0.0
  0
ARC
  8
DETAIL
  6
CONTINUOUS
 62
     5
 10
-281.166726
 20
281.166726
 30
0.0
 40
4.1
 50
45.0
 51
225.0
  0
LINE
  8
DETAIL
  6
CONTINUOUS
 62
     5
 10
-299.0
 20
255.0
 30
0.0
 11
-303.2
 21
255.0
 31
0.0
  0
LINE
  8
DETAIL
  6
CONTINUOUS
 62
     5
 10
-255.0
 20
303.2
 30
0.0
 11
-255.0
 21
299.0
 31
0.0
  0
LINE
  8
DETAIL
  6
CONTINUOUS
 62
     5
 10
-303.2
 20
283.75
 30
0.0
 11
-296.5
 21
283.75
 31
0.0
  0
LINE
  8
DETAIL
  6
CONTINUOUS
 62
     5
 10
-296.5
 20
285.75
 30
0.0
 11
-299.0
 21
285.75
 31
0.0
  0
LINE
  8
DETAIL
  6
CONTINUOUS
 62
     5
 10
-283.75
 20
296.5
 30
0.0
 11
-283.75
 21
303.2
 31
0.0
  0
LINE
  8
DETAIL
  6
CONTINUOUS
 62
     5
 10
-285.75
 20
299.0
 30
0.0
 11
-285.75
 21
296.5
 31
0.0
  0
LINE
  8
DETAIL
  6
CONTINUOUS
 62
     5
 10
-297.0
 20
299.0
 30
0.0
 11
-285.75
 21
299.0
 31
0.0
  0
LINE
  8
DETAIL
  6
CONTINUOUS
 62
     5
 10
-255.0
 20
303.2
 30
0.0
 11
-283.75
 21
303.2
 31
0.0
  0
LINE
  8
DETAIL
  6
CONTINUOUS
 62
     5
 10
-299.0
 20
285.75
 30
0.0
 11
-299.0
 21
297.0
 31
0.0
  0
LINE
  8
DETAIL
  6
CONTINUOUS
 62
     5
 10
-303.2
 20
283.75
 30
0.0
 11
-303.2
 21
255.0
 31
0.0
  0
LINE
  8
DETAIL
  6
CONTINUOUS
 62
     5
 10
-298.964466
 20
245.464466
 30
0.0
 11
-251.464466
 21
292.964466
 31
0.0
  0
LINE
  8
DETAIL
  6
CONTINUOUS
 62
     5
 10
-297.0
 20
299.0
 30
0.0
 11
-299.0
 21
297.0
 31
0.0
  0
CIRCLE
  8
DETAIL
  6
CONTINUOUS
 62
     5
 10
-280.0
 20
280.0
 30
0.0
 40
4.0
  0
ARC
  8
DETAIL
  6
CONTINUOUS
 62
     5
 10
-296.5
 20
284.75
 30
0.0
 40
1.0
 50
270.0
 51
90.0
  0
ARC
  8
DETAIL
  6
CONTINUOUS
 62
     5
 10
-284.75
 20
296.5
 30
0.0
 40
1.0
 50
180.0
 51
0.0
  0
ARC
  8
DETAIL
  6
CONTINUOUS
 62
     5
 10
-278.833274
 20
278.833274
 30
0.0
 40
4.1
 50
225.0
 51
45.0
  0
ARC
  8
DETAIL
  6
CONTINUOUS
 62
     5
 10
-281.166726
 20
281.166726
 30
0.0
 40
4.1
 50
45.0
 51
225.0
  0
LINE
  8
DETAIL
  6
CONTINUOUS
 62
     5
 10
-281.732412
 20
275.934136
 30
0.0
 11
-284.065864
 21
278.267588
 31
0.0
  0
LINE
  8
DETAIL
  6
CONTINUOUS
 62
     5
 10
-275.934136
 20
281.732412
 30
0.0
 11
-278.267588
 21
284.065864
 31
0.0
  0
LINE
  8
DETAIL
  6
CONTINUOUS
 62
     5
 10
-298.5
 20
297.5
 30
0.0
 11
-297.0
 21
299.0
 31
0.0
  0
LINE
  8
DETAIL
  6
CONTINUOUS
 62
     5
 10
-298.5
 20
285.75
 30
0.0
 11
-296.5
 21
285.75
 31
0.0
  0
LINE
  8
DETAIL
  6
CONTINUOUS
 62
     5
 10
-255.0
 20
299.0
 30
0.0
 11
-255.0
 21
299.0
 31
0.0
  0
LINE
  8
DETAIL
  6
CONTINUOUS
 62
     5
 10
-299.5
 20
255.0
 30
0.0
 11
-299.0
 21
255.0
 31
0.0
  0
LINE
  8
DETAIL
  6
CONTINUOUS
 62
     5
 10
-283.75
 20
299.5
 30
0.0
 11
-283.75
 21
299.0
 31
0.0
  0
LINE
  8
DETAIL
  6
CONTINUOUS
 62
     5
 10
-285.75
 20
296.5
 30
0.0
 11
-285.75
 21
299.0
 31
0.0
  0
LINE
  8
DETAIL
  6
CONTINUOUS
 62
     5
 10
-296.5
 20
283.75
 30
0.0
 11
-299.0
 21
283.75
 31
0.0
  0
LINE
  8
DETAIL
  6
CONTINUOUS
 62
     5
 10
-245.464466
 20
298.964466
 30
0.0
 11
-298.964466
 21
245.464466
 31
0.0
  0
ARC
  8
DETAIL
  6
CONTINUOUS
 62
     5
 10
-284.75
 20
296.5
 30
0.0
 40
1.0
 50
180.0
 51
0.0
  0
ARC
  8
DETAIL
  6
CONTINUOUS
 62
     5
 10
-296.5
 20
284.75
 30
0.0
 40
1.0
 50
270.0
 51
90.0
  0
LINE
  8
DETAIL
  6
CONTINUOUS
 62
     5
 10
-285.75
 20
299.0
 30
0.0
 11
-297.0
 21
299.0
 31
0.0
  0
LINE
  8
DETAIL
  6
CONTINUOUS
 62
     5
 10
-299.0
 20
283.75
 30
0.0
 11
-299.5
 21
283.75
 31
0.0
  0
LINE
  8
DETAIL
  6
CONTINUOUS
 62
     5
 10
-283.75
 20
299.0
 30
0.0
 11
-283.75
 21
296.5
 31
0.0
  0
LINE
  8
DETAIL
  6
CONTINUOUS
 62
     5
 10
-255.0
 20
299.0
 30
0.0
 11
-255.0
 21
299.5
 31
0.0
  0
CIRCLE
  8
DETAIL
  6
CONTINUOUS
 62
     5
 10
-280.0
 20
280.0
 30
0.0
 40
4.0
  0
LINE
  8
DETAIL
  6
CONTINUOUS
 62
     5
 10
-272.25
 20
304.5
 30
0.0
 11
-266.25
 21
304.5
 31
0.0
  0
LINE
  8
DETAIL
  6
CONTINUOUS
 62
     5
 10
-300.0
 20
302.0
 30
0.0
 11
-283.75
 21
302.0
 31
0.0
  0
LINE
  8
DETAIL
  6
CONTINUOUS
 62
     5
 10
-300.0
 20
301.0
 30
0.0
 11
-283.75
 21
301.0
 31
0.0
  0
LINE
  8
DETAIL
  6
CONTINUOUS
 62
     5
 10
0.0
 20
298.0
 30
0.0
 11
-244.5
 21
298.0
 31
0.0
  0
LINE
  8
DETAIL
  6
CONTINUOUS
 62
     5
 10
-255.0
 20
302.0
 30
0.0
 11
0.0
 21
302.0
 31
0.0
  0
LINE
  8
DETAIL
  6
CONTINUOUS
 62
     5
 10
-255.0
 20
301.0
 30
0.0
 11
-247.5
 21
301.0
 31
0.0
  0
LINE
  8
DETAIL
  6
CONTINUOUS
 62
     5
 10
-244.5
 20
298.0
 30
0.0
 11
-247.5
 21
301.0
 31
0.0
  0
LINE
  8
DETAIL
  6
CONTINUOUS
 62
     5
 10
-247.5
 20
301.0
 30
0.0
 11
-247.5
 21
305.0
 31
0.0
  0
LINE
  8
DETAIL
  6
CONTINUOUS
 62
     5
 10
-265.25
 20
303.5
 30
0.0
 11
-265.25
 21
303.2
 31
0.0
  0
LINE
  8
DETAIL
  6
CONTINUOUS
 62
     5
 10
-273.25
 20
303.5
 30
0.0
 11
-273.25
 21
303.2
 31
0.0
  0
LINE
  8
DETAIL
  6
CONTINUOUS
 62
     5
 10
-298.0
 20
302.0
 30
0.0
 11
-298.0
 21
301.0
 31
0.0
  0
LINE
  8
DETAIL
  6
CONTINUOUS
 62
     5
 10
-300.0
 20
302.0
 30
0.0
 11
-300.0
 21
301.0
 31
0.0
  0
LINE
  8
DETAIL
  6
CONTINUOUS
 62
     5
 10
-266.25
 20
304.5
 30
0.0
 11
-265.25
 21
303.5
 31
0.0
  0
LINE
  8
DETAIL
  6
CONTINUOUS
 62
     5
 10
-272.25
 20
304.5
 30
0.0
 11
-273.25
 21
303.5
 31
0.0
  0
LINE
  8
DETAIL
  6
CONTINUOUS
 62
     5
 10
-302.0
 20
226.0
 30
0.0
 11
-302.8
 21
226.0
 31
0.0
  0
LINE
  8
DETAIL
  6
CONTINUOUS
 62
     5
 10
-302.8
 20
208.9
 30
0.0
 11
-302.8
 21
226.0
 31
0.0
  0
LINE
  8
DETAIL
  6
CONTINUOUS
 62
     5
 10
-302.0
 20
208.9
 30
0.0
 11
-302.8
 21
208.9
 31
0.0
  0
LINE
  8
DETAIL
  6
CONTINUOUS
 62
     5
 10
-302.0
 20
208.9
 30
0.0
 11
-302.0
 21
226.0
 31
0.0
  0
ARC
  8
DETAIL
  6
CONTINUOUS
 62
     5
 10
-299.2
 20
218.5
 30
0.0
 40
6.1
 50
129.601965
 51
230.398017
  0
LINE
  8
DETAIL
  6
CONTINUOUS
 62
     5
 10
-302.8
 20
223.2
 30
0.0
 11
-302.8
 21
213.8
 31
0.0
  0
LINE
  8
DETAIL
  6
CONTINUOUS
 62
     5
 10
-302.8
 20
213.8
 30
0.0
 11
-303.088445
 21
213.8
 31
0.0
  0
LINE
  8
DETAIL
  6
CONTINUOUS
 62
     5
 10
-302.8
 20
223.2
 30
0.0
 11
-303.088445
 21
223.2
 31
0.0
  0
LINE
  8
DETAIL
  6
CONTINUOUS
 62
     5
 10
-303.088445
 20
213.8
 30
0.0
 11
-303.088445
 21
223.2
 31
0.0
  0
LINE
  8
DETAIL
  6
CONTINUOUS
 62
     5
 10
-294.880415
 20
289.429339
 30
0.0
 11
-293.986954
 21
290.3228
 31
0.0
  0
LINE
  8
DETAIL
  6
CONTINUOUS
 62
     5
 10
-279.429339
 20
284.880415
 30
0.0
 11
-280.3228
 21
283.986954
 31
0.0
  0
LINE
  8
DETAIL
  6
CONTINUOUS
 62
     5
 10
-283.75
 20
296.821782
 30
0.0
 11
-285.75
 21
296.821782
 31
0.0
  0
LINE
  8
DETAIL
  6
CONTINUOUS
 62
     5
 10
-296.821782
 20
283.75
 30
0.0
 11
-296.821782
 21
285.75
 31
0.0
  0
LINE
  8
NOTE
  6
CONTINUOUS
 62
     4
 10
-330.0
 20
310.0
 30
0.0
 11
-330.0
 21
350.0
 31
0.0
  0
LINE
  8
NOTE
  6
CONTINUOUS
 62
     4
 10
-350.0
 20
330.0
 30
0.0
 11
-310.0
 21
330.0
 31
0.0
  0
LINE
  8
NOTE
  6
CONTINUOUS
 62
     4
 10
330.0
 20
310.0
 30
0.0
 11
330.0
 21
350.0
 31
0.0
  0
LINE
  8
NOTE
  6
CONTINUOUS
 62
     4
 10
310.0
 20
330.0
 30
0.0
 11
350.0
 21
330.0
 31
0.0
  0
LINE
  8
NOTE
  6
CONTINUOUS
 62
     4
 10
330.0
 20
-350.0
 30
0.0
 11
330.0
 21
-310.0
 31
0.0
  0
LINE
  8
NOTE
  6
CONTINUOUS
 62
     4
 10
310.0
 20
-330.0
 30
0.0
 11
350.0
 21
-330.0
 31
0.0
  0
LINE
  8
NOTE
  6
CONTINUOUS
 62
     4
 10
-330.0
 20
-350.0
 30
0.0
 11
-330.0
 21
-310.0
 31
0.0
  0
LINE
  8
NOTE
  6
CONTINUOUS
 62
     4
 10
-350.0
 20
-330.0
 30
0.0
 11
-310.0
 21
-330.0
 31
0.0
  0
LINE
  8
DETAIL
  6
CONTINUOUS
 62
     5
 10
0.0
 20
305.0
 30
0.0
 11
-305.0
 21
305.0
 31
0.0
  0
LINE
  8
DETAIL
  6
CONTINUOUS
 62
     5
 10
-305.0
 20
305.0
 30
0.0
 11
-305.0
 21
0.0
 31
0.0
  0
LINE
  8
NOTE
  6
CONTINUOUS
 62
     4
 10
-280.0
 20
260.0
 30
0.0
 11
-280.0
 21
300.0
 31
0.0
  0
LINE
  8
NOTE
  6
CONTINUOUS
 62
     4
 10
-300.0
 20
280.0
 30
0.0
 11
-260.0
 21
280.0
 31
0.0
  0
LINE
  8
NOTE
  6
CONTINUOUS
 62
     4
 10
280.0
 20
260.0
 30
0.0
 11
280.0
 21
300.0
 31
0.0
  0
LINE
  8
NOTE
  6
CONTINUOUS
 62
     4
 10
260.0
 20
280.0
 30
0.0
 11
300.0
 21
280.0
 31
0.0
  0
LINE
  8
NOTE
  6
CONTINUOUS
 62
     4
 10
280.0
 20
-300.0
 30
0.0
 11
280.0
 21
-260.0
 31
0.0
  0
LINE
  8
NOTE
  6
CONTINUOUS
 62
     4
 10
260.0
 20
-280.0
 30
0.0
 11
300.0
 21
-280.0
 31
0.0
  0
LINE
  8
NOTE
  6
CONTINUOUS
 62
     4
 10
-280.0
 20
-300.0
 30
0.0
 11
-280.0
 21
-260.0
 31
0.0
  0
LINE
  8
NOTE
  6
CONTINUOUS
 62
     4
 10
-300.0
 20
-280.0
 30
0.0
 11
-260.0
 21
-280.0
 31
0.0
  0
TEXT
  8
NOTE
  6
CONTINUOUS
 62
     4
 10
-679.233308
 20
476.590741
 30
0.0
 40
64.0
  1
4-φ16
 41
0.9
  0
LINE
  8
NOTE
  6
CONTINUOUS
 62
     4
 39
50.0
 10
-682.182079
 20
452.847312
 30
0.0
 11
-433.995644
 21
452.847312
 31
0.0
  0
LINE
  8
NOTE
  6
CONTINUOUS
 62
     4
 39
50.0
 10
-433.995644
 20
452.847312
 30
0.0
 11
-332.760752
 21
334.756916
 31
0.0
  0
LINE
  8
NOTE
  6
CONTINUOUS
 62
     4
 10
-366.933331
 20
355.547174
 30
0.0
 11
-332.760752
 21
334.756916
 31
0.0
  0
LINE
  8
NOTE
  6
CONTINUOUS
 62
     4
 10
-332.760752
 20
334.756916
 30
0.0
 11
-351.959945
 21
369.848097
 31
0.0
  0
TEXT
  8
NOTE
  6
CONTINUOUS
 62
     4
 10
404.039876
 20
-183.943873
 30
0.0
 40
64.0
  1
4-M12
 41
0.9
  0
LINE
  8
NOTE
  6
CONTINUOUS
 62
     4
 39
50.0
 10
401.091105
 20
-207.687302
 30
0.0
 11
701.631751
 21
-207.687302
 31
0.0
  0
LINE
  8
NOTE
  6
CONTINUOUS
 62
     4
 10
311.494586
 20
-249.133914
 30
0.0
 11
283.63033
 21
-277.832054
 31
0.0
  0
LINE
  8
NOTE
  6
CONTINUOUS
 62
     4
 10
283.63033
 20
-277.832054
 30
0.0
 11
322.110554
 21
-266.910865
 31
0.0
  0
LINE
  8
NOTE
  6
CONTINUOUS
 62
     4
 39
50.0
 10
401.091105
 20
-207.687302
 30
0.0
 11
283.63033
 21
-277.832054
 31
0.0
  0
CIRCLE
  8
FIX
  6
CONTINUOUS
 62
    11
 39
50.0
 10
-280.0
 20
280.0
 30
0.0
 40
4.0
  0
CIRCLE
  8
FIX
  6
CONTINUOUS
 62
    11
 39
50.0
 10
280.0
 20
280.0
 30
0.0
 40
4.0
  0
CIRCLE
  8
FIX
  6
CONTINUOUS
 62
    11
 39
50.0
 10
280.0
 20
-280.0
 30
0.0
 40
4.0
  0
CIRCLE
  8
FIX
  6
CONTINUOUS
 62
    11
 39
50.0
 10
-280.0
 20
-280.0
 30
0.0
 40
4.0
  0
LINE
  8
DETAIL
  6
CONTINUOUS
 62
     5
 10
303.2
 20
263.25
 30
0.0
 11
312.75
 21
263.25
 31
0.0
  0
LINE
  8
DETAIL
  6
CONTINUOUS
 62
     5
 10
303.2
 20
275.25
 30
0.0
 11
312.75
 21
275.25
 31
0.0
  0
LINE
  8
DETAIL
  6
CONTINUOUS
 62
     5
 10
299.5
 20
283.75
 30
0.0
 11
299.5
 21
298.5
 31
0.0
  0
LINE
  8
DETAIL
  6
CONTINUOUS
 62
     5
 10
300.5
 20
283.75
 30
0.0
 11
300.5
 21
298.5
 31
0.0
  0
LINE
  8
DETAIL
  6
CONTINUOUS
 62
     5
 10
283.75
 20
299.5
 30
0.0
 11
297.5
 21
299.5
 31
0.0
  0
LINE
  8
DETAIL
  6
CONTINUOUS
 62
     5
 10
255.0
 20
300.5
 30
0.0
 11
247.0
 21
300.5
 31
0.0
  0
LINE
  8
DETAIL
  6
CONTINUOUS
 62
     5
 10
300.5
 20
247.0
 30
0.0
 11
300.5
 21
255.0
 31
0.0
  0
LINE
  8
DETAIL
  6
CONTINUOUS
 62
     5
 10
299.5
 20
246.0
 30
0.0
 11
299.5
 21
255.0
 31
0.0
  0
LINE
  8
DETAIL
  6
CONTINUOUS
 62
     5
 10
302.0
 20
298.5
 30
0.0
 11
312.75
 21
298.5
 31
0.0
  0
LINE
  8
DETAIL
  6
CONTINUOUS
 62
     5
 10
246.0
 20
299.5
 30
0.0
 11
255.0
 21
299.5
 31
0.0
  0
LINE
  8
DETAIL
  6
CONTINUOUS
 62
     5
 10
297.5
 20
301.0
 30
0.0
 11
297.5
 21
300.5
 31
0.0
  0
LINE
  8
DETAIL
  6
CONTINUOUS
 62
     5
 10
298.5
 20
297.5
 30
0.0
 11
298.5
 21
298.5
 31
0.0
  0
LINE
  8
DETAIL
  6
CONTINUOUS
 62
     5
 10
299.5
 20
285.5
 30
0.0
 11
299.0
 21
285.5
 31
0.0
  0
LINE
  8
DETAIL
  6
CONTINUOUS
 62
     5
 10
299.5
 20
287.5
 30
0.0
 11
299.0
 21
287.5
 31
0.0
  0
LINE
  8
DETAIL
  6
CONTINUOUS
 62
     5
 10
297.5
 20
312.75
 30
0.0
 11
297.5
 21
303.0
 31
0.0
  0
LINE
  8
DETAIL
  6
CONTINUOUS
 62
     5
 10
298.5
 20
285.5
 30
0.0
 11
298.5
 21
285.75
 31
0.0
  0
LINE
  8
DETAIL
  6
CONTINUOUS
 62
     5
 10
300.5
 20
296.5
 30
0.0
 11
299.5
 21
296.5
 31
0.0
  0
LINE
  8
DETAIL
  6
CONTINUOUS
 62
     5
 10
299.5
 20
298.5
 30
0.0
 11
301.0
 21
298.5
 31
0.0
  0
LINE
  8
DETAIL
  6
CONTINUOUS
 62
     5
 10
297.5
 20
300.5
 30
0.0
 11
283.75
 21
300.5
 31
0.0
  0
LINE
  8
DETAIL
  6
CONTINUOUS
 62
     5
 10
312.75
 20
298.5
 30
0.0
 11
312.75
 21
275.25
 31
0.0
  0
LINE
  8
DETAIL
  6
CONTINUOUS
 62
     5
 10
312.75
 20
263.25
 30
0.0
 11
312.75
 21
0.0
 31
0.0
  0
LINE
  8
DETAIL
  6
CONTINUOUS
 62
     5
 10
0.0
 20
312.75
 30
0.0
 11
297.5
 21
312.75
 31
0.0
  0
ARC
  8
DETAIL
  6
CONTINUOUS
 62
     5
 10
297.5
 20
298.5
 30
0.0
 40
1.0
 50
0.0
 51
30.0
  0
ARC
  8
DETAIL
  6
CONTINUOUS
 62
     5
 10
297.5
 20
298.5
 30
0.0
 40
2.0
 50
0.0
 51
90.0
  0
LINE
  8
DETAIL
  6
CONTINUOUS
 62
     5
 10
299.0
 20
285.5
 30
0.0
 11
298.5
 21
285.5
 31
0.0
  0
ARC
  8
DETAIL
  6
CONTINUOUS
 62
     5
 10
297.5
 20
298.5
 30
0.0
 40
1.0
 50
30.0
 51
90.0
  0
LINE
  8
DETAIL
  6
CONTINUOUS
 62
     5
 10
245.5
 20
299.0
 30
0.0
 11
255.0
 21
299.0
 31
0.0
  0
LINE
  8
DETAIL
  6
CONTINUOUS
 62
     5
 10
283.75
 20
299.0
 30
0.0
 11
298.366025
 21
299.0
 31
0.0
  0
LINE
  8
DETAIL
  6
CONTINUOUS
 62
     5
 10
299.436492
 20
299.0
 30
0.0
 11
313.0
 21
299.0
 31
0.0
  0
LINE
  8
DETAIL
  6
CONTINUOUS
 62
     5
 10
0.0
 20
345.0
 30
0.0
 11
335.0
 21
345.0
 31
0.0
  0
ARC
  8
DETAIL
  6
CONTINUOUS
 62
     5
 10
335.0
 20
335.0
 30
0.0
 40
10.0
 50
0.0
 51
90.0
  0
LINE
  8
DETAIL
  6
CONTINUOUS
 62
     5
 10
345.0
 20
335.0
 30
0.0
 11
345.0
 21
315.0
 31
0.0
  0
LINE
  8
DETAIL
  6
CONTINUOUS
 62
     5
 10
0.0
 20
313.0
 30
0.0
 11
313.0
 21
313.0
 31
0.0
  0
LINE
  8
DETAIL
  6
CONTINUOUS
 62
     5
 10
313.0
 20
299.0
 30
0.0
 11
313.0
 21
315.0
 31
0.0
  0
LINE
  8
DETAIL
  6
CONTINUOUS
 62
     5
 10
313.0
 20
315.0
 30
0.0
 11
315.0
 21
315.0
 31
0.0
  0
LINE
  8
DETAIL
  6
CONTINUOUS
 62
     5
 10
315.0
 20
315.0
 30
0.0
 11
345.0
 21
315.0
 31
0.0
  0
LINE
  8
DETAIL
  6
CONTINUOUS
 62
     5
 10
302.0
 20
299.0
 30
0.0
 11
313.0
 21
299.0
 31
0.0
  0
LINE
  8
DETAIL
  6
CONTINUOUS
 62
     5
 10
299.0
 20
255.0
 30
0.0
 11
299.0
 21
245.5
 31
0.0
  0
LINE
  8
DETAIL
  6
CONTINUOUS
 62
     5
 10
299.0
 20
285.5
 30
0.0
 11
299.0
 21
283.75
 31
0.0
  0
LINE
  8
DETAIL
  6
CONTINUOUS
 62
     5
 10
299.436492
 20
299.0
 30
0.0
 11
301.0
 21
299.0
 31
0.0
  0
LINE
  8
DETAIL
  6
CONTINUOUS
 62
     5
 10
345.0
 20
315.0
 30
0.0
 11
345.0
 21
0.0
 31
0.0
  0
LINE
  8
DETAIL
  6
CONTINUOUS
 62
     5
 10
315.0
 20
315.0
 30
0.0
 11
315.0
 21
313.5
 31
0.0
  0
ARC
  8
DETAIL
  6
CONTINUOUS
 62
     5
 10
335.0
 20
335.0
 30
0.0
 40
10.0
 50
0.0
 51
90.0
  0
LINE
  8
DETAIL
  6
CONTINUOUS
 62
     5
 10
345.0
 20
335.0
 30
0.0
 11
345.0
 21
315.0
 31
0.0
  0
LINE
  8
DETAIL
  6
CONTINUOUS
 62
     5
 10
313.8
 20
313.5
 30
0.0
 11
313.8
 21
0.0
 31
0.0
  0
LINE
  8
DETAIL
  6
CONTINUOUS
 62
     5
 10
313.0
 20
299.0
 30
0.0
 11
313.0
 21
0.0
 31
0.0
  0
LINE
  8
DETAIL
  6
CONTINUOUS
 62
     5
 10
313.0
 20
313.5
 30
0.0
 11
313.0
 21
299.0
 31
0.0
  0
LINE
  8
DETAIL
  6
CONTINUOUS
 62
     5
 10
313.0
 20
313.5
 30
0.0
 11
315.0
 21
313.5
 31
0.0
  0
LINE
  8
DETAIL
  6
CONTINUOUS
 62
     5
 10
315.0
 20
314.5
 30
0.0
 11
345.0
 21
314.5
 31
0.0
  0
LINE
  8
DETAIL
  6
CONTINUOUS
 62
     5
 10
315.0
 20
345.0
 30
0.0
 11
335.0
 21
345.0
 31
0.0
  0
LINE
  8
DETAIL
  6
CONTINUOUS
 62
     5
 10
301.0
 20
283.75
 30
0.0
 11
301.0
 21
301.0
 31
0.0
  0
LINE
  8
DETAIL
  6
CONTINUOUS
 62
     5
 10
302.0
 20
283.75
 30
0.0
 11
302.0
 21
301.0
 31
0.0
  0
LINE
  8
DETAIL
  6
CONTINUOUS
 62
     5
 10
302.0
 20
0.0
 30
0.0
 11
302.0
 21
255.0
 31
0.0
  0
LINE
  8
DETAIL
  6
CONTINUOUS
 62
     5
 10
287.0
 20
303.0
 30
0.0
 11
287.0
 21
302.0
 31
0.0
  0
LINE
  8
DETAIL
  6
CONTINUOUS
 62
     5
 10
289.0
 20
303.0
 30
0.0
 11
289.0
 21
302.0
 31
0.0
  0
LINE
  8
DETAIL
  6
CONTINUOUS
 62
     5
 10
298.0
 20
244.5
 30
0.0
 11
298.0
 21
0.0
 31
0.0
  0
LINE
  8
DETAIL
  6
CONTINUOUS
 62
     5
 10
301.0
 20
247.5
 30
0.0
 11
301.0
 21
255.0
 31
0.0
  0
LINE
  8
DETAIL
  6
CONTINUOUS
 62
     5
 10
298.0
 20
244.5
 30
0.0
 11
301.0
 21
247.5
 31
0.0
  0
LINE
  8
DETAIL
  6
CONTINUOUS
 62
     5
 10
302.0
 20
247.5
 30
0.0
 11
301.0
 21
247.5
 31
0.0
  0
LINE
  8
DETAIL
  6
CONTINUOUS
 62
     5
 10
287.0
 20
302.0
 30
0.0
 11
300.0
 21
302.0
 31
0.0
  0
LINE
  8
DETAIL
  6
CONTINUOUS
 62
     5
 10
287.0
 20
303.0
 30
0.0
 11
300.0
 21
303.0
 31
0.0
  0
ARC
  8
DETAIL
  6
CONTINUOUS
 62
     5
 10
300.0
 20
301.0
 30
0.0
 40
2.0
 50
0.0
 51
90.0
  0
ARC
  8
DETAIL
  6
CONTINUOUS
 62
     5
 10
300.0
 20
301.0
 30
0.0
 40
1.0
 50
0.0
 51
90.0
  0
LINE
  8
DETAIL
  6
CONTINUOUS
 62
     5
 10
281.732412
 20
275.934136
 30
0.0
 11
284.065864
 21
278.267588
 31
0.0
  0
ARC
  8
DETAIL
  6
CONTINUOUS
 62
     5
 10
278.833274
 20
278.833274
 30
0.0
 40
4.1
 50
135.0
 51
315.0
  0
LINE
  8
DETAIL
  6
CONTINUOUS
 62
     5
 10
275.934136
 20
281.732412
 30
0.0
 11
278.267588
 21
284.065864
 31
0.0
  0
ARC
  8
DETAIL
  6
CONTINUOUS
 62
     5
 10
281.166726
 20
281.166726
 30
0.0
 40
4.1
 50
315.0
 51
135.0
  0
LINE
  8
DETAIL
  6
CONTINUOUS
 62
     5
 10
299.0
 20
255.0
 30
0.0
 11
303.2
 21
255.0
 31
0.0
  0
LINE
  8
DETAIL
  6
CONTINUOUS
 62
     5
 10
255.0
 20
303.2
 30
0.0
 11
255.0
 21
299.0
 31
0.0
  0
LINE
  8
DETAIL
  6
CONTINUOUS
 62
     5
 10
303.2
 20
283.75
 30
0.0
 11
296.5
 21
283.75
 31
0.0
  0
LINE
  8
DETAIL
  6
CONTINUOUS
 62
     5
 10
296.5
 20
285.75
 30
0.0
 11
299.0
 21
285.75
 31
0.0
  0
LINE
  8
DETAIL
  6
CONTINUOUS
 62
     5
 10
283.75
 20
296.5
 30
0.0
 11
283.75
 21
303.2
 31
0.0
  0
LINE
  8
DETAIL
  6
CONTINUOUS
 62
     5
 10
285.75
 20
299.0
 30
0.0
 11
285.75
 21
296.5
 31
0.0
  0
LINE
  8
DETAIL
  6
CONTINUOUS
 62
     5
 10
297.0
 20
299.0
 30
0.0
 11
285.75
 21
299.0
 31
0.0
  0
LINE
  8
DETAIL
  6
CONTINUOUS
 62
     5
 10
255.0
 20
303.2
 30
0.0
 11
283.75
 21
303.2
 31
0.0
  0
LINE
  8
DETAIL
  6
CONTINUOUS
 62
     5
 10
299.0
 20
285.75
 30
0.0
 11
299.0
 21
297.0
 31
0.0
  0
LINE
  8
DETAIL
  6
CONTINUOUS
 62
     5
 10
303.2
 20
283.75
 30
0.0
 11
303.2
 21
255.0
 31
0.0
  0
LINE
  8
DETAIL
  6
CONTINUOUS
 62
     5
 10
292.964466
 20
251.464466
 30
0.0
 11
251.464466
 21
292.964466
 31
0.0
  0
LINE
  8
DETAIL
  6
CONTINUOUS
 62
     5
 10
297.0
 20
299.0
 30
0.0
 11
299.0
 21
297.0
 31
0.0
  0
CIRCLE
  8
DETAIL
  6
CONTINUOUS
 62
     5
 10
280.0
 20
280.0
 30
0.0
 40
4.0
  0
ARC
  8
DETAIL
  6
CONTINUOUS
 62
     5
 10
296.5
 20
284.75
 30
0.0
 40
1.0
 50
90.0
 51
270.0
  0
ARC
  8
DETAIL
  6
CONTINUOUS
 62
     5
 10
284.75
 20
296.5
 30
0.0
 40
1.0
 50
180.0
 51
0.0
  0
ARC
  8
DETAIL
  6
CONTINUOUS
 62
     5
 10
278.833274
 20
278.833274
 30
0.0
 40
4.1
 50
135.0
 51
315.0
  0
ARC
  8
DETAIL
  6
CONTINUOUS
 62
     5
 10
281.166726
 20
281.166726
 30
0.0
 40
4.1
 50
315.0
 51
135.0
  0
LINE
  8
DETAIL
  6
CONTINUOUS
 62
     5
 10
281.732412
 20
275.934136
 30
0.0
 11
284.065864
 21
278.267588
 31
0.0
  0
LINE
  8
DETAIL
  6
CONTINUOUS
 62
     5
 10
275.934136
 20
281.732412
 30
0.0
 11
278.267588
 21
284.065864
 31
0.0
  0
LINE
  8
DETAIL
  6
CONTINUOUS
 62
     5
 10
298.5
 20
297.5
 30
0.0
 11
297.0
 21
299.0
 31
0.0
  0
LINE
  8
DETAIL
  6
CONTINUOUS
 62
     5
 10
298.5
 20
285.75
 30
0.0
 11
296.5
 21
285.75
 31
0.0
  0
LINE
  8
DETAIL
  6
CONTINUOUS
 62
     5
 10
299.5
 20
255.0
 30
0.0
 11
299.0
 21
255.0
 31
0.0
  0
LINE
  8
DETAIL
  6
CONTINUOUS
 62
     5
 10
283.75
 20
299.5
 30
0.0
 11
283.75
 21
299.0
 31
0.0
  0
LINE
  8
DETAIL
  6
CONTINUOUS
 62
     5
 10
285.75
 20
296.5
 30
0.0
 11
285.75
 21
299.0
 31
0.0
  0
LINE
  8
DETAIL
  6
CONTINUOUS
 62
     5
 10
298.3
 20
281.75
 30
0.0
 11
299.5
 21
281.75
 31
0.0
  0
LINE
  8
DETAIL
  6
CONTINUOUS
 62
     5
 10
296.5
 20
283.75
 30
0.0
 11
299.0
 21
283.75
 31
0.0
  0
LINE
  8
DETAIL
  6
CONTINUOUS
 62
     5
 10
245.464466
 20
298.964466
 30
0.0
 11
298.964466
 21
245.464466
 31
0.0
  0
ARC
  8
DETAIL
  6
CONTINUOUS
 62
     5
 10
284.75
 20
296.5
 30
0.0
 40
1.0
 50
180.0
 51
0.0
  0
ARC
  8
DETAIL
  6
CONTINUOUS
 62
     5
 10
296.5
 20
284.75
 30
0.0
 40
1.0
 50
90.0
 51
270.0
  0
LINE
  8
DETAIL
  6
CONTINUOUS
 62
     5
 10
285.75
 20
299.0
 30
0.0
 11
297.0
 21
299.0
 31
0.0
  0
LINE
  8
DETAIL
  6
CONTINUOUS
 62
     5
 10
299.0
 20
255.0
 30
0.0
 11
299.0
 21
255.0
 31
0.0
  0
LINE
  8
DETAIL
  6
CONTINUOUS
 62
     5
 10
299.0
 20
283.75
 30
0.0
 11
299.5
 21
283.75
 31
0.0
  0
LINE
  8
DETAIL
  6
CONTINUOUS
 62
     5
 10
283.75
 20
299.0
 30
0.0
 11
283.75
 21
296.5
 31
0.0
  0
LINE
  8
DETAIL
  6
CONTINUOUS
 62
     5
 10
255.0
 20
299.0
 30
0.0
 11
255.0
 21
299.5
 31
0.0
  0
CIRCLE
  8
DETAIL
  6
CONTINUOUS
 62
     5
 10
280.0
 20
280.0
 30
0.0
 40
4.0
  0
LINE
  8
DETAIL
  6
CONTINUOUS
 62
     5
 10
272.25
 20
304.5
 30
0.0
 11
266.25
 21
304.5
 31
0.0
  0
LINE
  8
DETAIL
  6
CONTINUOUS
 62
     5
 10
300.0
 20
302.0
 30
0.0
 11
283.75
 21
302.0
 31
0.0
  0
LINE
  8
DETAIL
  6
CONTINUOUS
 62
     5
 10
300.0
 20
301.0
 30
0.0
 11
283.75
 21
301.0
 31
0.0
  0
LINE
  8
DETAIL
  6
CONTINUOUS
 62
     5
 10
0.0
 20
298.0
 30
0.0
 11
244.5
 21
298.0
 31
0.0
  0
LINE
  8
DETAIL
  6
CONTINUOUS
 62
     5
 10
255.0
 20
302.0
 30
0.0
 11
0.0
 21
302.0
 31
0.0
  0
LINE
  8
DETAIL
  6
CONTINUOUS
 62
     5
 10
255.0
 20
301.0
 30
0.0
 11
247.5
 21
301.0
 31
0.0
  0
LINE
  8
DETAIL
  6
CONTINUOUS
 62
     5
 10
244.5
 20
298.0
 30
0.0
 11
247.5
 21
301.0
 31
0.0
  0
LINE
  8
DETAIL
  6
CONTINUOUS
 62
     5
 10
247.5
 20
301.0
 30
0.0
 11
247.5
 21
305.0
 31
0.0
  0
LINE
  8
DETAIL
  6
CONTINUOUS
 62
     5
 10
265.25
 20
303.5
 30
0.0
 11
265.25
 21
303.2
 31
0.0
  0
LINE
  8
DETAIL
  6
CONTINUOUS
 62
     5
 10
273.25
 20
303.5
 30
0.0
 11
273.25
 21
303.2
 31
0.0
  0
LINE
  8
DETAIL
  6
CONTINUOUS
 62
     5
 10
298.0
 20
302.0
 30
0.0
 11
298.0
 21
301.0
 31
0.0
  0
LINE
  8
DETAIL
  6
CONTINUOUS
 62
     5
 10
300.0
 20
302.0
 30
0.0
 11
300.0
 21
301.0
 31
0.0
  0
LINE
  8
DETAIL
  6
CONTINUOUS
 62
     5
 10
266.25
 20
304.5
 30
0.0
 11
265.25
 21
303.5
 31
0.0
  0
LINE
  8
DETAIL
  6
CONTINUOUS
 62
     5
 10
272.25
 20
304.5
 30
0.0
 11
273.25
 21
303.5
 31
0.0
  0
LINE
  8
DETAIL
  6
CONTINUOUS
 62
     5
 10
302.0
 20
226.0
 30
0.0
 11
302.8
 21
226.0
 31
0.0
  0
LINE
  8
DETAIL
  6
CONTINUOUS
 62
     5
 10
302.8
 20
208.9
 30
0.0
 11
302.8
 21
226.0
 31
0.0
  0
LINE
  8
DETAIL
  6
CONTINUOUS
 62
     5
 10
302.0
 20
208.9
 30
0.0
 11
302.8
 21
208.9
 31
0.0
  0
LINE
  8
DETAIL
  6
CONTINUOUS
 62
     5
 10
302.0
 20
208.9
 30
0.0
 11
302.0
 21
226.0
 31
0.0
  0
ARC
  8
DETAIL
  6
CONTINUOUS
 62
     5
 10
299.2
 20
218.5
 30
0.0
 40
6.1
 50
309.601983
 51
50.398035
  0
LINE
  8
DETAIL
  6
CONTINUOUS
 62
     5
 10
302.8
 20
223.2
 30
0.0
 11
302.8
 21
213.8
 31
0.0
  0
LINE
  8
DETAIL
  6
CONTINUOUS
 62
     5
 10
302.8
 20
213.8
 30
0.0
 11
303.088445
 21
213.8
 31
0.0
  0
LINE
  8
DETAIL
  6
CONTINUOUS
 62
     5
 10
302.8
 20
223.2
 30
0.0
 11
303.088445
 21
223.2
 31
0.0
  0
LINE
  8
DETAIL
  6
CONTINUOUS
 62
     5
 10
303.088445
 20
213.8
 30
0.0
 11
303.088445
 21
223.2
 31
0.0
  0
LINE
  8
DETAIL
  6
CONTINUOUS
 62
     5
 10
284.880415
 20
279.429339
 30
0.0
 11
283.986954
 21
280.3228
 31
0.0
  0
LINE
  8
DETAIL
  6
CONTINUOUS
 62
     5
 10
279.429339
 20
284.880415
 30
0.0
 11
280.3228
 21
283.986954
 31
0.0
  0
LINE
  8
DETAIL
  6
CONTINUOUS
 62
     5
 10
283.75
 20
296.821782
 30
0.0
 11
285.75
 21
296.821782
 31
0.0
  0
LINE
  8
DETAIL
  6
CONTINUOUS
 62
     5
 10
296.821782
 20
283.75
 30
0.0
 11
296.821782
 21
285.75
 31
0.0
  0
LINE
  8
DETAIL
  6
CONTINUOUS
 62
     5
 10
0.0
 20
305.0
 30
0.0
 11
305.0
 21
305.0
 31
0.0
  0
LINE
  8
DETAIL
  6
CONTINUOUS
 62
     5
 10
305.0
 20
305.0
 30
0.0
 11
305.0
 21
0.0
 31
0.0
  0
LINE
  8
DETAIL
  6
CONTINUOUS
 62
     5
 10
-303.2
 20
-263.25
 30
0.0
 11
-312.75
 21
-263.25
 31
0.0
  0
LINE
  8
DETAIL
  6
CONTINUOUS
 62
     5
 10
-303.2
 20
-275.25
 30
0.0
 11
-312.75
 21
-275.25
 31
0.0
  0
LINE
  8
DETAIL
  6
CONTINUOUS
 62
     5
 10
-299.5
 20
-283.75
 30
0.0
 11
-299.5
 21
-298.5
 31
0.0
  0
LINE
  8
DETAIL
  6
CONTINUOUS
 62
     5
 10
-300.5
 20
-283.75
 30
0.0
 11
-300.5
 21
-298.5
 31
0.0
  0
LINE
  8
DETAIL
  6
CONTINUOUS
 62
     5
 10
-283.75
 20
-299.5
 30
0.0
 11
-297.5
 21
-299.5
 31
0.0
  0
LINE
  8
DETAIL
  6
CONTINUOUS
 62
     5
 10
-255.0
 20
-300.5
 30
0.0
 11
-247.0
 21
-300.5
 31
0.0
  0
LINE
  8
DETAIL
  6
CONTINUOUS
 62
     5
 10
-300.5
 20
-247.0
 30
0.0
 11
-300.5
 21
-255.0
 31
0.0
  0
LINE
  8
DETAIL
  6
CONTINUOUS
 62
     5
 10
-299.5
 20
-246.0
 30
0.0
 11
-299.5
 21
-255.0
 31
0.0
  0
LINE
  8
DETAIL
  6
CONTINUOUS
 62
     5
 10
-302.0
 20
-298.5
 30
0.0
 11
-312.75
 21
-298.5
 31
0.0
  0
LINE
  8
DETAIL
  6
CONTINUOUS
 62
     5
 10
-246.0
 20
-299.5
 30
0.0
 11
-255.0
 21
-299.5
 31
0.0
  0
LINE
  8
DETAIL
  6
CONTINUOUS
 62
     5
 10
-297.5
 20
-301.0
 30
0.0
 11
-297.5
 21
-300.5
 31
0.0
  0
LINE
  8
DETAIL
  6
CONTINUOUS
 62
     5
 10
-298.5
 20
-297.5
 30
0.0
 11
-298.5
 21
-298.5
 31
0.0
  0
LINE
  8
DETAIL
  6
CONTINUOUS
 62
     5
 10
-299.5
 20
-285.5
 30
0.0
 11
-299.0
 21
-285.5
 31
0.0
  0
LINE
  8
DETAIL
  6
CONTINUOUS
 62
     5
 10
-299.5
 20
-287.5
 30
0.0
 11
-299.0
 21
-287.5
 31
0.0
  0
LINE
  8
DETAIL
  6
CONTINUOUS
 62
     5
 10
-297.5
 20
-312.75
 30
0.0
 11
-297.5
 21
-303.0
 31
0.0
  0
LINE
  8
DETAIL
  6
CONTINUOUS
 62
     5
 10
-298.5
 20
-285.5
 30
0.0
 11
-298.5
 21
-285.75
 31
0.0
  0
LINE
  8
DETAIL
  6
CONTINUOUS
 62
     5
 10
-300.5
 20
-296.5
 30
0.0
 11
-299.5
 21
-296.5
 31
0.0
  0
LINE
  8
DETAIL
  6
CONTINUOUS
 62
     5
 10
-299.5
 20
-298.5
 30
0.0
 11
-301.0
 21
-298.5
 31
0.0
  0
LINE
  8
DETAIL
  6
CONTINUOUS
 62
     5
 10
-297.5
 20
-300.5
 30
0.0
 11
-283.75
 21
-300.5
 31
0.0
  0
LINE
  8
DETAIL
  6
CONTINUOUS
 62
     5
 10
-312.75
 20
-298.5
 30
0.0
 11
-312.75
 21
-275.25
 31
0.0
  0
LINE
  8
DETAIL
  6
CONTINUOUS
 62
     5
 10
-312.75
 20
-263.25
 30
0.0
 11
-312.75
 21
0.0
 31
0.0
  0
LINE
  8
DETAIL
  6
CONTINUOUS
 62
     5
 10
0.0
 20
-312.75
 30
0.0
 11
-297.5
 21
-312.75
 31
0.0
  0
ARC
  8
DETAIL
  6
CONTINUOUS
 62
     5
 10
-297.5
 20
-298.5
 30
0.0
 40
1.0
 50
180.0
 51
210.0
  0
ARC
  8
DETAIL
  6
CONTINUOUS
 62
     5
 10
-297.5
 20
-298.5
 30
0.0
 40
2.0
 50
180.0
 51
270.0
  0
LINE
  8
DETAIL
  6
CONTINUOUS
 62
     5
 10
-299.0
 20
-285.5
 30
0.0
 11
-298.5
 21
-285.5
 31
0.0
  0
ARC
  8
DETAIL
  6
CONTINUOUS
 62
     5
 10
-297.5
 20
-298.5
 30
0.0
 40
1.0
 50
210.0
 51
270.0
  0
LINE
  8
DETAIL
  6
CONTINUOUS
 62
     5
 10
-245.5
 20
-299.0
 30
0.0
 11
-255.0
 21
-299.0
 31
0.0
  0
LINE
  8
DETAIL
  6
CONTINUOUS
 62
     5
 10
-283.75
 20
-299.0
 30
0.0
 11
-298.366025
 21
-299.0
 31
0.0
  0
LINE
  8
DETAIL
  6
CONTINUOUS
 62
     5
 10
-299.436492
 20
-299.0
 30
0.0
 11
-313.0
 21
-299.0
 31
0.0
  0
LINE
  8
DETAIL
  6
CONTINUOUS
 62
     5
 10
0.0
 20
-345.0
 30
0.0
 11
-335.0
 21
-345.0
 31
0.0
  0
ARC
  8
DETAIL
  6
CONTINUOUS
 62
     5
 10
-335.0
 20
-335.0
 30
0.0
 40
10.0
 50
180.0
 51
270.0
  0
LINE
  8
DETAIL
  6
CONTINUOUS
 62
     5
 10
-345.0
 20
-335.0
 30
0.0
 11
-345.0
 21
-315.0
 31
0.0
  0
LINE
  8
DETAIL
  6
CONTINUOUS
 62
     5
 10
0.0
 20
-313.0
 30
0.0
 11
-313.0
 21
-313.0
 31
0.0
  0
LINE
  8
DETAIL
  6
CONTINUOUS
 62
     5
 10
-313.0
 20
-299.0
 30
0.0
 11
-313.0
 21
-315.0
 31
0.0
  0
LINE
  8
DETAIL
  6
CONTINUOUS
 62
     5
 10
-313.0
 20
-315.0
 30
0.0
 11
-315.0
 21
-315.0
 31
0.0
  0
LINE
  8
DETAIL
  6
CONTINUOUS
 62
     5
 10
-315.0
 20
-315.0
 30
0.0
 11
-345.0
 21
-315.0
 31
0.0
  0
LINE
  8
DETAIL
  6
CONTINUOUS
 62
     5
 10
-302.0
 20
-299.0
 30
0.0
 11
-313.0
 21
-299.0
 31
0.0
  0
LINE
  8
DETAIL
  6
CONTINUOUS
 62
     5
 10
-299.0
 20
-255.0
 30
0.0
 11
-299.0
 21
-245.5
 31
0.0
  0
LINE
  8
DETAIL
  6
CONTINUOUS
 62
     5
 10
-299.0
 20
-285.5
 30
0.0
 11
-299.0
 21
-283.75
 31
0.0
  0
LINE
  8
DETAIL
  6
CONTINUOUS
 62
     5
 10
-299.436492
 20
-299.0
 30
0.0
 11
-301.0
 21
-299.0
 31
0.0
  0
LINE
  8
DETAIL
  6
CONTINUOUS
 62
     5
 10
-345.0
 20
-315.0
 30
0.0
 11
-345.0
 21
0.0
 31
0.0
  0
LINE
  8
DETAIL
  6
CONTINUOUS
 62
     5
 10
-315.0
 20
-315.0
 30
0.0
 11
-315.0
 21
-313.5
 31
0.0
  0
ARC
  8
DETAIL
  6
CONTINUOUS
 62
     5
 10
-335.0
 20
-335.0
 30
0.0
 40
10.0
 50
180.0
 51
270.0
  0
LINE
  8
DETAIL
  6
CONTINUOUS
 62
     5
 10
-345.0
 20
-335.0
 30
0.0
 11
-345.0
 21
-315.0
 31
0.0
  0
LINE
  8
DETAIL
  6
CONTINUOUS
 62
     5
 10
-313.8
 20
-313.5
 30
0.0
 11
-313.8
 21
0.0
 31
0.0
  0
LINE
  8
DETAIL
  6
CONTINUOUS
 62
     5
 10
-313.0
 20
-299.0
 30
0.0
 11
-313.0
 21
0.0
 31
0.0
  0
LINE
  8
DETAIL
  6
CONTINUOUS
 62
     5
 10
-313.0
 20
-313.5
 30
0.0
 11
-313.0
 21
-299.0
 31
0.0
  0
LINE
  8
DETAIL
  6
CONTINUOUS
 62
     5
 10
-313.0
 20
-313.5
 30
0.0
 11
-315.0
 21
-313.5
 31
0.0
  0
LINE
  8
DETAIL
  6
CONTINUOUS
 62
     5
 10
-315.0
 20
-314.5
 30
0.0
 11
-345.0
 21
-314.5
 31
0.0
  0
LINE
  8
DETAIL
  6
CONTINUOUS
 62
     5
 10
-315.0
 20
-345.0
 30
0.0
 11
-335.0
 21
-345.0
 31
0.0
  0
LINE
  8
DETAIL
  6
CONTINUOUS
 62
     5
 10
-301.0
 20
-283.75
 30
0.0
 11
-301.0
 21
-301.0
 31
0.0
  0
LINE
  8
DETAIL
  6
CONTINUOUS
 62
     5
 10
-302.0
 20
-283.75
 30
0.0
 11
-302.0
 21
-301.0
 31
0.0
  0
LINE
  8
DETAIL
  6
CONTINUOUS
 62
     5
 10
-302.0
 20
0.0
 30
0.0
 11
-302.0
 21
-255.0
 31
0.0
  0
LINE
  8
DETAIL
  6
CONTINUOUS
 62
     5
 10
-287.0
 20
-303.0
 30
0.0
 11
-287.0
 21
-302.0
 31
0.0
  0
LINE
  8
DETAIL
  6
CONTINUOUS
 62
     5
 10
-289.0
 20
-303.0
 30
0.0
 11
-289.0
 21
-302.0
 31
0.0
  0
LINE
  8
DETAIL
  6
CONTINUOUS
 62
     5
 10
-298.0
 20
-244.5
 30
0.0
 11
-298.0
 21
0.0
 31
0.0
  0
LINE
  8
DETAIL
  6
CONTINUOUS
 62
     5
 10
-301.0
 20
-247.5
 30
0.0
 11
-301.0
 21
-255.0
 31
0.0
  0
LINE
  8
DETAIL
  6
CONTINUOUS
 62
     5
 10
-298.0
 20
-244.5
 30
0.0
 11
-301.0
 21
-247.5
 31
0.0
  0
LINE
  8
DETAIL
  6
CONTINUOUS
 62
     5
 10
-302.0
 20
-247.5
 30
0.0
 11
-301.0
 21
-247.5
 31
0.0
  0
LINE
  8
DETAIL
  6
CONTINUOUS
 62
     5
 10
-287.0
 20
-302.0
 30
0.0
 11
-300.0
 21
-302.0
 31
0.0
  0
LINE
  8
DETAIL
  6
CONTINUOUS
 62
     5
 10
-287.0
 20
-303.0
 30
0.0
 11
-300.0
 21
-303.0
 31
0.0
  0
ARC
  8
DETAIL
  6
CONTINUOUS
 62
     5
 10
-300.0
 20
-301.0
 30
0.0
 40
2.0
 50
180.0
 51
270.0
  0
ARC
  8
DETAIL
  6
CONTINUOUS
 62
     5
 10
-300.0
 20
-301.0
 30
0.0
 40
1.0
 50
180.0
 51
270.0
  0
LINE
  8
DETAIL
  6
CONTINUOUS
 62
     5
 10
-281.732412
 20
-275.934136
 30
0.0
 11
-284.065864
 21
-278.267588
 31
0.0
  0
ARC
  8
DETAIL
  6
CONTINUOUS
 62
     5
 10
-278.833274
 20
-278.833274
 30
0.0
 40
4.1
 50
315.0
 51
135.0
  0
LINE
  8
DETAIL
  6
CONTINUOUS
 62
     5
 10
-275.934136
 20
-281.732412
 30
0.0
 11
-278.267588
 21
-284.065864
 31
0.0
  0
ARC
  8
DETAIL
  6
CONTINUOUS
 62
     5
 10
-281.166726
 20
-281.166726
 30
0.0
 40
4.1
 50
135.0
 51
315.0
  0
LINE
  8
DETAIL
  6
CONTINUOUS
 62
     5
 10
-299.0
 20
-255.0
 30
0.0
 11
-303.2
 21
-255.0
 31
0.0
  0
LINE
  8
DETAIL
  6
CONTINUOUS
 62
     5
 10
-255.0
 20
-303.2
 30
0.0
 11
-255.0
 21
-299.0
 31
0.0
  0
LINE
  8
DETAIL
  6
CONTINUOUS
 62
     5
 10
-303.2
 20
-283.75
 30
0.0
 11
-296.5
 21
-283.75
 31
0.0
  0
LINE
  8
DETAIL
  6
CONTINUOUS
 62
     5
 10
-296.5
 20
-285.75
 30
0.0
 11
-299.0
 21
-285.75
 31
0.0
  0
LINE
  8
DETAIL
  6
CONTINUOUS
 62
     5
 10
-283.75
 20
-296.5
 30
0.0
 11
-283.75
 21
-303.2
 31
0.0
  0
LINE
  8
DETAIL
  6
CONTINUOUS
 62
     5
 10
-285.75
 20
-299.0
 30
0.0
 11
-285.75
 21
-296.5
 31
0.0
  0
LINE
  8
DETAIL
  6
CONTINUOUS
 62
     5
 10
-297.0
 20
-299.0
 30
0.0
 11
-285.75
 21
-299.0
 31
0.0
  0
LINE
  8
DETAIL
  6
CONTINUOUS
 62
     5
 10
-255.0
 20
-303.2
 30
0.0
 11
-283.75
 21
-303.2
 31
0.0
  0
LINE
  8
DETAIL
  6
CONTINUOUS
 62
     5
 10
-299.0
 20
-285.75
 30
0.0
 11
-299.0
 21
-297.0
 31
0.0
  0
LINE
  8
DETAIL
  6
CONTINUOUS
 62
     5
 10
-303.2
 20
-283.75
 30
0.0
 11
-303.2
 21
-255.0
 31
0.0
  0
LINE
  8
DETAIL
  6
CONTINUOUS
 62
     5
 10
-298.964466
 20
-245.464466
 30
0.0
 11
-251.464466
 21
-292.964466
 31
0.0
  0
LINE
  8
DETAIL
  6
CONTINUOUS
 62
     5
 10
-297.0
 20
-299.0
 30
0.0
 11
-299.0
 21
-297.0
 31
0.0
  0
CIRCLE
  8
DETAIL
  6
CONTINUOUS
 62
     5
 10
-280.0
 20
-280.0
 30
0.0
 40
4.0
  0
ARC
  8
DETAIL
  6
CONTINUOUS
 62
     5
 10
-296.5
 20
-284.75
 30
0.0
 40
1.0
 50
270.0
 51
90.0
  0
ARC
  8
DETAIL
  6
CONTINUOUS
 62
     5
 10
-284.75
 20
-296.5
 30
0.0
 40
1.0
 50
0.0
 51
180.0
  0
ARC
  8
DETAIL
  6
CONTINUOUS
 62
     5
 10
-278.833274
 20
-278.833274
 30
0.0
 40
4.1
 50
315.0
 51
135.0
  0
ARC
  8
DETAIL
  6
CONTINUOUS
 62
     5
 10
-281.166726
 20
-281.166726
 30
0.0
 40
4.1
 50
135.0
 51
315.0
  0
LINE
  8
DETAIL
  6
CONTINUOUS
 62
     5
 10
-281.732412
 20
-275.934136
 30
0.0
 11
-284.065864
 21
-278.267588
 31
0.0
  0
LINE
  8
DETAIL
  6
CONTINUOUS
 62
     5
 10
-275.934136
 20
-281.732412
 30
0.0
 11
-278.267588
 21
-284.065864
 31
0.0
  0
LINE
  8
DETAIL
  6
CONTINUOUS
 62
     5
 10
-298.5
 20
-297.5
 30
0.0
 11
-297.0
 21
-299.0
 31
0.0
  0
LINE
  8
DETAIL
  6
CONTINUOUS
 62
     5
 10
-298.5
 20
-285.75
 30
0.0
 11
-296.5
 21
-285.75
 31
0.0
  0
LINE
  8
DETAIL
  6
CONTINUOUS
 62
     5
 10
-299.5
 20
-255.0
 30
0.0
 11
-299.0
 21
-255.0
 31
0.0
  0
LINE
  8
DETAIL
  6
CONTINUOUS
 62
     5
 10
-283.75
 20
-299.5
 30
0.0
 11
-283.75
 21
-299.0
 31
0.0
  0
LINE
  8
DETAIL
  6
CONTINUOUS
 62
     5
 10
-285.75
 20
-296.5
 30
0.0
 11
-285.75
 21
-299.0
 31
0.0
  0
LINE
  8
DETAIL
  6
CONTINUOUS
 62
     5
 10
-296.5
 20
-283.75
 30
0.0
 11
-299.0
 21
-283.75
 31
0.0
  0
LINE
  8
DETAIL
  6
CONTINUOUS
 62
     5
 10
-245.464466
 20
-298.964466
 30
0.0
 11
-298.964466
 21
-245.464466
 31
0.0
  0
ARC
  8
DETAIL
  6
CONTINUOUS
 62
     5
 10
-284.75
 20
-296.5
 30
0.0
 40
1.0
 50
0.0
 51
180.0
  0
ARC
  8
DETAIL
  6
CONTINUOUS
 62
     5
 10
-296.5
 20
-284.75
 30
0.0
 40
1.0
 50
270.0
 51
90.0
  0
LINE
  8
DETAIL
  6
CONTINUOUS
 62
     5
 10
-285.75
 20
-299.0
 30
0.0
 11
-297.0
 21
-299.0
 31
0.0
  0
LINE
  8
DETAIL
  6
CONTINUOUS
 62
     5
 10
-299.0
 20
-283.75
 30
0.0
 11
-299.5
 21
-283.75
 31
0.0
  0
LINE
  8
DETAIL
  6
CONTINUOUS
 62
     5
 10
-283.75
 20
-299.0
 30
0.0
 11
-283.75
 21
-296.5
 31
0.0
  0
LINE
  8
DETAIL
  6
CONTINUOUS
 62
     5
 10
-255.0
 20
-299.0
 30
0.0
 11
-255.0
 21
-299.5
 31
0.0
  0
CIRCLE
  8
DETAIL
  6
CONTINUOUS
 62
     5
 10
-280.0
 20
-280.0
 30
0.0
 40
4.0
  0
LINE
  8
DETAIL
  6
CONTINUOUS
 62
     5
 10
-272.25
 20
-304.5
 30
0.0
 11
-266.25
 21
-304.5
 31
0.0
  0
LINE
  8
DETAIL
  6
CONTINUOUS
 62
     5
 10
-300.0
 20
-302.0
 30
0.0
 11
-283.75
 21
-302.0
 31
0.0
  0
LINE
  8
DETAIL
  6
CONTINUOUS
 62
     5
 10
-300.0
 20
-301.0
 30
0.0
 11
-283.75
 21
-301.0
 31
0.0
  0
LINE
  8
DETAIL
  6
CONTINUOUS
 62
     5
 10
0.0
 20
-298.0
 30
0.0
 11
-244.5
 21
-298.0
 31
0.0
  0
LINE
  8
DETAIL
  6
CONTINUOUS
 62
     5
 10
-255.0
 20
-302.0
 30
0.0
 11
0.0
 21
-302.0
 31
0.0
  0
LINE
  8
DETAIL
  6
CONTINUOUS
 62
     5
 10
-255.0
 20
-301.0
 30
0.0
 11
-247.5
 21
-301.0
 31
0.0
  0
LINE
  8
DETAIL
  6
CONTINUOUS
 62
     5
 10
-244.5
 20
-298.0
 30
0.0
 11
-247.5
 21
-301.0
 31
0.0
  0
LINE
  8
DETAIL
  6
CONTINUOUS
 62
     5
 10
-247.5
 20
-301.0
 30
0.0
 11
-247.5
 21
-302.0
 31
0.0
  0
LINE
  8
DETAIL
  6
CONTINUOUS
 62
     5
 10
-265.25
 20
-303.5
 30
0.0
 11
-265.25
 21
-303.2
 31
0.0
  0
LINE
  8
DETAIL
  6
CONTINUOUS
 62
     5
 10
-273.25
 20
-303.5
 30
0.0
 11
-273.25
 21
-303.2
 31
0.0
  0
LINE
  8
DETAIL
  6
CONTINUOUS
 62
     5
 10
-298.0
 20
-302.0
 30
0.0
 11
-298.0
 21
-301.0
 31
0.0
  0
LINE
  8
DETAIL
  6
CONTINUOUS
 62
     5
 10
-300.0
 20
-302.0
 30
0.0
 11
-300.0
 21
-301.0
 31
0.0
  0
LINE
  8
DETAIL
  6
CONTINUOUS
 62
     5
 10
-266.25
 20
-304.5
 30
0.0
 11
-265.25
 21
-303.5
 31
0.0
  0
LINE
  8
DETAIL
  6
CONTINUOUS
 62
     5
 10
-272.25
 20
-304.5
 30
0.0
 11
-273.25
 21
-303.5
 31
0.0
  0
LINE
  8
DETAIL
  6
CONTINUOUS
 62
     5
 10
-302.0
 20
-226.0
 30
0.0
 11
-302.8
 21
-226.0
 31
0.0
  0
LINE
  8
DETAIL
  6
CONTINUOUS
 62
     5
 10
-302.8
 20
-208.9
 30
0.0
 11
-302.8
 21
-226.0
 31
0.0
  0
LINE
  8
DETAIL
  6
CONTINUOUS
 62
     5
 10
-302.0
 20
-208.9
 30
0.0
 11
-302.8
 21
-208.9
 31
0.0
  0
LINE
  8
DETAIL
  6
CONTINUOUS
 62
     5
 10
-302.0
 20
-208.9
 30
0.0
 11
-302.0
 21
-226.0
 31
0.0
  0
ARC
  8
DETAIL
  6
CONTINUOUS
 62
     5
 10
-299.2
 20
-218.5
 30
0.0
 40
6.1
 50
129.601983
 51
230.398035
  0
LINE
  8
DETAIL
  6
CONTINUOUS
 62
     5
 10
-302.8
 20
-223.2
 30
0.0
 11
-302.8
 21
-213.8
 31
0.0
  0
LINE
  8
DETAIL
  6
CONTINUOUS
 62
     5
 10
-302.8
 20
-213.8
 30
0.0
 11
-303.088445
 21
-213.8
 31
0.0
  0
LINE
  8
DETAIL
  6
CONTINUOUS
 62
     5
 10
-302.8
 20
-223.2
 30
0.0
 11
-303.088445
 21
-223.2
 31
0.0
  0
LINE
  8
DETAIL
  6
CONTINUOUS
 62
     5
 10
-303.088445
 20
-213.8
 30
0.0
 11
-303.088445
 21
-223.2
 31
0.0
  0
LINE
  8
DETAIL
  6
CONTINUOUS
 62
     5
 10
-284.880415
 20
-279.429339
 30
0.0
 11
-283.986954
 21
-280.3228
 31
0.0
  0
LINE
  8
DETAIL
  6
CONTINUOUS
 62
     5
 10
-279.429339
 20
-284.880415
 30
0.0
 11
-280.3228
 21
-283.986954
 31
0.0
  0
LINE
  8
DETAIL
  6
CONTINUOUS
 62
     5
 10
-283.75
 20
-296.821782
 30
0.0
 11
-285.75
 21
-296.821782
 31
0.0
  0
LINE
  8
DETAIL
  6
CONTINUOUS
 62
     5
 10
-296.821782
 20
-283.75
 30
0.0
 11
-296.821782
 21
-285.75
 31
0.0
  0
LINE
  8
DETAIL
  6
CONTINUOUS
 62
     5
 10
0.0
 20
-305.0
 30
0.0
 11
-305.0
 21
-305.0
 31
0.0
  0
LINE
  8
DETAIL
  6
CONTINUOUS
 62
     5
 10
-305.0
 20
-305.0
 30
0.0
 11
-305.0
 21
0.0
 31
0.0
  0
LINE
  8
DETAIL
  6
CONTINUOUS
 62
     5
 10
303.2
 20
-263.25
 30
0.0
 11
312.75
 21
-263.25
 31
0.0
  0
LINE
  8
DETAIL
  6
CONTINUOUS
 62
     5
 10
303.2
 20
-275.25
 30
0.0
 11
312.75
 21
-275.25
 31
0.0
  0
LINE
  8
DETAIL
  6
CONTINUOUS
 62
     5
 10
299.5
 20
-283.75
 30
0.0
 11
299.5
 21
-298.5
 31
0.0
  0
LINE
  8
DETAIL
  6
CONTINUOUS
 62
     5
 10
300.5
 20
-283.75
 30
0.0
 11
300.5
 21
-298.5
 31
0.0
  0
LINE
  8
DETAIL
  6
CONTINUOUS
 62
     5
 10
283.75
 20
-299.5
 30
0.0
 11
297.5
 21
-299.5
 31
0.0
  0
LINE
  8
DETAIL
  6
CONTINUOUS
 62
     5
 10
255.0
 20
-300.5
 30
0.0
 11
247.0
 21
-300.5
 31
0.0
  0
LINE
  8
DETAIL
  6
CONTINUOUS
 62
     5
 10
300.5
 20
-247.0
 30
0.0
 11
300.5
 21
-255.0
 31
0.0
  0
LINE
  8
DETAIL
  6
CONTINUOUS
 62
     5
 10
299.5
 20
-246.0
 30
0.0
 11
299.5
 21
-255.0
 31
0.0
  0
LINE
  8
DETAIL
  6
CONTINUOUS
 62
     5
 10
302.0
 20
-298.5
 30
0.0
 11
312.75
 21
-298.5
 31
0.0
  0
LINE
  8
DETAIL
  6
CONTINUOUS
 62
     5
 10
246.0
 20
-299.5
 30
0.0
 11
255.0
 21
-299.5
 31
0.0
  0
LINE
  8
DETAIL
  6
CONTINUOUS
 62
     5
 10
297.5
 20
-301.0
 30
0.0
 11
297.5
 21
-300.5
 31
0.0
  0
LINE
  8
DETAIL
  6
CONTINUOUS
 62
     5
 10
298.5
 20
-297.5
 30
0.0
 11
298.5
 21
-298.5
 31
0.0
  0
LINE
  8
DETAIL
  6
CONTINUOUS
 62
     5
 10
299.5
 20
-285.5
 30
0.0
 11
299.0
 21
-285.5
 31
0.0
  0
LINE
  8
DETAIL
  6
CONTINUOUS
 62
     5
 10
299.5
 20
-287.5
 30
0.0
 11
299.0
 21
-287.5
 31
0.0
  0
LINE
  8
DETAIL
  6
CONTINUOUS
 62
     5
 10
297.5
 20
-312.75
 30
0.0
 11
297.5
 21
-303.0
 31
0.0
  0
LINE
  8
DETAIL
  6
CONTINUOUS
 62
     5
 10
298.5
 20
-285.5
 30
0.0
 11
298.5
 21
-285.75
 31
0.0
  0
LINE
  8
DETAIL
  6
CONTINUOUS
 62
     5
 10
300.5
 20
-296.5
 30
0.0
 11
299.5
 21
-296.5
 31
0.0
  0
LINE
  8
DETAIL
  6
CONTINUOUS
 62
     5
 10
299.5
 20
-298.5
 30
0.0
 11
301.0
 21
-298.5
 31
0.0
  0
LINE
  8
DETAIL
  6
CONTINUOUS
 62
     5
 10
297.5
 20
-300.5
 30
0.0
 11
283.75
 21
-300.5
 31
0.0
  0
LINE
  8
DETAIL
  6
CONTINUOUS
 62
     5
 10
312.75
 20
-298.5
 30
0.0
 11
312.75
 21
-275.25
 31
0.0
  0
LINE
  8
DETAIL
  6
CONTINUOUS
 62
     5
 10
312.75
 20
-263.25
 30
0.0
 11
312.75
 21
0.0
 31
0.0
  0
LINE
  8
DETAIL
  6
CONTINUOUS
 62
     5
 10
0.0
 20
-312.75
 30
0.0
 11
297.5
 21
-312.75
 31
0.0
  0
ARC
  8
DETAIL
  6
CONTINUOUS
 62
     5
 10
297.5
 20
-298.5
 30
0.0
 40
1.0
 50
330.0
 51
0.0
  0
ARC
  8
DETAIL
  6
CONTINUOUS
 62
     5
 10
297.5
 20
-298.5
 30
0.0
 40
2.0
 50
270.0
 51
0.0
  0
LINE
  8
DETAIL
  6
CONTINUOUS
 62
     5
 10
299.0
 20
-285.5
 30
0.0
 11
298.5
 21
-285.5
 31
0.0
  0
ARC
  8
DETAIL
  6
CONTINUOUS
 62
     5
 10
297.5
 20
-298.5
 30
0.0
 40
1.0
 50
270.0
 51
330.0
  0
LINE
  8
DETAIL
  6
CONTINUOUS
 62
     5
 10
245.5
 20
-299.0
 30
0.0
 11
255.0
 21
-299.0
 31
0.0
  0
LINE
  8
DETAIL
  6
CONTINUOUS
 62
     5
 10
283.75
 20
-299.0
 30
0.0
 11
298.366025
 21
-299.0
 31
0.0
  0
LINE
  8
DETAIL
  6
CONTINUOUS
 62
     5
 10
299.436492
 20
-299.0
 30
0.0
 11
313.0
 21
-299.0
 31
0.0
  0
LINE
  8
DETAIL
  6
CONTINUOUS
 62
     5
 10
0.0
 20
-345.0
 30
0.0
 11
335.0
 21
-345.0
 31
0.0
  0
ARC
  8
DETAIL
  6
CONTINUOUS
 62
     5
 10
335.0
 20
-335.0
 30
0.0
 40
10.0
 50
270.0
 51
0.0
  0
LINE
  8
DETAIL
  6
CONTINUOUS
 62
     5
 10
345.0
 20
-335.0
 30
0.0
 11
345.0
 21
-315.0
 31
0.0
  0
LINE
  8
DETAIL
  6
CONTINUOUS
 62
     5
 10
0.0
 20
-313.0
 30
0.0
 11
313.0
 21
-313.0
 31
0.0
  0
LINE
  8
DETAIL
  6
CONTINUOUS
 62
     5
 10
313.0
 20
-299.0
 30
0.0
 11
313.0
 21
-315.0
 31
0.0
  0
LINE
  8
DETAIL
  6
CONTINUOUS
 62
     5
 10
313.0
 20
-315.0
 30
0.0
 11
315.0
 21
-315.0
 31
0.0
  0
LINE
  8
DETAIL
  6
CONTINUOUS
 62
     5
 10
315.0
 20
-315.0
 30
0.0
 11
345.0
 21
-315.0
 31
0.0
  0
LINE
  8
DETAIL
  6
CONTINUOUS
 62
     5
 10
302.0
 20
-299.0
 30
0.0
 11
313.0
 21
-299.0
 31
0.0
  0
LINE
  8
DETAIL
  6
CONTINUOUS
 62
     5
 10
299.0
 20
-255.0
 30
0.0
 11
299.0
 21
-245.5
 31
0.0
  0
LINE
  8
DETAIL
  6
CONTINUOUS
 62
     5
 10
299.0
 20
-285.5
 30
0.0
 11
299.0
 21
-283.75
 31
0.0
  0
LINE
  8
DETAIL
  6
CONTINUOUS
 62
     5
 10
299.436492
 20
-299.0
 30
0.0
 11
301.0
 21
-299.0
 31
0.0
  0
LINE
  8
DETAIL
  6
CONTINUOUS
 62
     5
 10
345.0
 20
-315.0
 30
0.0
 11
345.0
 21
0.0
 31
0.0
  0
LINE
  8
DETAIL
  6
CONTINUOUS
 62
     5
 10
315.0
 20
-315.0
 30
0.0
 11
315.0
 21
-313.5
 31
0.0
  0
ARC
  8
DETAIL
  6
CONTINUOUS
 62
     5
 10
335.0
 20
-335.0
 30
0.0
 40
10.0
 50
270.0
 51
0.0
  0
LINE
  8
DETAIL
  6
CONTINUOUS
 62
     5
 10
345.0
 20
-335.0
 30
0.0
 11
345.0
 21
-315.0
 31
0.0
  0
LINE
  8
DETAIL
  6
CONTINUOUS
 62
     5
 10
313.8
 20
-313.5
 30
0.0
 11
313.8
 21
0.0
 31
0.0
  0
LINE
  8
DETAIL
  6
CONTINUOUS
 62
     5
 10
313.0
 20
-299.0
 30
0.0
 11
313.0
 21
0.0
 31
0.0
  0
LINE
  8
DETAIL
  6
CONTINUOUS
 62
     5
 10
313.0
 20
-313.5
 30
0.0
 11
313.0
 21
-299.0
 31
0.0
  0
LINE
  8
DETAIL
  6
CONTINUOUS
 62
     5
 10
313.0
 20
-313.5
 30
0.0
 11
315.0
 21
-313.5
 31
0.0
  0
LINE
  8
DETAIL
  6
CONTINUOUS
 62
     5
 10
315.0
 20
-314.5
 30
0.0
 11
345.0
 21
-314.5
 31
0.0
  0
LINE
  8
DETAIL
  6
CONTINUOUS
 62
     5
 10
315.0
 20
-345.0
 30
0.0
 11
335.0
 21
-345.0
 31
0.0
  0
LINE
  8
DETAIL
  6
CONTINUOUS
 62
     5
 10
301.0
 20
-283.75
 30
0.0
 11
301.0
 21
-301.0
 31
0.0
  0
LINE
  8
DETAIL
  6
CONTINUOUS
 62
     5
 10
302.0
 20
-283.75
 30
0.0
 11
302.0
 21
-301.0
 31
0.0
  0
LINE
  8
DETAIL
  6
CONTINUOUS
 62
     5
 10
302.0
 20
0.0
 30
0.0
 11
302.0
 21
-255.0
 31
0.0
  0
LINE
  8
DETAIL
  6
CONTINUOUS
 62
     5
 10
287.0
 20
-303.0
 30
0.0
 11
287.0
 21
-302.0
 31
0.0
  0
LINE
  8
DETAIL
  6
CONTINUOUS
 62
     5
 10
289.0
 20
-303.0
 30
0.0
 11
289.0
 21
-302.0
 31
0.0
  0
LINE
  8
DETAIL
  6
CONTINUOUS
 62
     5
 10
298.0
 20
-244.5
 30
0.0
 11
298.0
 21
0.0
 31
0.0
  0
LINE
  8
DETAIL
  6
CONTINUOUS
 62
     5
 10
301.0
 20
-247.5
 30
0.0
 11
301.0
 21
-255.0
 31
0.0
  0
LINE
  8
DETAIL
  6
CONTINUOUS
 62
     5
 10
298.0
 20
-244.5
 30
0.0
 11
301.0
 21
-247.5
 31
0.0
  0
LINE
  8
DETAIL
  6
CONTINUOUS
 62
     5
 10
302.0
 20
-247.5
 30
0.0
 11
301.0
 21
-247.5
 31
0.0
  0
LINE
  8
DETAIL
  6
CONTINUOUS
 62
     5
 10
287.0
 20
-302.0
 30
0.0
 11
300.0
 21
-302.0
 31
0.0
  0
LINE
  8
DETAIL
  6
CONTINUOUS
 62
     5
 10
287.0
 20
-303.0
 30
0.0
 11
300.0
 21
-303.0
 31
0.0
  0
ARC
  8
DETAIL
  6
CONTINUOUS
 62
     5
 10
300.0
 20
-301.0
 30
0.0
 40
2.0
 50
270.0
 51
0.0
  0
ARC
  8
DETAIL
  6
CONTINUOUS
 62
     5
 10
300.0
 20
-301.0
 30
0.0
 40
1.0
 50
270.0
 51
0.0
  0
LINE
  8
DETAIL
  6
CONTINUOUS
 62
     5
 10
281.732412
 20
-275.934136
 30
0.0
 11
284.065864
 21
-278.267588
 31
0.0
  0
ARC
  8
DETAIL
  6
CONTINUOUS
 62
     5
 10
278.833274
 20
-278.833274
 30
0.0
 40
4.1
 50
45.0
 51
225.0
  0
LINE
  8
DETAIL
  6
CONTINUOUS
 62
     5
 10
275.934136
 20
-281.732412
 30
0.0
 11
278.267588
 21
-284.065864
 31
0.0
  0
ARC
  8
DETAIL
  6
CONTINUOUS
 62
     5
 10
281.166726
 20
-281.166726
 30
0.0
 40
4.1
 50
225.0
 51
45.0
  0
LINE
  8
DETAIL
  6
CONTINUOUS
 62
     5
 10
299.0
 20
-255.0
 30
0.0
 11
303.2
 21
-255.0
 31
0.0
  0
LINE
  8
DETAIL
  6
CONTINUOUS
 62
     5
 10
255.0
 20
-303.2
 30
0.0
 11
255.0
 21
-299.0
 31
0.0
  0
LINE
  8
DETAIL
  6
CONTINUOUS
 62
     5
 10
303.2
 20
-283.75
 30
0.0
 11
296.5
 21
-283.75
 31
0.0
  0
LINE
  8
DETAIL
  6
CONTINUOUS
 62
     5
 10
296.5
 20
-285.75
 30
0.0
 11
299.0
 21
-285.75
 31
0.0
  0
LINE
  8
DETAIL
  6
CONTINUOUS
 62
     5
 10
283.75
 20
-296.5
 30
0.0
 11
283.75
 21
-303.2
 31
0.0
  0
LINE
  8
DETAIL
  6
CONTINUOUS
 62
     5
 10
285.75
 20
-299.0
 30
0.0
 11
285.75
 21
-296.5
 31
0.0
  0
LINE
  8
DETAIL
  6
CONTINUOUS
 62
     5
 10
297.0
 20
-299.0
 30
0.0
 11
285.75
 21
-299.0
 31
0.0
  0
LINE
  8
DETAIL
  6
CONTINUOUS
 62
     5
 10
255.0
 20
-303.2
 30
0.0
 11
283.75
 21
-303.2
 31
0.0
  0
LINE
  8
DETAIL
  6
CONTINUOUS
 62
     5
 10
299.0
 20
-285.75
 30
0.0
 11
299.0
 21
-297.0
 31
0.0
  0
LINE
  8
DETAIL
  6
CONTINUOUS
 62
     5
 10
303.2
 20
-283.75
 30
0.0
 11
303.2
 21
-255.0
 31
0.0
  0
LINE
  8
DETAIL
  6
CONTINUOUS
 62
     5
 10
298.964466
 20
-245.464466
 30
0.0
 11
251.464466
 21
-292.964466
 31
0.0
  0
LINE
  8
DETAIL
  6
CONTINUOUS
 62
     5
 10
297.0
 20
-299.0
 30
0.0
 11
299.0
 21
-297.0
 31
0.0
  0
CIRCLE
  8
DETAIL
  6
CONTINUOUS
 62
     5
 10
280.0
 20
-280.0
 30
0.0
 40
4.0
  0
ARC
  8
DETAIL
  6
CONTINUOUS
 62
     5
 10
296.5
 20
-284.75
 30
0.0
 40
1.0
 50
90.0
 51
270.0
  0
ARC
  8
DETAIL
  6
CONTINUOUS
 62
     5
 10
284.75
 20
-296.5
 30
0.0
 40
1.0
 50
0.0
 51
180.0
  0
ARC
  8
DETAIL
  6
CONTINUOUS
 62
     5
 10
278.833274
 20
-278.833274
 30
0.0
 40
4.1
 50
45.0
 51
225.0
  0
ARC
  8
DETAIL
  6
CONTINUOUS
 62
     5
 10
281.166726
 20
-281.166726
 30
0.0
 40
4.1
 50
225.0
 51
45.0
  0
LINE
  8
DETAIL
  6
CONTINUOUS
 62
     5
 10
281.732412
 20
-275.934136
 30
0.0
 11
284.065864
 21
-278.267588
 31
0.0
  0
LINE
  8
DETAIL
  6
CONTINUOUS
 62
     5
 10
275.934136
 20
-281.732412
 30
0.0
 11
278.267588
 21
-284.065864
 31
0.0
  0
LINE
  8
DETAIL
  6
CONTINUOUS
 62
     5
 10
298.5
 20
-297.5
 30
0.0
 11
297.0
 21
-299.0
 31
0.0
  0
LINE
  8
DETAIL
  6
CONTINUOUS
 62
     5
 10
298.5
 20
-285.75
 30
0.0
 11
296.5
 21
-285.75
 31
0.0
  0
LINE
  8
DETAIL
  6
CONTINUOUS
 62
     5
 10
255.0
 20
-299.0
 30
0.0
 11
255.0
 21
-299.0
 31
0.0
  0
LINE
  8
DETAIL
  6
CONTINUOUS
 62
     5
 10
299.5
 20
-255.0
 30
0.0
 11
299.0
 21
-255.0
 31
0.0
  0
LINE
  8
DETAIL
  6
CONTINUOUS
 62
     5
 10
283.75
 20
-299.5
 30
0.0
 11
283.75
 21
-299.0
 31
0.0
  0
LINE
  8
DETAIL
  6
CONTINUOUS
 62
     5
 10
285.75
 20
-296.5
 30
0.0
 11
285.75
 21
-299.0
 31
0.0
  0
LINE
  8
DETAIL
  6
CONTINUOUS
 62
     5
 10
298.3
 20
-281.75
 30
0.0
 11
299.5
 21
-281.75
 31
0.0
  0
LINE
  8
DETAIL
  6
CONTINUOUS
 62
     5
 10
296.5
 20
-283.75
 30
0.0
 11
299.0
 21
-283.75
 31
0.0
  0
LINE
  8
DETAIL
  6
CONTINUOUS
 62
     5
 10
245.464466
 20
-298.964466
 30
0.0
 11
298.964466
 21
-245.464466
 31
0.0
  0
ARC
  8
DETAIL
  6
CONTINUOUS
 62
     5
 10
284.75
 20
-296.5
 30
0.0
 40
1.0
 50
0.0
 51
180.0
  0
ARC
  8
DETAIL
  6
CONTINUOUS
 62
     5
 10
296.5
 20
-284.75
 30
0.0
 40
1.0
 50
90.0
 51
270.0
  0
LINE
  8
DETAIL
  6
CONTINUOUS
 62
     5
 10
285.75
 20
-299.0
 30
0.0
 11
297.0
 21
-299.0
 31
0.0
  0
LINE
  8
DETAIL
  6
CONTINUOUS
 62
     5
 10
299.0
 20
-255.0
 30
0.0
 11
299.0
 21
-255.0
 31
0.0
  0
LINE
  8
DETAIL
  6
CONTINUOUS
 62
     5
 10
299.0
 20
-283.75
 30
0.0
 11
299.5
 21
-283.75
 31
0.0
  0
LINE
  8
DETAIL
  6
CONTINUOUS
 62
     5
 10
283.75
 20
-299.0
 30
0.0
 11
283.75
 21
-296.5
 31
0.0
  0
LINE
  8
DETAIL
  6
CONTINUOUS
 62
     5
 10
255.0
 20
-299.0
 30
0.0
 11
255.0
 21
-299.5
 31
0.0
  0
CIRCLE
  8
DETAIL
  6
CONTINUOUS
 62
     5
 10
280.0
 20
-280.0
 30
0.0
 40
4.0
  0
LINE
  8
DETAIL
  6
CONTINUOUS
 62
     5
 10
272.25
 20
-304.5
 30
0.0
 11
266.25
 21
-304.5
 31
0.0
  0
LINE
  8
DETAIL
  6
CONTINUOUS
 62
     5
 10
300.0
 20
-302.0
 30
0.0
 11
283.75
 21
-302.0
 31
0.0
  0
LINE
  8
DETAIL
  6
CONTINUOUS
 62
     5
 10
300.0
 20
-301.0
 30
0.0
 11
283.75
 21
-301.0
 31
0.0
  0
LINE
  8
DETAIL
  6
CONTINUOUS
 62
     5
 10
0.0
 20
-298.0
 30
0.0
 11
244.5
 21
-298.0
 31
0.0
  0
LINE
  8
DETAIL
  6
CONTINUOUS
 62
     5
 10
255.0
 20
-302.0
 30
0.0
 11
0.0
 21
-302.0
 31
0.0
  0
LINE
  8
DETAIL
  6
CONTINUOUS
 62
     5
 10
255.0
 20
-301.0
 30
0.0
 11
247.5
 21
-301.0
 31
0.0
  0
LINE
  8
DETAIL
  6
CONTINUOUS
 62
     5
 10
244.5
 20
-298.0
 30
0.0
 11
247.5
 21
-301.0
 31
0.0
  0
LINE
  8
DETAIL
  6
CONTINUOUS
 62
     5
 10
247.5
 20
-301.0
 30
0.0
 11
247.5
 21
-302.0
 31
0.0
  0
LINE
  8
DETAIL
  6
CONTINUOUS
 62
     5
 10
265.25
 20
-303.5
 30
0.0
 11
265.25
 21
-303.2
 31
0.0
  0
LINE
  8
DETAIL
  6
CONTINUOUS
 62
     5
 10
273.25
 20
-303.5
 30
0.0
 11
273.25
 21
-303.2
 31
0.0
  0
LINE
  8
DETAIL
  6
CONTINUOUS
 62
     5
 10
298.0
 20
-302.0
 30
0.0
 11
298.0
 21
-301.0
 31
0.0
  0
LINE
  8
DETAIL
  6
CONTINUOUS
 62
     5
 10
300.0
 20
-302.0
 30
0.0
 11
300.0
 21
-301.0
 31
0.0
  0
LINE
  8
DETAIL
  6
CONTINUOUS
 62
     5
 10
266.25
 20
-304.5
 30
0.0
 11
265.25
 21
-303.5
 31
0.0
  0
LINE
  8
DETAIL
  6
CONTINUOUS
 62
     5
 10
272.25
 20
-304.5
 30
0.0
 11
273.25
 21
-303.5
 31
0.0
  0
LINE
  8
DETAIL
  6
CONTINUOUS
 62
     5
 10
302.0
 20
-226.0
 30
0.0
 11
302.8
 21
-226.0
 31
0.0
  0
LINE
  8
DETAIL
  6
CONTINUOUS
 62
     5
 10
302.8
 20
-208.9
 30
0.0
 11
302.8
 21
-226.0
 31
0.0
  0
LINE
  8
DETAIL
  6
CONTINUOUS
 62
     5
 10
302.0
 20
-208.9
 30
0.0
 11
302.8
 21
-208.9
 31
0.0
  0
LINE
  8
DETAIL
  6
CONTINUOUS
 62
     5
 10
302.0
 20
-208.9
 30
0.0
 11
302.0
 21
-226.0
 31
0.0
  0
ARC
  8
DETAIL
  6
CONTINUOUS
 62
     5
 10
299.2
 20
-218.5
 30
0.0
 40
6.1
 50
309.601965
 51
50.398017
  0
LINE
  8
DETAIL
  6
CONTINUOUS
 62
     5
 10
302.8
 20
-223.2
 30
0.0
 11
302.8
 21
-213.8
 31
0.0
  0
LINE
  8
DETAIL
  6
CONTINUOUS
 62
     5
 10
302.8
 20
-213.8
 30
0.0
 11
303.088445
 21
-213.8
 31
0.0
  0
LINE
  8
DETAIL
  6
CONTINUOUS
 62
     5
 10
302.8
 20
-223.2
 30
0.0
 11
303.088445
 21
-223.2
 31
0.0
  0
LINE
  8
DETAIL
  6
CONTINUOUS
 62
     5
 10
303.088445
 20
-213.8
 30
0.0
 11
303.088445
 21
-223.2
 31
0.0
  0
LINE
  8
DETAIL
  6
CONTINUOUS
 62
     5
 10
284.880415
 20
-279.429339
 30
0.0
 11
283.986954
 21
-280.3228
 31
0.0
  0
LINE
  8
DETAIL
  6
CONTINUOUS
 62
     5
 10
279.429339
 20
-284.880415
 30
0.0
 11
280.3228
 21
-283.986954
 31
0.0
  0
LINE
  8
DETAIL
  6
CONTINUOUS
 62
     5
 10
283.75
 20
-296.821782
 30
0.0
 11
285.75
 21
-296.821782
 31
0.0
  0
LINE
  8
DETAIL
  6
CONTINUOUS
 62
     5
 10
296.821782
 20
-283.75
 30
0.0
 11
296.821782
 21
-285.75
 31
0.0
  0
LINE
  8
DETAIL
  6
CONTINUOUS
 62
     5
 10
0.0
 20
-305.0
 30
0.0
 11
305.0
 21
-305.0
 31
0.0
  0
LINE
  8
DETAIL
  6
CONTINUOUS
 62
     5
 10
305.0
 20
-305.0
 30
0.0
 11
305.0
 21
0.0
 31
0.0
  0
LINE
  8
OUTLINE
  6
CONTINUOUS
 62
     3
 10
0.0
 20
345.0
 30
0.0
 11
-335.0
 21
345.0
 31
0.0
  0
ARC
  8
OUTLINE
  6
CONTINUOUS
 62
     3
 10
-335.0
 20
335.0
 30
0.0
 40
10.0
 50
90.0
 51
180.0
  0
LINE
  8
OUTLINE
  6
CONTINUOUS
 62
     3
 10
-345.0
 20
335.0
 30
0.0
 11
-345.0
 21
315.0
 31
0.0
  0
LINE
  8
OUTLINE
  6
CONTINUOUS
 62
     3
 10
-345.0
 20
315.0
 30
0.0
 11
-345.0
 21
0.0
 31
0.0
  0
ARC
  8
OUTLINE
  6
CONTINUOUS
 62
     3
 10
-335.0
 20
335.0
 30
0.0
 40
10.0
 50
90.0
 51
180.0
  0
LINE
  8
OUTLINE
  6
CONTINUOUS
 62
     3
 10
-345.0
 20
335.0
 30
0.0
 11
-345.0
 21
315.0
 31
0.0
  0
LINE
  8
OUTLINE
  6
CONTINUOUS
 62
     3
 10
-315.0
 20
345.0
 30
0.0
 11
-335.0
 21
345.0
 31
0.0
  0
LINE
  8
OUTLINE
  6
CONTINUOUS
 62
     3
 10
0.0
 20
345.0
 30
0.0
 11
335.0
 21
345.0
 31
0.0
  0
ARC
  8
OUTLINE
  6
CONTINUOUS
 62
     3
 10
335.0
 20
335.0
 30
0.0
 40
10.0
 50
0.0
 51
90.0
  0
LINE
  8
OUTLINE
  6
CONTINUOUS
 62
     3
 10
345.0
 20
335.0
 30
0.0
 11
345.0
 21
315.0
 31
0.0
  0
LINE
  8
OUTLINE
  6
CONTINUOUS
 62
     3
 10
345.0
 20
315.0
 30
0.0
 11
345.0
 21
0.0
 31
0.0
  0
ARC
  8
OUTLINE
  6
CONTINUOUS
 62
     3
 10
335.0
 20
335.0
 30
0.0
 40
10.0
 50
0.0
 51
90.0
  0
LINE
  8
OUTLINE
  6
CONTINUOUS
 62
     3
 10
345.0
 20
335.0
 30
0.0
 11
345.0
 21
315.0
 31
0.0
  0
LINE
  8
OUTLINE
  6
CONTINUOUS
 62
     3
 10
315.0
 20
345.0
 30
0.0
 11
335.0
 21
345.0
 31
0.0
  0
LINE
  8
OUTLINE
  6
CONTINUOUS
 62
     3
 10
0.0
 20
-345.0
 30
0.0
 11
-335.0
 21
-345.0
 31
0.0
  0
ARC
  8
OUTLINE
  6
CONTINUOUS
 62
     3
 10
-335.0
 20
-335.0
 30
0.0
 40
10.0
 50
180.0
 51
270.0
  0
LINE
  8
OUTLINE
  6
CONTINUOUS
 62
     3
 10
-345.0
 20
-335.0
 30
0.0
 11
-345.0
 21
-315.0
 31
0.0
  0
LINE
  8
OUTLINE
  6
CONTINUOUS
 62
     3
 10
-345.0
 20
-315.0
 30
0.0
 11
-345.0
 21
0.0
 31
0.0
  0
ARC
  8
OUTLINE
  6
CONTINUOUS
 62
     3
 10
-335.0
 20
-335.0
 30
0.0
 40
10.0
 50
180.0
 51
270.0
  0
LINE
  8
OUTLINE
  6
CONTINUOUS
 62
     3
 10
-345.0
 20
-335.0
 30
0.0
 11
-345.0
 21
-315.0
 31
0.0
  0
LINE
  8
OUTLINE
  6
CONTINUOUS
 62
     3
 10
-315.0
 20
-345.0
 30
0.0
 11
-335.0
 21
-345.0
 31
0.0
  0
LINE
  8
OUTLINE
  6
CONTINUOUS
 62
     3
 10
0.0
 20
-345.0
 30
0.0
 11
335.0
 21
-345.0
 31
0.0
  0
ARC
  8
OUTLINE
  6
CONTINUOUS
 62
     3
 10
335.0
 20
-335.0
 30
0.0
 40
10.0
 50
270.0
 51
0.0
  0
LINE
  8
OUTLINE
  6
CONTINUOUS
 62
     3
 10
345.0
 20
-335.0
 30
0.0
 11
345.0
 21
-315.0
 31
0.0
  0
LINE
  8
OUTLINE
  6
CONTINUOUS
 62
     3
 10
345.0
 20
-315.0
 30
0.0
 11
345.0
 21
0.0
 31
0.0
  0
ARC
  8
OUTLINE
  6
CONTINUOUS
 62
     3
 10
335.0
 20
-335.0
 30
0.0
 40
10.0
 50
270.0
 51
0.0
  0
LINE
  8
OUTLINE
  6
CONTINUOUS
 62
     3
 10
345.0
 20
-335.0
 30
0.0
 11
345.0
 21
-315.0
 31
0.0
  0
LINE
  8
OUTLINE
  6
CONTINUOUS
 62
     3
 10
315.0
 20
-345.0
 30
0.0
 11
335.0
 21
-345.0
 31
0.0
  0
CIRCLE
  8
DETAIL
  6
CONTINUOUS
 62
     5
 39
50.0
 10
330.0
 20
330.0
 30
0.0
 40
8.0
  0
CIRCLE
  8
DETAIL
  6
CONTINUOUS
 62
     5
 39
50.0
 10
-330.0
 20
330.0
 30
0.0
 40
8.0
  0
CIRCLE
  8
DETAIL
  6
CONTINUOUS
 62
     5
 39
50.0
 10
-330.0
 20
-330.0
 30
0.0
 40
8.0
  0
CIRCLE
  8
DETAIL
  6
CONTINUOUS
 62
     5
 39
50.0
 10
330.0
 20
-330.0
 30
0.0
 40
8.0
  0
CIRCLE
  8
FIX
  6
CONTINUOUS
 62
    11
 39
50.0
 10
330.0
 20
-330.0
 30
0.0
 40
8.0
  0
CIRCLE
  8
FIX
  6
CONTINUOUS
 62
    11
 39
50.0
 10
330.0
 20
330.0
 30
0.0
 40
8.0
  0
CIRCLE
  8
FIX
  6
CONTINUOUS
 62
    11
 39
50.0
 10
-330.0
 20
330.0
 30
0.0
 40
8.0
  0
CIRCLE
  8
FIX
  6
CONTINUOUS
 62
    11
 39
50.0
 10
-330.0
 20
-330.0
 30
0.0
 40
8.0
  0
LINE
  8
SIZE
  6
CONTINUOUS
 62
    30
 10
-345.0
 20
334.5
 30
0.0
 11
-345.0
 21
772.371245
 31
0.0
  0
LINE
  8
SIZE
  6
CONTINUOUS
 62
    30
 10
345.0
 20
334.5
 30
0.0
 11
345.0
 21
772.371245
 31
0.0
  0
LINE
  8
SIZE
  6
CONTINUOUS
 62
    30
 10
-333.0
 20
752.371245
 30
0.0
 11
333.0
 21
752.371245
 31
0.0
  0
CIRCLE
  8
SIZE
  6
CONTINUOUS
 62
    30
 10
-345.0
 20
752.371245
 30
0.0
 40
6.0
  0
LINE
  8
SIZE
  6
CONTINUOUS
 62
    30
 10
-345.0
 20
752.371245
 30
0.0
 11
-333.0
 21
752.371245
 31
0.0
  0
CIRCLE
  8
SIZE
  6
CONTINUOUS
 62
    30
 10
345.0
 20
752.371245
 30
0.0
 40
6.0
  0
LINE
  8
SIZE
  6
CONTINUOUS
 62
    30
 10
345.0
 20
752.371245
 30
0.0
 11
333.0
 21
752.371245
 31
0.0
  0
TEXT
  8
SIZE
  6
CONTINUOUS
 62
    30
 10
-80.928
 20
777.371245
 30
0.0
 40
64.0
  1
690
 50
0.0
 41
0.9
 51
0.0
  7
STANDARD
 71
     0
 72
     1
 11
0.0
 21
777.371245
 31
0.0
210
0.0
220
0.0
230
1.0
  0
POINT
  8
DEFPOINTS
  6
CONTINUOUS
 62
    30
 10
-345.0
 20
314.5
 30
0.0
  0
POINT
  8
DEFPOINTS
  6
CONTINUOUS
 62
    30
 10
345.0
 20
314.5
 30
0.0
  0
POINT
  8
DEFPOINTS
  6
CONTINUOUS
 62
    30
 10
345.0
 20
752.371245
 30
0.0
  0
LINE
  8
SIZE
  6
CONTINUOUS
 62
    30
 10
-355.0
 20
345.0
 30
0.0
 11
-724.230553
 21
345.0
 31
0.0
  0
LINE
  8
SIZE
  6
CONTINUOUS
 62
    30
 10
-355.0
 20
-345.0
 30
0.0
 11
-724.230553
 21
-345.0
 31
0.0
  0
LINE
  8
SIZE
  6
CONTINUOUS
 62
    30
 10
-704.230553
 20
333.0
 30
0.0
 11
-704.230553
 21
-333.0
 31
0.0
  0
CIRCLE
  8
SIZE
  6
CONTINUOUS
 62
    30
 10
-704.230553
 20
345.0
 30
0.0
 40
6.0
  0
LINE
  8
SIZE
  6
CONTINUOUS
 62
    30
 10
-704.230553
 20
345.0
 30
0.0
 11
-704.230553
 21
333.0
 31
0.0
  0
CIRCLE
  8
SIZE
  6
CONTINUOUS
 62
    30
 10
-704.230553
 20
-345.0
 30
0.0
 40
6.0
  0
LINE
  8
SIZE
  6
CONTINUOUS
 62
    30
 10
-704.230553
 20
-345.0
 30
0.0
 11
-704.230553
 21
-333.0
 31
0.0
  0
TEXT
  8
SIZE
  6
CONTINUOUS
 62
    30
 10
-729.230553
 20
-80.928
 30
0.0
 40
64.0
  1
690
 50
90.0
 41
0.9
 51
0.0
  7
STANDARD
 71
     0
 72
     1
 11
-729.230553
 21
0.0
 31
0.0
210
0.0
220
0.0
230
1.0
  0
POINT
  8
DEFPOINTS
  6
CONTINUOUS
 62
    30
 10
-335.0
 20
345.0
 30
0.0
  0
POINT
  8
DEFPOINTS
  6
CONTINUOUS
 62
    30
 10
-335.0
 20
-345.0
 30
0.0
  0
POINT
  8
DEFPOINTS
  6
CONTINUOUS
 62
    30
 10
-704.230553
 20
-345.0
 30
0.0
  0
LINE
  8
SIZE
  6
CONTINUOUS
 62
    30
 10
-330.0
 20
370.0
 30
0.0
 11
-330.0
 21
662.803902
 31
0.0
  0
LINE
  8
SIZE
  6
CONTINUOUS
 62
    30
 10
330.0
 20
370.0
 30
0.0
 11
330.0
 21
662.803902
 31
0.0
  0
LINE
  8
SIZE
  6
CONTINUOUS
 62
    30
 10
-318.0
 20
642.803902
 30
0.0
 11
318.0
 21
642.803902
 31
0.0
  0
CIRCLE
  8
SIZE
  6
CONTINUOUS
 62
    30
 10
-330.0
 20
642.803902
 30
0.0
 40
6.0
  0
LINE
  8
SIZE
  6
CONTINUOUS
 62
    30
 10
-330.0
 20
642.803902
 30
0.0
 11
-318.0
 21
642.803902
 31
0.0
  0
CIRCLE
  8
SIZE
  6
CONTINUOUS
 62
    30
 10
330.0
 20
642.803902
 30
0.0
 40
6.0
  0
LINE
  8
SIZE
  6
CONTINUOUS
 62
    30
 10
330.0
 20
642.803902
 30
0.0
 11
318.0
 21
642.803902
 31
0.0
  0
TEXT
  8
SIZE
  6
CONTINUOUS
 62
    30
 10
-80.928
 20
667.803902
 30
0.0
 40
64.0
  1
660
 50
0.0
 41
0.9
 51
0.0
  7
STANDARD
 71
     0
 72
     1
 11
0.0
 21
667.803902
 31
0.0
210
0.0
220
0.0
230
1.0
  0
POINT
  8
DEFPOINTS
  6
CONTINUOUS
 62
    30
 10
-330.0
 20
350.0
 30
0.0
  0
POINT
  8
DEFPOINTS
  6
CONTINUOUS
 62
    30
 10
330.0
 20
350.0
 30
0.0
  0
POINT
  8
DEFPOINTS
  6
CONTINUOUS
 62
    30
 10
330.0
 20
642.803902
 30
0.0
  0
LINE
  8
SIZE
  6
CONTINUOUS
 62
    30
 10
-370.0
 20
330.0
 30
0.0
 11
-603.83453
 21
330.0
 31
0.0
  0
LINE
  8
SIZE
  6
CONTINUOUS
 62
    30
 10
-370.0
 20
-330.0
 30
0.0
 11
-603.83453
 21
-330.0
 31
0.0
  0
LINE
  8
SIZE
  6
CONTINUOUS
 62
    30
 10
-583.83453
 20
318.0
 30
0.0
 11
-583.83453
 21
-318.0
 31
0.0
  0
CIRCLE
  8
SIZE
  6
CONTINUOUS
 62
    30
 10
-583.83453
 20
330.0
 30
0.0
 40
6.0
  0
LINE
  8
SIZE
  6
CONTINUOUS
 62
    30
 10
-583.83453
 20
330.0
 30
0.0
 11
-583.83453
 21
318.0
 31
0.0
  0
CIRCLE
  8
SIZE
  6
CONTINUOUS
 62
    30
 10
-583.83453
 20
-330.0
 30
0.0
 40
6.0
  0
LINE
  8
SIZE
  6
CONTINUOUS
 62
    30
 10
-583.83453
 20
-330.0
 30
0.0
 11
-583.83453
 21
-318.0
 31
0.0
  0
TEXT
  8
SIZE
  6
CONTINUOUS
 62
    30
 10
-608.83453
 20
-80.928
 30
0.0
 40
64.0
  1
660
 50
90.0
 41
0.9
 51
0.0
  7
STANDARD
 71
     0
 72
     1
 11
-608.83453
 21
0.0
 31
0.0
210
0.0
220
0.0
230
1.0
  0
POINT
  8
DEFPOINTS
  6
CONTINUOUS
 62
    30
 10
-350.0
 20
330.0
 30
0.0
  0
POINT
  8
DEFPOINTS
  6
CONTINUOUS
 62
    30
 10
-350.0
 20
-330.0
 30
0.0
  0
POINT
  8
DEFPOINTS
  6
CONTINUOUS
 62
    30
 10
-583.83453
 20
-330.0
 30
0.0
  0
LINE
  8
SIZE
  6
CONTINUOUS
 62
    30
 10
-280.0
 20
320.0
 30
0.0
 11
-280.0
 21
398.234148
 31
0.0
  0
LINE
  8
SIZE
  6
CONTINUOUS
 62
    30
 10
280.0
 20
320.0
 30
0.0
 11
280.0
 21
398.234148
 31
0.0
  0
LINE
  8
SIZE
  6
CONTINUOUS
 62
    30
 10
-268.0
 20
378.234148
 30
0.0
 11
268.0
 21
378.234148
 31
0.0
  0
CIRCLE
  8
SIZE
  6
CONTINUOUS
 62
    30
 10
-280.0
 20
378.234148
 30
0.0
 40
6.0
  0
LINE
  8
SIZE
  6
CONTINUOUS
 62
    30
 10
-280.0
 20
378.234148
 30
0.0
 11
-268.0
 21
378.234148
 31
0.0
  0
CIRCLE
  8
SIZE
  6
CONTINUOUS
 62
    30
 10
280.0
 20
378.234148
 30
0.0
 40
6.0
  0
LINE
  8
SIZE
  6
CONTINUOUS
 62
    30
 10
280.0
 20
378.234148
 30
0.0
 11
268.0
 21
378.234148
 31
0.0
  0
TEXT
  8
SIZE
  6
CONTINUOUS
 62
    30
 10
-80.928
 20
403.234148
 30
0.0
 40
64.0
  1
560
 50
0.0
 41
0.9
 51
0.0
  7
STANDARD
 71
     0
 72
     1
 11
0.0
 21
403.234148
 31
0.0
210
0.0
220
0.0
230
1.0
  0
POINT
  8
DEFPOINTS
  6
CONTINUOUS
 62
    30
 10
-280.0
 20
300.0
 30
0.0
  0
POINT
  8
DEFPOINTS
  6
CONTINUOUS
 62
    30
 10
280.0
 20
300.0
 30
0.0
  0
POINT
  8
DEFPOINTS
  6
CONTINUOUS
 62
    30
 10
280.0
 20
378.234148
 30
0.0
  0
LINE
  8
SIZE
  6
CONTINUOUS
 62
    30
 10
-320.0
 20
280.0
 30
0.0
 11
-475.474928
 21
280.0
 31
0.0
  0
LINE
  8
SIZE
  6
CONTINUOUS
 62
    30
 10
-320.0
 20
-280.0
 30
0.0
 11
-475.474928
 21
-280.0
 31
0.0
  0
LINE
  8
SIZE
  6
CONTINUOUS
 62
    30
 10
-455.474928
 20
268.0
 30
0.0
 11
-455.474928
 21
-268.0
 31
0.0
  0
CIRCLE
  8
SIZE
  6
CONTINUOUS
 62
    30
 10
-455.474928
 20
280.0
 30
0.0
 40
6.0
  0
LINE
  8
SIZE
  6
CONTINUOUS
 62
    30
 10
-455.474928
 20
280.0
 30
0.0
 11
-455.474928
 21
268.0
 31
0.0
  0
CIRCLE
  8
SIZE
  6
CONTINUOUS
 62
    30
 10
-455.474928
 20
-280.0
 30
0.0
 40
6.0
  0
LINE
  8
SIZE
  6
CONTINUOUS
 62
    30
 10
-455.474928
 20
-280.0
 30
0.0
 11
-455.474928
 21
-268.0
 31
0.0
  0
TEXT
  8
SIZE
  6
CONTINUOUS
 62
    30
 10
-480.474928
 20
-80.928
 30
0.0
 40
64.0
  1
560
 50
90.0
 41
0.9
 51
0.0
  7
STANDARD
 71
     0
 72
     1
 11
-480.474928
 21
0.0
 31
0.0
210
0.0
220
0.0
230
1.0
  0
POINT
  8
DEFPOINTS
  6
CONTINUOUS
 62
    30
 10
-300.0
 20
280.0
 30
0.0
  0
POINT
  8
DEFPOINTS
  6
CONTINUOUS
 62
    30
 10
-300.0
 20
-280.0
 30
0.0
  0
POINT
  8
DEFPOINTS
  6
CONTINUOUS
 62
    30
 10
-455.474928
 20
-280.0
 30
0.0
  0
LINE
  8
SIZE
  6
CONTINUOUS
 62
    30
 10
-313.0
 20
335.0
 30
0.0
 11
-313.0
 21
528.678365
 31
0.0
  0
LINE
  8
SIZE
  6
CONTINUOUS
 62
    30
 10
313.0
 20
335.0
 30
0.0
 11
313.0
 21
528.678365
 31
0.0
  0
LINE
  8
SIZE
  6
CONTINUOUS
 62
    30
 10
-301.0
 20
508.678365
 30
0.0
 11
301.0
 21
508.678365
 31
0.0
  0
CIRCLE
  8
SIZE
  6
CONTINUOUS
 62
    30
 10
-313.0
 20
508.678365
 30
0.0
 40
6.0
  0
LINE
  8
SIZE
  6
CONTINUOUS
 62
    30
 10
-313.0
 20
508.678365
 30
0.0
 11
-301.0
 21
508.678365
 31
0.0
  0
CIRCLE
  8
SIZE
  6
CONTINUOUS
 62
    30
 10
313.0
 20
508.678365
 30
0.0
 40
6.0
  0
LINE
  8
SIZE
  6
CONTINUOUS
 62
    30
 10
313.0
 20
508.678365
 30
0.0
 11
301.0
 21
508.678365
 31
0.0
  0
TEXT
  8
SIZE
  6
CONTINUOUS
 62
    30
 10
-114.912
 20
533.678365
 30
0.0
 40
64.0
  1
□626
 50
0.0
 41
0.9
 51
0.0
  7
STANDARD
 71
     0
 72
     1
 11
0.0
 21
533.678365
 31
0.0
210
0.0
220
0.0
230
1.0
  0
POINT
  8
DEFPOINTS
  6
CONTINUOUS
 62
    30
 10
-313.0
 20
315.0
 30
0.0
  0
POINT
  8
DEFPOINTS
  6
CONTINUOUS
 62
    30
 10
313.0
 20
315.0
 30
0.0
  0
POINT
  8
DEFPOINTS
  6
CONTINUOUS
 62
    30
 10
313.0
 20
508.678365
 30
0.0
  0
LINE
  8
NOTE
  6
CONTINUOUS
 62
     4
 10
0.0
 20
310.0
 30
0.0
 11
0.0
 21
350.0
 31
0.0
  0
LINE
  8
NOTE
  6
CONTINUOUS
 62
     4
 10
-20.0
 20
330.0
 30
0.0
 11
20.0
 21
330.0
 31
0.0
  0
CIRCLE
  8
DETAIL
  6
CONTINUOUS
 62
     5
 39
50.0
 10
0.0
 20
330.0
 30
0.0
 40
7.5
  0
CIRCLE
  8
FIX
  6
CONTINUOUS
 62
    11
 39
50.0
 10
0.0
 20
330.0
 30
0.0
 40
7.5
  0
LINE
  8
NOTE
  6
CONTINUOUS
 62
     4
 10
330.0
 20
-20.0
 30
0.0
 11
330.0
 21
20.0
 31
0.0
  0
LINE
  8
NOTE
  6
CONTINUOUS
 62
     4
 10
310.0
 20
0.0
 30
0.0
 11
350.0
 21
0.0
 31
0.0
  0
CIRCLE
  8
DETAIL
  6
CONTINUOUS
 62
     5
 39
50.0
 10
330.0
 20
0.0
 30
0.0
 40
7.5
  0
CIRCLE
  8
FIX
  6
CONTINUOUS
 62
    11
 39
50.0
 10
330.0
 20
0.0
 30
0.0
 40
7.5
  0
LINE
  8
NOTE
  6
CONTINUOUS
 62
     4
 10
-330.0
 20
-20.0
 30
0.0
 11
-330.0
 21
20.0
 31
0.0
  0
LINE
  8
NOTE
  6
CONTINUOUS
 62
     4
 10
-350.0
 20
0.0
 30
0.0
 11
-310.0
 21
0.0
 31
0.0
  0
CIRCLE
  8
DETAIL
  6
CONTINUOUS
 62
     5
 39
50.0
 10
-330.0
 20
0.0
 30
0.0
 40
7.5
  0
CIRCLE
  8
FIX
  6
CONTINUOUS
 62
    11
 39
50.0
 10
-330.0
 20
0.0
 30
0.0
 40
7.5
  0
LINE
  8
NOTE
  6
CONTINUOUS
 62
     4
 10
0.0
 20
-350.0
 30
0.0
 11
0.0
 21
-310.0
 31
0.0
  0
LINE
  8
NOTE
  6
CONTINUOUS
 62
     4
 10
-20.0
 20
-330.0
 30
0.0
 11
20.0
 21
-330.0
 31
0.0
  0
CIRCLE
  8
DETAIL
  6
CONTINUOUS
 62
     5
 39
50.0
 10
0.0
 20
-330.0
 30
0.0
 40
7.5
  0
CIRCLE
  8
FIX
  6
CONTINUOUS
 62
    11
 39
50.0
 10
0.0
 20
-330.0
 30
0.0
 40
7.5
  0
TEXT
  8
NOTE
  6
CONTINUOUS
 62
     4
 10
158.535029
 20
-545.220865
 30
0.0
 40
64.0
  1
4-φ15
 41
0.9
  0
LINE
  8
NOTE
  6
CONTINUOUS
 62
     4
 39
50.0
 10
155.586258
 20
-568.964294
 30
0.0
 11
456.126904
 21
-568.964294
 31
0.0
  0
LINE
  8
NOTE
  6
CONTINUOUS
 62
     4
 10
34.600449
 20
-362.458079
 30
0.0
 11
4.847995
 21
-335.722494
 31
0.0
  0
LINE
  8
NOTE
  6
CONTINUOUS
 62
     4
 10
4.847995
 20
-335.722494
 30
0.0
 11
17.246583
 21
-373.752417
 31
0.0
  0
LINE
  8
NOTE
  6
CONTINUOUS
 62
     4
 39
50.0
 10
155.586258
 20
-568.964294
 30
0.0
 11
4.847995
 21
-335.722494
 31
0.0
  0
LINE
  8
SIZE
  6
CONTINUOUS
 62
    30
 10
-224.5
 20
298.0
 30
0.0
 11
-172.039077
 21
298.0
 31
0.0
  0
LINE
  8
SIZE
  6
CONTINUOUS
 62
    30
 10
-224.5
 20
-298.0
 30
0.0
 11
-172.039077
 21
-298.0
 31
0.0
  0
LINE
  8
SIZE
  6
CONTINUOUS
 62
    30
 10
-192.039077
 20
286.0
 30
0.0
 11
-192.039077
 21
-286.0
 31
0.0
  0
CIRCLE
  8
SIZE
  6
CONTINUOUS
 62
    30
 10
-192.039077
 20
298.0
 30
0.0
 40
6.0
  0
LINE
  8
SIZE
  6
CONTINUOUS
 62
    30
 10
-192.039077
 20
298.0
 30
0.0
 11
-192.039077
 21
286.0
 31
0.0
  0
CIRCLE
  8
SIZE
  6
CONTINUOUS
 62
    30
 10
-192.039077
 20
-298.0
 30
0.0
 40
6.0
  0
LINE
  8
SIZE
  6
CONTINUOUS
 62
    30
 10
-192.039077
 20
-298.0
 30
0.0
 11
-192.039077
 21
-286.0
 31
0.0
  0
TEXT
  8
SIZE
  6
CONTINUOUS
 62
    30
 10
-217.039077
 20
-80.352
 30
0.0
 40
64.0
  1
596
 50
90.0
 41
0.9
 51
0.0
  7
STANDARD
 71
     0
 72
     1
 11
-217.039077
 21
0.0
 31
0.0
210
0.0
220
0.0
230
1.0
  0
POINT
  8
DEFPOINTS
  6
CONTINUOUS
 62
    30
 10
-244.5
 20
298.0
 30
0.0
  0
POINT
  8
DEFPOINTS
  6
CONTINUOUS
 62
    30
 10
-244.5
 20
-298.0
 30
0.0
  0
POINT
  8
DEFPOINTS
  6
CONTINUOUS
 62
    30
 10
-192.039077
 20
-298.0
 30
0.0
  0
LINE
  8
SIZE
  6
CONTINUOUS
 62
    30
 10
-298.0
 20
-224.5
 30
0.0
 11
-298.0
 21
-206.0
 31
0.0
  0
LINE
  8
SIZE
  6
CONTINUOUS
 62
    30
 10
298.0
 20
-224.5
 30
0.0
 11
298.0
 21
-206.0
 31
0.0
  0
LINE
  8
SIZE
  6
CONTINUOUS
 62
    30
 10
-286.0
 20
-226.0
 30
0.0
 11
286.0
 21
-226.0
 31
0.0
  0
CIRCLE
  8
SIZE
  6
CONTINUOUS
 62
    30
 10
-298.0
 20
-226.0
 30
0.0
 40
6.0
  0
LINE
  8
SIZE
  6
CONTINUOUS
 62
    30
 10
-298.0
 20
-226.0
 30
0.0
 11
-286.0
 21
-226.0
 31
0.0
  0
CIRCLE
  8
SIZE
  6
CONTINUOUS
 62
    30
 10
298.0
 20
-226.0
 30
0.0
 40
6.0
  0
LINE
  8
SIZE
  6
CONTINUOUS
 62
    30
 10
298.0
 20
-226.0
 30
0.0
 11
286.0
 21
-226.0
 31
0.0
  0
TEXT
  8
SIZE
  6
CONTINUOUS
 62
    30
 10
-80.352
 20
-201.0
 30
0.0
 40
64.0
  1
596
 50
0.0
 41
0.9
 51
0.0
  7
STANDARD
 71
     0
 72
     1
 11
0.0
 21
-201.0
 31
0.0
210
0.0
220
0.0
230
1.0
  0
POINT
  8
DEFPOINTS
  6
CONTINUOUS
 62
    30
 10
-298.0
 20
-244.5
 30
0.0
  0
POINT
  8
DEFPOINTS
  6
CONTINUOUS
 62
    30
 10
298.0
 20
-244.5
 30
0.0
  0
POINT
  8
DEFPOINTS
  6
CONTINUOUS
 62
    30
 10
298.0
 20
-226.0
 30
0.0
  0
ENDSEC
  0
EOF
