  0
SECTION
  2
HEADER
  9
$ACADVER
  1
AC1009
  9
$DWGCODEPAGE
  3
dos932
  9
$INSBASE
 10
0.0
 20
0.0
 30
0.0
  9
$EXTMIN
 10
-393.19167700000003
 20
-381.25778300000002
 30
0.0
  9
$EXTMAX
 10
2047.0847030098989
 20
760.89824500000009
 30
50.0
  9
$LIMMIN
 10
-2970.0
 20
-2100.0
  9
$LIMMAX
 10
2970.0
 20
2100.0
  9
$ORTHOMODE
 70
     1
  9
$REGENMODE
 70
     1
  9
$FILLMODE
 70
     1
  9
$QTEXTMODE
 70
     0
  9
$MIRRTEXT
 70
     0
  9
$LTSCALE
 40
20.0
  9
$ATTMODE
 70
     1
  9
$TEXTSIZE
 40
64.0
  9
$TRACEWID
 40
0.05
  9
$TEXTSTYLE
  7
STANDARD
  9
$CLAYER
  8
SIZE
  9
$CELTYPE
  6
CONTINUOUS
  9
$CECOLOR
 62
     7
  9
$DIMSCALE
 40
1.0
  9
$DIMASZ
 40
12.0
  9
$DIMEXO
 40
20.0
  9
$DIMDLI
 40
200.0
  9
$DIMRND
 40
0.0
  9
$DIMDLE
 40
0.0
  9
$DIMEXE
 40
20.0
  9
$DIMTP
 40
0.0
  9
$DIMTM
 40
0.0
  9
$DIMTXT
 40
64.0
  9
$DIMCEN
 40
0.09
  9
$DIMTSZ
 40
0.0
  9
$DIMTOL
 70
     0
  9
$DIMLIM
 70
     0
  9
$DIMTIH
 70
     0
  9
$DIMTOH
 70
     0
  9
$DIMSE1
 70
     0
  9
$DIMSE2
 70
     0
  9
$DIMTAD
 70
     1
  9
$DIMZIN
 70
     8
  9
$DIMBLK
  1

  9
$DIMASO
 70
     1
  9
$DIMSHO
 70
     0
  9
$DIMPOST
  1

  9
$DIMAPOST
  1

  9
$DIMALT
 70
     0
  9
$DIMALTD
 70
     2
  9
$DIMALTF
 40
25.399999999999999
  9
$DIMLFAC
 40
1.0
  9
$DIMTOFL
 70
     1
  9
$DIMTVP
 40
0.0
  9
$DIMTIX
 70
     1
  9
$DIMSOXD
 70
     0
  9
$DIMSAH
 70
     0
  9
$DIMBLK1
  1

  9
$DIMBLK2
  1

  9
$DIMSTYLE
  2
STANDARD
  9
$DIMCLRD
 70
     7
  9
$DIMCLRE
 70
     7
  9
$DIMCLRT
 70
     7
  9
$DIMTFAC
 40
1.0
  9
$DIMGAP
 40
25.0
  9
$LUNITS
 70
     2
  9
$LUPREC
 70
     4
  9
$SKETCHINC
 40
0.1
  9
$FILLETRAD
 40
3.0
  9
$AUNITS
 70
     1
  9
$AUPREC
 70
     3
  9
$MENU
  1
ACAD
  9
$ELEVATION
 40
0.0
  9
$PELEVATION
 40
0.0
  9
$THICKNESS
 40
50.0
  9
$LIMCHECK
 70
     0
  9
$CHAMFERA
 40
0.0
  9
$CHAMFERB
 40
0.0
  9
$SKPOLY
 70
     0
  9
$TDCREATE
 40
2453019.62301037
  9
$TDUPDATE
 40
2457380.660262963
  9
$TDINDWG
 40
1.7223603704
  9
$TDUSRTIMER
 40
1.7223603704
  9
$USRTIMER
 70
     1
  9
$ANGBASE
 50
0.0
  9
$ANGDIR
 70
     0
  9
$PDMODE
 70
     3
  9
$PDSIZE
 40
-2.0
  9
$PLINEWID
 40
0.0
  9
$SPLFRAME
 70
     0
  9
$SPLINETYPE
 70
     6
  9
$SPLINESEGS
 70
     8
  9
$SURFTAB1
 70
     6
  9
$SURFTAB2
 70
     6
  9
$SURFTYPE
 70
     6
  9
$SURFU
 70
     6
  9
$SURFV
 70
     6
  9
$UCSNAME
  2

  9
$UCSORG
 10
0.0
 20
0.0
 30
0.0
  9
$UCSXDIR
 10
1.0
 20
0.0
 30
0.0
  9
$UCSYDIR
 10
0.0
 20
1.0
 30
0.0
  9
$PUCSNAME
  2

  9
$PUCSORG
 10
0.0
 20
0.0
 30
0.0
  9
$PUCSXDIR
 10
1.0
 20
0.0
 30
0.0
  9
$PUCSYDIR
 10
0.0
 20
1.0
 30
0.0
  9
$USERI1
 70
     0
  9
$USERI2
 70
     0
  9
$USERI3
 70
     0
  9
$USERI4
 70
     0
  9
$USERI5
 70
     0
  9
$USERR1
 40
20.0
  9
$USERR2
 40
0.0
  9
$USERR3
 40
0.0
  9
$USERR4
 40
0.0
  9
$USERR5
 40
0.0
  9
$WORLDVIEW
 70
     1
  9
$SHADEDGE
 70
     3
  9
$SHADEDIF
 70
    70
  9
$TILEMODE
 70
     1
  9
$MAXACTVP
 70
    48
  9
$PINSBASE
 10
0.0
 20
0.0
 30
0.0
  9
$PLIMCHECK
 70
     0
  9
$PEXTMIN
 10
-100000000000000000000.0
 20
-100000000000000000000.0
 30
-100000000000000000000.0
  9
$PEXTMAX
 10
100000000000000000000.0
 20
100000000000000000000.0
 30
100000000000000000000.0
  9
$PLIMMIN
 10
0.0
 20
0.0
  9
$PLIMMAX
 10
12.0
 20
9.0
  9
$UNITMODE
 70
     0
  9
$VISRETAIN
 70
     0
  9
$PLINEGEN
 70
     0
  9
$PSLTSCALE
 70
     0
  9
$TREEDEPTH
 70
  3020
  9
$ATTDIA
 70
     0
  9
$ATTREQ
 70
     1
  9
$BLIPMODE
 70
     1
  9
$COORDS
 70
     1
  9
$DRAGMODE
 70
     2
  9
$OSMODE
 70
     0
  9
$HANDLING
 70
     0
  9
$HANDSEED
  5
EC15
  0
ENDSEC
  0
SECTION
  2
TABLES
  0
TABLE
  2
LTYPE
 70
     2
  0
LTYPE
  2
CONTINUOUS
 70
     0
  3
実線
 72
    65
 73
     0
 40
0.0
  0
LTYPE
  2
DASHDOT
 70
     0
  3
____ _ ____ _ ____ _ ____ _ ____ _ ____ _ ____
 72
    65
 73
     4
 40
5.5
 49
4.0
 49
-0.6
 49
0.3
 49
-0.6
  0
ENDTAB
  0
TABLE
  2
LAYER
 70
    12
  0
LAYER
  2
0
 70
     0
 62
     7
  6
CONTINUOUS
  0
LAYER
  2
BASIS
 70
     0
 62
     6
  6
DASHDOT
  0
LAYER
  2
OUTLINE
 70
     0
 62
     3
  6
CONTINUOUS
  0
LAYER
  2
DETAIL
 70
     0
 62
     5
  6
CONTINUOUS
  0
LAYER
  2
SIZE
 70
     0
 62
    30
  6
CONTINUOUS
  0
LAYER
  2
ARRANGE
 70
     0
 62
     1
  6
CONTINUOUS
  0
LAYER
  2
DEFPOINTS
 70
     0
 62
     7
  6
CONTINUOUS
  0
LAYER
  2
ETC
 70
     0
 62
    61
  6
CONTINUOUS
  0
LAYER
  2
NOTE
 70
     0
 62
     4
  6
CONTINUOUS
  0
LAYER
  2
FIX
 70
    64
 62
    11
  6
CONTINUOUS
  0
LAYER
  2
SERVICESPACE
 70
    64
 62
     2
  6
DASHDOT
  0
LAYER
  2
SYMBOLLINE
 70
    64
 62
    15
  6
CONTINUOUS
  0
ENDTAB
  0
TABLE
  2
STYLE
 70
     1
  0
STYLE
  2
STANDARD
 70
     0
 40
64.0
 41
0.9
 50
0.0
 71
     0
 42
64.0
  3
SIMPLEX.shx
  4
BIGFONT.shx
  0
ENDTAB
  0
TABLE
  2
APPID
 70
    15
  0
APPID
  2
ACAD
 70
     0
  0
APPID
  2
AUTOCAD_POSTSCRIPT_FIGURE
 70
     0
  0
APPID
  2
ACAD_EXEMPT_FROM_CAD_STANDARDS
 70
     0
  0
APPID
  2
ACAD_PSEXT
 70
     0
  0
APPID
  2
ACAUTHENVIRON
 70
     0
  0
APPID
  2
GENIUS_GENOENT_13
 70
     0
  0
APPID
  2
GENIUS_GENCFG_13
 70
     0
  0
APPID
  2
GENIUS_GENCFG0_13
 70
     0
  0
APPID
  2
GENIUS_GENCFG1_13
 70
     0
  0
APPID
  2
GENIUS_GENCFG2_13
 70
     0
  0
APPID
  2
GENIUS_GENCFG3_13
 70
     0
  0
APPID
  2
GENIUS_GENCFG4_13
 70
     0
  0
APPID
  2
GENIUS_GEVCFG0_13
 70
     0
  0
APPID
  2
CONTENTBLOCKICON
 70
     0
  0
APPID
  2
CONTENTBLOCKDESCRIPTION
 70
     0
  0
ENDTAB
  0
TABLE
  2
DIMSTYLE
 70
     1
  0
DIMSTYLE
  2
STANDARD
 70
     0
  3

  4

  5
_ORIGIN
  6

  7

 40
1.0
 41
12.0
 42
20.0
 43
200.0
 44
20.0
 45
0.0
 46
0.0
 47
0.0
 48
0.0
140
64.0
141
0.09
142
0.0
143
25.399999999999999
144
1.0
145
0.0
146
1.0
147
25.0
 71
     0
 72
     0
 73
     0
 74
     0
 75
     0
 76
     0
 77
     1
 78
     8
170
     0
171
     2
172
     1
173
     0
174
     1
175
     0
176
     7
177
     7
178
     7
  0
ENDTAB
  0
TABLE
  2
VIEW
 70
     1
  0
VIEW
  2
ALL
 70
     0
 40
4282.6198079999986
 10
0.0
 20
41.309904000000003
 41
5940.0
 11
0.0
 21
0.0
 31
1.0
 12
0.0
 22
0.0
 32
0.0
 42
50.0
 43
0.0
 44
0.0
 50
0.0
 71
     0
  0
ENDTAB
  0
TABLE
  2
UCS
 70
     0
  0
ENDTAB
  0
TABLE
  2
VPORT
 70
     1
  0
VPORT
  2
*ACTIVE
 70
     0
 10
0.0
 20
0.0
 11
1.0
 21
1.0
 12
975.86717721209607
 22
468.35944434704652
 13
0.0
 23
0.0
 14
1.0
 24
1.0
 15
0.0
 25
0.0
 16
0.0
 26
0.0
 36
1.0
 17
0.0
 27
0.0
 37
0.0
 40
3215.1537690553628
 41
1.29023746701847
 42
50.0
 43
0.0
 44
0.0
 50
0.0
 51
0.0
 71
     0
 72
  1000
 73
     1
 74
     0
 75
     0
 76
     0
 77
     0
 78
     0
  0
ENDTAB
  0
ENDSEC
  0
SECTION
  2
BLOCKS
  0
BLOCK
  8
0
  2
_ORIGIN
 70
     0
 10
0.0
 20
0.0
 30
0.0
  3
_ORIGIN
  1

  0
CIRCLE
  8
0
  6
CONTINUOUS
 62
     7
 10
0.0
 20
0.0
 30
0.0
 40
0.5
  0
LINE
  8
0
  6
CONTINUOUS
 62
     7
 10
0.0
 20
0.0
 30
0.0
 11
-1.0
 21
0.0
 31
0.0
  0
ENDBLK
  8
0
  0
ENDSEC
  0
SECTION
  2
ENTITIES
  0
TEXT
  8
ETC
  6
CONTINUOUS
 62
    61
 10
453.2502199999999
 20
693.99119599999995
 30
0.0
 40
40.0
  1
PS-60FW3_2
 41
0.9
  0
TEXT
  8
ETC
  6
CONTINUOUS
 62
    61
 10
449.06422600000002
 20
633.29491699999994
 30
0.0
 40
40.0
  1
システム部材
 41
0.9
  0
TEXT
  8
ETC
  6
CONTINUOUS
 62
    61
 10
499.67172799999997
 20
551.42480699999999
 30
0.0
 40
40.0
  1
PS-60FW3
 41
0.9
  0
CIRCLE
  8
ARRANGE
  6
CONTINUOUS
 62
     1
 10
0.0
 20
0.0
 30
0.0
 40
40.0
  0
POINT
  8
ARRANGE
  6
CONTINUOUS
 62
     1
 10
0.0
 20
0.0
 30
0.0
 39
50.0
  0
LINE
  8
DETAIL
  6
CONTINUOUS
 62
     5
 10
342.0
 20
-0.5512449999999944
 30
0.0
 11
342.0
 21
317.64823799999999
 31
0.0
  0
LINE
  8
DETAIL
  6
CONTINUOUS
 62
     5
 10
322.0
 20
-0.5512449999999944
 30
0.0
 11
322.0
 21
314.27148099999999
 31
0.0
  0
LINE
  8
DETAIL
  6
CONTINUOUS
 62
     5
 10
318.28968600000007
 20
342.0
 30
0.0
 11
0.0
 21
342.0
 31
0.0
  0
LINE
  8
DETAIL
  6
CONTINUOUS
 62
     5
 10
315.21166799999992
 20
322.0
 30
0.0
 11
0.0
 21
322.0
 31
0.0
  0
LINE
  8
DETAIL
  6
CONTINUOUS
 62
     5
 10
318.28968600000007
 20
342.0
 30
0.0
 11
292.23084399999988
 21
342.0
 31
0.0
  0
LINE
  8
DETAIL
  6
CONTINUOUS
 62
     5
 10
340.3394760000001
 20
343.84416400000009
 30
0.0
 11
292.23084399999988
 21
343.84416400000009
 31
0.0
  0
LINE
  8
DETAIL
  6
CONTINUOUS
 62
     5
 10
292.08147400000013
 20
320.64791500000001
 30
0.0
 11
307.56526200000008
 21
320.64791500000001
 31
0.0
  0
ARC
  8
DETAIL
  6
CONTINUOUS
 62
     5
 10
298.646299
 20
318.49619200000012
 30
0.0
 40
1.857327
 50
270.0
 51
308.35766900000419
  0
LINE
  8
DETAIL
  6
CONTINUOUS
 62
     5
 10
298.19528100000002
 20
316.63886200000002
 30
0.0
 11
306.01293099999998
 21
316.63886200000002
 31
0.0
  0
LINE
  8
DETAIL
  6
CONTINUOUS
 62
     5
 10
306.71451699999989
 20
320.64791500000001
 30
0.0
 11
297.49369500000012
 21
320.64791500000001
 31
0.0
  0
LINE
  8
DETAIL
  6
CONTINUOUS
 62
     5
 10
306.9139990000001
 20
345.0
 30
0.0
 11
297.59295200000003
 21
345.0
 31
0.0
  0
LINE
  8
DETAIL
  6
CONTINUOUS
 62
     5
 10
292.08147400000013
 20
320.64791500000001
 30
0.0
 11
292.08147400000013
 21
321.85062999999991
 31
0.0
  0
LINE
  8
DETAIL
  6
CONTINUOUS
 62
     5
 10
297.09278999999992
 20
321.85062999999991
 30
0.0
 11
297.09278999999992
 21
320.64791500000001
 31
0.0
  0
LINE
  8
DETAIL
  6
CONTINUOUS
 62
     5
 10
297.49369999999999
 20
317.03977400000008
 30
0.0
 11
298.19528500000001
 21
316.638869
 31
0.0
  0
LINE
  8
DETAIL
  6
CONTINUOUS
 62
     5
 10
297.493696
 20
320.64791600000001
 30
0.0
 11
297.493696
 21
317.03976800000009
 31
0.0
  0
LINE
  8
DETAIL
  6
CONTINUOUS
 62
     5
 10
292.23084399999988
 20
343.84416400000009
 30
0.0
 11
292.23084399999988
 21
342.64144800000008
 31
0.0
  0
LINE
  8
DETAIL
  6
CONTINUOUS
 62
     5
 10
297.24216000000001
 20
343.84416400000009
 30
0.0
 11
297.24216000000001
 21
342.0
 31
0.0
  0
LINE
  8
DETAIL
  6
CONTINUOUS
 62
     5
 10
298.49498899999998
 20
343.84416400000009
 30
0.0
 11
297.59295200000003
 21
344.44875500000001
 31
0.0
  0
LINE
  8
DETAIL
  6
CONTINUOUS
 62
     5
 10
297.59295200000003
 20
344.44875500000001
 30
0.0
 11
297.59295200000003
 21
345.0
 31
0.0
  0
LINE
  8
DETAIL
  6
CONTINUOUS
 62
     5
 10
343.54671800000011
 20
292.87229200000002
 30
0.0
 11
343.54671800000011
 21
340.63692200000003
 31
0.0
  0
LINE
  8
DETAIL
  6
CONTINUOUS
 62
     5
 10
320.79728399999999
 20
291.58939500000002
 30
0.0
 11
320.79728399999999
 21
307.41589199999999
 31
0.0
  0
LINE
  8
DETAIL
  6
CONTINUOUS
 62
     5
 10
322.0
 20
291.58939500000002
 30
0.0
 11
322.0
 21
307.07318299999997
 31
0.0
  0
LINE
  8
DETAIL
  6
CONTINUOUS
 62
     5
 10
322.0
 20
291.58939500000002
 30
0.0
 11
320.79728399999999
 21
291.58939500000002
 31
0.0
  0
LINE
  8
DETAIL
  6
CONTINUOUS
 62
     5
 10
343.54671800000011
 20
292.87229200000002
 30
0.0
 11
342.0
 21
292.87229200000002
 31
0.0
  0
LINE
  8
NOTE
  6
DASHDOT
 62
     4
 10
325.0
 20
315.97963099999993
 30
0.0
 11
325.0
 21
334.02036900000007
 31
0.0
  0
LINE
  8
DETAIL
  6
CONTINUOUS
 62
     5
 10
318.28968600000007
 20
327.153773
 30
0.0
 11
318.28968600000007
 21
342.0
 31
0.0
  0
LINE
  8
DETAIL
  6
CONTINUOUS
 62
     5
 10
312.27610699999991
 20
322.0
 30
0.0
 11
312.27610699999991
 21
342.0
 31
0.0
  0
LINE
  8
NOTE
  6
DASHDOT
 62
     4
 10
334.02036900000007
 20
325.0
 30
0.0
 11
315.97963099999993
 21
325.0
 31
0.0
  0
ARC
  8
DETAIL
  6
CONTINUOUS
 62
     5
 10
326.34654300000011
 20
326.346543
 30
0.0
 40
4.1092789999999999
 50
314.9999999999954
 51
133.60240299999509
  0
ARC
  8
DETAIL
  6
CONTINUOUS
 62
     5
 10
323.65345699999989
 20
323.653457
 30
0.0
 40
4.1092789999999999
 50
136.39759699999561
 51
314.9999999999954
  0
LINE
  8
DETAIL
  6
CONTINUOUS
 62
     5
 10
343.54671800000011
 20
317.64823799999999
 30
0.0
 11
327.45251200000013
 21
317.64823799999999
 31
0.0
  0
CIRCLE
  8
DETAIL
  6
CONTINUOUS
 62
     5
 10
325.0
 20
325.0
 30
0.0
 40
4.0090529999999998
  0
CIRCLE
  8
NOTE
  6
CONTINUOUS
 62
     4
 10
325.0
 20
325.0
 30
0.0
 40
3.0067900000000001
  0
LINE
  8
DETAIL
  6
CONTINUOUS
 62
     5
 10
342.0
 20
311.63465900000011
 30
0.0
 11
322.29873900000013
 21
311.63465900000011
 31
0.0
  0
LINE
  8
DETAIL
  6
CONTINUOUS
 62
     5
 10
320.44501700000001
 20
308.26634100000001
 30
0.0
 11
308.26634100000001
 21
320.44501700000001
 31
0.0
  0
ARC
  8
DETAIL
  6
CONTINUOUS
 62
     5
 10
327.45251200000013
 20
312.63692200000003
 30
0.0
 40
5.0113160000000008
 50
90.0
 51
134.9999999999954
  0
LINE
  8
DETAIL
  6
CONTINUOUS
 62
     5
 10
299.59844800000002
 20
316.63886200000002
 30
0.0
 11
299.59844800000002
 21
314.0
 31
0.0
  0
LINE
  8
DETAIL
  6
CONTINUOUS
 62
     5
 10
304.60976399999998
 20
314.0
 30
0.0
 11
304.60976399999998
 21
316.63886200000002
 31
0.0
  0
ARC
  8
DETAIL
  6
CONTINUOUS
 62
     5
 10
305.561913
 20
318.49619400000012
 30
0.0
 40
1.857329
 50
231.64226499999521
 51
270.0
  0
LINE
  8
DETAIL
  6
CONTINUOUS
 62
     5
 10
314.0
 20
299.10636899999997
 30
0.0
 11
316.788231
 21
299.10636899999997
 31
0.0
  0
LINE
  8
DETAIL
  6
CONTINUOUS
 62
     5
 10
316.788231
 20
304.11768499999988
 30
0.0
 11
314.0
 21
304.11768499999988
 31
0.0
  0
LINE
  8
DETAIL
  6
CONTINUOUS
 62
     5
 10
314.0
 20
304.11768499999988
 30
0.0
 11
314.0
 21
299.10636899999997
 31
0.0
  0
LINE
  8
DETAIL
  6
CONTINUOUS
 62
     5
 10
299.59844800000002
 20
314.0
 30
0.0
 11
304.60976399999998
 21
314.0
 31
0.0
  0
LINE
  8
DETAIL
  6
CONTINUOUS
 62
     5
 10
317.18914300000012
 20
306.22243300000002
 30
0.0
 11
316.78823899999998
 21
305.520848
 31
0.0
  0
LINE
  8
DETAIL
  6
CONTINUOUS
 62
     5
 10
320.79728399999999
 20
297.00161600000001
 30
0.0
 11
320.79728399999999
 21
306.22243800000001
 31
0.0
  0
LINE
  8
DETAIL
  6
CONTINUOUS
 62
     5
 10
320.79728399999999
 20
296.60071099999999
 30
0.0
 11
322.0
 21
296.60071099999999
 31
0.0
  0
ARC
  8
DETAIL
  6
CONTINUOUS
 62
     5
 10
318.64556199999993
 20
305.0698339999999
 30
0.0
 40
1.857327
 50
179.99998200000081
 51
218.35766900000419
  0
ARC
  8
DETAIL
  6
CONTINUOUS
 62
     5
 10
323.61614900000001
 20
301.61202700000001
 30
0.0
 40
6.8279160000000001
 50
160.26833000000349
 51
199.73157899999981
  0
ARC
  8
DETAIL
  6
CONTINUOUS
 62
     5
 10
318.64556299999998
 20
298.15422000000001
 30
0.0
 40
1.857329
 50
141.64226500000029
 51
179.99998200000081
  0
LINE
  8
DETAIL
  6
CONTINUOUS
 62
     5
 10
317.18913700000007
 20
303.91723300000001
 30
0.0
 11
320.79728399999999
 21
303.91723300000001
 31
0.0
  0
LINE
  8
DETAIL
  6
CONTINUOUS
 62
     5
 10
317.18913700000007
 20
299.30682200000001
 30
0.0
 11
320.79728399999999
 21
299.30682200000001
 31
0.0
  0
LINE
  8
DETAIL
  6
CONTINUOUS
 62
     5
 10
317.18913700000007
 20
297.00161700000001
 30
0.0
 11
320.79728299999988
 21
297.00161700000001
 31
0.0
  0
LINE
  8
DETAIL
  6
CONTINUOUS
 62
     5
 10
316.78823899999998
 20
297.70320600000002
 30
0.0
 11
317.18914300000012
 21
297.001621
 31
0.0
  0
LINE
  8
DETAIL
  6
CONTINUOUS
 62
     5
 10
316.788231
 20
305.52085199999999
 30
0.0
 11
316.788231
 21
297.70320199999992
 31
0.0
  0
LINE
  8
DETAIL
  6
CONTINUOUS
 62
     5
 10
323.90897699999999
 20
316.18045799999999
 30
0.0
 11
318.36930799999999
 21
310.64078899999998
 31
0.0
  0
ARC
  8
DETAIL
  6
CONTINUOUS
 62
     5
 10
319.59456799999998
 20
307.07318299999997
 30
0.0
 40
2.4054319999999998
 50
0.0
 51
45.000000000004597
  0
LINE
  8
DETAIL
  6
CONTINUOUS
 62
     5
 10
321.29546499999992
 20
308.77407999999991
 30
0.0
 11
318.89903199999998
 21
311.17051300000003
 31
0.0
  0
ARC
  8
DETAIL
  6
CONTINUOUS
 62
     5
 10
319.59456799999998
 20
307.41589199999999
 30
0.0
 40
1.2027159999999999
 50
0.0
 51
45.000000000004597
  0
LINE
  8
DETAIL
  6
CONTINUOUS
 62
     5
 10
320.7972850000001
 20
306.22243700000001
 30
0.0
 11
317.18913700000007
 21
306.22243700000001
 31
0.0
  0
LINE
  8
DETAIL
  6
CONTINUOUS
 62
     5
 10
316.82190600000013
 20
323.61023799999998
 30
0.0
 11
311.11088199999989
 21
317.89921399999997
 31
0.0
  0
ARC
  8
DETAIL
  6
CONTINUOUS
 62
     5
 10
302.104106
 20
323.46678000000003
 30
0.0
 40
6.8279160000000001
 50
250.2683300000096
 51
289.73157899999359
  0
LINE
  8
DETAIL
  6
CONTINUOUS
 62
     5
 10
299.79890100000011
 20
317.03976800000009
 30
0.0
 11
299.79890100000011
 21
320.64791500000001
 31
0.0
  0
LINE
  8
DETAIL
  6
CONTINUOUS
 62
     5
 10
304.409312
 20
317.03976800000009
 30
0.0
 11
304.409312
 21
320.64791500000001
 31
0.0
  0
LINE
  8
DETAIL
  6
CONTINUOUS
 62
     5
 10
306.714516
 20
317.03976800000009
 30
0.0
 11
306.714516
 21
320.64791400000001
 31
0.0
  0
LINE
  8
DETAIL
  6
CONTINUOUS
 62
     5
 10
306.01292699999999
 20
316.638869
 30
0.0
 11
306.71451200000001
 21
317.03977400000008
 31
0.0
  0
LINE
  8
DETAIL
  6
CONTINUOUS
 62
     5
 10
311.96133099999997
 20
318.74966300000011
 30
0.0
 11
309.41552799999999
 21
321.29546499999992
 31
0.0
  0
ARC
  8
DETAIL
  6
CONTINUOUS
 62
     5
 10
307.71463100000011
 20
319.59456799999998
 30
0.0
 40
2.4054319999999998
 50
45.000000000004597
 51
90.0
  0
ARC
  8
DETAIL
  6
CONTINUOUS
 62
     5
 10
307.56526200000008
 20
319.445199
 30
0.0
 40
1.2027159999999999
 50
45.000000000004597
 51
90.0
  0
ARC
  8
DETAIL
  6
CONTINUOUS
 62
     5
 10
313.27837099999988
 20
327.153773
 30
0.0
 40
5.0113160000000008
 50
314.9999999999954
 51
0.0
  0
LINE
  8
DETAIL
  6
CONTINUOUS
 62
     5
 10
321.81081799999993
 20
331.02401000000009
 30
0.0
 11
318.97598999999991
 21
328.18918200000002
 31
0.0
  0
LINE
  8
DETAIL
  6
CONTINUOUS
 62
     5
 10
323.51258000000013
 20
329.32224900000011
 30
0.0
 11
321.81081799999993
 21
331.02401000000009
 31
0.0
  0
LINE
  8
DETAIL
  6
CONTINUOUS
 62
     5
 10
320.67775099999989
 20
326.48741999999999
 30
0.0
 11
318.97598999999991
 21
328.18918200000002
 31
0.0
  0
LINE
  8
DETAIL
  6
CONTINUOUS
 62
     5
 10
344.44875499999989
 20
298.23440000000011
 30
0.0
 11
344.44875499999989
 21
307.55544800000013
 31
0.0
  0
LINE
  8
DETAIL
  6
CONTINUOUS
 62
     5
 10
343.54671800000011
 20
306.65341100000001
 30
0.0
 11
344.44875499999989
 21
307.55544800000013
 31
0.0
  0
LINE
  8
DETAIL
  6
CONTINUOUS
 62
     5
 10
345.0
 20
298.23440000000011
 30
0.0
 11
345.0
 21
307.55544800000013
 31
0.0
  0
LINE
  8
DETAIL
  6
CONTINUOUS
 62
     5
 10
342.0
 20
297.88360799999998
 30
0.0
 11
343.54671800000011
 21
297.88360799999998
 31
0.0
  0
LINE
  8
DETAIL
  6
CONTINUOUS
 62
     5
 10
343.54671800000011
 20
299.136437
 30
0.0
 11
344.44875499999989
 21
298.23440000000011
 31
0.0
  0
LINE
  8
DETAIL
  6
CONTINUOUS
 62
     5
 10
344.44875499999989
 20
298.23440000000011
 30
0.0
 11
345.0
 21
298.23440000000011
 31
0.0
  0
LINE
  8
DETAIL
  6
CONTINUOUS
 62
     5
 10
344.44875499999989
 20
307.55544800000013
 30
0.0
 11
345.0
 21
307.55544800000013
 31
0.0
  0
LINE
  8
DETAIL
  6
CONTINUOUS
 62
     5
 10
326.55915599999997
 20
320.74775699999998
 30
0.0
 11
329.25224299999991
 21
323.44084400000003
 31
0.0
  0
LINE
  8
DETAIL
  6
CONTINUOUS
 62
     5
 10
329.25224299999991
 20
323.44084400000003
 30
0.0
 11
326.55915599999997
 21
320.74775699999998
 31
0.0
  0
LINE
  8
DETAIL
  6
CONTINUOUS
 62
     5
 10
306.01196199999998
 20
343.84416400000009
 30
0.0
 11
306.9139990000001
 21
344.44875500000001
 31
0.0
  0
LINE
  8
DETAIL
  6
CONTINUOUS
 62
     5
 10
306.9139990000001
 20
344.44875500000001
 30
0.0
 11
306.9139990000001
 21
345.0
 31
0.0
  0
LINE
  8
DETAIL
  6
CONTINUOUS
 62
     5
 10
340.3394760000001
 20
342.14031699999998
 30
0.0
 11
340.3394760000001
 21
343.84416400000009
 31
0.0
  0
LINE
  8
DETAIL
  6
CONTINUOUS
 62
     5
 10
343.54671800000011
 20
340.63692200000003
 30
0.0
 11
341.84287100000012
 21
340.63692200000003
 31
0.0
  0
ARC
  8
DETAIL
  6
CONTINUOUS
 62
     5
 10
341.84287100000012
 20
342.14031699999998
 30
0.0
 40
1.503395
 50
180.0
 51
270.0
  0
LINE
  8
DETAIL
  6
CONTINUOUS
 62
     5
 10
342.34400299999987
 20
342.64144800000008
 30
0.0
 11
340.3394760000001
 21
342.64144800000008
 31
0.0
  0
LINE
  8
DETAIL
  6
CONTINUOUS
 62
     5
 10
342.34400299999987
 20
340.63692200000003
 30
0.0
 11
342.34400299999987
 21
342.64144800000008
 31
0.0
  0
LINE
  8
DETAIL
  6
CONTINUOUS
 62
     5
 39
50.0
 10
297.59295200000003
 20
344.44875500000001
 30
0.0
 11
306.9139990000001
 21
344.44875500000001
 31
0.0
  0
LINE
  8
DETAIL
  6
CONTINUOUS
 62
     5
 10
342.0
 20
-0.5512449999999944
 30
0.0
 11
342.0
 21
-317.64823799999999
 31
0.0
  0
LINE
  8
DETAIL
  6
CONTINUOUS
 62
     5
 10
322.0
 20
0.0
 30
0.0
 11
322.0
 21
-314.27148099999999
 31
0.0
  0
LINE
  8
DETAIL
  6
CONTINUOUS
 62
     5
 10
318.28968600000007
 20
-342.0
 30
0.0
 11
0.0
 21
-342.0
 31
0.0
  0
LINE
  8
DETAIL
  6
CONTINUOUS
 62
     5
 10
315.21166799999992
 20
-322.0
 30
0.0
 11
0.0
 21
-322.0
 31
0.0
  0
LINE
  8
DETAIL
  6
CONTINUOUS
 62
     5
 10
318.28968600000007
 20
-342.0
 30
0.0
 11
292.23084399999988
 21
-342.0
 31
0.0
  0
LINE
  8
DETAIL
  6
CONTINUOUS
 62
     5
 10
340.3394760000001
 20
-343.84416399999998
 30
0.0
 11
292.23084399999988
 21
-343.84416399999998
 31
0.0
  0
LINE
  8
DETAIL
  6
CONTINUOUS
 62
     5
 10
292.08147400000013
 20
-320.64791500000001
 30
0.0
 11
307.56526200000008
 21
-320.64791500000001
 31
0.0
  0
ARC
  8
DETAIL
  6
CONTINUOUS
 62
     5
 10
298.646299
 20
-318.49619200000001
 30
0.0
 40
1.857327
 50
51.642330999995792
 51
90.0
  0
LINE
  8
DETAIL
  6
CONTINUOUS
 62
     5
 10
298.19528100000002
 20
-316.63886200000002
 30
0.0
 11
306.01293099999998
 21
-316.63886200000002
 31
0.0
  0
LINE
  8
DETAIL
  6
CONTINUOUS
 62
     5
 10
306.71451699999989
 20
-320.64791500000001
 30
0.0
 11
297.49369500000012
 21
-320.64791500000001
 31
0.0
  0
LINE
  8
DETAIL
  6
CONTINUOUS
 62
     5
 10
306.9139990000001
 20
-345.0
 30
0.0
 11
297.59295200000003
 21
-345.0
 31
0.0
  0
LINE
  8
DETAIL
  6
CONTINUOUS
 62
     5
 10
292.08147400000013
 20
-320.64791500000001
 30
0.0
 11
292.08147400000013
 21
-321.85063000000002
 31
0.0
  0
LINE
  8
DETAIL
  6
CONTINUOUS
 62
     5
 10
297.09278999999992
 20
-321.85063000000002
 30
0.0
 11
297.09278999999992
 21
-320.64791500000001
 31
0.0
  0
LINE
  8
DETAIL
  6
CONTINUOUS
 62
     5
 10
297.49369999999999
 20
-317.03977400000002
 30
0.0
 11
298.19528500000001
 21
-316.638869
 31
0.0
  0
LINE
  8
DETAIL
  6
CONTINUOUS
 62
     5
 10
297.493696
 20
-320.64791600000001
 30
0.0
 11
297.493696
 21
-317.03976799999998
 31
0.0
  0
LINE
  8
DETAIL
  6
CONTINUOUS
 62
     5
 10
292.23084399999988
 20
-343.84416399999998
 30
0.0
 11
292.23084399999988
 21
-342.64144800000003
 31
0.0
  0
LINE
  8
DETAIL
  6
CONTINUOUS
 62
     5
 10
297.24216000000001
 20
-343.84416399999998
 30
0.0
 11
297.24216000000001
 21
-342.0
 31
0.0
  0
LINE
  8
DETAIL
  6
CONTINUOUS
 62
     5
 10
298.49498899999998
 20
-343.84416399999998
 30
0.0
 11
297.59295200000003
 21
-344.44875500000001
 31
0.0
  0
LINE
  8
DETAIL
  6
CONTINUOUS
 62
     5
 10
297.59295200000003
 20
-344.44875500000001
 30
0.0
 11
297.59295200000003
 21
-345.0
 31
0.0
  0
LINE
  8
DETAIL
  6
CONTINUOUS
 62
     5
 10
343.54671800000011
 20
-292.87229200000002
 30
0.0
 11
343.54671800000011
 21
-340.63692200000003
 31
0.0
  0
LINE
  8
DETAIL
  6
CONTINUOUS
 62
     5
 10
320.79728399999999
 20
-291.58939500000002
 30
0.0
 11
320.79728399999999
 21
-307.41589199999999
 31
0.0
  0
LINE
  8
DETAIL
  6
CONTINUOUS
 62
     5
 10
322.0
 20
-291.58939500000002
 30
0.0
 11
322.0
 21
-307.07318299999997
 31
0.0
  0
LINE
  8
DETAIL
  6
CONTINUOUS
 62
     5
 10
322.0
 20
-291.58939500000002
 30
0.0
 11
320.79728399999999
 21
-291.58939500000002
 31
0.0
  0
LINE
  8
DETAIL
  6
CONTINUOUS
 62
     5
 10
343.54671800000011
 20
-292.87229200000002
 30
0.0
 11
342.0
 21
-292.87229200000002
 31
0.0
  0
LINE
  8
NOTE
  6
DASHDOT
 62
     4
 10
325.0
 20
-315.97963099999998
 30
0.0
 11
325.0
 21
-334.02036900000002
 31
0.0
  0
LINE
  8
DETAIL
  6
CONTINUOUS
 62
     5
 10
318.28968600000007
 20
-327.153773
 30
0.0
 11
318.28968600000007
 21
-342.0
 31
0.0
  0
LINE
  8
DETAIL
  6
CONTINUOUS
 62
     5
 10
312.27610699999991
 20
-322.0
 30
0.0
 11
312.27610699999991
 21
-342.0
 31
0.0
  0
LINE
  8
NOTE
  6
DASHDOT
 62
     4
 10
334.02036900000007
 20
-325.0
 30
0.0
 11
315.97963099999993
 21
-325.0
 31
0.0
  0
ARC
  8
DETAIL
  6
CONTINUOUS
 62
     5
 10
326.34654300000011
 20
-326.346543
 30
0.0
 40
4.1092789999999999
 50
226.39759700000491
 51
45.000000000004597
  0
ARC
  8
DETAIL
  6
CONTINUOUS
 62
     5
 10
323.65345699999989
 20
-323.653457
 30
0.0
 40
4.1092789999999999
 50
45.000000000004597
 51
223.60240300000439
  0
LINE
  8
DETAIL
  6
CONTINUOUS
 62
     5
 10
343.54671800000011
 20
-317.64823799999999
 30
0.0
 11
327.45251200000013
 21
-317.64823799999999
 31
0.0
  0
CIRCLE
  8
DETAIL
  6
CONTINUOUS
 62
     5
 10
325.0
 20
-325.0
 30
0.0
 40
4.0090529999999998
  0
CIRCLE
  8
NOTE
  6
CONTINUOUS
 62
     4
 10
325.0
 20
-325.0
 30
0.0
 40
3.0067900000000001
  0
LINE
  8
DETAIL
  6
CONTINUOUS
 62
     5
 10
342.0
 20
-311.634659
 30
0.0
 11
322.29873900000013
 21
-311.634659
 31
0.0
  0
LINE
  8
DETAIL
  6
CONTINUOUS
 62
     5
 10
320.44501700000001
 20
-308.26634100000001
 30
0.0
 11
308.26634100000001
 21
-320.44501700000001
 31
0.0
  0
ARC
  8
DETAIL
  6
CONTINUOUS
 62
     5
 10
327.45251200000013
 20
-312.63692200000003
 30
0.0
 40
5.0113160000000008
 50
225.0000000000046
 51
270.0
  0
LINE
  8
DETAIL
  6
CONTINUOUS
 62
     5
 10
299.59844800000002
 20
-316.63886200000002
 30
0.0
 11
299.59844800000002
 21
-314.0
 31
0.0
  0
LINE
  8
DETAIL
  6
CONTINUOUS
 62
     5
 10
304.60976399999998
 20
-314.0
 30
0.0
 11
304.60976399999998
 21
-316.63886200000002
 31
0.0
  0
ARC
  8
DETAIL
  6
CONTINUOUS
 62
     5
 10
305.561913
 20
-318.496194
 30
0.0
 40
1.857329
 50
90.0
 51
128.35773500000479
  0
LINE
  8
DETAIL
  6
CONTINUOUS
 62
     5
 10
314.0
 20
-299.10636899999997
 30
0.0
 11
316.788231
 21
-299.10636899999997
 31
0.0
  0
LINE
  8
DETAIL
  6
CONTINUOUS
 62
     5
 10
316.788231
 20
-304.11768499999999
 30
0.0
 11
314.0
 21
-304.11768499999999
 31
0.0
  0
LINE
  8
DETAIL
  6
CONTINUOUS
 62
     5
 10
314.0
 20
-304.11768499999999
 30
0.0
 11
314.0
 21
-299.10636899999997
 31
0.0
  0
LINE
  8
DETAIL
  6
CONTINUOUS
 62
     5
 10
299.59844800000002
 20
-314.0
 30
0.0
 11
304.60976399999998
 21
-314.0
 31
0.0
  0
LINE
  8
DETAIL
  6
CONTINUOUS
 62
     5
 10
317.18914300000012
 20
-306.22243300000002
 30
0.0
 11
316.78823899999998
 21
-305.520848
 31
0.0
  0
LINE
  8
DETAIL
  6
CONTINUOUS
 62
     5
 10
320.79728399999999
 20
-297.00161600000001
 30
0.0
 11
320.79728399999999
 21
-306.22243800000001
 31
0.0
  0
LINE
  8
DETAIL
  6
CONTINUOUS
 62
     5
 10
320.79728399999999
 20
-296.60071099999999
 30
0.0
 11
322.0
 21
-296.60071099999999
 31
0.0
  0
ARC
  8
DETAIL
  6
CONTINUOUS
 62
     5
 10
318.64556199999993
 20
-305.06983400000001
 30
0.0
 40
1.857327
 50
141.64233099999581
 51
180.00001799999919
  0
ARC
  8
DETAIL
  6
CONTINUOUS
 62
     5
 10
323.61614900000001
 20
-301.61202700000001
 30
0.0
 40
6.8279160000000001
 50
160.26842100000019
 51
199.73166999999651
  0
ARC
  8
DETAIL
  6
CONTINUOUS
 62
     5
 10
318.64556299999998
 20
-298.15422000000001
 30
0.0
 40
1.857329
 50
180.00001799999919
 51
218.35773499999971
  0
LINE
  8
DETAIL
  6
CONTINUOUS
 62
     5
 10
317.18913700000007
 20
-303.91723300000001
 30
0.0
 11
320.79728399999999
 21
-303.91723300000001
 31
0.0
  0
LINE
  8
DETAIL
  6
CONTINUOUS
 62
     5
 10
317.18913700000007
 20
-299.30682200000001
 30
0.0
 11
320.79728399999999
 21
-299.30682200000001
 31
0.0
  0
LINE
  8
DETAIL
  6
CONTINUOUS
 62
     5
 10
317.18913700000007
 20
-297.00161700000001
 30
0.0
 11
320.79728299999988
 21
-297.00161700000001
 31
0.0
  0
LINE
  8
DETAIL
  6
CONTINUOUS
 62
     5
 10
316.78823899999998
 20
-297.70320600000002
 30
0.0
 11
317.18914300000012
 21
-297.001621
 31
0.0
  0
LINE
  8
DETAIL
  6
CONTINUOUS
 62
     5
 10
316.788231
 20
-305.52085199999999
 30
0.0
 11
316.788231
 21
-297.70320199999998
 31
0.0
  0
LINE
  8
DETAIL
  6
CONTINUOUS
 62
     5
 10
323.90897699999999
 20
-316.18045799999999
 30
0.0
 11
318.36930799999999
 21
-310.64078899999998
 31
0.0
  0
ARC
  8
DETAIL
  6
CONTINUOUS
 62
     5
 10
319.59456799999998
 20
-307.07318299999997
 30
0.0
 40
2.4054319999999998
 50
314.9999999999954
 51
0.0
  0
LINE
  8
DETAIL
  6
CONTINUOUS
 62
     5
 10
321.29546499999992
 20
-308.77408000000003
 30
0.0
 11
318.89903199999998
 21
-311.17051300000003
 31
0.0
  0
ARC
  8
DETAIL
  6
CONTINUOUS
 62
     5
 10
319.59456799999998
 20
-307.41589199999999
 30
0.0
 40
1.2027159999999999
 50
314.9999999999954
 51
0.0
  0
LINE
  8
DETAIL
  6
CONTINUOUS
 62
     5
 10
320.7972850000001
 20
-306.22243700000001
 30
0.0
 11
317.18913700000007
 21
-306.22243700000001
 31
0.0
  0
LINE
  8
DETAIL
  6
CONTINUOUS
 62
     5
 10
316.82190600000013
 20
-323.61023799999998
 30
0.0
 11
311.11088199999989
 21
-317.89921399999997
 31
0.0
  0
ARC
  8
DETAIL
  6
CONTINUOUS
 62
     5
 10
302.104106
 20
-323.46678000000003
 30
0.0
 40
6.8279160000000001
 50
70.268421000006398
 51
109.7316699999903
  0
LINE
  8
DETAIL
  6
CONTINUOUS
 62
     5
 10
299.79890100000011
 20
-317.03976799999998
 30
0.0
 11
299.79890100000011
 21
-320.64791500000001
 31
0.0
  0
LINE
  8
DETAIL
  6
CONTINUOUS
 62
     5
 10
304.409312
 20
-317.03976799999998
 30
0.0
 11
304.409312
 21
-320.64791500000001
 31
0.0
  0
LINE
  8
DETAIL
  6
CONTINUOUS
 62
     5
 10
306.714516
 20
-317.03976799999998
 30
0.0
 11
306.714516
 21
-320.64791400000001
 31
0.0
  0
LINE
  8
DETAIL
  6
CONTINUOUS
 62
     5
 10
306.01292699999999
 20
-316.638869
 30
0.0
 11
306.71451200000001
 21
-317.03977400000002
 31
0.0
  0
LINE
  8
DETAIL
  6
CONTINUOUS
 62
     5
 10
311.96133099999997
 20
-318.749663
 30
0.0
 11
309.41552799999999
 21
-321.29546499999998
 31
0.0
  0
ARC
  8
DETAIL
  6
CONTINUOUS
 62
     5
 10
307.71463100000011
 20
-319.59456799999998
 30
0.0
 40
2.4054319999999998
 50
270.0
 51
314.9999999999954
  0
ARC
  8
DETAIL
  6
CONTINUOUS
 62
     5
 10
307.56526200000008
 20
-319.445199
 30
0.0
 40
1.2027159999999999
 50
270.0
 51
314.9999999999954
  0
ARC
  8
DETAIL
  6
CONTINUOUS
 62
     5
 10
313.27837099999988
 20
-327.153773
 30
0.0
 40
5.0113160000000008
 50
0.0
 51
45.000000000004597
  0
LINE
  8
DETAIL
  6
CONTINUOUS
 62
     5
 10
321.81081799999993
 20
-331.02400999999998
 30
0.0
 11
318.97598999999991
 21
-328.18918200000002
 31
0.0
  0
LINE
  8
DETAIL
  6
CONTINUOUS
 62
     5
 10
323.51258000000013
 20
-329.322249
 30
0.0
 11
321.81081799999993
 21
-331.02400999999998
 31
0.0
  0
LINE
  8
DETAIL
  6
CONTINUOUS
 62
     5
 10
320.67775099999989
 20
-326.48741999999999
 30
0.0
 11
318.97598999999991
 21
-328.18918200000002
 31
0.0
  0
LINE
  8
DETAIL
  6
CONTINUOUS
 62
     5
 10
344.44875499999989
 20
-298.23439999999999
 30
0.0
 11
344.44875499999989
 21
-307.55544800000001
 31
0.0
  0
LINE
  8
DETAIL
  6
CONTINUOUS
 62
     5
 10
343.54671800000011
 20
-306.65341100000001
 30
0.0
 11
344.44875499999989
 21
-307.55544800000001
 31
0.0
  0
LINE
  8
DETAIL
  6
CONTINUOUS
 62
     5
 10
345.0
 20
-298.23439999999999
 30
0.0
 11
345.0
 21
-307.55544800000001
 31
0.0
  0
LINE
  8
DETAIL
  6
CONTINUOUS
 62
     5
 10
342.0
 20
-297.88360799999998
 30
0.0
 11
343.54671800000011
 21
-297.88360799999998
 31
0.0
  0
LINE
  8
DETAIL
  6
CONTINUOUS
 62
     5
 10
343.54671800000011
 20
-299.136437
 30
0.0
 11
344.44875499999989
 21
-298.23439999999999
 31
0.0
  0
LINE
  8
DETAIL
  6
CONTINUOUS
 62
     5
 10
344.44875499999989
 20
-298.23439999999999
 30
0.0
 11
345.0
 21
-298.23439999999999
 31
0.0
  0
LINE
  8
DETAIL
  6
CONTINUOUS
 62
     5
 10
344.44875499999989
 20
-307.55544800000001
 30
0.0
 11
345.0
 21
-307.55544800000001
 31
0.0
  0
LINE
  8
DETAIL
  6
CONTINUOUS
 62
     5
 10
326.55915599999997
 20
-320.74775699999998
 30
0.0
 11
329.25224299999991
 21
-323.44084400000003
 31
0.0
  0
LINE
  8
DETAIL
  6
CONTINUOUS
 62
     5
 10
329.25224299999991
 20
-323.44084400000003
 30
0.0
 11
326.55915599999997
 21
-320.74775699999998
 31
0.0
  0
LINE
  8
DETAIL
  6
CONTINUOUS
 62
     5
 10
306.01196199999998
 20
-343.84416399999998
 30
0.0
 11
306.9139990000001
 21
-344.44875500000001
 31
0.0
  0
LINE
  8
DETAIL
  6
CONTINUOUS
 62
     5
 10
306.9139990000001
 20
-344.44875500000001
 30
0.0
 11
306.9139990000001
 21
-345.0
 31
0.0
  0
LINE
  8
DETAIL
  6
CONTINUOUS
 62
     5
 10
340.3394760000001
 20
-342.14031699999998
 30
0.0
 11
340.3394760000001
 21
-343.84416399999998
 31
0.0
  0
LINE
  8
DETAIL
  6
CONTINUOUS
 62
     5
 10
343.54671800000011
 20
-340.63692200000003
 30
0.0
 11
341.84287100000012
 21
-340.63692200000003
 31
0.0
  0
ARC
  8
DETAIL
  6
CONTINUOUS
 62
     5
 10
341.84287100000012
 20
-342.14031699999998
 30
0.0
 40
1.503395
 50
90.0
 51
180.0
  0
LINE
  8
DETAIL
  6
CONTINUOUS
 62
     5
 10
342.34400299999987
 20
-342.64144800000003
 30
0.0
 11
340.3394760000001
 21
-342.64144800000003
 31
0.0
  0
LINE
  8
DETAIL
  6
CONTINUOUS
 62
     5
 10
342.34400299999987
 20
-340.63692200000003
 30
0.0
 11
342.34400299999987
 21
-342.64144800000003
 31
0.0
  0
LINE
  8
DETAIL
  6
CONTINUOUS
 62
     5
 39
50.0
 10
297.59295200000003
 20
-344.44875500000001
 30
0.0
 11
306.9139990000001
 21
-344.44875500000001
 31
0.0
  0
LINE
  8
DETAIL
  6
CONTINUOUS
 62
     5
 10
-342.0
 20
0.0
 30
0.0
 11
-342.0
 21
317.64823799999999
 31
0.0
  0
LINE
  8
DETAIL
  6
CONTINUOUS
 62
     5
 10
-322.0
 20
0.0
 30
0.0
 11
-322.0
 21
314.27148099999999
 31
0.0
  0
LINE
  8
DETAIL
  6
CONTINUOUS
 62
     5
 10
-314.21135800000002
 20
314.5
 30
0.0
 11
-304.60976399999998
 21
314.5
 31
0.0
  0
LINE
  8
DETAIL
  6
CONTINUOUS
 62
     5
 10
-299.59844800000002
 20
314.5
 30
0.0
 11
0.0
 21
314.5
 31
0.0
  0
LINE
  8
DETAIL
  6
CONTINUOUS
 62
     5
 10
-318.28968600000007
 20
342.0
 30
0.0
 11
0.0
 21
342.0
 31
0.0
  0
LINE
  8
DETAIL
  6
CONTINUOUS
 62
     5
 10
-315.21166799999992
 20
322.0
 30
0.0
 11
0.0
 21
322.0
 31
0.0
  0
LINE
  8
DETAIL
  6
CONTINUOUS
 62
     5
 10
-318.28968600000007
 20
342.0
 30
0.0
 11
-292.23084399999988
 21
342.0
 31
0.0
  0
LINE
  8
DETAIL
  6
CONTINUOUS
 62
     5
 10
-340.3394760000001
 20
343.84416400000009
 30
0.0
 11
-292.23084399999988
 21
343.84416400000009
 31
0.0
  0
LINE
  8
DETAIL
  6
CONTINUOUS
 62
     5
 10
-292.08147400000013
 20
320.64791500000001
 30
0.0
 11
-307.56526200000008
 21
320.64791500000001
 31
0.0
  0
ARC
  8
DETAIL
  6
CONTINUOUS
 62
     5
 10
-298.646299
 20
318.49619200000012
 30
0.0
 40
1.857327
 50
231.64233099999569
 51
270.0
  0
LINE
  8
DETAIL
  6
CONTINUOUS
 62
     5
 10
-298.19528100000002
 20
316.63886200000002
 30
0.0
 11
-306.01293099999998
 21
316.63886200000002
 31
0.0
  0
LINE
  8
DETAIL
  6
CONTINUOUS
 62
     5
 10
-306.71451699999989
 20
320.64791500000001
 30
0.0
 11
-297.49369500000012
 21
320.64791500000001
 31
0.0
  0
LINE
  8
DETAIL
  6
CONTINUOUS
 62
     5
 10
-306.9139990000001
 20
345.0
 30
0.0
 11
-297.59295200000003
 21
345.0
 31
0.0
  0
LINE
  8
DETAIL
  6
CONTINUOUS
 62
     5
 10
-292.08147400000013
 20
320.64791500000001
 30
0.0
 11
-292.08147400000013
 21
321.85062999999991
 31
0.0
  0
LINE
  8
DETAIL
  6
CONTINUOUS
 62
     5
 10
-297.09278999999992
 20
321.85062999999991
 30
0.0
 11
-297.09278999999992
 21
320.64791500000001
 31
0.0
  0
LINE
  8
DETAIL
  6
CONTINUOUS
 62
     5
 10
-297.49369999999999
 20
317.03977400000008
 30
0.0
 11
-298.19528500000001
 21
316.638869
 31
0.0
  0
LINE
  8
DETAIL
  6
CONTINUOUS
 62
     5
 10
-297.493696
 20
320.64791600000001
 30
0.0
 11
-297.493696
 21
317.03976800000009
 31
0.0
  0
LINE
  8
DETAIL
  6
CONTINUOUS
 62
     5
 10
-292.23084399999988
 20
343.84416400000009
 30
0.0
 11
-292.23084399999988
 21
342.64144800000008
 31
0.0
  0
LINE
  8
DETAIL
  6
CONTINUOUS
 62
     5
 10
-297.24216000000001
 20
343.84416400000009
 30
0.0
 11
-297.24216000000001
 21
342.0
 31
0.0
  0
LINE
  8
DETAIL
  6
CONTINUOUS
 62
     5
 10
-298.49498899999998
 20
343.84416400000009
 30
0.0
 11
-297.59295200000003
 21
344.44875500000001
 31
0.0
  0
LINE
  8
DETAIL
  6
CONTINUOUS
 62
     5
 10
-297.59295200000003
 20
344.44875500000001
 30
0.0
 11
-297.59295200000003
 21
345.0
 31
0.0
  0
LINE
  8
DETAIL
  6
CONTINUOUS
 62
     5
 10
-343.54671800000011
 20
292.87229200000002
 30
0.0
 11
-343.54671800000011
 21
340.63692200000003
 31
0.0
  0
LINE
  8
DETAIL
  6
CONTINUOUS
 62
     5
 10
-320.79728399999999
 20
291.58939500000002
 30
0.0
 11
-320.79728399999999
 21
307.41589199999999
 31
0.0
  0
LINE
  8
DETAIL
  6
CONTINUOUS
 62
     5
 10
-322.0
 20
291.58939500000002
 30
0.0
 11
-322.0
 21
307.07318299999997
 31
0.0
  0
LINE
  8
DETAIL
  6
CONTINUOUS
 62
     5
 10
-322.0
 20
291.58939500000002
 30
0.0
 11
-320.79728399999999
 21
291.58939500000002
 31
0.0
  0
LINE
  8
DETAIL
  6
CONTINUOUS
 62
     5
 10
-343.54671800000011
 20
292.87229200000002
 30
0.0
 11
-342.0
 21
292.87229200000002
 31
0.0
  0
LINE
  8
NOTE
  6
DASHDOT
 62
     4
 10
-325.0
 20
315.97963099999993
 30
0.0
 11
-325.0
 21
334.02036900000007
 31
0.0
  0
LINE
  8
DETAIL
  6
CONTINUOUS
 62
     5
 10
-318.28968600000007
 20
327.153773
 30
0.0
 11
-318.28968600000007
 21
342.0
 31
0.0
  0
LINE
  8
DETAIL
  6
CONTINUOUS
 62
     5
 10
-312.27610699999991
 20
322.0
 30
0.0
 11
-312.27610699999991
 21
342.0
 31
0.0
  0
LINE
  8
NOTE
  6
DASHDOT
 62
     4
 10
-334.02036900000007
 20
325.0
 30
0.0
 11
-315.97963099999993
 21
325.0
 31
0.0
  0
ARC
  8
DETAIL
  6
CONTINUOUS
 62
     5
 10
-326.34654300000011
 20
326.346543
 30
0.0
 40
4.1092789999999999
 50
46.397597000004829
 51
225.0000000000046
  0
ARC
  8
DETAIL
  6
CONTINUOUS
 62
     5
 10
-323.65345699999989
 20
323.653457
 30
0.0
 40
4.1092789999999999
 50
225.0000000000046
 51
43.602403000004387
  0
LINE
  8
DETAIL
  6
CONTINUOUS
 62
     5
 10
-343.54671800000011
 20
317.64823799999999
 30
0.0
 11
-327.45251200000013
 21
317.64823799999999
 31
0.0
  0
CIRCLE
  8
DETAIL
  6
CONTINUOUS
 62
     5
 10
-325.0
 20
325.0
 30
0.0
 40
4.0090529999999998
  0
CIRCLE
  8
NOTE
  6
CONTINUOUS
 62
     4
 10
-325.0
 20
325.0
 30
0.0
 40
3.0067900000000001
  0
LINE
  8
DETAIL
  6
CONTINUOUS
 62
     5
 10
-342.0
 20
311.63465900000011
 30
0.0
 11
-322.29873900000013
 21
311.63465900000011
 31
0.0
  0
LINE
  8
DETAIL
  6
CONTINUOUS
 62
     5
 10
-320.44501700000001
 20
308.26634100000001
 30
0.0
 11
-308.26634100000001
 21
320.44501700000001
 31
0.0
  0
ARC
  8
DETAIL
  6
CONTINUOUS
 62
     5
 10
-327.45251200000013
 20
312.63692200000003
 30
0.0
 40
5.0113160000000008
 50
45.000000000004597
 51
90.0
  0
LINE
  8
DETAIL
  6
CONTINUOUS
 62
     5
 10
-299.59844800000002
 20
316.63886200000002
 30
0.0
 11
-299.59844800000002
 21
314.0
 31
0.0
  0
LINE
  8
DETAIL
  6
CONTINUOUS
 62
     5
 10
-304.60976399999998
 20
314.0
 30
0.0
 11
-304.60976399999998
 21
316.63886200000002
 31
0.0
  0
ARC
  8
DETAIL
  6
CONTINUOUS
 62
     5
 10
-305.561913
 20
318.49619400000012
 30
0.0
 40
1.857329
 50
270.0
 51
308.35773500000482
  0
LINE
  8
DETAIL
  6
CONTINUOUS
 62
     5
 10
-314.0
 20
299.10636899999997
 30
0.0
 11
-316.788231
 21
299.10636899999997
 31
0.0
  0
LINE
  8
DETAIL
  6
CONTINUOUS
 62
     5
 10
-316.788231
 20
304.11768499999988
 30
0.0
 11
-314.0
 21
304.11768499999988
 31
0.0
  0
LINE
  8
DETAIL
  6
CONTINUOUS
 62
     5
 10
-314.0
 20
304.11768499999988
 30
0.0
 11
-314.0
 21
299.10636899999997
 31
0.0
  0
LINE
  8
DETAIL
  6
CONTINUOUS
 62
     5
 10
-299.59844800000002
 20
314.0
 30
0.0
 11
-304.60976399999998
 21
314.0
 31
0.0
  0
LINE
  8
DETAIL
  6
CONTINUOUS
 62
     5
 10
-317.18914300000012
 20
306.22243300000002
 30
0.0
 11
-316.78823899999998
 21
305.520848
 31
0.0
  0
LINE
  8
DETAIL
  6
CONTINUOUS
 62
     5
 10
-320.79728399999999
 20
297.00161600000001
 30
0.0
 11
-320.79728399999999
 21
306.22243800000001
 31
0.0
  0
LINE
  8
DETAIL
  6
CONTINUOUS
 62
     5
 10
-320.79728399999999
 20
296.60071099999999
 30
0.0
 11
-322.0
 21
296.60071099999999
 31
0.0
  0
ARC
  8
DETAIL
  6
CONTINUOUS
 62
     5
 10
-318.64556199999993
 20
305.0698339999999
 30
0.0
 40
1.857327
 50
321.64233099999569
 51
0.0000179999992061
  0
ARC
  8
DETAIL
  6
CONTINUOUS
 62
     5
 10
-323.61614900000001
 20
301.61202700000001
 30
0.0
 40
6.8279160000000001
 50
340.26842100000027
 51
19.731669999996491
  0
ARC
  8
DETAIL
  6
CONTINUOUS
 62
     5
 10
-318.64556299999998
 20
298.15422000000001
 30
0.0
 40
1.857329
 50
0.0000179999992061
 51
38.357734999999693
  0
LINE
  8
DETAIL
  6
CONTINUOUS
 62
     5
 10
-317.18913700000007
 20
303.91723300000001
 30
0.0
 11
-320.79728399999999
 21
303.91723300000001
 31
0.0
  0
LINE
  8
DETAIL
  6
CONTINUOUS
 62
     5
 10
-317.18913700000007
 20
299.30682200000001
 30
0.0
 11
-320.79728399999999
 21
299.30682200000001
 31
0.0
  0
LINE
  8
DETAIL
  6
CONTINUOUS
 62
     5
 10
-317.18913700000007
 20
297.00161700000001
 30
0.0
 11
-320.79728299999988
 21
297.00161700000001
 31
0.0
  0
LINE
  8
DETAIL
  6
CONTINUOUS
 62
     5
 10
-316.78823899999998
 20
297.70320600000002
 30
0.0
 11
-317.18914300000012
 21
297.001621
 31
0.0
  0
LINE
  8
DETAIL
  6
CONTINUOUS
 62
     5
 10
-316.788231
 20
305.52085199999999
 30
0.0
 11
-316.788231
 21
297.70320199999992
 31
0.0
  0
LINE
  8
DETAIL
  6
CONTINUOUS
 62
     5
 10
-323.90897699999999
 20
316.18045799999999
 30
0.0
 11
-318.36930799999999
 21
310.64078899999998
 31
0.0
  0
ARC
  8
DETAIL
  6
CONTINUOUS
 62
     5
 10
-319.59456799999998
 20
307.07318299999997
 30
0.0
 40
2.4054319999999998
 50
134.9999999999954
 51
180.0
  0
LINE
  8
DETAIL
  6
CONTINUOUS
 62
     5
 10
-321.29546499999992
 20
308.77407999999991
 30
0.0
 11
-318.89903199999998
 21
311.17051300000003
 31
0.0
  0
ARC
  8
DETAIL
  6
CONTINUOUS
 62
     5
 10
-319.59456799999998
 20
307.41589199999999
 30
0.0
 40
1.2027159999999999
 50
134.9999999999954
 51
180.0
  0
LINE
  8
DETAIL
  6
CONTINUOUS
 62
     5
 10
-320.7972850000001
 20
306.22243700000001
 30
0.0
 11
-317.18913700000007
 21
306.22243700000001
 31
0.0
  0
LINE
  8
DETAIL
  6
CONTINUOUS
 62
     5
 10
-316.82190600000013
 20
323.61023799999998
 30
0.0
 11
-311.11088199999989
 21
317.89921399999997
 31
0.0
  0
ARC
  8
DETAIL
  6
CONTINUOUS
 62
     5
 10
-302.104106
 20
323.46678000000003
 30
0.0
 40
6.8279160000000001
 50
250.26842100000641
 51
289.73166999999029
  0
LINE
  8
DETAIL
  6
CONTINUOUS
 62
     5
 10
-299.79890100000011
 20
317.03976800000009
 30
0.0
 11
-299.79890100000011
 21
320.64791500000001
 31
0.0
  0
LINE
  8
DETAIL
  6
CONTINUOUS
 62
     5
 10
-304.409312
 20
317.03976800000009
 30
0.0
 11
-304.409312
 21
320.64791500000001
 31
0.0
  0
LINE
  8
DETAIL
  6
CONTINUOUS
 62
     5
 10
-306.714516
 20
317.03976800000009
 30
0.0
 11
-306.714516
 21
320.64791400000001
 31
0.0
  0
LINE
  8
DETAIL
  6
CONTINUOUS
 62
     5
 10
-306.01292699999999
 20
316.638869
 30
0.0
 11
-306.71451200000001
 21
317.03977400000008
 31
0.0
  0
LINE
  8
DETAIL
  6
CONTINUOUS
 62
     5
 10
-311.96133099999997
 20
318.74966300000011
 30
0.0
 11
-309.41552799999999
 21
321.29546499999992
 31
0.0
  0
ARC
  8
DETAIL
  6
CONTINUOUS
 62
     5
 10
-307.71463100000011
 20
319.59456799999998
 30
0.0
 40
2.4054319999999998
 50
90.0
 51
134.9999999999954
  0
ARC
  8
DETAIL
  6
CONTINUOUS
 62
     5
 10
-307.56526200000008
 20
319.445199
 30
0.0
 40
1.2027159999999999
 50
90.0
 51
134.9999999999954
  0
ARC
  8
DETAIL
  6
CONTINUOUS
 62
     5
 10
-313.27837099999988
 20
327.153773
 30
0.0
 40
5.0113160000000008
 50
180.0
 51
225.0000000000046
  0
LINE
  8
DETAIL
  6
CONTINUOUS
 62
     5
 10
-321.81081799999993
 20
331.02401000000009
 30
0.0
 11
-318.97598999999991
 21
328.18918200000002
 31
0.0
  0
LINE
  8
DETAIL
  6
CONTINUOUS
 62
     5
 10
-323.51258000000013
 20
329.32224900000011
 30
0.0
 11
-321.81081799999993
 21
331.02401000000009
 31
0.0
  0
LINE
  8
DETAIL
  6
CONTINUOUS
 62
     5
 10
-320.67775099999989
 20
326.48741999999999
 30
0.0
 11
-318.97598999999991
 21
328.18918200000002
 31
0.0
  0
LINE
  8
DETAIL
  6
CONTINUOUS
 62
     5
 10
-344.44875499999989
 20
298.23440000000011
 30
0.0
 11
-344.44875499999989
 21
307.55544800000013
 31
0.0
  0
LINE
  8
DETAIL
  6
CONTINUOUS
 62
     5
 10
-343.54671800000011
 20
306.65341100000001
 30
0.0
 11
-344.44875499999989
 21
307.55544800000013
 31
0.0
  0
LINE
  8
DETAIL
  6
CONTINUOUS
 62
     5
 10
-345.0
 20
298.23440000000011
 30
0.0
 11
-345.0
 21
307.55544800000013
 31
0.0
  0
LINE
  8
DETAIL
  6
CONTINUOUS
 62
     5
 10
-342.0
 20
297.88360799999998
 30
0.0
 11
-343.54671800000011
 21
297.88360799999998
 31
0.0
  0
LINE
  8
DETAIL
  6
CONTINUOUS
 62
     5
 10
-343.54671800000011
 20
299.136437
 30
0.0
 11
-344.44875499999989
 21
298.23440000000011
 31
0.0
  0
LINE
  8
DETAIL
  6
CONTINUOUS
 62
     5
 10
-344.44875499999989
 20
298.23440000000011
 30
0.0
 11
-345.0
 21
298.23440000000011
 31
0.0
  0
LINE
  8
DETAIL
  6
CONTINUOUS
 62
     5
 10
-344.44875499999989
 20
307.55544800000013
 30
0.0
 11
-345.0
 21
307.55544800000013
 31
0.0
  0
LINE
  8
DETAIL
  6
CONTINUOUS
 62
     5
 10
-326.55915599999997
 20
320.74775699999998
 30
0.0
 11
-329.25224299999991
 21
323.44084400000003
 31
0.0
  0
LINE
  8
DETAIL
  6
CONTINUOUS
 62
     5
 10
-329.25224299999991
 20
323.44084400000003
 30
0.0
 11
-326.55915599999997
 21
320.74775699999998
 31
0.0
  0
LINE
  8
DETAIL
  6
CONTINUOUS
 62
     5
 10
-306.01196199999998
 20
343.84416400000009
 30
0.0
 11
-306.9139990000001
 21
344.44875500000001
 31
0.0
  0
LINE
  8
DETAIL
  6
CONTINUOUS
 62
     5
 10
-306.9139990000001
 20
344.44875500000001
 30
0.0
 11
-306.9139990000001
 21
345.0
 31
0.0
  0
LINE
  8
DETAIL
  6
CONTINUOUS
 62
     5
 10
-340.3394760000001
 20
342.14031699999998
 30
0.0
 11
-340.3394760000001
 21
343.84416400000009
 31
0.0
  0
LINE
  8
DETAIL
  6
CONTINUOUS
 62
     5
 10
-343.54671800000011
 20
340.63692200000003
 30
0.0
 11
-341.84287100000012
 21
340.63692200000003
 31
0.0
  0
ARC
  8
DETAIL
  6
CONTINUOUS
 62
     5
 10
-341.84287100000012
 20
342.14031699999998
 30
0.0
 40
1.503395
 50
270.0
 51
0.0
  0
LINE
  8
DETAIL
  6
CONTINUOUS
 62
     5
 10
-342.34400299999987
 20
342.64144800000008
 30
0.0
 11
-340.3394760000001
 21
342.64144800000008
 31
0.0
  0
LINE
  8
DETAIL
  6
CONTINUOUS
 62
     5
 10
-342.34400299999987
 20
340.63692200000003
 30
0.0
 11
-342.34400299999987
 21
342.64144800000008
 31
0.0
  0
LINE
  8
DETAIL
  6
CONTINUOUS
 62
     5
 39
50.0
 10
-314.5
 20
314.21135800000002
 30
0.0
 11
-314.5
 21
304.11768499999988
 31
0.0
  0
LINE
  8
DETAIL
  6
CONTINUOUS
 62
     5
 39
50.0
 10
-314.5
 20
299.10636899999997
 30
0.0
 11
-314.5
 21
0.0
 31
0.0
  0
LINE
  8
DETAIL
  6
CONTINUOUS
 62
     5
 39
50.0
 10
-297.59295200000003
 20
344.44875500000001
 30
0.0
 11
-306.9139990000001
 21
344.44875500000001
 31
0.0
  0
LINE
  8
DETAIL
  6
CONTINUOUS
 62
     5
 10
-342.0
 20
0.0
 30
0.0
 11
-342.0
 21
-317.64823799999999
 31
0.0
  0
LINE
  8
DETAIL
  6
CONTINUOUS
 62
     5
 10
-322.0
 20
0.0
 30
0.0
 11
-322.0
 21
-314.27148099999999
 31
0.0
  0
LINE
  8
DETAIL
  6
CONTINUOUS
 62
     5
 10
-318.28968600000007
 20
-342.0
 30
0.0
 11
0.0
 21
-342.0
 31
0.0
  0
LINE
  8
DETAIL
  6
CONTINUOUS
 62
     5
 10
-315.21166799999992
 20
-322.0
 30
0.0
 11
0.0
 21
-322.0
 31
0.0
  0
LINE
  8
DETAIL
  6
CONTINUOUS
 62
     5
 10
-318.28968600000007
 20
-342.0
 30
0.0
 11
-292.23084399999988
 21
-342.0
 31
0.0
  0
LINE
  8
DETAIL
  6
CONTINUOUS
 62
     5
 10
-340.3394760000001
 20
-343.84416399999998
 30
0.0
 11
-292.23084399999988
 21
-343.84416399999998
 31
0.0
  0
LINE
  8
DETAIL
  6
CONTINUOUS
 62
     5
 10
-292.08147400000013
 20
-320.64791500000001
 30
0.0
 11
-307.56526200000008
 21
-320.64791500000001
 31
0.0
  0
ARC
  8
DETAIL
  6
CONTINUOUS
 62
     5
 10
-298.646299
 20
-318.49619200000001
 30
0.0
 40
1.857327
 50
90.0
 51
128.35766900000419
  0
LINE
  8
DETAIL
  6
CONTINUOUS
 62
     5
 10
-298.19528100000002
 20
-316.63886200000002
 30
0.0
 11
-306.01293099999998
 21
-316.63886200000002
 31
0.0
  0
LINE
  8
DETAIL
  6
CONTINUOUS
 62
     5
 10
-306.71451699999989
 20
-320.64791500000001
 30
0.0
 11
-297.49369500000012
 21
-320.64791500000001
 31
0.0
  0
LINE
  8
DETAIL
  6
CONTINUOUS
 62
     5
 10
-306.9139990000001
 20
-345.0
 30
0.0
 11
-297.59295200000003
 21
-345.0
 31
0.0
  0
LINE
  8
DETAIL
  6
CONTINUOUS
 62
     5
 10
-292.08147400000013
 20
-320.64791500000001
 30
0.0
 11
-292.08147400000013
 21
-321.85063000000002
 31
0.0
  0
LINE
  8
DETAIL
  6
CONTINUOUS
 62
     5
 10
-297.09278999999992
 20
-321.85063000000002
 30
0.0
 11
-297.09278999999992
 21
-320.64791500000001
 31
0.0
  0
LINE
  8
DETAIL
  6
CONTINUOUS
 62
     5
 10
-297.49369999999999
 20
-317.03977400000002
 30
0.0
 11
-298.19528500000001
 21
-316.638869
 31
0.0
  0
LINE
  8
DETAIL
  6
CONTINUOUS
 62
     5
 10
-297.493696
 20
-320.64791600000001
 30
0.0
 11
-297.493696
 21
-317.03976799999998
 31
0.0
  0
LINE
  8
DETAIL
  6
CONTINUOUS
 62
     5
 10
-292.23084399999988
 20
-343.84416399999998
 30
0.0
 11
-292.23084399999988
 21
-342.64144800000003
 31
0.0
  0
LINE
  8
DETAIL
  6
CONTINUOUS
 62
     5
 10
-297.24216000000001
 20
-343.84416399999998
 30
0.0
 11
-297.24216000000001
 21
-342.0
 31
0.0
  0
LINE
  8
DETAIL
  6
CONTINUOUS
 62
     5
 10
-298.49498899999998
 20
-343.84416399999998
 30
0.0
 11
-297.59295200000003
 21
-344.44875500000001
 31
0.0
  0
LINE
  8
DETAIL
  6
CONTINUOUS
 62
     5
 10
-297.59295200000003
 20
-344.44875500000001
 30
0.0
 11
-297.59295200000003
 21
-345.0
 31
0.0
  0
LINE
  8
DETAIL
  6
CONTINUOUS
 62
     5
 10
-343.54671800000011
 20
-292.87229200000002
 30
0.0
 11
-343.54671800000011
 21
-340.63692200000003
 31
0.0
  0
LINE
  8
DETAIL
  6
CONTINUOUS
 62
     5
 10
-320.79728399999999
 20
-291.58939500000002
 30
0.0
 11
-320.79728399999999
 21
-307.41589199999999
 31
0.0
  0
LINE
  8
DETAIL
  6
CONTINUOUS
 62
     5
 10
-322.0
 20
-291.58939500000002
 30
0.0
 11
-322.0
 21
-307.07318299999997
 31
0.0
  0
LINE
  8
DETAIL
  6
CONTINUOUS
 62
     5
 10
-322.0
 20
-291.58939500000002
 30
0.0
 11
-320.79728399999999
 21
-291.58939500000002
 31
0.0
  0
LINE
  8
DETAIL
  6
CONTINUOUS
 62
     5
 10
-343.54671800000011
 20
-292.87229200000002
 30
0.0
 11
-342.0
 21
-292.87229200000002
 31
0.0
  0
LINE
  8
NOTE
  6
DASHDOT
 62
     4
 10
-325.0
 20
-315.97963099999998
 30
0.0
 11
-325.0
 21
-334.02036900000002
 31
0.0
  0
LINE
  8
DETAIL
  6
CONTINUOUS
 62
     5
 10
-318.28968600000007
 20
-327.153773
 30
0.0
 11
-318.28968600000007
 21
-342.0
 31
0.0
  0
LINE
  8
DETAIL
  6
CONTINUOUS
 62
     5
 10
-312.27610699999991
 20
-322.0
 30
0.0
 11
-312.27610699999991
 21
-342.0
 31
0.0
  0
LINE
  8
NOTE
  6
DASHDOT
 62
     4
 10
-334.02036900000007
 20
-325.0
 30
0.0
 11
-315.97963099999993
 21
-325.0
 31
0.0
  0
ARC
  8
DETAIL
  6
CONTINUOUS
 62
     5
 10
-326.34654300000011
 20
-326.346543
 30
0.0
 40
4.1092789999999999
 50
134.9999999999954
 51
313.60240299999509
  0
ARC
  8
DETAIL
  6
CONTINUOUS
 62
     5
 10
-323.65345699999989
 20
-323.653457
 30
0.0
 40
4.1092789999999999
 50
316.39759699999559
 51
134.9999999999954
  0
LINE
  8
DETAIL
  6
CONTINUOUS
 62
     5
 10
-343.54671800000011
 20
-317.64823799999999
 30
0.0
 11
-327.45251200000013
 21
-317.64823799999999
 31
0.0
  0
CIRCLE
  8
DETAIL
  6
CONTINUOUS
 62
     5
 10
-325.0
 20
-325.0
 30
0.0
 40
4.0090529999999998
  0
CIRCLE
  8
NOTE
  6
CONTINUOUS
 62
     4
 10
-325.0
 20
-325.0
 30
0.0
 40
3.0067900000000001
  0
LINE
  8
DETAIL
  6
CONTINUOUS
 62
     5
 10
-342.0
 20
-311.634659
 30
0.0
 11
-322.29873900000013
 21
-311.634659
 31
0.0
  0
LINE
  8
DETAIL
  6
CONTINUOUS
 62
     5
 10
-320.44501700000001
 20
-308.26634100000001
 30
0.0
 11
-308.26634100000001
 21
-320.44501700000001
 31
0.0
  0
ARC
  8
DETAIL
  6
CONTINUOUS
 62
     5
 10
-327.45251200000013
 20
-312.63692200000003
 30
0.0
 40
5.0113160000000008
 50
270.0
 51
314.9999999999954
  0
LINE
  8
DETAIL
  6
CONTINUOUS
 62
     5
 10
-299.59844800000002
 20
-316.63886200000002
 30
0.0
 11
-299.59844800000002
 21
-314.0
 31
0.0
  0
LINE
  8
DETAIL
  6
CONTINUOUS
 62
     5
 10
-304.60976399999998
 20
-314.0
 30
0.0
 11
-304.60976399999998
 21
-316.63886200000002
 31
0.0
  0
ARC
  8
DETAIL
  6
CONTINUOUS
 62
     5
 10
-305.561913
 20
-318.496194
 30
0.0
 40
1.857329
 50
51.642264999995199
 51
90.0
  0
LINE
  8
DETAIL
  6
CONTINUOUS
 62
     5
 10
-314.0
 20
-299.10636899999997
 30
0.0
 11
-316.788231
 21
-299.10636899999997
 31
0.0
  0
LINE
  8
DETAIL
  6
CONTINUOUS
 62
     5
 10
-316.788231
 20
-304.11768499999999
 30
0.0
 11
-314.0
 21
-304.11768499999999
 31
0.0
  0
LINE
  8
DETAIL
  6
CONTINUOUS
 62
     5
 10
-314.0
 20
-304.11768499999999
 30
0.0
 11
-314.0
 21
-299.10636899999997
 31
0.0
  0
LINE
  8
DETAIL
  6
CONTINUOUS
 62
     5
 10
-299.59844800000002
 20
-314.0
 30
0.0
 11
-304.60976399999998
 21
-314.0
 31
0.0
  0
LINE
  8
DETAIL
  6
CONTINUOUS
 62
     5
 10
-317.18914300000012
 20
-306.22243300000002
 30
0.0
 11
-316.78823899999998
 21
-305.520848
 31
0.0
  0
LINE
  8
DETAIL
  6
CONTINUOUS
 62
     5
 10
-320.79728399999999
 20
-297.00161600000001
 30
0.0
 11
-320.79728399999999
 21
-306.22243800000001
 31
0.0
  0
LINE
  8
DETAIL
  6
CONTINUOUS
 62
     5
 10
-320.79728399999999
 20
-296.60071099999999
 30
0.0
 11
-322.0
 21
-296.60071099999999
 31
0.0
  0
ARC
  8
DETAIL
  6
CONTINUOUS
 62
     5
 10
-318.64556199999993
 20
-305.06983400000001
 30
0.0
 40
1.857327
 50
359.99998200000078
 51
38.357669000004229
  0
ARC
  8
DETAIL
  6
CONTINUOUS
 62
     5
 10
-323.61614900000001
 20
-301.61202700000001
 30
0.0
 40
6.8279160000000001
 50
340.26833000000352
 51
19.731578999999741
  0
ARC
  8
DETAIL
  6
CONTINUOUS
 62
     5
 10
-318.64556299999998
 20
-298.15422000000001
 30
0.0
 40
1.857329
 50
321.64226500000041
 51
359.99998200000078
  0
LINE
  8
DETAIL
  6
CONTINUOUS
 62
     5
 10
-317.18913700000007
 20
-303.91723300000001
 30
0.0
 11
-320.79728399999999
 21
-303.91723300000001
 31
0.0
  0
LINE
  8
DETAIL
  6
CONTINUOUS
 62
     5
 10
-317.18913700000007
 20
-299.30682200000001
 30
0.0
 11
-320.79728399999999
 21
-299.30682200000001
 31
0.0
  0
LINE
  8
DETAIL
  6
CONTINUOUS
 62
     5
 10
-317.18913700000007
 20
-297.00161700000001
 30
0.0
 11
-320.79728299999988
 21
-297.00161700000001
 31
0.0
  0
LINE
  8
DETAIL
  6
CONTINUOUS
 62
     5
 10
-316.78823899999998
 20
-297.70320600000002
 30
0.0
 11
-317.18914300000012
 21
-297.001621
 31
0.0
  0
LINE
  8
DETAIL
  6
CONTINUOUS
 62
     5
 10
-316.788231
 20
-305.52085199999999
 30
0.0
 11
-316.788231
 21
-297.70320199999998
 31
0.0
  0
LINE
  8
DETAIL
  6
CONTINUOUS
 62
     5
 10
-323.90897699999999
 20
-316.18045799999999
 30
0.0
 11
-318.36930799999999
 21
-310.64078899999998
 31
0.0
  0
ARC
  8
DETAIL
  6
CONTINUOUS
 62
     5
 10
-319.59456799999998
 20
-307.07318299999997
 30
0.0
 40
2.4054319999999998
 50
180.0
 51
225.0000000000046
  0
LINE
  8
DETAIL
  6
CONTINUOUS
 62
     5
 10
-321.29546499999992
 20
-308.77408000000003
 30
0.0
 11
-318.89903199999998
 21
-311.17051300000003
 31
0.0
  0
ARC
  8
DETAIL
  6
CONTINUOUS
 62
     5
 10
-319.59456799999998
 20
-307.41589199999999
 30
0.0
 40
1.2027159999999999
 50
180.0
 51
225.0000000000046
  0
LINE
  8
DETAIL
  6
CONTINUOUS
 62
     5
 10
-320.7972850000001
 20
-306.22243700000001
 30
0.0
 11
-317.18913700000007
 21
-306.22243700000001
 31
0.0
  0
LINE
  8
DETAIL
  6
CONTINUOUS
 62
     5
 10
-316.82190600000013
 20
-323.61023799999998
 30
0.0
 11
-311.11088199999989
 21
-317.89921399999997
 31
0.0
  0
ARC
  8
DETAIL
  6
CONTINUOUS
 62
     5
 10
-302.104106
 20
-323.46678000000003
 30
0.0
 40
6.8279160000000001
 50
70.268330000009655
 51
109.7315789999936
  0
LINE
  8
DETAIL
  6
CONTINUOUS
 62
     5
 10
-299.79890100000011
 20
-317.03976799999998
 30
0.0
 11
-299.79890100000011
 21
-320.64791500000001
 31
0.0
  0
LINE
  8
DETAIL
  6
CONTINUOUS
 62
     5
 10
-304.409312
 20
-317.03976799999998
 30
0.0
 11
-304.409312
 21
-320.64791500000001
 31
0.0
  0
LINE
  8
DETAIL
  6
CONTINUOUS
 62
     5
 10
-306.714516
 20
-317.03976799999998
 30
0.0
 11
-306.714516
 21
-320.64791400000001
 31
0.0
  0
LINE
  8
DETAIL
  6
CONTINUOUS
 62
     5
 10
-306.01292699999999
 20
-316.638869
 30
0.0
 11
-306.71451200000001
 21
-317.03977400000002
 31
0.0
  0
LINE
  8
DETAIL
  6
CONTINUOUS
 62
     5
 10
-311.96133099999997
 20
-318.749663
 30
0.0
 11
-309.41552799999999
 21
-321.29546499999998
 31
0.0
  0
ARC
  8
DETAIL
  6
CONTINUOUS
 62
     5
 10
-307.71463100000011
 20
-319.59456799999998
 30
0.0
 40
2.4054319999999998
 50
225.0000000000046
 51
270.0
  0
ARC
  8
DETAIL
  6
CONTINUOUS
 62
     5
 10
-307.56526200000008
 20
-319.445199
 30
0.0
 40
1.2027159999999999
 50
225.0000000000046
 51
270.0
  0
ARC
  8
DETAIL
  6
CONTINUOUS
 62
     5
 10
-313.27837099999988
 20
-327.153773
 30
0.0
 40
5.0113160000000008
 50
134.9999999999954
 51
180.0
  0
LINE
  8
DETAIL
  6
CONTINUOUS
 62
     5
 10
-321.81081799999993
 20
-331.02400999999998
 30
0.0
 11
-318.97598999999991
 21
-328.18918200000002
 31
0.0
  0
LINE
  8
DETAIL
  6
CONTINUOUS
 62
     5
 10
-323.51258000000013
 20
-329.322249
 30
0.0
 11
-321.81081799999993
 21
-331.02400999999998
 31
0.0
  0
LINE
  8
DETAIL
  6
CONTINUOUS
 62
     5
 10
-320.67775099999989
 20
-326.48741999999999
 30
0.0
 11
-318.97598999999991
 21
-328.18918200000002
 31
0.0
  0
LINE
  8
DETAIL
  6
CONTINUOUS
 62
     5
 10
-344.44875499999989
 20
-298.23439999999999
 30
0.0
 11
-344.44875499999989
 21
-307.55544800000001
 31
0.0
  0
LINE
  8
DETAIL
  6
CONTINUOUS
 62
     5
 10
-343.54671800000011
 20
-306.65341100000001
 30
0.0
 11
-344.44875499999989
 21
-307.55544800000001
 31
0.0
  0
LINE
  8
DETAIL
  6
CONTINUOUS
 62
     5
 10
-345.0
 20
-298.23439999999999
 30
0.0
 11
-345.0
 21
-307.55544800000001
 31
0.0
  0
LINE
  8
DETAIL
  6
CONTINUOUS
 62
     5
 10
-342.0
 20
-297.88360799999998
 30
0.0
 11
-343.54671800000011
 21
-297.88360799999998
 31
0.0
  0
LINE
  8
DETAIL
  6
CONTINUOUS
 62
     5
 10
-343.54671800000011
 20
-299.136437
 30
0.0
 11
-344.44875499999989
 21
-298.23439999999999
 31
0.0
  0
LINE
  8
DETAIL
  6
CONTINUOUS
 62
     5
 10
-344.44875499999989
 20
-298.23439999999999
 30
0.0
 11
-345.0
 21
-298.23439999999999
 31
0.0
  0
LINE
  8
DETAIL
  6
CONTINUOUS
 62
     5
 10
-344.44875499999989
 20
-307.55544800000001
 30
0.0
 11
-345.0
 21
-307.55544800000001
 31
0.0
  0
LINE
  8
DETAIL
  6
CONTINUOUS
 62
     5
 10
-326.55915599999997
 20
-320.74775699999998
 30
0.0
 11
-329.25224299999991
 21
-323.44084400000003
 31
0.0
  0
LINE
  8
DETAIL
  6
CONTINUOUS
 62
     5
 10
-329.25224299999991
 20
-323.44084400000003
 30
0.0
 11
-326.55915599999997
 21
-320.74775699999998
 31
0.0
  0
LINE
  8
DETAIL
  6
CONTINUOUS
 62
     5
 10
-306.01196199999998
 20
-343.84416399999998
 30
0.0
 11
-306.9139990000001
 21
-344.44875500000001
 31
0.0
  0
LINE
  8
DETAIL
  6
CONTINUOUS
 62
     5
 10
-306.9139990000001
 20
-344.44875500000001
 30
0.0
 11
-306.9139990000001
 21
-345.0
 31
0.0
  0
LINE
  8
DETAIL
  6
CONTINUOUS
 62
     5
 10
-340.3394760000001
 20
-342.14031699999998
 30
0.0
 11
-340.3394760000001
 21
-343.84416399999998
 31
0.0
  0
LINE
  8
DETAIL
  6
CONTINUOUS
 62
     5
 10
-343.54671800000011
 20
-340.63692200000003
 30
0.0
 11
-341.84287100000012
 21
-340.63692200000003
 31
0.0
  0
ARC
  8
DETAIL
  6
CONTINUOUS
 62
     5
 10
-341.84287100000012
 20
-342.14031699999998
 30
0.0
 40
1.503395
 50
0.0
 51
90.0
  0
LINE
  8
DETAIL
  6
CONTINUOUS
 62
     5
 10
-342.34400299999987
 20
-342.64144800000003
 30
0.0
 11
-340.3394760000001
 21
-342.64144800000003
 31
0.0
  0
LINE
  8
DETAIL
  6
CONTINUOUS
 62
     5
 10
-342.34400299999987
 20
-340.63692200000003
 30
0.0
 11
-342.34400299999987
 21
-342.64144800000003
 31
0.0
  0
LINE
  8
DETAIL
  6
CONTINUOUS
 62
     5
 39
50.0
 10
-297.59295200000003
 20
-344.44875500000001
 30
0.0
 11
-306.9139990000001
 21
-344.44875500000001
 31
0.0
  0
LINE
  8
SIZE
  6
CONTINUOUS
 62
    30
 10
322.25347499999998
 20
345.0
 30
0.0
 11
835.96267799999987
 21
345.0
 31
0.0
  0
LINE
  8
SIZE
  6
CONTINUOUS
 62
    30
 10
322.25347499999998
 20
-345.0
 30
0.0
 11
835.96267799999987
 21
-345.0
 31
0.0
  0
LINE
  8
SIZE
  6
CONTINUOUS
 62
    30
 10
815.96267799999987
 20
333.0
 30
0.0
 11
815.96267799999987
 21
-333.0
 31
0.0
  0
CIRCLE
  8
SIZE
  6
CONTINUOUS
 62
    30
 10
815.96267799999987
 20
345.0
 30
0.0
 40
6.0
  0
LINE
  8
SIZE
  6
CONTINUOUS
 62
    30
 10
815.96267799999987
 20
345.0
 30
0.0
 11
815.96267799999987
 21
333.0
 31
0.0
  0
CIRCLE
  8
SIZE
  6
CONTINUOUS
 62
    30
 10
815.96267799999987
 20
-345.0
 30
0.0
 40
6.0
  0
LINE
  8
SIZE
  6
CONTINUOUS
 62
    30
 10
815.96267799999987
 20
-345.0
 30
0.0
 11
815.96267799999987
 21
-333.0
 31
0.0
  0
TEXT
  8
SIZE
  6
CONTINUOUS
 62
    30
 10
790.96267799999987
 20
-74.05714285714285
 30
0.0
 40
64.0
  1
690
 50
90.0
 41
0.9
 72
     1
 11
790.96267799999987
 21
0.0
 31
0.0
  0
POINT
  8
DEFPOINTS
  6
CONTINUOUS
 62
    30
 10
302.25347499999998
 20
345.0
 30
0.0
  0
POINT
  8
DEFPOINTS
  6
CONTINUOUS
 62
    30
 10
302.25347499999998
 20
-345.0
 30
0.0
  0
POINT
  8
DEFPOINTS
  6
CONTINUOUS
 62
    30
 10
815.96267799999987
 20
-345.0
 30
0.0
  0
LINE
  8
SIZE
  6
CONTINUOUS
 62
    30
 10
354.02036800000002
 20
325.0
 30
0.0
 11
727.12130200000001
 21
325.0
 31
0.0
  0
LINE
  8
SIZE
  6
CONTINUOUS
 62
    30
 10
354.02036800000002
 20
-325.0
 30
0.0
 11
727.12130200000001
 21
-325.0
 31
0.0
  0
LINE
  8
SIZE
  6
CONTINUOUS
 62
    30
 10
707.12130200000001
 20
313.0
 30
0.0
 11
707.12130200000001
 21
-313.0
 31
0.0
  0
CIRCLE
  8
SIZE
  6
CONTINUOUS
 62
    30
 10
707.12130200000001
 20
325.0
 30
0.0
 40
6.0
  0
LINE
  8
SIZE
  6
CONTINUOUS
 62
    30
 10
707.12130200000001
 20
325.0
 30
0.0
 11
707.12130200000001
 21
313.0
 31
0.0
  0
CIRCLE
  8
SIZE
  6
CONTINUOUS
 62
    30
 10
707.12130200000001
 20
-325.0
 30
0.0
 40
6.0
  0
LINE
  8
SIZE
  6
CONTINUOUS
 62
    30
 10
707.12130200000001
 20
-325.0
 30
0.0
 11
707.12130200000001
 21
-313.0
 31
0.0
  0
TEXT
  8
SIZE
  6
CONTINUOUS
 62
    30
 10
682.12130200000001
 20
-74.05714285714285
 30
0.0
 40
64.0
  1
650
 50
90.0
 41
0.9
 72
     1
 11
682.12130200000001
 21
0.0
 31
0.0
  0
POINT
  8
DEFPOINTS
  6
CONTINUOUS
 62
    30
 10
334.02036800000002
 20
325.0
 30
0.0
  0
POINT
  8
DEFPOINTS
  6
CONTINUOUS
 62
    30
 10
334.02036800000002
 20
-325.0
 30
0.0
  0
POINT
  8
DEFPOINTS
  6
CONTINUOUS
 62
    30
 10
707.12130200000001
 20
-325.0
 30
0.0
  0
LINE
  8
SIZE
  6
CONTINUOUS
 62
    30
 10
-8.7857400000000325
 20
-310.0
 30
0.0
 11
-8.7857400000000325
 21
310.0
 31
0.0
  0
LINE
  8
SIZE
  6
CONTINUOUS
 62
    30
 10
-8.7857400000000325
 20
322.0
 30
0.0
 11
-8.7857400000000325
 21
535.49706100000003
 31
0.0
  0
CIRCLE
  8
SIZE
  6
CONTINUOUS
 62
    30
 10
-8.7857400000000325
 20
-322.0
 30
0.0
 40
6.0
  0
LINE
  8
SIZE
  6
CONTINUOUS
 62
    30
 10
-8.7857400000000325
 20
-322.0
 30
0.0
 11
-8.7857400000000325
 21
-310.0
 31
0.0
  0
CIRCLE
  8
SIZE
  6
CONTINUOUS
 62
    30
 10
-8.7857400000000325
 20
322.0
 30
0.0
 40
6.0
  0
LINE
  8
SIZE
  6
CONTINUOUS
 62
    30
 10
-8.7857400000000325
 20
322.0
 30
0.0
 11
-8.7857400000000325
 21
310.0
 31
0.0
  0
TEXT
  8
SIZE
  6
CONTINUOUS
 62
    30
 10
-18.78574000000004
 20
374.63991757142861
 30
0.0
 40
64.0
  1
644
 50
90.0
 41
0.9
 72
     1
 11
-18.785740000000029
 21
450.068489
 31
0.0
  0
POINT
  8
DEFPOINTS
  6
CONTINUOUS
 62
    30
 10
-8.7857400000000325
 20
322.0
 30
0.0
  0
POINT
  8
DEFPOINTS
  6
CONTINUOUS
 62
    30
 10
-8.7857400000000325
 20
-322.0
 30
0.0
  0
POINT
  8
DEFPOINTS
  6
CONTINUOUS
 62
    30
 10
-8.7857400000000325
 20
-322.0
 30
0.0
  0
LINE
  8
SIZE
  6
CONTINUOUS
 62
    30
 10
116.14484299999999
 20
-330.0
 30
0.0
 11
116.14484299999999
 21
330.0
 31
0.0
  0
LINE
  8
SIZE
  6
CONTINUOUS
 62
    30
 10
116.14484299999999
 20
342.0
 30
0.0
 11
116.14484299999999
 21
541.37753500000008
 31
0.0
  0
CIRCLE
  8
SIZE
  6
CONTINUOUS
 62
    30
 10
116.14484299999999
 20
-342.0
 30
0.0
 40
6.0
  0
LINE
  8
SIZE
  6
CONTINUOUS
 62
    30
 10
116.14484299999999
 20
-342.0
 30
0.0
 11
116.14484299999999
 21
-330.0
 31
0.0
  0
CIRCLE
  8
SIZE
  6
CONTINUOUS
 62
    30
 10
116.14484299999999
 20
342.0
 30
0.0
 40
6.0
  0
LINE
  8
SIZE
  6
CONTINUOUS
 62
    30
 10
116.14484299999999
 20
342.0
 30
0.0
 11
116.14484299999999
 21
330.0
 31
0.0
  0
TEXT
  8
SIZE
  6
CONTINUOUS
 62
    30
 10
106.14484299999999
 20
380.5203915714286
 30
0.0
 40
64.0
  1
684
 50
90.0
 41
0.9
 72
     1
 11
106.14484299999999
 21
455.94896299999999
 31
0.0
  0
POINT
  8
DEFPOINTS
  6
CONTINUOUS
 62
    30
 10
116.14484299999999
 20
-342.0
 30
0.0
  0
POINT
  8
DEFPOINTS
  6
CONTINUOUS
 62
    30
 10
116.14484299999999
 20
342.0
 30
0.0
  0
POINT
  8
DEFPOINTS
  6
CONTINUOUS
 62
    30
 10
116.14484299999999
 20
342.0
 30
0.0
  0
TEXT
  8
NOTE
  6
CONTINUOUS
 62
     4
 10
389.12634799999978
 20
389.50315699999999
 30
0.0
 40
64.0
  1
4-M12ボルト
 41
0.9
  0
LINE
  8
NOTE
  6
CONTINUOUS
 62
     4
 39
50.0
 10
386.07175499999988
 20
379.123513
 30
0.0
 11
874.74113699999998
 21
379.123513
 31
0.0
  0
LINE
  8
NOTE
  6
CONTINUOUS
 62
     4
 39
50.0
 10
386.07175499999988
 20
379.123513
 30
0.0
 11
325.0
 21
325.0
 31
0.0
  0
LINE
  8
NOTE
  6
CONTINUOUS
 62
     4
 10
347.62456500000008
 20
357.98680100000001
 30
0.0
 11
325.0
 21
325.0
 31
0.0
  0
LINE
  8
NOTE
  6
CONTINUOUS
 62
     4
 10
325.0
 20
325.0
 30
0.0
 11
361.08684899999997
 21
342.25512500000002
 31
0.0
  0
LINE
  8
SIZE
  6
CONTINUOUS
 62
    30
 10
-342.0
 20
-140.363822
 30
0.0
 11
-342.0
 21
-138.824119
 31
0.0
  0
LINE
  8
SIZE
  6
CONTINUOUS
 62
    30
 10
342.0
 20
-139.09974099999999
 30
0.0
 11
342.0
 21
-138.824119
 31
0.0
  0
LINE
  8
SIZE
  6
CONTINUOUS
 62
    30
 10
-330.0
 20
-158.824119
 30
0.0
 11
330.0
 21
-158.824119
 31
0.0
  0
LINE
  8
SIZE
  6
CONTINUOUS
 62
    30
 10
342.0
 20
-158.824119
 30
0.0
 11
524.85714199999984
 21
-158.824119
 31
0.0
  0
CIRCLE
  8
SIZE
  6
CONTINUOUS
 62
    30
 10
-342.0
 20
-158.824119
 30
0.0
 40
6.0
  0
LINE
  8
SIZE
  6
CONTINUOUS
 62
    30
 10
-342.0
 20
-158.824119
 30
0.0
 11
-330.0
 21
-158.824119
 31
0.0
  0
CIRCLE
  8
SIZE
  6
CONTINUOUS
 62
    30
 10
342.0
 20
-158.824119
 30
0.0
 40
6.0
  0
LINE
  8
SIZE
  6
CONTINUOUS
 62
    30
 10
342.0
 20
-158.824119
 30
0.0
 11
330.0
 21
-158.824119
 31
0.0
  0
TEXT
  8
SIZE
  6
CONTINUOUS
 62
    30
 10
363.99999957142848
 20
-148.824119
 30
0.0
 40
64.0
  1
684
 41
0.9
 72
     1
 11
439.42857099999992
 21
-148.824119
 31
0.0
  0
POINT
  8
DEFPOINTS
  6
CONTINUOUS
 62
    30
 10
-342.0
 20
-160.363822
 30
0.0
  0
POINT
  8
DEFPOINTS
  6
CONTINUOUS
 62
    30
 10
342.0
 20
-159.09974099999999
 30
0.0
  0
POINT
  8
DEFPOINTS
  6
CONTINUOUS
 62
    30
 10
342.0
 20
-158.824119
 30
0.0
  0
LINE
  8
SIZE
  6
CONTINUOUS
 62
    30
 10
-345.0
 20
322.89492399999989
 30
0.0
 11
-345.0
 21
691.89824499999986
 31
0.0
  0
LINE
  8
SIZE
  6
CONTINUOUS
 62
    30
 10
345.0
 20
322.89492399999989
 30
0.0
 11
345.0
 21
691.89824499999986
 31
0.0
  0
LINE
  8
SIZE
  6
CONTINUOUS
 62
    30
 10
-333.0
 20
671.89824499999986
 30
0.0
 11
333.0
 21
671.89824499999986
 31
0.0
  0
CIRCLE
  8
SIZE
  6
CONTINUOUS
 62
    30
 10
-345.0
 20
671.89824499999986
 30
0.0
 40
6.0
  0
LINE
  8
SIZE
  6
CONTINUOUS
 62
    30
 10
-345.0
 20
671.89824499999986
 30
0.0
 11
-333.0
 21
671.89824499999986
 31
0.0
  0
CIRCLE
  8
SIZE
  6
CONTINUOUS
 62
    30
 10
345.0
 20
671.89824499999986
 30
0.0
 40
6.0
  0
LINE
  8
SIZE
  6
CONTINUOUS
 62
    30
 10
345.0
 20
671.89824499999986
 30
0.0
 11
333.0
 21
671.89824499999986
 31
0.0
  0
TEXT
  8
SIZE
  6
CONTINUOUS
 62
    30
 10
-74.05714285714285
 20
696.89824499999986
 30
0.0
 40
64.0
  1
690
 41
0.9
 72
     1
 11
0.0
 21
696.89824499999986
 31
0.0
  0
POINT
  8
DEFPOINTS
  6
CONTINUOUS
 62
    30
 10
-345.0
 20
302.89492399999989
 30
0.0
  0
POINT
  8
DEFPOINTS
  6
CONTINUOUS
 62
    30
 10
345.0
 20
302.89492399999989
 30
0.0
  0
POINT
  8
DEFPOINTS
  6
CONTINUOUS
 62
    30
 10
345.0
 20
671.89824499999986
 30
0.0
  0
LINE
  8
SIZE
  6
CONTINUOUS
 62
    30
 10
-325.0
 20
354.02036900000007
 30
0.0
 11
-325.0
 21
579.9288160000001
 31
0.0
  0
LINE
  8
SIZE
  6
CONTINUOUS
 62
    30
 10
325.0
 20
354.02036900000007
 30
0.0
 11
325.0
 21
579.9288160000001
 31
0.0
  0
LINE
  8
SIZE
  6
CONTINUOUS
 62
    30
 10
-313.0
 20
559.9288160000001
 30
0.0
 11
313.0
 21
559.9288160000001
 31
0.0
  0
CIRCLE
  8
SIZE
  6
CONTINUOUS
 62
    30
 10
-325.0
 20
559.9288160000001
 30
0.0
 40
6.0
  0
LINE
  8
SIZE
  6
CONTINUOUS
 62
    30
 10
-325.0
 20
559.9288160000001
 30
0.0
 11
-313.0
 21
559.9288160000001
 31
0.0
  0
CIRCLE
  8
SIZE
  6
CONTINUOUS
 62
    30
 10
325.0
 20
559.9288160000001
 30
0.0
 40
6.0
  0
LINE
  8
SIZE
  6
CONTINUOUS
 62
    30
 10
325.0
 20
559.9288160000001
 30
0.0
 11
313.0
 21
559.9288160000001
 31
0.0
  0
TEXT
  8
SIZE
  6
CONTINUOUS
 62
    30
 10
-74.05714285714285
 20
584.9288160000001
 30
0.0
 40
64.0
  1
650
 41
0.9
 72
     1
 11
0.0
 21
584.9288160000001
 31
0.0
  0
POINT
  8
DEFPOINTS
  6
CONTINUOUS
 62
    30
 10
-325.0
 20
334.02036900000007
 30
0.0
  0
POINT
  8
DEFPOINTS
  6
CONTINUOUS
 62
    30
 10
325.0
 20
334.02036900000007
 30
0.0
  0
POINT
  8
DEFPOINTS
  6
CONTINUOUS
 62
    30
 10
325.0
 20
559.9288160000001
 30
0.0
  0
LINE
  8
SIZE
  6
CONTINUOUS
 62
    30
 10
-310.0
 20
9.3918059999999741
 30
0.0
 11
310.0
 21
9.3918059999999741
 31
0.0
  0
LINE
  8
SIZE
  6
CONTINUOUS
 62
    30
 10
322.0
 20
9.3918059999999741
 30
0.0
 11
561.62966099999994
 21
9.3918059999999741
 31
0.0
  0
CIRCLE
  8
SIZE
  6
CONTINUOUS
 62
    30
 10
-322.0
 20
9.3918059999999741
 30
0.0
 40
6.0
  0
LINE
  8
SIZE
  6
CONTINUOUS
 62
    30
 10
-322.0
 20
9.3918059999999741
 30
0.0
 11
-310.0
 21
9.3918059999999741
 31
0.0
  0
CIRCLE
  8
SIZE
  6
CONTINUOUS
 62
    30
 10
322.0
 20
9.3918059999999741
 30
0.0
 40
6.0
  0
LINE
  8
SIZE
  6
CONTINUOUS
 62
    30
 10
322.0
 20
9.3918059999999741
 30
0.0
 11
310.0
 21
9.3918059999999741
 31
0.0
  0
TEXT
  8
SIZE
  6
CONTINUOUS
 62
    30
 10
400.77251857142858
 20
19.391805999999971
 30
0.0
 40
64.0
  1
644
 41
0.9
 72
     1
 11
476.20109000000002
 21
19.391805999999971
 31
0.0
  0
POINT
  8
DEFPOINTS
  6
CONTINUOUS
 62
    30
 10
322.0
 20
9.3918059999999741
 30
0.0
  0
POINT
  8
DEFPOINTS
  6
CONTINUOUS
 62
    30
 10
-322.0
 20
9.3918059999999741
 30
0.0
  0
POINT
  8
DEFPOINTS
  6
CONTINUOUS
 62
    30
 10
-322.0
 20
9.3918059999999741
 30
0.0
  0
LINE
  8
BASIS
  6
DASHDOT
 62
     6
 10
0.0
 20
-381.25778300000002
 30
0.0
 11
0.0
 21
381.25778300000002
 31
0.0
  0
LINE
  8
BASIS
  6
DASHDOT
 62
     6
 10
-393.19167700000003
 20
0.0
 30
0.0
 11
393.1916769999998
 21
0.0
 31
0.0
  0
LINE
  8
DETAIL
  6
CONTINUOUS
 62
     5
 10
314.21135800000002
 20
314.5
 30
0.0
 11
304.60976399999998
 21
314.5
 31
0.0
  0
LINE
  8
DETAIL
  6
CONTINUOUS
 62
     5
 10
299.59844800000002
 20
314.5
 30
0.0
 11
0.0
 21
314.5
 31
0.0
  0
LINE
  8
DETAIL
  6
CONTINUOUS
 62
     5
 39
50.0
 10
314.5
 20
314.21135800000002
 30
0.0
 11
314.5
 21
304.11768499999988
 31
0.0
  0
LINE
  8
DETAIL
  6
CONTINUOUS
 62
     5
 39
50.0
 10
314.5
 20
299.10636899999997
 30
0.0
 11
314.5
 21
0.0
 31
0.0
  0
LINE
  8
DETAIL
  6
CONTINUOUS
 62
     5
 10
-314.21135800000002
 20
-314.5
 30
0.0
 11
-304.60976399999998
 21
-314.5
 31
0.0
  0
LINE
  8
DETAIL
  6
CONTINUOUS
 62
     5
 10
-299.59844800000002
 20
-314.5
 30
0.0
 11
0.0
 21
-314.5
 31
0.0
  0
LINE
  8
DETAIL
  6
CONTINUOUS
 62
     5
 10
-306.01292699999999
 20
-316.638869
 30
0.0
 11
-306.71451200000001
 21
-317.03977400000008
 31
0.0
  0
LINE
  8
DETAIL
  6
CONTINUOUS
 62
     5
 39
50.0
 10
-314.5
 20
-314.21135800000002
 30
0.0
 11
-314.5
 21
-304.11768499999988
 31
0.0
  0
LINE
  8
DETAIL
  6
CONTINUOUS
 62
     5
 39
50.0
 10
-314.5
 20
-299.10636899999997
 30
0.0
 11
-314.5
 21
0.0
 31
0.0
  0
LINE
  8
DETAIL
  6
CONTINUOUS
 62
     5
 10
314.21135800000002
 20
-314.5
 30
0.0
 11
304.60976399999998
 21
-314.5
 31
0.0
  0
LINE
  8
DETAIL
  6
CONTINUOUS
 62
     5
 10
299.59844800000002
 20
-314.5
 30
0.0
 11
0.0
 21
-314.5
 31
0.0
  0
LINE
  8
DETAIL
  6
CONTINUOUS
 62
     5
 39
50.0
 10
314.5
 20
-314.21135800000002
 30
0.0
 11
314.5
 21
-304.11768499999988
 31
0.0
  0
LINE
  8
DETAIL
  6
CONTINUOUS
 62
     5
 39
50.0
 10
314.5
 20
-299.10636899999997
 30
0.0
 11
314.5
 21
0.0
 31
0.0
  0
LINE
  8
SIZE
  6
CONTINUOUS
 62
    30
 10
-279.59844800000002
 20
314.0
 30
0.0
 11
-112.4388213231623
 21
313.99999999999989
 31
0.0
  0
LINE
  8
SIZE
  6
CONTINUOUS
 62
    30
 10
-279.59844800000002
 20
-314.0
 30
0.0
 11
-112.4388213231624
 21
-314.00000000000011
 31
0.0
  0
LINE
  8
SIZE
  6
CONTINUOUS
 62
    30
 10
-132.43882132316239
 20
-302.0
 30
0.0
 11
-132.4388213231623
 21
302.0
 31
0.0
  0
LINE
  8
SIZE
  6
CONTINUOUS
 62
    30
 10
-132.4388213231623
 20
314.0
 30
0.0
 11
-132.43882132316219
 21
552.57690758061563
 31
0.0
  0
CIRCLE
  8
SIZE
  6
CONTINUOUS
 62
    30
 10
-132.43882132316239
 20
-314.0
 30
0.0
 40
6.0
  0
LINE
  8
SIZE
  6
CONTINUOUS
 62
    30
 10
-132.43882132316239
 20
-314.0
 30
0.0
 11
-132.43882132316239
 21
-302.0
 31
0.0
  0
CIRCLE
  8
SIZE
  6
CONTINUOUS
 62
    30
 10
-132.4388213231623
 20
314.0
 30
0.0
 40
6.0
  0
LINE
  8
SIZE
  6
CONTINUOUS
 62
    30
 10
-132.4388213231623
 20
314.0
 30
0.0
 11
-132.4388213231623
 21
302.0
 31
0.0
  0
TEXT
  8
SIZE
  6
CONTINUOUS
 62
    30
 10
-157.4388213231623
 20
373.16776472347271
 30
0.0
 40
64.0
  1
628
 50
90.0
 41
0.9
 51
0.0
  7
STANDARD
 71
     0
 72
     1
 11
-157.4388213231623
 21
453.51976472347269
 31
0.0
210
0.0
220
0.0
230
1.0
  0
POINT
  8
DEFPOINTS
  6
CONTINUOUS
 62
    30
 10
-299.59844800000002
 20
314.0
 30
0.0
  0
POINT
  8
DEFPOINTS
  6
CONTINUOUS
 62
    30
 10
-299.59844800000002
 20
-314.0
 30
0.0
  0
POINT
  8
DEFPOINTS
  6
CONTINUOUS
 62
    30
 10
-132.43882132316239
 20
-314.0
 30
0.0
  0
LINE
  8
SIZE
  6
CONTINUOUS
 62
    30
 10
-314.0
 20
279.10636899999997
 30
0.0
 11
-314.0
 21
94.521258220562231
 31
0.0
  0
LINE
  8
SIZE
  6
CONTINUOUS
 62
    30
 10
314.0
 20
279.10636899999997
 30
0.0
 11
314.0
 21
94.521258220562231
 31
0.0
  0
LINE
  8
SIZE
  6
CONTINUOUS
 62
    30
 10
-302.0
 20
114.5212582205622
 30
0.0
 11
302.0
 21
114.5212582205622
 31
0.0
  0
LINE
  8
SIZE
  6
CONTINUOUS
 62
    30
 10
314.0
 20
114.5212582205622
 30
0.0
 11
578.553566843726
 21
114.5212582205622
 31
0.0
  0
CIRCLE
  8
SIZE
  6
CONTINUOUS
 62
    30
 10
-314.0
 20
114.5212582205622
 30
0.0
 40
6.0
  0
LINE
  8
SIZE
  6
CONTINUOUS
 62
    30
 10
-314.0
 20
114.5212582205622
 30
0.0
 11
-302.0
 21
114.5212582205622
 31
0.0
  0
CIRCLE
  8
SIZE
  6
CONTINUOUS
 62
    30
 10
314.0
 20
114.5212582205622
 30
0.0
 40
6.0
  0
LINE
  8
SIZE
  6
CONTINUOUS
 62
    30
 10
314.0
 20
114.5212582205622
 30
0.0
 11
302.0
 21
114.5212582205622
 31
0.0
  0
TEXT
  8
SIZE
  6
CONTINUOUS
 62
    30
 10
399.14442398658309
 20
139.5212582205622
 30
0.0
 40
64.0
  1
628
 50
0.0
 41
0.9
 51
0.0
  7
STANDARD
 71
     0
 72
     1
 11
479.49642398658307
 21
139.5212582205622
 31
0.0
210
0.0
220
0.0
230
1.0
  0
POINT
  8
DEFPOINTS
  6
CONTINUOUS
 62
    30
 10
-314.0
 20
299.10636899999997
 30
0.0
  0
POINT
  8
DEFPOINTS
  6
CONTINUOUS
 62
    30
 10
314.0
 20
299.10636899999997
 30
0.0
  0
POINT
  8
DEFPOINTS
  6
CONTINUOUS
 62
    30
 10
314.0
 20
114.5212582205622
 30
0.0
  0
LINE
  8
OUTLINE
  6
CONTINUOUS
 62
     3
 10
342.0
 20
-0.5512449999999944
 30
0.0
 11
342.0
 21
292.87229200000002
 31
0.0
  0
LINE
  8
OUTLINE
  6
CONTINUOUS
 62
     3
 10
292.23084399999971
 20
342.0
 30
0.0
 11
0.0
 21
342.0
 31
0.0
  0
LINE
  8
OUTLINE
  6
CONTINUOUS
 62
     3
 10
340.3394760000001
 20
343.84416400000009
 30
0.0
 11
292.23084399999971
 21
343.84416400000009
 31
0.0
  0
LINE
  8
OUTLINE
  6
CONTINUOUS
 62
     3
 10
292.23084399999971
 20
343.84416400000009
 30
0.0
 11
292.23084399999971
 21
342.0
 31
0.0
  0
LINE
  8
OUTLINE
  6
CONTINUOUS
 62
     3
 10
343.54671800000011
 20
292.87229200000002
 30
0.0
 11
343.54671800000011
 21
340.63692200000003
 31
0.0
  0
LINE
  8
OUTLINE
  6
CONTINUOUS
 62
     3
 10
343.54671800000011
 20
292.87229200000002
 30
0.0
 11
342.0
 21
292.87229200000002
 31
0.0
  0
LINE
  8
OUTLINE
  6
CONTINUOUS
 62
     3
 10
340.3394760000001
 20
342.14031699999998
 30
0.0
 11
340.3394760000001
 21
343.84416400000009
 31
0.0
  0
LINE
  8
OUTLINE
  6
CONTINUOUS
 62
     3
 10
343.54671800000011
 20
340.63692200000003
 30
0.0
 11
341.84287099999977
 21
340.63692200000003
 31
0.0
  0
ARC
  8
OUTLINE
  6
CONTINUOUS
 62
     3
 10
341.84287099999977
 20
342.14031699999998
 30
0.0
 40
1.503395
 50
180.0
 51
270.0
  0
LINE
  8
OUTLINE
  6
CONTINUOUS
 62
     3
 10
342.0
 20
-0.5512449999999944
 30
0.0
 11
342.0
 21
-292.87229200000002
 31
0.0
  0
LINE
  8
OUTLINE
  6
CONTINUOUS
 62
     3
 10
292.23084399999971
 20
-342.0
 30
0.0
 11
0.0
 21
-342.0
 31
0.0
  0
LINE
  8
OUTLINE
  6
CONTINUOUS
 62
     3
 10
340.3394760000001
 20
-343.84416399999998
 30
0.0
 11
292.23084399999971
 21
-343.84416399999998
 31
0.0
  0
LINE
  8
OUTLINE
  6
CONTINUOUS
 62
     3
 10
292.23084399999971
 20
-343.84416399999998
 30
0.0
 11
292.23084399999971
 21
-342.0
 31
0.0
  0
LINE
  8
OUTLINE
  6
CONTINUOUS
 62
     3
 10
343.54671800000011
 20
-292.87229200000002
 30
0.0
 11
343.54671800000011
 21
-340.63692200000003
 31
0.0
  0
LINE
  8
OUTLINE
  6
CONTINUOUS
 62
     3
 10
343.54671800000011
 20
-292.87229200000002
 30
0.0
 11
342.0
 21
-292.87229200000002
 31
0.0
  0
LINE
  8
OUTLINE
  6
CONTINUOUS
 62
     3
 10
340.3394760000001
 20
-342.14031699999998
 30
0.0
 11
340.3394760000001
 21
-343.84416399999998
 31
0.0
  0
LINE
  8
OUTLINE
  6
CONTINUOUS
 62
     3
 10
343.54671800000011
 20
-340.63692200000003
 30
0.0
 11
341.84287099999977
 21
-340.63692200000003
 31
0.0
  0
ARC
  8
OUTLINE
  6
CONTINUOUS
 62
     3
 10
341.84287099999977
 20
-342.14031699999998
 30
0.0
 40
1.503395
 50
90.0
 51
180.0
  0
LINE
  8
OUTLINE
  6
CONTINUOUS
 62
     3
 10
-342.0
 20
0.0
 30
0.0
 11
-342.0
 21
292.87229200000002
 31
0.0
  0
LINE
  8
OUTLINE
  6
CONTINUOUS
 62
     3
 10
-292.23084400000022
 20
342.0
 30
0.0
 11
0.0
 21
342.0
 31
0.0
  0
LINE
  8
OUTLINE
  6
CONTINUOUS
 62
     3
 10
-340.3394760000001
 20
343.84416400000009
 30
0.0
 11
-292.23084400000022
 21
343.84416400000009
 31
0.0
  0
LINE
  8
OUTLINE
  6
CONTINUOUS
 62
     3
 10
-292.23084400000022
 20
343.84416400000009
 30
0.0
 11
-292.23084400000022
 21
342.0
 31
0.0
  0
LINE
  8
OUTLINE
  6
CONTINUOUS
 62
     3
 10
-343.54671800000011
 20
292.87229200000002
 30
0.0
 11
-343.54671800000011
 21
340.63692200000003
 31
0.0
  0
LINE
  8
OUTLINE
  6
CONTINUOUS
 62
     3
 10
-343.54671800000011
 20
292.87229200000002
 30
0.0
 11
-342.0
 21
292.87229200000002
 31
0.0
  0
LINE
  8
OUTLINE
  6
CONTINUOUS
 62
     3
 10
-340.3394760000001
 20
342.14031699999998
 30
0.0
 11
-340.3394760000001
 21
343.84416400000009
 31
0.0
  0
LINE
  8
OUTLINE
  6
CONTINUOUS
 62
     3
 10
-343.54671800000011
 20
340.63692200000003
 30
0.0
 11
-341.84287100000029
 21
340.63692200000003
 31
0.0
  0
ARC
  8
OUTLINE
  6
CONTINUOUS
 62
     3
 10
-341.84287100000029
 20
342.14031699999998
 30
0.0
 40
1.503395
 50
270.0
 51
0.0
  0
LINE
  8
OUTLINE
  6
CONTINUOUS
 62
     3
 10
-342.0
 20
0.0
 30
0.0
 11
-342.0
 21
-292.87229200000002
 31
0.0
  0
LINE
  8
OUTLINE
  6
CONTINUOUS
 62
     3
 10
-292.23084400000022
 20
-342.0
 30
0.0
 11
0.0
 21
-342.0
 31
0.0
  0
LINE
  8
OUTLINE
  6
CONTINUOUS
 62
     3
 10
-340.3394760000001
 20
-343.84416399999998
 30
0.0
 11
-292.23084400000022
 21
-343.84416399999998
 31
0.0
  0
LINE
  8
OUTLINE
  6
CONTINUOUS
 62
     3
 10
-292.23084400000022
 20
-343.84416399999998
 30
0.0
 11
-292.23084400000022
 21
-342.0
 31
0.0
  0
LINE
  8
OUTLINE
  6
CONTINUOUS
 62
     3
 10
-343.54671800000011
 20
-292.87229200000002
 30
0.0
 11
-343.54671800000011
 21
-340.63692200000003
 31
0.0
  0
LINE
  8
OUTLINE
  6
CONTINUOUS
 62
     3
 10
-343.54671800000011
 20
-292.87229200000002
 30
0.0
 11
-342.0
 21
-292.87229200000002
 31
0.0
  0
LINE
  8
OUTLINE
  6
CONTINUOUS
 62
     3
 10
-340.3394760000001
 20
-342.14031699999998
 30
0.0
 11
-340.3394760000001
 21
-343.84416399999998
 31
0.0
  0
LINE
  8
OUTLINE
  6
CONTINUOUS
 62
     3
 10
-343.54671800000011
 20
-340.63692200000003
 30
0.0
 11
-341.84287100000029
 21
-340.63692200000003
 31
0.0
  0
ARC
  8
OUTLINE
  6
CONTINUOUS
 62
     3
 10
-341.84287100000029
 20
-342.14031699999998
 30
0.0
 40
1.503395
 50
0.0
 51
90.0
  0
ENDSEC
  0
EOF
