  0
SECTION
  2
HEADER
  9
$ACADVER
  1
AC1009
  9
$DWGCODEPAGE
  3
dos932
  9
$INSBASE
 10
0.0
 20
0.0
 30
0.0
  9
$EXTMIN
 10
-1292.486556
 20
-710.723866
 30
-0.001526
  9
$EXTMAX
 10
1431.614697
 20
1099.411019
 30
50.001526
  9
$LIMMIN
 10
-2970.0
 20
-2100.0
  9
$LIMMAX
 10
2970.0
 20
2100.0
  9
$ORTHOMODE
 70
     1
  9
$REGENMODE
 70
     1
  9
$FILLMODE
 70
     1
  9
$QTEXTMODE
 70
     0
  9
$MIRRTEXT
 70
     0
  9
$DRAGMODE
 70
     2
  9
$LTSCALE
 40
20.0
  9
$OSMODE
 70
  3071
  9
$ATTMODE
 70
     1
  9
$TEXTSIZE
 40
64.0
  9
$TRACEWID
 40
0.05
  9
$TEXTSTYLE
  7
STANDARD
  9
$CLAYER
  8
NOTE
  9
$CELTYPE
  6
CONTINUOUS
  9
$CECOLOR
 62
     7
  9
$DIMSCALE
 40
1.0
  9
$DIMASZ
 40
12.0
  9
$DIMEXO
 40
20.0
  9
$DIMDLI
 40
200.0
  9
$DIMRND
 40
0.0
  9
$DIMDLE
 40
0.0
  9
$DIMEXE
 40
20.0
  9
$DIMTP
 40
0.0
  9
$DIMTM
 40
0.0
  9
$DIMTXT
 40
64.0
  9
$DIMCEN
 40
0.09
  9
$DIMTSZ
 40
0.0
  9
$DIMTOL
 70
     0
  9
$DIMLIM
 70
     0
  9
$DIMTIH
 70
     0
  9
$DIMTOH
 70
     0
  9
$DIMSE1
 70
     0
  9
$DIMSE2
 70
     0
  9
$DIMTAD
 70
     1
  9
$DIMZIN
 70
     8
  9
$DIMBLK
  1
DOT1
  9
$DIMASO
 70
     1
  9
$DIMSHO
 70
     0
  9
$DIMPOST
  1

  9
$DIMAPOST
  1

  9
$DIMALT
 70
     0
  9
$DIMALTD
 70
     2
  9
$DIMALTF
 40
25.4
  9
$DIMLFAC
 40
1.0
  9
$DIMTOFL
 70
     1
  9
$DIMTVP
 40
0.0
  9
$DIMTIX
 70
     1
  9
$DIMSOXD
 70
     0
  9
$DIMSAH
 70
     1
  9
$DIMBLK1
  1
_ORIGIN
  9
$DIMBLK2
  1
_ORIGIN
  9
$DIMSTYLE
  2
STANDARD
  9
$DIMCLRD
 70
     7
  9
$DIMCLRE
 70
     7
  9
$DIMCLRT
 70
     7
  9
$DIMTFAC
 40
1.0
  9
$DIMGAP
 40
25.0
  9
$LUNITS
 70
     2
  9
$LUPREC
 70
     4
  9
$SKETCHINC
 40
0.1
  9
$FILLETRAD
 40
3.0
  9
$AUNITS
 70
     1
  9
$AUPREC
 70
     3
  9
$MENU
  1
ACAD
  9
$ELEVATION
 40
0.0
  9
$PELEVATION
 40
0.0
  9
$THICKNESS
 40
50.0
  9
$LIMCHECK
 70
     0
  9
$BLIPMODE
 70
     0
  9
$CHAMFERA
 40
0.0
  9
$CHAMFERB
 40
0.0
  9
$SKPOLY
 70
     0
  9
$TDCREATE
 40
2453019.62301037
  9
$TDUPDATE
 40
2455399.553378588
  9
$TDINDWG
 40
1.6882887153
  9
$TDUSRTIMER
 40
1.6882887153
  9
$USRTIMER
 70
     1
  9
$ANGBASE
 50
0.0
  9
$ANGDIR
 70
     0
  9
$PDMODE
 70
     3
  9
$PDSIZE
 40
-2.0
  9
$PLINEWID
 40
0.0
  9
$COORDS
 70
     2
  9
$SPLFRAME
 70
     0
  9
$SPLINETYPE
 70
     6
  9
$SPLINESEGS
 70
     8
  9
$ATTDIA
 70
     0
  9
$ATTREQ
 70
     1
  9
$HANDLING
 70
     0
  9
$HANDSEED
  5
EBD4
  9
$SURFTAB1
 70
     6
  9
$SURFTAB2
 70
     6
  9
$SURFTYPE
 70
     6
  9
$SURFU
 70
     6
  9
$SURFV
 70
     6
  9
$UCSNAME
  2

  9
$UCSORG
 10
0.0
 20
0.0
 30
0.0
  9
$UCSXDIR
 10
1.0
 20
0.0
 30
0.0
  9
$UCSYDIR
 10
0.0
 20
1.0
 30
0.0
  9
$PUCSNAME
  2

  9
$PUCSORG
 10
0.0
 20
0.0
 30
0.0
  9
$PUCSXDIR
 10
1.0
 20
0.0
 30
0.0
  9
$PUCSYDIR
 10
0.0
 20
1.0
 30
0.0
  9
$USERI1
 70
     0
  9
$USERI2
 70
     0
  9
$USERI3
 70
     0
  9
$USERI4
 70
     0
  9
$USERI5
 70
     0
  9
$USERR1
 40
20.0
  9
$USERR2
 40
0.0
  9
$USERR3
 40
0.0
  9
$USERR4
 40
0.0
  9
$USERR5
 40
0.0
  9
$WORLDVIEW
 70
     1
  9
$SHADEDGE
 70
     3
  9
$SHADEDIF
 70
    70
  9
$TILEMODE
 70
     1
  9
$MAXACTVP
 70
    48
  9
$PINSBASE
 10
0.0
 20
0.0
 30
0.0
  9
$PLIMCHECK
 70
     0
  9
$PEXTMIN
 10
-100000000000000000000.0
 20
-100000000000000000000.0
 30
-100000000000000000000.0
  9
$PEXTMAX
 10
100000000000000000000.0
 20
100000000000000000000.0
 30
100000000000000000000.0
  9
$PLIMMIN
 10
0.0
 20
0.0
  9
$PLIMMAX
 10
12.0
 20
9.0
  9
$UNITMODE
 70
     0
  9
$VISRETAIN
 70
     0
  9
$PLINEGEN
 70
     0
  9
$PSLTSCALE
 70
     0
  9
$TREEDEPTH
 70
  3020
  0
ENDSEC
  0
SECTION
  2
TABLES
  0
TABLE
  2
LTYPE
 70
     2
  0
LTYPE
  2
CONTINUOUS
 70
     0
  3
実線
 72
    65
 73
     0
 40
0.0
  0
LTYPE
  2
DASHDOT
 70
     0
  3
____ _ ____ _ ____ _ ____ _ ____ _ ____ _ ____
 72
    65
 73
     4
 40
5.5
 49
4.0
 49
-0.6
 49
0.3
 49
-0.6
  0
ENDTAB
  0
TABLE
  2
LAYER
 70
    12
  0
LAYER
  2
0
 70
     0
 62
     7
  6
CONTINUOUS
  0
LAYER
  2
BASIS
 70
     0
 62
     6
  6
DASHDOT
  0
LAYER
  2
OUTLINE
 70
     0
 62
     3
  6
CONTINUOUS
  0
LAYER
  2
DETAIL
 70
     0
 62
     5
  6
CONTINUOUS
  0
LAYER
  2
SIZE
 70
     0
 62
    30
  6
CONTINUOUS
  0
LAYER
  2
ARRANGE
 70
     0
 62
     1
  6
CONTINUOUS
  0
LAYER
  2
DEFPOINTS
 70
     0
 62
     7
  6
CONTINUOUS
  0
LAYER
  2
ETC
 70
     0
 62
    61
  6
CONTINUOUS
  0
LAYER
  2
FIX
 70
     0
 62
    11
  6
CONTINUOUS
  0
LAYER
  2
NOTE
 70
     0
 62
     4
  6
CONTINUOUS
  0
LAYER
  2
SERVICESPACE
 70
    64
 62
     2
  6
DASHDOT
  0
LAYER
  2
SYMBOLLINE
 70
    64
 62
    15
  6
CONTINUOUS
  0
ENDTAB
  0
TABLE
  2
STYLE
 70
     1
  0
STYLE
  2
STANDARD
 70
     0
 40
64.0
 41
0.9
 50
0.0
 71
     0
 42
64.0
  3
SIMPLEX.shx
  4
BIGFONT.shx
  0
ENDTAB
  0
TABLE
  2
APPID
 70
    15
  0
APPID
  2
ACAD
 70
     0
  0
APPID
  2
AUTOCAD_POSTSCRIPT_FIGURE
 70
     0
  0
APPID
  2
ACAD_EXEMPT_FROM_CAD_STANDARDS
 70
     0
  0
APPID
  2
ACAD_PSEXT
 70
     0
  0
APPID
  2
ACAUTHENVIRON
 70
     0
  0
APPID
  2
GENIUS_GENOENT_13
 70
     0
  0
APPID
  2
GENIUS_GENCFG_13
 70
     0
  0
APPID
  2
GENIUS_GENCFG0_13
 70
     0
  0
APPID
  2
GENIUS_GENCFG1_13
 70
     0
  0
APPID
  2
GENIUS_GENCFG2_13
 70
     0
  0
APPID
  2
GENIUS_GENCFG3_13
 70
     0
  0
APPID
  2
GENIUS_GENCFG4_13
 70
     0
  0
APPID
  2
GENIUS_GEVCFG0_13
 70
     0
  0
APPID
  2
CONTENTBLOCKICON
 70
     0
  0
APPID
  2
CONTENTBLOCKDESCRIPTION
 70
     0
  0
ENDTAB
  0
TABLE
  2
DIMSTYLE
 70
     1
  0
DIMSTYLE
  2
STANDARD
 70
     0
  3

  4

  5

  6

  7

 40
1.0
 41
0.18
 42
0.0625
 43
0.38
 44
0.18
 45
0.0
 46
0.0
 47
0.0
 48
0.0
140
0.18
141
0.09
142
0.0
143
25.4
144
1.0
145
0.0
146
1.0
147
0.09
 71
     0
 72
     0
 73
     1
 74
     1
 75
     0
 76
     0
 77
     0
 78
     0
170
     0
171
     2
172
     0
173
     0
174
     0
175
     0
176
     7
177
     7
178
     7
  0
ENDTAB
  0
TABLE
  2
VIEW
 70
     1
  0
VIEW
  2
ALL
 70
     0
 40
4282.619808
 10
0.0
 20
41.309904
 41
5940.0
 11
0.0
 21
0.0
 31
1.0
 12
0.0
 22
0.0
 32
0.0
 42
50.0
 43
0.0
 44
0.0
 50
0.0
 71
     0
  0
ENDTAB
  0
TABLE
  2
UCS
 70
     0
  0
ENDTAB
  0
TABLE
  2
VPORT
 70
     1
  0
VPORT
  2
*ACTIVE
 70
     0
 10
0.0
 20
0.0
 11
1.0
 21
1.0
 12
69.56407
 22
194.343577
 13
0.0
 23
0.0
 14
1.0
 24
1.0
 15
0.0
 25
0.0
 16
0.0
 26
0.0
 36
1.0
 17
0.0
 27
0.0
 37
0.0
 40
1824.635298
 41
1.629679
 42
50.0
 43
0.0
 44
0.0
 50
0.0
 51
0.0
 71
     0
 72
  1000
 73
     1
 74
     0
 75
     0
 76
     0
 77
     0
 78
     0
  0
ENDTAB
  0
ENDSEC
  0
SECTION
  2
BLOCKS
  0
BLOCK
  8
0
  2
DOT1
 70
     0
 10
0.0
 20
0.0
 30
0.0
  3
DOT1
  1

  0
CIRCLE
  8
SIZE
  6
CONTINUOUS
 62
     7
 10
0.0
 20
0.0
 30
0.0
 40
3.0
  0
ENDBLK
  8
0
  0
BLOCK
  8
0
  2
_ORIGIN
 70
     0
 10
0.0
 20
0.0
 30
0.0
  3
_ORIGIN
  1

  0
CIRCLE
  8
0
  6
CONTINUOUS
 62
     7
 10
0.0
 20
0.0
 30
0.0
 40
0.5
  0
LINE
  8
0
  6
CONTINUOUS
 62
     7
 10
0.0
 20
0.0
 30
0.0
 11
-1.0
 21
0.0
 31
0.0
  0
ENDBLK
  8
0
  0
ENDSEC
  0
SECTION
  2
ENTITIES
  0
TEXT
  8
ETC
  6
CONTINUOUS
 62
    61
 10
915.81505
 20
1035.147516
 30
0.0
 40
64.0
  1
PS-60RC3_4
 41
0.9
  0
TEXT
  8
ETC
  6
CONTINUOUS
 62
    61
 10
911.629056
 20
917.192206
 30
0.0
 40
64.0
  1
システム部材
 41
0.9
  0
TEXT
  8
ETC
  6
CONTINUOUS
 62
    61
 10
962.236558
 20
810.27127
 30
0.0
 40
40.0
  1
PS-60RC3
 41
0.9
  0
CIRCLE
  8
ARRANGE
  6
CONTINUOUS
 62
     1
 10
0.0
 20
0.0
 30
0.0
 40
40.0
  0
POINT
  8
ARRANGE
  6
CONTINUOUS
 62
     1
 10
0.0
 20
0.0
 30
0.0
 39
50.0
  0
LINE
  8
BASIS
  6
DASHDOT
 62
     6
 39
50.0
 10
-142.246649
 20
0.0
 30
0.0
 11
150.695326
 21
0.0
 31
0.0
  0
LINE
  8
NOTE
  6
CONTINUOUS
 62
     4
 39
50.0
 10
-623.118442
 20
444.938627
 30
0.0
 11
-768.863548
 21
616.192938
 31
0.0
  0
LINE
  8
NOTE
  6
CONTINUOUS
 62
     4
 39
50.0
 10
-768.863548
 20
616.192938
 30
0.0
 11
-1292.096082
 21
616.192938
 31
0.0
  0
TEXT
  8
NOTE
  6
CONTINUOUS
 62
     4
 10
-1269.011694
 20
633.994057
 30
0.0
 40
64.0
  1
4-M12ボルト
 41
0.9
  0
LINE
  8
NOTE
  6
CONTINUOUS
 62
     4
 10
-28.861758
 20
325.0604
 30
0.0
 11
14.71373
 21
325.0604
 31
0.0
  0
LINE
  8
NOTE
  6
CONTINUOUS
 62
     4
 10
-21.61523
 20
-325.0604
 30
0.0
 11
17.34362
 21
-325.0604
 31
0.0
  0
LINE
  8
NOTE
  6
CONTINUOUS
 62
     4
 10
-587.605248
 20
-212.36666
 30
0.0
 11
-639.79384
 21
-212.36666
 31
0.0
  0
LINE
  8
NOTE
  6
CONTINUOUS
 62
     4
 10
-587.605248
 20
437.633842
 30
0.0
 11
-639.79384
 21
437.633842
 31
0.0
  0
LINE
  8
OUTLINE
  6
CONTINUOUS
 62
     3
 10
-599.779889
 20
474.157765
 30
0.0
 11
-221.318177
 21
474.157765
 31
0.0
  0
LINE
  8
OUTLINE
  6
CONTINUOUS
 62
     3
 10
-633.260631
 20
-274.987564
 30
0.0
 11
-630.73523
 21
-246.122176
 31
0.0
  0
LINE
  8
OUTLINE
  6
CONTINUOUS
 62
     3
 10
-39.118308
 20
-310.754779
 30
0.0
 11
-4.869856
 21
-310.754779
 31
0.0
  0
LINE
  8
OUTLINE
  6
CONTINUOUS
 62
     3
 10
-39.118308
 20
-310.754779
 30
0.0
 11
-633.260631
 21
-274.987564
 31
0.0
  0
LINE
  8
OUTLINE
  6
CONTINUOUS
 62
     3
 10
-97.094016
 20
310.754779
 30
0.0
 11
-4.869856
 21
310.754779
 31
0.0
  0
LINE
  8
OUTLINE
  6
CONTINUOUS
 62
     3
 10
-97.094016
 20
470.505373
 30
0.0
 11
-97.094016
 21
310.754779
 31
0.0
  0
LINE
  8
OUTLINE
  6
CONTINUOUS
 62
     3
 10
-632.894806
 20
443.721071
 30
0.0
 11
-631.677326
 21
444.93852
 31
0.0
  0
LINE
  8
OUTLINE
  6
CONTINUOUS
 62
     3
 10
-112.92105
 20
482.680013
 30
0.0
 11
-218.883248
 21
482.680013
 31
0.0
  0
LINE
  8
OUTLINE
  6
CONTINUOUS
 62
     3
 10
-631.677448
 20
444.938627
 30
0.0
 11
-599.779889
 21
444.938627
 31
0.0
  0
LINE
  8
OUTLINE
  6
CONTINUOUS
 62
     3
 10
-631.677448
 20
430.329058
 30
0.0
 11
-599.779889
 21
430.329058
 31
0.0
  0
LINE
  8
OUTLINE
  6
CONTINUOUS
 62
     3
 10
-112.92105
 20
482.680013
 30
0.0
 11
-36.523923
 21
497.029295
 31
0.0
  0
LINE
  8
OUTLINE
  6
CONTINUOUS
 62
     3
 10
0.0
 20
311.972243
 30
0.0
 11
0.0
 21
343.148558
 31
0.0
  0
LINE
  8
OUTLINE
  6
CONTINUOUS
 62
     3
 10
-4.869856
 20
-311.972243
 30
0.0
 11
-4.869856
 21
-310.754779
 31
0.0
  0
LINE
  8
OUTLINE
  6
CONTINUOUS
 62
     3
 10
-4.869856
 20
310.754779
 30
0.0
 11
-4.869856
 21
311.972243
 31
0.0
  0
LINE
  8
OUTLINE
  6
CONTINUOUS
 62
     3
 10
-17.044497
 20
311.972243
 30
0.0
 11
-19.479425
 21
314.407171
 31
0.0
  0
LINE
  8
OUTLINE
  6
CONTINUOUS
 62
     3
 10
-19.479425
 20
-340.71363
 30
0.0
 11
-19.479425
 21
-314.407171
 31
0.0
  0
LINE
  8
OUTLINE
  6
CONTINUOUS
 62
     3
 10
-19.479425
 20
314.407171
 30
0.0
 11
-19.479425
 21
340.71363
 31
0.0
  0
LINE
  8
OUTLINE
  6
CONTINUOUS
 62
     3
 10
-19.479425
 20
348.018414
 30
0.0
 11
-19.479425
 21
345.583486
 31
0.0
  0
LINE
  8
OUTLINE
  6
CONTINUOUS
 62
     3
 10
-19.479425
 20
-345.583486
 30
0.0
 11
-19.479425
 21
-348.018414
 31
0.0
  0
LINE
  8
OUTLINE
  6
CONTINUOUS
 62
     3
 10
-4.869856
 20
348.018414
 30
0.0
 11
-19.479425
 21
348.018414
 31
0.0
  0
LINE
  8
OUTLINE
  6
CONTINUOUS
 62
     3
 10
-19.479425
 20
345.583486
 30
0.0
 11
-4.869856
 21
345.583486
 31
0.0
  0
LINE
  8
OUTLINE
  6
CONTINUOUS
 62
     3
 10
-2.434928
 20
343.148558
 30
0.0
 11
-17.044497
 21
343.148558
 31
0.0
  0
LINE
  8
OUTLINE
  6
CONTINUOUS
 62
     3
 10
-218.883248
 20
482.680013
 30
0.0
 11
-221.318177
 21
480.245085
 31
0.0
  0
LINE
  8
OUTLINE
  6
CONTINUOUS
 62
     3
 10
-4.869856
 20
311.972243
 30
0.0
 11
-17.044497
 21
311.972243
 31
0.0
  0
LINE
  8
OUTLINE
  6
CONTINUOUS
 62
     3
 10
-632.894806
 20
-206.279446
 30
0.0
 11
-631.677326
 21
-205.061997
 31
0.0
  0
LINE
  8
OUTLINE
  6
CONTINUOUS
 62
     3
 10
-221.318177
 20
475.375229
 30
0.0
 11
-221.318177
 21
480.245085
 31
0.0
  0
LINE
  8
OUTLINE
  6
CONTINUOUS
 62
     3
 10
-19.479425
 20
340.71363
 30
0.0
 11
-17.044497
 21
343.148558
 31
0.0
  0
LINE
  8
OUTLINE
  6
CONTINUOUS
 62
     3
 10
-36.523923
 20
497.029295
 30
0.0
 11
-12.174641
 21
536.727859
 31
0.0
  0
LINE
  8
OUTLINE
  6
CONTINUOUS
 62
     3
 10
-632.894806
 20
431.546628
 30
0.0
 11
-631.677326
 21
430.329179
 31
0.0
  0
LINE
  8
OUTLINE
  6
CONTINUOUS
 62
     3
 10
-17.044497
 20
-343.148558
 30
0.0
 11
-19.479425
 21
-340.71363
 31
0.0
  0
LINE
  8
OUTLINE
  6
CONTINUOUS
 62
     3
 10
-631.677448
 20
-205.061875
 30
0.0
 11
-599.779889
 21
-205.061875
 31
0.0
  0
LINE
  8
OUTLINE
  6
CONTINUOUS
 62
     3
 10
-631.677448
 20
-219.671444
 30
0.0
 11
-599.779889
 21
-219.671444
 31
0.0
  0
LINE
  8
OUTLINE
  6
CONTINUOUS
 62
     3
 10
-17.044497
 20
-311.972243
 30
0.0
 11
-4.869856
 21
-311.972243
 31
0.0
  0
LINE
  8
OUTLINE
  6
CONTINUOUS
 62
     3
 10
-17.044497
 20
-343.148558
 30
0.0
 11
-4.869856
 21
-343.148558
 31
0.0
  0
LINE
  8
OUTLINE
  6
CONTINUOUS
 62
     3
 10
-4.869856
 20
-345.583486
 30
0.0
 11
-19.479425
 21
-345.583486
 31
0.0
  0
LINE
  8
OUTLINE
  6
CONTINUOUS
 62
     3
 10
-19.479425
 20
-348.018414
 30
0.0
 11
-4.869856
 21
-348.018414
 31
0.0
  0
LINE
  8
OUTLINE
  6
CONTINUOUS
 62
     3
 10
-632.894912
 20
443.721163
 30
0.0
 11
-632.894912
 21
431.546522
 31
0.0
  0
LINE
  8
OUTLINE
  6
CONTINUOUS
 62
     3
 10
-632.894912
 20
-206.27934
 30
0.0
 11
-632.894912
 21
-218.45398
 31
0.0
  0
LINE
  8
OUTLINE
  6
CONTINUOUS
 62
     3
 10
-19.479425
 20
-314.407171
 30
0.0
 11
-17.044497
 21
-311.972243
 31
0.0
  0
LINE
  8
OUTLINE
  6
CONTINUOUS
 62
     3
 10
-632.894806
 20
-218.453889
 30
0.0
 11
-631.677326
 21
-219.671338
 31
0.0
  0
ARC
  8
OUTLINE
  6
CONTINUOUS
 62
     3
 10
-4.869856
 20
475.375229
 30
0.0
 40
4.869856
 50
270.0
 51
0.0
  0
ARC
  8
OUTLINE
  6
CONTINUOUS
 62
     3
 10
-4.869856
 20
343.148558
 30
0.0
 40
4.869856
 50
0.0
 51
90.0
  0
ARC
  8
OUTLINE
  6
CONTINUOUS
 62
     3
 10
-4.869856
 20
311.972243
 30
0.0
 40
4.869856
 50
307.302501
 51
0.0
  0
ARC
  8
OUTLINE
  6
CONTINUOUS
 62
     3
 10
-3.652392
 20
304.876345
 30
0.0
 40
3.652392
 50
0.0
 51
60.0
  0
ARC
  8
OUTLINE
  6
CONTINUOUS
 62
     3
 10
-4.869856
 20
343.148558
 30
0.0
 40
2.434928
 50
0.0
 51
90.0
  0
ARC
  8
OUTLINE
  6
CONTINUOUS
 62
     3
 10
-1.217464
 20
309.093762
 30
0.0
 40
1.217464
 50
180.0
 51
240.0
  0
ARC
  8
OUTLINE
  6
CONTINUOUS
 62
     3
 10
98.772437
 20
306.128415
 30
0.0
 40
0.973971
 50
270.0
 51
90.0
  0
ARC
  8
OUTLINE
  6
CONTINUOUS
 62
     3
 10
-3.652392
 20
-304.876345
 30
0.0
 40
3.652392
 50
300.0
 51
322.448448
  0
ARC
  8
OUTLINE
  6
CONTINUOUS
 62
     3
 10
-1.217464
 20
-309.093762
 30
0.0
 40
1.217464
 50
120.0
 51
180.0
  0
ARC
  8
OUTLINE
  6
CONTINUOUS
 62
     3
 10
98.772437
 20
-306.128415
 30
0.0
 40
0.973971
 50
270.0
 51
90.0
  0
LINE
  8
OUTLINE
  6
CONTINUOUS
 62
     3
 10
0.0
 20
571.251781
 30
0.0
 11
-9.739713
 21
571.251781
 31
0.0
  0
LINE
  8
OUTLINE
  6
CONTINUOUS
 62
     3
 10
99.746409
 20
282.753105
 30
0.0
 11
99.746409
 21
-282.753105
 31
0.0
  0
LINE
  8
OUTLINE
  6
CONTINUOUS
 62
     3
 10
98.772437
 20
307.102387
 30
0.0
 11
98.772437
 21
282.753105
 31
0.0
  0
LINE
  8
OUTLINE
  6
CONTINUOUS
 62
     3
 10
98.772437
 20
-285.188033
 30
0.0
 11
98.772437
 21
-307.102387
 31
0.0
  0
LINE
  8
OUTLINE
  6
CONTINUOUS
 62
     3
 10
98.772437
 20
-282.753105
 30
0.0
 11
98.772437
 21
-285.188033
 31
0.0
  0
LINE
  8
OUTLINE
  6
CONTINUOUS
 62
     3
 10
-4.869856
 20
470.505373
 30
0.0
 11
-97.094016
 21
470.505373
 31
0.0
  0
LINE
  8
OUTLINE
  6
CONTINUOUS
 62
     3
 10
0.0
 20
-343.148558
 30
0.0
 11
0.0
 21
-311.972243
 31
0.0
  0
LINE
  8
OUTLINE
  6
CONTINUOUS
 62
     3
 10
0.0
 20
571.251781
 30
0.0
 11
0.0
 21
475.375229
 31
0.0
  0
LINE
  8
OUTLINE
  6
CONTINUOUS
 62
     3
 10
-12.174641
 20
568.816853
 30
0.0
 11
-12.174641
 21
536.727859
 31
0.0
  0
LINE
  8
OUTLINE
  6
CONTINUOUS
 62
     3
 10
-0.756882
 20
307.102387
 30
0.0
 11
98.772437
 21
307.102387
 31
0.0
  0
LINE
  8
OUTLINE
  6
CONTINUOUS
 62
     3
 10
98.772437
 20
282.753105
 30
0.0
 11
99.746424
 21
282.753105
 31
0.0
  0
LINE
  8
OUTLINE
  6
CONTINUOUS
 62
     3
 10
-9.739713
 20
571.251781
 30
0.0
 11
-12.174641
 21
568.816853
 31
0.0
  0
LINE
  8
OUTLINE
  6
CONTINUOUS
 62
     3
 10
-221.318177
 20
474.157765
 30
0.0
 11
-221.318177
 21
475.375229
 31
0.0
  0
LINE
  8
OUTLINE
  6
CONTINUOUS
 62
     3
 10
98.772437
 20
-282.753105
 30
0.0
 11
99.746424
 21
-282.753105
 31
0.0
  0
LINE
  8
OUTLINE
  6
CONTINUOUS
 62
     3
 10
-0.756756
 20
-307.102387
 30
0.0
 11
98.772437
 21
-307.102387
 31
0.0
  0
LINE
  8
OUTLINE
  6
CONTINUOUS
 62
     3
 10
-599.779889
 20
-247.784271
 30
0.0
 11
-599.779889
 21
-219.671444
 31
0.0
  0
ARC
  8
OUTLINE
  6
CONTINUOUS
 62
     3
 10
-4.869856
 20
-343.148558
 30
0.0
 40
4.869856
 50
270.0
 51
0.0
  0
ARC
  8
OUTLINE
  6
CONTINUOUS
 62
     3
 10
-4.869856
 20
-311.972243
 30
0.0
 40
4.869856
 50
0.0
 51
52.697499
  0
ARC
  8
OUTLINE
  6
CONTINUOUS
 62
     3
 10
-4.869856
 20
-343.148558
 30
0.0
 40
2.434928
 50
270.0
 51
0.0
  0
LINE
  8
SIZE
  6
CONTINUOUS
 62
    30
 10
-633.699544
 20
437.633842
 30
0.0
 11
-788.86341
 21
437.633842
 31
0.0
  0
LINE
  8
SIZE
  6
CONTINUOUS
 62
    30
 10
-633.699544
 20
-212.36666
 30
0.0
 11
-788.86341
 21
-212.36666
 31
0.0
  0
LINE
  8
SIZE
  6
CONTINUOUS
 62
    30
 10
-768.86341
 20
425.633842
 30
0.0
 11
-768.86341
 21
-200.36666
 31
0.0
  0
CIRCLE
  8
SIZE
  6
CONTINUOUS
 62
    30
 10
-768.86341
 20
437.633842
 30
0.0
 40
6.0
  0
LINE
  8
SIZE
  6
CONTINUOUS
 62
    30
 10
-768.86341
 20
437.633842
 30
0.0
 11
-768.86341
 21
425.633842
 31
0.0
  0
CIRCLE
  8
SIZE
  6
CONTINUOUS
 62
    30
 10
-768.86341
 20
-212.36666
 30
0.0
 40
6.0
  0
LINE
  8
SIZE
  6
CONTINUOUS
 62
    30
 10
-768.86341
 20
-212.36666
 30
0.0
 11
-768.86341
 21
-200.36666
 31
0.0
  0
TEXT
  8
SIZE
  6
CONTINUOUS
 62
    30
 10
-793.86341
 20
76.705591
 30
0.0
 40
64.0
  1
650
 50
90.0
 41
0.9
 51
0.0
  7
STANDARD
 71
     0
 72
     1
 11
-793.86341
 21
157.633591
 31
0.0
210
0.0
220
0.0
230
1.0
  0
POINT
  8
DEFPOINTS
  6
CONTINUOUS
 62
    30
 10
-613.699544
 20
437.633842
 30
0.0
  0
POINT
  8
DEFPOINTS
  6
CONTINUOUS
 62
    30
 10
-613.699544
 20
-212.36666
 30
0.0
  0
POINT
  8
DEFPOINTS
  6
CONTINUOUS
 62
    30
 10
-768.86341
 20
-212.36666
 30
0.0
  0
LINE
  8
SIZE
  6
CONTINUOUS
 62
    30
 10
15.130144
 20
348.018414
 30
0.0
 11
722.503715
 21
348.018414
 31
0.0
  0
LINE
  8
SIZE
  6
CONTINUOUS
 62
    30
 10
10.785436
 20
-348.018414
 30
0.0
 11
722.503715
 21
-348.018414
 31
0.0
  0
LINE
  8
SIZE
  6
CONTINUOUS
 62
    30
 10
702.503715
 20
336.018414
 30
0.0
 11
702.503715
 21
-336.018414
 31
0.0
  0
CIRCLE
  8
SIZE
  6
CONTINUOUS
 62
    30
 10
702.503715
 20
348.018414
 30
0.0
 40
6.0
  0
LINE
  8
SIZE
  6
CONTINUOUS
 62
    30
 10
702.503715
 20
348.018414
 30
0.0
 11
702.503715
 21
336.018414
 31
0.0
  0
CIRCLE
  8
SIZE
  6
CONTINUOUS
 62
    30
 10
702.503715
 20
-348.018414
 30
0.0
 40
6.0
  0
LINE
  8
SIZE
  6
CONTINUOUS
 62
    30
 10
702.503715
 20
-348.018414
 30
0.0
 11
702.503715
 21
-336.018414
 31
0.0
  0
TEXT
  8
SIZE
  6
CONTINUOUS
 62
    30
 10
677.503715
 20
-80.352
 30
0.0
 40
64.0
  1
696
 50
90.0
 41
0.9
 51
0.0
  7
STANDARD
 71
     0
 72
     1
 11
677.503715
 21
0.0
 31
0.0
210
0.0
220
0.0
230
1.0
  0
POINT
  8
DEFPOINTS
  6
CONTINUOUS
 62
    30
 10
-4.869856
 20
348.018414
 30
0.0
  0
POINT
  8
DEFPOINTS
  6
CONTINUOUS
 62
    30
 10
-9.214564
 20
-348.018414
 30
0.0
  0
POINT
  8
DEFPOINTS
  6
CONTINUOUS
 62
    30
 10
702.503715
 20
-348.018414
 30
0.0
  0
LINE
  8
SIZE
  6
CONTINUOUS
 62
    30
 10
78.600949
 20
307.102387
 30
0.0
 11
293.665764
 21
307.102387
 31
0.0
  0
LINE
  8
SIZE
  6
CONTINUOUS
 62
    30
 10
80.007778
 20
-307.102387
 30
0.0
 11
293.665764
 21
-307.102387
 31
0.0
  0
LINE
  8
SIZE
  6
CONTINUOUS
 62
    30
 10
273.665764
 20
295.102387
 30
0.0
 11
273.665764
 21
-295.102387
 31
0.0
  0
CIRCLE
  8
SIZE
  6
CONTINUOUS
 62
    30
 10
273.665764
 20
307.102387
 30
0.0
 40
6.0
  0
LINE
  8
SIZE
  6
CONTINUOUS
 62
    30
 10
273.665764
 20
307.102387
 30
0.0
 11
273.665764
 21
295.102387
 31
0.0
  0
CIRCLE
  8
SIZE
  6
CONTINUOUS
 62
    30
 10
273.665764
 20
-307.102387
 30
0.0
 40
6.0
  0
LINE
  8
SIZE
  6
CONTINUOUS
 62
    30
 10
273.665764
 20
-307.102387
 30
0.0
 11
273.665764
 21
-295.102387
 31
0.0
  0
TEXT
  8
SIZE
  6
CONTINUOUS
 62
    30
 10
248.665764
 20
-75.168
 30
0.0
 40
64.0
  1
614
 50
90.0
 41
0.9
 51
0.0
  7
STANDARD
 71
     0
 72
     1
 11
248.665764
 21
0.0
 31
0.0
210
0.0
220
0.0
230
1.0
  0
POINT
  8
DEFPOINTS
  6
CONTINUOUS
 62
    30
 10
58.600949
 20
307.102387
 30
0.0
  0
POINT
  8
DEFPOINTS
  6
CONTINUOUS
 62
    30
 10
60.007778
 20
-307.102387
 30
0.0
  0
POINT
  8
DEFPOINTS
  6
CONTINUOUS
 62
    30
 10
273.665764
 20
-307.102387
 30
0.0
  0
LINE
  8
SIZE
  6
CONTINUOUS
 62
    30
 10
-5.354875
 20
470.505373
 30
0.0
 11
862.978474
 21
470.505373
 31
0.0
  0
LINE
  8
SIZE
  6
CONTINUOUS
 62
    30
 10
7.825359
 20
-348.018414
 30
0.0
 11
862.978474
 21
-348.018414
 31
0.0
  0
LINE
  8
SIZE
  6
CONTINUOUS
 62
    30
 10
842.978474
 20
458.505373
 30
0.0
 11
842.978474
 21
-336.018414
 31
0.0
  0
CIRCLE
  8
SIZE
  6
CONTINUOUS
 62
    30
 10
842.978474
 20
470.505373
 30
0.0
 40
6.0
  0
LINE
  8
SIZE
  6
CONTINUOUS
 62
    30
 10
842.978474
 20
470.505373
 30
0.0
 11
842.978474
 21
458.505373
 31
0.0
  0
CIRCLE
  8
SIZE
  6
CONTINUOUS
 62
    30
 10
842.978474
 20
-348.018414
 30
0.0
 40
6.0
  0
LINE
  8
SIZE
  6
CONTINUOUS
 62
    30
 10
842.978474
 20
-348.018414
 30
0.0
 11
842.978474
 21
-336.018414
 31
0.0
  0
TEXT
  8
SIZE
  6
CONTINUOUS
 62
    30
 10
817.978474
 20
31.651479
 30
0.0
 40
64.0
  1
819
 50
90.0
 41
0.9
 51
0.0
  7
STANDARD
 71
     0
 72
     1
 11
817.978474
 21
106.243479
 31
0.0
210
0.0
220
0.0
230
1.0
  0
POINT
  8
DEFPOINTS
  6
CONTINUOUS
 62
    30
 10
-25.354875
 20
470.505373
 30
0.0
  0
POINT
  8
DEFPOINTS
  6
CONTINUOUS
 62
    30
 10
-12.174641
 20
-348.018414
 30
0.0
  0
POINT
  8
DEFPOINTS
  6
CONTINUOUS
 62
    30
 10
842.978474
 20
-348.018414
 30
0.0
  0
LINE
  8
SIZE
  6
CONTINUOUS
 62
    30
 10
20.0
 20
571.251781
 30
0.0
 11
1003.453241
 21
571.251781
 31
0.0
  0
LINE
  8
SIZE
  6
CONTINUOUS
 62
    30
 10
7.825359
 20
-348.018414
 30
0.0
 11
1003.453241
 21
-348.018414
 31
0.0
  0
LINE
  8
SIZE
  6
CONTINUOUS
 62
    30
 10
983.453241
 20
559.251781
 30
0.0
 11
983.453241
 21
-336.018414
 31
0.0
  0
CIRCLE
  8
SIZE
  6
CONTINUOUS
 62
    30
 10
983.453241
 20
571.251781
 30
0.0
 40
6.0
  0
LINE
  8
SIZE
  6
CONTINUOUS
 62
    30
 10
983.453241
 20
571.251781
 30
0.0
 11
983.453241
 21
559.251781
 31
0.0
  0
CIRCLE
  8
SIZE
  6
CONTINUOUS
 62
    30
 10
983.453241
 20
-348.018414
 30
0.0
 40
6.0
  0
LINE
  8
SIZE
  6
CONTINUOUS
 62
    30
 10
983.453241
 20
-348.018414
 30
0.0
 11
983.453241
 21
-336.018414
 31
0.0
  0
TEXT
  8
SIZE
  6
CONTINUOUS
 62
    30
 10
958.453241
 20
104.024684
 30
0.0
 40
64.0
  1
919
 50
90.0
 41
0.9
 51
0.0
  7
STANDARD
 71
     0
 72
     1
 11
958.453241
 21
178.616684
 31
0.0
210
0.0
220
0.0
230
1.0
  0
POINT
  8
DEFPOINTS
  6
CONTINUOUS
 62
    30
 10
0.0
 20
571.251781
 30
0.0
  0
POINT
  8
DEFPOINTS
  6
CONTINUOUS
 62
    30
 10
-12.174641
 20
-348.018414
 30
0.0
  0
POINT
  8
DEFPOINTS
  6
CONTINUOUS
 62
    30
 10
983.453241
 20
-348.018414
 30
0.0
  0
LINE
  8
SIZE
  6
CONTINUOUS
 62
    30
 10
0.0
 20
591.251781
 30
0.0
 11
0.0
 21
675.851416
 31
0.0
  0
LINE
  8
SIZE
  6
CONTINUOUS
 62
    30
 10
-97.094016
 20
490.505373
 30
0.0
 11
-97.094016
 21
675.851416
 31
0.0
  0
LINE
  8
SIZE
  6
CONTINUOUS
 62
    30
 10
-12.0
 20
655.851416
 30
0.0
 11
-85.094016
 21
655.851416
 31
0.0
  0
LINE
  8
SIZE
  6
CONTINUOUS
 62
    30
 10
-97.094016
 20
655.851416
 30
0.0
 11
-252.351159
 21
655.851416
 31
0.0
  0
CIRCLE
  8
SIZE
  6
CONTINUOUS
 62
    30
 10
0.0
 20
655.851416
 30
0.0
 40
6.0
  0
LINE
  8
SIZE
  6
CONTINUOUS
 62
    30
 10
0.0
 20
655.851416
 30
0.0
 11
-12.0
 21
655.851416
 31
0.0
  0
CIRCLE
  8
SIZE
  6
CONTINUOUS
 62
    30
 10
-97.094016
 20
655.851416
 30
0.0
 40
6.0
  0
LINE
  8
SIZE
  6
CONTINUOUS
 62
    30
 10
-97.094016
 20
655.851416
 30
0.0
 11
-85.094016
 21
655.851416
 31
0.0
  0
TEXT
  8
SIZE
  6
CONTINUOUS
 62
    30
 10
-234.290588
 20
680.851416
 30
0.0
 40
64.0
  1
97
 50
0.0
 41
0.9
 51
0.0
  7
STANDARD
 71
     0
 72
     1
 11
-180.722588
 21
680.851416
 31
0.0
210
0.0
220
0.0
230
1.0
  0
POINT
  8
DEFPOINTS
  6
CONTINUOUS
 62
    30
 10
0.0
 20
571.251781
 30
0.0
  0
POINT
  8
DEFPOINTS
  6
CONTINUOUS
 62
    30
 10
-97.094016
 20
470.505373
 30
0.0
  0
POINT
  8
DEFPOINTS
  6
CONTINUOUS
 62
    30
 10
-97.094016
 20
655.851416
 30
0.0
  0
LINE
  8
SIZE
  6
CONTINUOUS
 62
    30
 10
0.0
 20
591.251781
 30
0.0
 11
0.0
 21
819.444672
 31
0.0
  0
LINE
  8
SIZE
  6
CONTINUOUS
 62
    30
 10
-599.779904
 20
494.157765
 30
0.0
 11
-599.779904
 21
819.444672
 31
0.0
  0
LINE
  8
SIZE
  6
CONTINUOUS
 62
    30
 10
-12.0
 20
799.444672
 30
0.0
 11
-587.779904
 21
799.444672
 31
0.0
  0
CIRCLE
  8
SIZE
  6
CONTINUOUS
 62
    30
 10
0.0
 20
799.444672
 30
0.0
 40
6.0
  0
LINE
  8
SIZE
  6
CONTINUOUS
 62
    30
 10
0.0
 20
799.444672
 30
0.0
 11
-12.0
 21
799.444672
 31
0.0
  0
CIRCLE
  8
SIZE
  6
CONTINUOUS
 62
    30
 10
-599.779904
 20
799.444672
 30
0.0
 40
6.0
  0
LINE
  8
SIZE
  6
CONTINUOUS
 62
    30
 10
-599.779904
 20
799.444672
 30
0.0
 11
-587.779904
 21
799.444672
 31
0.0
  0
TEXT
  8
SIZE
  6
CONTINUOUS
 62
    30
 10
-381.393952
 20
824.444672
 30
0.0
 40
64.0
  1
600
 50
0.0
 41
0.9
 51
0.0
  7
STANDARD
 71
     0
 72
     1
 11
-299.889952
 21
824.444672
 31
0.0
210
0.0
220
0.0
230
1.0
  0
POINT
  8
DEFPOINTS
  6
CONTINUOUS
 62
    30
 10
0.0
 20
571.251781
 30
0.0
  0
POINT
  8
DEFPOINTS
  6
CONTINUOUS
 62
    30
 10
-599.779904
 20
474.157765
 30
0.0
  0
POINT
  8
DEFPOINTS
  6
CONTINUOUS
 62
    30
 10
-599.779904
 20
799.444672
 30
0.0
  0
LINE
  8
SIZE
  6
CONTINUOUS
 62
    30
 10
0.0
 20
-431.11601
 30
0.0
 11
0.0
 21
-571.219501
 31
0.0
  0
LINE
  8
SIZE
  6
CONTINUOUS
 62
    30
 10
99.746439
 20
-431.11601
 30
0.0
 11
99.746439
 21
-571.219501
 31
0.0
  0
LINE
  8
SIZE
  6
CONTINUOUS
 62
    30
 10
87.746439
 20
-551.219501
 30
0.0
 11
12.0
 21
-551.219501
 31
0.0
  0
LINE
  8
SIZE
  6
CONTINUOUS
 62
    30
 10
0.0
 20
-551.219501
 30
0.0
 11
-199.142857
 21
-551.219501
 31
0.0
  0
CIRCLE
  8
SIZE
  6
CONTINUOUS
 62
    30
 10
99.746439
 20
-551.219501
 30
0.0
 40
6.0
  0
LINE
  8
SIZE
  6
CONTINUOUS
 62
    30
 10
99.746439
 20
-551.219501
 30
0.0
 11
87.746439
 21
-551.219501
 31
0.0
  0
CIRCLE
  8
SIZE
  6
CONTINUOUS
 62
    30
 10
0.0
 20
-551.219501
 30
0.0
 40
6.0
  0
LINE
  8
SIZE
  6
CONTINUOUS
 62
    30
 10
0.0
 20
-551.219501
 30
0.0
 11
12.0
 21
-551.219501
 31
0.0
  0
TEXT
  8
SIZE
  6
CONTINUOUS
 62
    30
 10
-181.315429
 20
-526.219501
 30
0.0
 40
64.0
  1
100
 50
0.0
 41
0.9
 51
0.0
  7
STANDARD
 71
     0
 72
     1
 11
-105.571429
 21
-526.219501
 31
0.0
210
0.0
220
0.0
230
1.0
  0
POINT
  8
DEFPOINTS
  6
CONTINUOUS
 62
    30
 10
0.0
 20
-411.11601
 30
0.0
  0
POINT
  8
DEFPOINTS
  6
CONTINUOUS
 62
    30
 10
99.746439
 20
-411.11601
 30
0.0
  0
POINT
  8
DEFPOINTS
  6
CONTINUOUS
 62
    30
 10
99.746439
 20
-551.219501
 30
0.0
  0
LINE
  8
SIZE
  6
CONTINUOUS
 62
    30
 10
-633.260631
 20
-294.987564
 30
0.0
 11
-633.260631
 21
-710.453861
 31
0.0
  0
LINE
  8
SIZE
  6
CONTINUOUS
 62
    30
 10
99.746409
 20
-294.987564
 30
0.0
 11
99.746409
 21
-710.453861
 31
0.0
  0
LINE
  8
SIZE
  6
CONTINUOUS
 62
    30
 10
-621.260631
 20
-690.453861
 30
0.0
 11
87.746409
 21
-690.453861
 31
0.0
  0
CIRCLE
  8
SIZE
  6
CONTINUOUS
 62
    30
 10
-633.260631
 20
-690.453861
 30
0.0
 40
6.0
  0
LINE
  8
SIZE
  6
CONTINUOUS
 62
    30
 10
-633.260631
 20
-690.453861
 30
0.0
 11
-621.260631
 21
-690.453861
 31
0.0
  0
CIRCLE
  8
SIZE
  6
CONTINUOUS
 62
    30
 10
99.746409
 20
-690.453861
 30
0.0
 40
6.0
  0
LINE
  8
SIZE
  6
CONTINUOUS
 62
    30
 10
99.746409
 20
-690.453861
 30
0.0
 11
87.746409
 21
-690.453861
 31
0.0
  0
TEXT
  8
SIZE
  6
CONTINUOUS
 62
    30
 10
-347.109111
 20
-665.453861
 30
0.0
 40
64.0
  1
733
 50
0.0
 41
0.9
 51
0.0
  7
STANDARD
 71
     0
 72
     1
 11
-266.757111
 21
-665.453861
 31
0.0
210
0.0
220
0.0
230
1.0
  0
POINT
  8
DEFPOINTS
  6
CONTINUOUS
 62
    30
 10
-633.260631
 20
-274.987564
 30
0.0
  0
POINT
  8
DEFPOINTS
  6
CONTINUOUS
 62
    30
 10
99.746409
 20
-274.987564
 30
0.0
  0
POINT
  8
DEFPOINTS
  6
CONTINUOUS
 62
    30
 10
99.746409
 20
-690.453861
 30
0.0
  0
LINE
  8
NOTE
  6
CONTINUOUS
 62
     4
 39
50.0
 10
914.614843
 20
718.454311
 30
0.0
 11
239.807042
 21
718.454311
 31
0.0
  0
TEXT
  8
NOTE
  6
CONTINUOUS
 62
     4
 10
274.032411
 20
736.255431
 30
0.0
 40
64.0
  1
AH 4-φ15×23
 41
0.9
  0
LINE
  8
NOTE
  6
CONTINUOUS
 62
     4
 39
50.0
 10
731.472976
 20
-509.407848
 30
0.0
 11
242.888905
 21
-509.407848
 31
0.0
  0
TEXT
  8
NOTE
  6
CONTINUOUS
 62
     4
 10
266.981972
 20
-491.606729
 30
0.0
 40
64.0
  1
AH 4-φ14
 41
0.9
  0
LINE
  8
NOTE
  6
CONTINUOUS
 62
     4
 39
50.0
 10
239.807042
 20
718.454311
 30
0.0
 11
4.616922
 21
556.140139
 31
0.0
  0
LINE
  8
NOTE
  6
CONTINUOUS
 62
     4
 39
50.0
 10
4.616922
 20
556.140139
 30
0.0
 11
18.703626
 21
582.456395
 31
0.0
  0
LINE
  8
NOTE
  6
CONTINUOUS
 62
     4
 39
50.0
 10
4.616922
 20
556.140139
 30
0.0
 11
39.106793
 21
564.79495
 31
0.0
  0
LINE
  8
NOTE
  6
CONTINUOUS
 62
     4
 39
50.0
 10
-623.118442
 20
444.938627
 30
0.0
 11
-629.045351
 21
461.292326
 31
0.0
  0
LINE
  8
NOTE
  6
CONTINUOUS
 62
     4
 39
50.0
 10
-623.118442
 20
444.938627
 30
0.0
 11
-638.313956
 21
453.404327
 31
0.0
  0
CIRCLE
  8
FIX
  6
CONTINUOUS
 62
    11
 39
50.0
 10
0.0
 20
-325.0604
 30
0.0
 40
7.0
  0
LINE
  8
NOTE
  6
CONTINUOUS
 62
     4
 39
50.0
 10
242.888905
 20
-509.407848
 30
0.0
 11
3.869707
 21
-330.893527
 31
0.0
  0
LINE
  8
NOTE
  6
CONTINUOUS
 62
     4
 39
50.0
 10
3.869707
 20
-330.893527
 30
0.0
 11
15.229737
 21
-345.944461
 31
0.0
  0
LINE
  8
NOTE
  6
CONTINUOUS
 62
     4
 39
50.0
 10
3.869707
 20
-330.893527
 30
0.0
 11
20.606813
 21
-338.704459
 31
0.0
  0
CIRCLE
  8
FIX
  6
CONTINUOUS
 62
    11
 39
50.0
 10
0.0
 20
325.0604
 30
0.0
 40
7.0
  0
LINE
  8
NOTE
  6
CONTINUOUS
 62
     4
 39
50.0
 10
-27.783458
 20
550.878577
 30
0.0
 11
22.920399
 21
550.878577
 31
0.0
  0
LINE
  8
NOTE
  6
CONTINUOUS
 62
     4
 39
50.0
 10
-29.627239
 20
500.878577
 30
0.0
 11
22.920399
 21
500.878577
 31
0.0
  0
CIRCLE
  8
FIX
  6
CONTINUOUS
 62
    11
 39
50.0
 10
0.0
 20
550.878577
 30
0.0
 40
7.0
  0
CIRCLE
  8
FIX
  6
CONTINUOUS
 62
    11
 39
50.0
 10
0.0
 20
500.878577
 30
0.0
 40
7.0
  0
LINE
  8
SIZE
  6
CONTINUOUS
 62
    30
 10
34.71373
 20
325.0604
 30
0.0
 11
585.221563
 21
325.0604
 31
0.0
  0
LINE
  8
SIZE
  6
CONTINUOUS
 62
    30
 10
37.34362
 20
-325.0604
 30
0.0
 11
585.221563
 21
-325.0604
 31
0.0
  0
LINE
  8
SIZE
  6
CONTINUOUS
 62
    30
 10
565.221563
 20
313.0604
 30
0.0
 11
565.221563
 21
-313.0604
 31
0.0
  0
CIRCLE
  8
SIZE
  6
CONTINUOUS
 62
    30
 10
565.221563
 20
325.0604
 30
0.0
 40
6.0
  0
LINE
  8
SIZE
  6
CONTINUOUS
 62
    30
 10
565.221563
 20
325.0604
 30
0.0
 11
565.221563
 21
313.0604
 31
0.0
  0
CIRCLE
  8
SIZE
  6
CONTINUOUS
 62
    30
 10
565.221563
 20
-325.0604
 30
0.0
 40
6.0
  0
LINE
  8
SIZE
  6
CONTINUOUS
 62
    30
 10
565.221563
 20
-325.0604
 30
0.0
 11
565.221563
 21
-313.0604
 31
0.0
  0
TEXT
  8
SIZE
  6
CONTINUOUS
 62
    30
 10
540.221563
 20
-80.928
 30
0.0
 40
64.0
  1
650
 50
90.0
 41
0.9
 51
0.0
  7
STANDARD
 71
     0
 72
     1
 11
540.221563
 21
0.0
 31
0.0
210
0.0
220
0.0
230
1.0
  0
POINT
  8
DEFPOINTS
  6
CONTINUOUS
 62
    30
 10
14.71373
 20
325.0604
 30
0.0
  0
POINT
  8
DEFPOINTS
  6
CONTINUOUS
 62
    30
 10
17.34362
 20
-325.0604
 30
0.0
  0
POINT
  8
DEFPOINTS
  6
CONTINUOUS
 62
    30
 10
565.221563
 20
-325.0604
 30
0.0
  0
LINE
  8
SIZE
  6
CONTINUOUS
 62
    30
 10
34.71373
 20
325.0604
 30
0.0
 11
441.071572
 21
325.0604
 31
0.0
  0
LINE
  8
SIZE
  6
CONTINUOUS
 62
    30
 10
42.920399
 20
500.878577
 30
0.0
 11
441.071572
 21
500.878577
 31
0.0
  0
LINE
  8
SIZE
  6
CONTINUOUS
 62
    30
 10
421.071572
 20
488.878577
 30
0.0
 11
421.071572
 21
337.0604
 31
0.0
  0
LINE
  8
SIZE
  6
CONTINUOUS
 62
    30
 10
421.071572
 20
325.0604
 30
0.0
 11
421.071572
 21
128.6604
 31
0.0
  0
CIRCLE
  8
SIZE
  6
CONTINUOUS
 62
    30
 10
421.071572
 20
500.878577
 30
0.0
 40
6.0
  0
LINE
  8
SIZE
  6
CONTINUOUS
 62
    30
 10
421.071572
 20
500.878577
 30
0.0
 11
421.071572
 21
488.878577
 31
0.0
  0
CIRCLE
  8
SIZE
  6
CONTINUOUS
 62
    30
 10
421.071572
 20
325.0604
 30
0.0
 40
6.0
  0
LINE
  8
SIZE
  6
CONTINUOUS
 62
    30
 10
421.071572
 20
325.0604
 30
0.0
 11
421.071572
 21
337.0604
 31
0.0
  0
TEXT
  8
SIZE
  6
CONTINUOUS
 62
    30
 10
396.071572
 20
146.2684
 30
0.0
 40
64.0
  1
176
 50
90.0
 41
0.9
 51
0.0
  7
STANDARD
 71
     0
 72
     1
 11
396.071572
 21
220.8604
 31
0.0
210
0.0
220
0.0
230
1.0
  0
POINT
  8
DEFPOINTS
  6
CONTINUOUS
 62
    30
 10
14.71373
 20
325.0604
 30
0.0
  0
POINT
  8
DEFPOINTS
  6
CONTINUOUS
 62
    30
 10
22.920399
 20
500.878577
 30
0.0
  0
POINT
  8
DEFPOINTS
  6
CONTINUOUS
 62
    30
 10
421.071572
 20
500.878577
 30
0.0
  0
LINE
  8
SIZE
  6
CONTINUOUS
 62
    30
 10
42.920399
 20
550.878577
 30
0.0
 11
441.071572
 21
550.878577
 31
0.0
  0
LINE
  8
SIZE
  6
CONTINUOUS
 62
    30
 10
42.920399
 20
500.878577
 30
0.0
 11
441.071572
 21
500.878577
 31
0.0
  0
LINE
  8
SIZE
  6
CONTINUOUS
 62
    30
 10
421.071572
 20
488.878577
 30
0.0
 11
421.071572
 21
476.878577
 31
0.0
  0
LINE
  8
SIZE
  6
CONTINUOUS
 62
    30
 10
421.071572
 20
562.878577
 30
0.0
 11
421.071572
 21
718.13572
 31
0.0
  0
LINE
  8
SIZE
  6
CONTINUOUS
 62
    30
 10
421.071572
 20
500.878577
 30
0.0
 11
421.071572
 21
550.878577
 31
0.0
  0
CIRCLE
  8
SIZE
  6
CONTINUOUS
 62
    30
 10
421.071572
 20
500.878577
 30
0.0
 40
6.0
  0
LINE
  8
SIZE
  6
CONTINUOUS
 62
    30
 10
421.071572
 20
500.878577
 30
0.0
 11
421.071572
 21
488.878577
 31
0.0
  0
CIRCLE
  8
SIZE
  6
CONTINUOUS
 62
    30
 10
421.071572
 20
550.878577
 30
0.0
 40
6.0
  0
LINE
  8
SIZE
  6
CONTINUOUS
 62
    30
 10
421.071572
 20
550.878577
 30
0.0
 11
421.071572
 21
562.878577
 31
0.0
  0
TEXT
  8
SIZE
  6
CONTINUOUS
 62
    30
 10
396.071572
 20
592.363148
 30
0.0
 40
64.0
  1
50
 50
90.0
 41
0.9
 51
0.0
  7
STANDARD
 71
     0
 72
     1
 11
396.071572
 21
646.507148
 31
0.0
210
0.0
220
0.0
230
1.0
  0
POINT
  8
DEFPOINTS
  6
CONTINUOUS
 62
    30
 10
22.920399
 20
550.878577
 30
0.0
  0
POINT
  8
DEFPOINTS
  6
CONTINUOUS
 62
    30
 10
22.920399
 20
500.878577
 30
0.0
  0
POINT
  8
DEFPOINTS
  6
CONTINUOUS
 62
    30
 10
421.071572
 20
500.878577
 30
0.0
  0
ARC
  8
DETAIL
  6
CONTINUOUS
 62
     5
 10
-225.579301
 20
439.338292
 30
0.0
 40
12.174641
 50
0.0
 51
180.0
  0
LINE
  8
DETAIL
  6
CONTINUOUS
 62
     5
 10
-213.40466
 20
439.338292
 30
0.0
 11
-213.40466
 21
416.936953
 31
0.0
  0
ARC
  8
DETAIL
  6
CONTINUOUS
 62
     5
 10
-225.579301
 20
416.936953
 30
0.0
 40
12.174641
 50
180.0
 51
0.0
  0
LINE
  8
DETAIL
  6
CONTINUOUS
 62
     5
 10
-237.753942
 20
439.338292
 30
0.0
 11
-237.753942
 21
416.936953
 31
0.0
  0
LINE
  8
DETAIL
  6
CONTINUOUS
 62
     5
 10
-587.605248
 20
409.632168
 30
0.0
 11
-512.208121
 21
409.632168
 31
0.0
  0
LINE
  8
DETAIL
  6
CONTINUOUS
 62
     5
 10
-587.605248
 20
433.98145
 30
0.0
 11
-512.208121
 21
433.98145
 31
0.0
  0
LINE
  8
DETAIL
  6
CONTINUOUS
 62
     5
 10
-512.208121
 20
409.632168
 30
0.0
 11
-512.208121
 21
433.98145
 31
0.0
  0
LINE
  8
DETAIL
  6
CONTINUOUS
 62
     5
 10
-587.605248
 20
409.632168
 30
0.0
 11
-587.605248
 21
433.98145
 31
0.0
  0
ARC
  8
DETAIL
  6
CONTINUOUS
 62
     5
 10
-452.203936
 20
439.338292
 30
0.0
 40
12.174641
 50
0.0
 51
180.0
  0
ARC
  8
DETAIL
  6
CONTINUOUS
 62
     5
 10
-452.203936
 20
416.936953
 30
0.0
 40
12.174641
 50
180.0
 51
0.0
  0
LINE
  8
DETAIL
  6
CONTINUOUS
 62
     5
 10
-440.029295
 20
439.338292
 30
0.0
 11
-440.029295
 21
416.936953
 31
0.0
  0
LINE
  8
DETAIL
  6
CONTINUOUS
 62
     5
 10
-464.378577
 20
439.338292
 30
0.0
 11
-464.378577
 21
416.936953
 31
0.0
  0
CIRCLE
  8
DETAIL
  6
CONTINUOUS
 62
     5
 10
-225.579301
 20
219.097365
 30
0.0
 40
12.174641
  0
CIRCLE
  8
DETAIL
  6
CONTINUOUS
 62
     5
 10
-225.579301
 20
-166.746409
 30
0.0
 40
12.174641
  0
CIRCLE
  8
DETAIL
  6
CONTINUOUS
 62
     5
 10
-452.203936
 20
-166.746409
 30
0.0
 40
12.174641
  0
CIRCLE
  8
DETAIL
  6
CONTINUOUS
 62
     5
 10
-452.203936
 20
219.097365
 30
0.0
 40
12.174641
  0
LINE
  8
DETAIL
  6
CONTINUOUS
 62
     5
 10
-19.479425
 20
-43.828707
 30
0.0
 11
-19.479425
 21
302.23253
 31
0.0
  0
LINE
  8
DETAIL
  6
CONTINUOUS
 62
     5
 10
-599.779889
 20
474.157765
 30
0.0
 11
-221.318177
 21
474.157765
 31
0.0
  0
LINE
  8
DETAIL
  6
CONTINUOUS
 62
     5
 10
-633.260631
 20
-274.987564
 30
0.0
 11
-630.73523
 21
-246.122176
 31
0.0
  0
LINE
  8
DETAIL
  6
CONTINUOUS
 62
     5
 10
-39.118308
 20
-310.754779
 30
0.0
 11
-4.869856
 21
-310.754779
 31
0.0
  0
LINE
  8
DETAIL
  6
CONTINUOUS
 62
     5
 10
-39.118308
 20
-310.754779
 30
0.0
 11
-633.260631
 21
-274.987564
 31
0.0
  0
LINE
  8
DETAIL
  6
CONTINUOUS
 62
     5
 10
-97.094016
 20
310.754779
 30
0.0
 11
-4.869856
 21
310.754779
 31
0.0
  0
LINE
  8
DETAIL
  6
CONTINUOUS
 62
     5
 10
-97.094016
 20
470.505373
 30
0.0
 11
-97.094016
 21
307.102387
 31
0.0
  0
LINE
  8
DETAIL
  6
CONTINUOUS
 62
     5
 10
-632.894806
 20
443.721071
 30
0.0
 11
-631.677326
 21
444.93852
 31
0.0
  0
LINE
  8
DETAIL
  6
CONTINUOUS
 62
     5
 10
-4.869856
 20
475.375229
 30
0.0
 11
-36.523923
 21
497.029295
 31
0.0
  0
LINE
  8
DETAIL
  6
CONTINUOUS
 62
     5
 10
-112.92105
 20
482.680013
 30
0.0
 11
-218.883248
 21
482.680013
 31
0.0
  0
LINE
  8
DETAIL
  6
CONTINUOUS
 62
     5
 10
0.0
 20
475.375229
 30
0.0
 11
-4.869856
 21
475.375229
 31
0.0
  0
LINE
  8
DETAIL
  6
CONTINUOUS
 62
     5
 10
-450.051734
 20
440.394777
 30
0.0
 11
-454.356123
 21
436.090387
 31
0.0
  0
LINE
  8
DETAIL
  6
CONTINUOUS
 62
     5
 10
-190.272842
 20
463.200588
 30
0.0
 11
-487.510395
 21
463.200588
 31
0.0
  0
LINE
  8
DETAIL
  6
CONTINUOUS
 62
     5
 10
-189.055378
 20
461.983124
 30
0.0
 11
-488.727859
 21
461.983124
 31
0.0
  0
LINE
  8
DETAIL
  6
CONTINUOUS
 62
     5
 10
-631.677448
 20
444.938627
 30
0.0
 11
-599.779889
 21
444.938627
 31
0.0
  0
LINE
  8
DETAIL
  6
CONTINUOUS
 62
     5
 10
-631.677448
 20
430.329058
 30
0.0
 11
-599.779889
 21
430.329058
 31
0.0
  0
LINE
  8
DETAIL
  6
CONTINUOUS
 62
     5
 10
-112.92105
 20
482.680013
 30
0.0
 11
-36.523923
 21
497.029295
 31
0.0
  0
LINE
  8
DETAIL
  6
CONTINUOUS
 62
     5
 10
0.0
 20
311.972243
 30
0.0
 11
0.0
 21
343.148558
 31
0.0
  0
LINE
  8
DETAIL
  6
CONTINUOUS
 62
     5
 10
0.0
 20
304.876345
 30
0.0
 11
0.0
 21
-304.876345
 31
0.0
  0
LINE
  8
DETAIL
  6
CONTINUOUS
 62
     5
 10
-2.434928
 20
-311.972243
 30
0.0
 11
-2.434928
 21
-309.093762
 31
0.0
  0
LINE
  8
DETAIL
  6
CONTINUOUS
 62
     5
 10
-2.434928
 20
304.667458
 30
0.0
 11
-2.434928
 21
305.111011
 31
0.0
  0
LINE
  8
DETAIL
  6
CONTINUOUS
 62
     5
 10
-2.434928
 20
311.972243
 30
0.0
 11
-2.434928
 21
309.093762
 31
0.0
  0
LINE
  8
DETAIL
  6
CONTINUOUS
 62
     5
 10
-2.434928
 20
-304.667458
 30
0.0
 11
-2.434928
 21
-305.111011
 31
0.0
  0
LINE
  8
DETAIL
  6
CONTINUOUS
 62
     5
 10
-4.869856
 20
-311.972243
 30
0.0
 11
-4.869856
 21
-309.328428
 31
0.0
  0
LINE
  8
DETAIL
  6
CONTINUOUS
 62
     5
 10
-4.869856
 20
309.328428
 30
0.0
 11
-4.869856
 21
311.972243
 31
0.0
  0
LINE
  8
DETAIL
  6
CONTINUOUS
 62
     5
 10
-4.869856
 20
475.375229
 30
0.0
 11
-4.869856
 21
470.505373
 31
0.0
  0
LINE
  8
DETAIL
  6
CONTINUOUS
 62
     5
 10
-17.044497
 20
348.018414
 30
0.0
 11
-17.044497
 21
345.583486
 31
0.0
  0
LINE
  8
DETAIL
  6
CONTINUOUS
 62
     5
 10
-17.044497
 20
-345.583486
 30
0.0
 11
-17.044497
 21
-348.018414
 31
0.0
  0
LINE
  8
DETAIL
  6
CONTINUOUS
 62
     5
 10
-17.044497
 20
311.972243
 30
0.0
 11
-19.479425
 21
314.407171
 31
0.0
  0
LINE
  8
DETAIL
  6
CONTINUOUS
 62
     5
 10
-61.002027
 20
-307.618089
 30
0.0
 11
-60.789808
 21
-305.192414
 31
0.0
  0
LINE
  8
DETAIL
  6
CONTINUOUS
 62
     5
 10
-63.427688
 20
-307.40587
 30
0.0
 11
-63.215468
 21
-304.98021
 31
0.0
  0
LINE
  8
DETAIL
  6
CONTINUOUS
 62
     5
 10
-19.479425
 20
-340.71363
 30
0.0
 11
-19.479425
 21
-314.407171
 31
0.0
  0
LINE
  8
DETAIL
  6
CONTINUOUS
 62
     5
 10
-19.479425
 20
-302.23253
 30
0.0
 11
-19.479425
 21
-275.44832
 31
0.0
  0
LINE
  8
DETAIL
  6
CONTINUOUS
 62
     5
 10
-19.479425
 20
314.407171
 30
0.0
 11
-19.479425
 21
340.71363
 31
0.0
  0
LINE
  8
DETAIL
  6
CONTINUOUS
 62
     5
 10
-19.479425
 20
348.018414
 30
0.0
 11
-19.479425
 21
345.583486
 31
0.0
  0
LINE
  8
DETAIL
  6
CONTINUOUS
 62
     5
 10
-19.479425
 20
-345.583486
 30
0.0
 11
-19.479425
 21
-348.018414
 31
0.0
  0
LINE
  8
DETAIL
  6
CONTINUOUS
 62
     5
 10
-36.523923
 20
309.537315
 30
0.0
 11
-36.523923
 21
307.102387
 31
0.0
  0
LINE
  8
DETAIL
  6
CONTINUOUS
 62
     5
 10
-38.958851
 20
309.537315
 30
0.0
 11
-38.958851
 21
307.102387
 31
0.0
  0
LINE
  8
DETAIL
  6
CONTINUOUS
 62
     5
 10
-223.427098
 20
436.090387
 30
0.0
 11
-227.731488
 21
440.394777
 31
0.0
  0
LINE
  8
DETAIL
  6
CONTINUOUS
 62
     5
 10
-98.822207
 20
-300.027748
 30
0.0
 11
-98.799349
 21
-299.766359
 31
0.0
  0
LINE
  8
DETAIL
  6
CONTINUOUS
 62
     5
 10
-96.615142
 20
-274.800888
 30
0.0
 11
-97.145683
 21
-280.865016
 31
0.0
  0
LINE
  8
DETAIL
  6
CONTINUOUS
 62
     5
 10
-4.869856
 20
348.018414
 30
0.0
 11
-19.479425
 21
348.018414
 31
0.0
  0
LINE
  8
DETAIL
  6
CONTINUOUS
 62
     5
 10
-19.479425
 20
345.583486
 30
0.0
 11
-4.869856
 21
345.583486
 31
0.0
  0
LINE
  8
DETAIL
  6
CONTINUOUS
 62
     5
 10
0.0
 20
343.148558
 30
0.0
 11
-17.044497
 21
343.148558
 31
0.0
  0
LINE
  8
DETAIL
  6
CONTINUOUS
 62
     5
 10
-218.883248
 20
482.680013
 30
0.0
 11
-221.318177
 21
480.245085
 31
0.0
  0
LINE
  8
DETAIL
  6
CONTINUOUS
 62
     5
 10
-450.051734
 20
221.249567
 30
0.0
 11
-454.356123
 21
216.945177
 31
0.0
  0
LINE
  8
DETAIL
  6
CONTINUOUS
 62
     5
 10
-223.427098
 20
440.394777
 30
0.0
 11
-227.731488
 21
436.090387
 31
0.0
  0
LINE
  8
DETAIL
  6
CONTINUOUS
 62
     5
 10
0.0
 20
311.972243
 30
0.0
 11
-17.044497
 21
311.972243
 31
0.0
  0
LINE
  8
DETAIL
  6
CONTINUOUS
 62
     5
 10
-4.869856
 20
309.537315
 30
0.0
 11
-38.958851
 21
309.537315
 31
0.0
  0
LINE
  8
DETAIL
  6
CONTINUOUS
 62
     5
 10
-36.645669
 20
307.102387
 30
0.0
 11
-4.869856
 21
307.102387
 31
0.0
  0
LINE
  8
DETAIL
  6
CONTINUOUS
 62
     5
 10
0.0
 20
304.667458
 30
0.0
 11
-17.044497
 21
304.667458
 31
0.0
  0
LINE
  8
DETAIL
  6
CONTINUOUS
 62
     5
 10
-632.894806
 20
-206.279446
 30
0.0
 11
-631.677326
 21
-205.061997
 31
0.0
  0
LINE
  8
DETAIL
  6
CONTINUOUS
 62
     5
 10
-189.055378
 20
-206.313992
 30
0.0
 11
-189.055378
 21
461.983124
 31
0.0
  0
LINE
  8
DETAIL
  6
CONTINUOUS
 62
     5
 10
-190.272842
 20
463.200588
 30
0.0
 11
-190.272842
 21
-207.531456
 31
0.0
  0
LINE
  8
DETAIL
  6
CONTINUOUS
 62
     5
 10
-221.318177
 20
475.375229
 30
0.0
 11
-221.318177
 21
480.245085
 31
0.0
  0
LINE
  8
DETAIL
  6
CONTINUOUS
 62
     5
 10
-223.427098
 20
216.945177
 30
0.0
 11
-227.731488
 21
221.249567
 31
0.0
  0
LINE
  8
DETAIL
  6
CONTINUOUS
 62
     5
 10
-450.051734
 20
436.090387
 30
0.0
 11
-454.356123
 21
440.394777
 31
0.0
  0
LINE
  8
DETAIL
  6
CONTINUOUS
 62
     5
 10
-223.427098
 20
221.249567
 30
0.0
 11
-227.731488
 21
216.945177
 31
0.0
  0
LINE
  8
DETAIL
  6
CONTINUOUS
 62
     5
 10
-450.051734
 20
-164.594206
 30
0.0
 11
-454.356123
 21
-168.898596
 31
0.0
  0
LINE
  8
DETAIL
  6
CONTINUOUS
 62
     5
 10
-19.479425
 20
340.71363
 30
0.0
 11
-17.044497
 21
343.148558
 31
0.0
  0
LINE
  8
DETAIL
  6
CONTINUOUS
 62
     5
 10
-36.523923
 20
497.029295
 30
0.0
 11
-12.174641
 21
536.727859
 31
0.0
  0
LINE
  8
DETAIL
  6
CONTINUOUS
 62
     5
 10
-17.044497
 20
-304.667458
 30
0.0
 11
-19.479425
 21
-302.23253
 31
0.0
  0
LINE
  8
DETAIL
  6
CONTINUOUS
 62
     5
 10
-19.479425
 20
302.23253
 30
0.0
 11
-17.044497
 21
304.667458
 31
0.0
  0
LINE
  8
DETAIL
  6
CONTINUOUS
 62
     5
 10
-632.894806
 20
431.546628
 30
0.0
 11
-631.677326
 21
430.329179
 31
0.0
  0
LINE
  8
DETAIL
  6
CONTINUOUS
 62
     5
 10
-17.044497
 20
-343.148558
 30
0.0
 11
-19.479425
 21
-340.71363
 31
0.0
  0
LINE
  8
DETAIL
  6
CONTINUOUS
 62
     5
 10
-450.051734
 20
216.945177
 30
0.0
 11
-454.356123
 21
221.249567
 31
0.0
  0
LINE
  8
DETAIL
  6
CONTINUOUS
 62
     5
 10
-223.427098
 20
-168.898596
 30
0.0
 11
-227.731488
 21
-164.594206
 31
0.0
  0
LINE
  8
DETAIL
  6
CONTINUOUS
 62
     5
 10
0.0
 20
-43.828707
 30
0.0
 11
-101.72038
 21
-43.828707
 31
0.0
  0
LINE
  8
DETAIL
  6
CONTINUOUS
 62
     5
 10
-223.427098
 20
-164.594206
 30
0.0
 11
-227.731488
 21
-168.898596
 31
0.0
  0
LINE
  8
DETAIL
  6
CONTINUOUS
 62
     5
 10
-487.510395
 20
463.200588
 30
0.0
 11
-487.510395
 21
-207.531456
 31
0.0
  0
LINE
  8
DETAIL
  6
CONTINUOUS
 62
     5
 10
-488.727859
 20
461.983124
 30
0.0
 11
-488.727859
 21
-206.313992
 31
0.0
  0
LINE
  8
DETAIL
  6
CONTINUOUS
 62
     5
 10
-631.677448
 20
-205.061875
 30
0.0
 11
-599.779889
 21
-205.061875
 31
0.0
  0
LINE
  8
DETAIL
  6
CONTINUOUS
 62
     5
 10
-631.677448
 20
-219.671444
 30
0.0
 11
-599.779889
 21
-219.671444
 31
0.0
  0
LINE
  8
DETAIL
  6
CONTINUOUS
 62
     5
 10
-189.055378
 20
-206.313992
 30
0.0
 11
-488.727859
 21
-206.313992
 31
0.0
  0
LINE
  8
DETAIL
  6
CONTINUOUS
 62
     5
 10
-487.510395
 20
-207.531456
 30
0.0
 11
-190.272842
 21
-207.531456
 31
0.0
  0
LINE
  8
DETAIL
  6
CONTINUOUS
 62
     5
 10
-450.051734
 20
-168.898596
 30
0.0
 11
-454.356123
 21
-164.594206
 31
0.0
  0
LINE
  8
DETAIL
  6
CONTINUOUS
 62
     5
 10
-26.720674
 20
-282.753105
 30
0.0
 11
-96.615142
 21
-274.800858
 31
0.0
  0
LINE
  8
DETAIL
  6
CONTINUOUS
 62
     5
 10
-96.615142
 20
-274.800858
 30
0.0
 11
-630.73523
 21
-246.122176
 31
0.0
  0
LINE
  8
DETAIL
  6
CONTINUOUS
 62
     5
 10
-98.135466
 20
-300.08783
 30
0.0
 11
-98.822207
 21
-300.027748
 31
0.0
  0
LINE
  8
DETAIL
  6
CONTINUOUS
 62
     5
 10
-38.598725
 20
-307.133888
 30
0.0
 11
-98.135466
 21
-300.08783
 31
0.0
  0
LINE
  8
DETAIL
  6
CONTINUOUS
 62
     5
 10
-63.427688
 20
-307.40587
 30
0.0
 11
-39.276974
 21
-309.518779
 31
0.0
  0
LINE
  8
DETAIL
  6
CONTINUOUS
 62
     5
 10
-89.214741
 20
-275.44832
 30
0.0
 11
0.0
 21
-275.44832
 31
0.0
  0
LINE
  8
DETAIL
  6
CONTINUOUS
 62
     5
 10
-17.044497
 20
-304.667458
 30
0.0
 11
0.0
 21
-304.667458
 31
0.0
  0
LINE
  8
DETAIL
  6
CONTINUOUS
 62
     5
 10
-38.598725
 20
-307.102387
 30
0.0
 11
-4.869856
 21
-307.102387
 31
0.0
  0
LINE
  8
DETAIL
  6
CONTINUOUS
 62
     5
 10
-4.869856
 20
-309.537315
 30
0.0
 11
-38.852536
 21
-309.537315
 31
0.0
  0
LINE
  8
DETAIL
  6
CONTINUOUS
 62
     5
 10
-17.044497
 20
-311.972243
 30
0.0
 11
-4.869856
 21
-311.972243
 31
0.0
  0
LINE
  8
DETAIL
  6
CONTINUOUS
 62
     5
 10
-627.181635
 20
-247.41077
 30
0.0
 11
-627.627287
 21
-252.50467
 31
0.0
  0
LINE
  8
DETAIL
  6
CONTINUOUS
 62
     5
 10
-17.044497
 20
-343.148558
 30
0.0
 11
-4.869856
 21
-343.148558
 31
0.0
  0
LINE
  8
DETAIL
  6
CONTINUOUS
 62
     5
 10
-4.869856
 20
-345.583486
 30
0.0
 11
-19.479425
 21
-345.583486
 31
0.0
  0
LINE
  8
DETAIL
  6
CONTINUOUS
 62
     5
 10
-19.479425
 20
-348.018414
 30
0.0
 11
-4.869856
 21
-348.018414
 31
0.0
  0
LINE
  8
DETAIL
  6
CONTINUOUS
 62
     5
 10
-631.677448
 20
444.938627
 30
0.0
 11
-631.677448
 21
430.329058
 31
0.0
  0
LINE
  8
DETAIL
  6
CONTINUOUS
 62
     5
 10
-631.677448
 20
-205.061875
 30
0.0
 11
-631.677448
 21
-219.671444
 31
0.0
  0
LINE
  8
DETAIL
  6
CONTINUOUS
 62
     5
 10
-632.894912
 20
443.721163
 30
0.0
 11
-632.894912
 21
431.546522
 31
0.0
  0
LINE
  8
DETAIL
  6
CONTINUOUS
 62
     5
 10
-632.894912
 20
-206.27934
 30
0.0
 11
-632.894912
 21
-218.45398
 31
0.0
  0
LINE
  8
DETAIL
  6
CONTINUOUS
 62
     5
 10
-19.479425
 20
-314.407171
 30
0.0
 11
-17.044497
 21
-311.972243
 31
0.0
  0
LINE
  8
DETAIL
  6
CONTINUOUS
 62
     5
 10
-632.894806
 20
-218.453889
 30
0.0
 11
-631.677326
 21
-219.671338
 31
0.0
  0
ARC
  8
DETAIL
  6
CONTINUOUS
 62
     5
 10
-4.869856
 20
475.375229
 30
0.0
 40
4.869856
 50
270.0
 51
0.0
  0
ARC
  8
DETAIL
  6
CONTINUOUS
 62
     5
 10
-4.869856
 20
475.375229
 30
0.0
 40
2.434928
 50
270.0
 51
0.0
  0
CIRCLE
  8
DETAIL
  6
CONTINUOUS
 62
     5
 10
-225.579301
 20
438.242574
 30
0.0
 40
7.183038
  0
ARC
  8
DETAIL
  6
CONTINUOUS
 62
     5
 10
-4.869856
 20
343.148558
 30
0.0
 40
4.869856
 50
0.0
 51
90.0
  0
ARC
  8
DETAIL
  6
CONTINUOUS
 62
     5
 10
-4.869856
 20
311.972243
 30
0.0
 40
4.869856
 50
307.302501
 51
0.0
  0
ARC
  8
DETAIL
  6
CONTINUOUS
 62
     5
 10
-4.869856
 20
311.972243
 30
0.0
 40
4.869856
 50
270.0
 51
278.470123
  0
ARC
  8
DETAIL
  6
CONTINUOUS
 62
     5
 10
-3.652392
 20
304.876345
 30
0.0
 40
3.652392
 50
0.0
 51
60.0
  0
ARC
  8
DETAIL
  6
CONTINUOUS
 62
     5
 10
-1.217464
 20
309.328428
 30
0.0
 40
3.652392
 50
180.0
 51
240.0
  0
ARC
  8
DETAIL
  6
CONTINUOUS
 62
     5
 10
-4.869856
 20
343.148558
 30
0.0
 40
2.434928
 50
0.0
 51
90.0
  0
ARC
  8
DETAIL
  6
CONTINUOUS
 62
     5
 10
-3.652392
 20
305.111011
 30
0.0
 40
1.217464
 50
0.0
 51
60.0
  0
ARC
  8
DETAIL
  6
CONTINUOUS
 62
     5
 10
-1.217464
 20
309.093762
 30
0.0
 40
1.217464
 50
180.0
 51
240.0
  0
ARC
  8
DETAIL
  6
CONTINUOUS
 62
     5
 10
98.772437
 20
306.128415
 30
0.0
 40
0.973971
 50
270.0
 51
90.0
  0
CIRCLE
  8
DETAIL
  6
CONTINUOUS
 62
     5
 10
-225.579301
 20
219.097365
 30
0.0
 40
7.183038
  0
CIRCLE
  8
DETAIL
  6
CONTINUOUS
 62
     5
 10
-452.203936
 20
219.097365
 30
0.0
 40
7.183038
  0
CIRCLE
  8
DETAIL
  6
CONTINUOUS
 62
     5
 10
-452.203936
 20
438.242574
 30
0.0
 40
7.183038
  0
CIRCLE
  8
DETAIL
  6
CONTINUOUS
 62
     5
 10
-225.579301
 20
-166.746409
 30
0.0
 40
7.183038
  0
ARC
  8
DETAIL
  6
CONTINUOUS
 62
     5
 10
-38.852536
 20
-304.667458
 30
0.0
 40
4.869856
 50
265.0
 51
270.0
  0
ARC
  8
DETAIL
  6
CONTINUOUS
 62
     5
 10
-1.217464
 20
-309.328428
 30
0.0
 40
3.652392
 50
120.0
 51
180.0
  0
ARC
  8
DETAIL
  6
CONTINUOUS
 62
     5
 10
-3.652392
 20
-304.876345
 30
0.0
 40
3.652392
 50
300.0
 51
0.0
  0
ARC
  8
DETAIL
  6
CONTINUOUS
 62
     5
 10
-3.652392
 20
-305.111011
 30
0.0
 40
1.217464
 50
300.0
 51
0.0
  0
ARC
  8
DETAIL
  6
CONTINUOUS
 62
     5
 10
-1.217464
 20
-309.093762
 30
0.0
 40
1.217464
 50
120.0
 51
180.0
  0
ARC
  8
DETAIL
  6
CONTINUOUS
 62
     5
 10
98.772437
 20
-306.128415
 30
0.0
 40
0.973971
 50
270.0
 51
90.0
  0
CIRCLE
  8
DETAIL
  6
CONTINUOUS
 62
     5
 10
-452.203936
 20
-166.746409
 30
0.0
 40
7.183038
  0
LINE
  8
DETAIL
  6
CONTINUOUS
 62
     5
 10
0.0
 20
571.251781
 30
0.0
 11
-9.739713
 21
571.251781
 31
0.0
  0
LINE
  8
DETAIL
  6
CONTINUOUS
 62
     5
 10
99.746409
 20
282.753105
 30
0.0
 11
99.746409
 21
-282.753105
 31
0.0
  0
LINE
  8
DETAIL
  6
CONTINUOUS
 62
     5
 10
98.772437
 20
307.102387
 30
0.0
 11
98.772437
 21
282.753105
 31
0.0
  0
LINE
  8
DETAIL
  6
CONTINUOUS
 62
     5
 10
98.772437
 20
-285.188033
 30
0.0
 11
98.772437
 21
-307.102387
 31
0.0
  0
LINE
  8
DETAIL
  6
CONTINUOUS
 62
     5
 10
98.772437
 20
-282.753105
 30
0.0
 11
98.772437
 21
-285.188033
 31
0.0
  0
LINE
  8
DETAIL
  6
CONTINUOUS
 62
     5
 10
-599.779889
 20
470.505373
 30
0.0
 11
-102.694351
 21
470.505373
 31
0.0
  0
LINE
  8
DETAIL
  6
CONTINUOUS
 62
     5
 10
-4.869856
 20
470.505373
 30
0.0
 11
-102.694351
 21
470.505373
 31
0.0
  0
LINE
  8
DETAIL
  6
CONTINUOUS
 62
     5
 10
0.0
 20
-343.148558
 30
0.0
 11
0.0
 21
-311.972243
 31
0.0
  0
LINE
  8
DETAIL
  6
CONTINUOUS
 62
     5
 10
0.0
 20
571.251781
 30
0.0
 11
0.0
 21
475.375229
 31
0.0
  0
LINE
  8
DETAIL
  6
CONTINUOUS
 62
     5
 10
-12.174641
 20
568.816853
 30
0.0
 11
-12.174641
 21
536.727859
 31
0.0
  0
LINE
  8
DETAIL
  6
CONTINUOUS
 62
     5
 10
-97.145683
 20
-280.865016
 30
0.0
 11
-98.799349
 21
-299.766359
 31
0.0
  0
LINE
  8
DETAIL
  6
CONTINUOUS
 62
     5
 10
-100.746409
 20
470.505373
 30
0.0
 11
-100.746409
 21
308.076358
 31
0.0
  0
LINE
  8
DETAIL
  6
CONTINUOUS
 62
     5
 10
-101.72038
 20
470.505373
 30
0.0
 11
-101.72038
 21
309.537315
 31
0.0
  0
LINE
  8
DETAIL
  6
CONTINUOUS
 62
     5
 10
-101.72038
 20
309.537315
 30
0.0
 11
-101.72038
 21
-274.354216
 31
0.0
  0
LINE
  8
DETAIL
  6
CONTINUOUS
 62
     5
 10
-100.746409
 20
310.511286
 30
0.0
 11
-101.72038
 21
310.511286
 31
0.0
  0
LINE
  8
DETAIL
  6
CONTINUOUS
 62
     5
 10
-100.746409
 20
308.076358
 30
0.0
 11
-101.72038
 21
308.076358
 31
0.0
  0
LINE
  8
DETAIL
  6
CONTINUOUS
 62
     5
 10
-101.72038
 20
307.102387
 30
0.0
 11
-36.645669
 21
307.102387
 31
0.0
  0
LINE
  8
DETAIL
  6
CONTINUOUS
 62
     5
 10
-4.869856
 20
307.102387
 30
0.0
 11
-4.112959
 21
307.102387
 31
0.0
  0
LINE
  8
DETAIL
  6
CONTINUOUS
 62
     5
 10
-0.756882
 20
307.102387
 30
0.0
 11
98.772437
 21
307.102387
 31
0.0
  0
LINE
  8
DETAIL
  6
CONTINUOUS
 62
     5
 10
0.0
 20
282.753105
 30
0.0
 11
96.337509
 21
282.753105
 31
0.0
  0
LINE
  8
DETAIL
  6
CONTINUOUS
 62
     5
 10
98.772437
 20
282.753105
 30
0.0
 11
99.746424
 21
282.753105
 31
0.0
  0
LINE
  8
DETAIL
  6
CONTINUOUS
 62
     5
 10
-9.739713
 20
571.251781
 30
0.0
 11
-12.174641
 21
568.816853
 31
0.0
  0
LINE
  8
DETAIL
  6
CONTINUOUS
 62
     5
 10
-221.318177
 20
470.505373
 30
0.0
 11
-221.318177
 21
475.375229
 31
0.0
  0
LINE
  8
DETAIL
  6
CONTINUOUS
 62
     5
 10
-221.926909
 20
432.082267
 30
0.0
 11
-221.926909
 21
428.349294
 31
0.0
  0
LINE
  8
DETAIL
  6
CONTINUOUS
 62
     5
 10
-229.231693
 20
428.349294
 30
0.0
 11
-229.231693
 21
432.082267
 31
0.0
  0
LINE
  8
DETAIL
  6
CONTINUOUS
 62
     5
 10
98.772437
 20
-285.188033
 30
0.0
 11
96.337509
 21
-282.753105
 31
0.0
  0
LINE
  8
DETAIL
  6
CONTINUOUS
 62
     5
 10
-448.551544
 20
432.082267
 30
0.0
 11
-448.551544
 21
428.349294
 31
0.0
  0
LINE
  8
DETAIL
  6
CONTINUOUS
 62
     5
 10
-455.856328
 20
428.349294
 30
0.0
 11
-455.856328
 21
432.082267
 31
0.0
  0
LINE
  8
DETAIL
  6
CONTINUOUS
 62
     5
 10
98.772437
 20
285.188033
 30
0.0
 11
96.337509
 21
282.753105
 31
0.0
  0
LINE
  8
DETAIL
  6
CONTINUOUS
 62
     5
 10
-98.822207
 20
-300.027748
 30
0.0
 11
-629.303812
 21
-271.667403
 31
0.0
  0
LINE
  8
DETAIL
  6
CONTINUOUS
 62
     5
 10
98.772437
 20
-282.753105
 30
0.0
 11
99.746424
 21
-282.753105
 31
0.0
  0
LINE
  8
DETAIL
  6
CONTINUOUS
 62
     5
 10
96.337509
 20
-282.753105
 30
0.0
 11
0.0
 21
-282.753105
 31
0.0
  0
LINE
  8
DETAIL
  6
CONTINUOUS
 62
     5
 10
-19.479425
 20
-282.753105
 30
0.0
 11
-26.720674
 21
-282.753105
 31
0.0
  0
LINE
  8
DETAIL
  6
CONTINUOUS
 62
     5
 10
-4.869856
 20
-307.102387
 30
0.0
 11
-4.112959
 21
-307.102387
 31
0.0
  0
LINE
  8
DETAIL
  6
CONTINUOUS
 62
     5
 10
-0.756882
 20
-307.102387
 30
0.0
 11
98.772437
 21
-307.102387
 31
0.0
  0
LINE
  8
DETAIL
  6
CONTINUOUS
 62
     5
 10
0.0
 20
-311.972243
 30
0.0
 11
-4.869856
 21
-311.972243
 31
0.0
  0
LINE
  8
DETAIL
  6
CONTINUOUS
 62
     5
 10
-629.622133
 20
-275.305886
 30
0.0
 11
-627.096747
 21
-246.440512
 31
0.0
  0
LINE
  8
DETAIL
  6
CONTINUOUS
 62
     5
 10
-599.779889
 20
-249.44284
 30
0.0
 11
-599.779889
 21
474.157765
 31
0.0
  0
LINE
  8
DETAIL
  6
CONTINUOUS
 62
     5
 10
0.0
 20
-343.148558
 30
0.0
 11
-4.869856
 21
-343.148558
 31
0.0
  0
ARC
  8
DETAIL
  6
CONTINUOUS
 62
     5
 10
-225.579301
 20
419.980613
 30
0.0
 40
9.130981
 50
113.578178
 51
66.421822
  0
ARC
  8
DETAIL
  6
CONTINUOUS
 62
     5
 10
-99.772437
 20
308.076358
 30
0.0
 40
1.947943
 50
180.0
 51
210.0
  0
ARC
  8
DETAIL
  6
CONTINUOUS
 62
     5
 10
-99.772437
 20
308.076358
 30
0.0
 40
0.973971
 50
180.0
 51
270.0
  0
ARC
  8
DETAIL
  6
CONTINUOUS
 62
     5
 10
-452.203936
 20
419.980613
 30
0.0
 40
9.130981
 50
113.578178
 51
66.421822
  0
ARC
  8
DETAIL
  6
CONTINUOUS
 62
     5
 10
-4.869856
 20
-343.148558
 30
0.0
 40
4.869856
 50
270.0
 51
0.0
  0
ARC
  8
DETAIL
  6
CONTINUOUS
 62
     5
 10
-4.869856
 20
-311.972243
 30
0.0
 40
4.869856
 50
0.0
 51
52.697499
  0
ARC
  8
DETAIL
  6
CONTINUOUS
 62
     5
 10
-4.869856
 20
-311.972243
 30
0.0
 40
4.869856
 50
81.529877
 51
90.0
  0
ARC
  8
DETAIL
  6
CONTINUOUS
 62
     5
 10
-4.869856
 20
-343.148558
 30
0.0
 40
2.434928
 50
270.0
 51
0.0
  0
LINE
  8
OUTLINE
  6
CONTINUOUS
 62
     3
 10
-599.779889
 20
444.938627
 30
0.0
 11
-599.779889
 21
474.157765
 31
0.0
  0
LINE
  8
OUTLINE
  6
CONTINUOUS
 62
     3
 10
-599.779889
 20
-205.061875
 30
0.0
 11
-599.779889
 21
430.329058
 31
0.0
  0
LINE
  8
OUTLINE
  6
CONTINUOUS
 62
     3
 10
-599.779889
 20
-247.784271
 30
0.0
 11
-630.73523
 21
-246.122176
 31
0.0
  0
LINE
  8
OUTLINE
  6
CONTINUOUS
 62
     3
 10
-2.434928
 20
-343.148558
 30
0.0
 11
-4.869856
 21
-343.148558
 31
0.0
  0
ENDSEC
  0
EOF
