  0
SECTION
  2
HEADER
  9
$ACADVER
  1
AC1009
  9
$DWGCODEPAGE
  3
dos932
  9
$INSBASE
 10
0.0
 20
0.0
 30
0.0
  9
$EXTMIN
 10
-521.61711
 20
-628.372181
 30
-0.001526
  9
$EXTMAX
 10
825.704967
 20
577.102669
 30
50.001526
  9
$LIMMIN
 10
-2970.0
 20
-2100.0
  9
$LIMMAX
 10
2970.0
 20
2100.0
  9
$ORTHOMODE
 70
     1
  9
$REGENMODE
 70
     1
  9
$FILLMODE
 70
     1
  9
$QTEXTMODE
 70
     0
  9
$MIRRTEXT
 70
     0
  9
$DRAGMODE
 70
     2
  9
$LTSCALE
 40
20.0
  9
$OSMODE
 70
  3071
  9
$ATTMODE
 70
     1
  9
$TEXTSIZE
 40
64.0
  9
$TRACEWID
 40
0.05
  9
$TEXTSTYLE
  7
STANDARD
  9
$CLAYER
  8
SIZE
  9
$CELTYPE
  6
CONTINUOUS
  9
$CECOLOR
 62
     7
  9
$DIMSCALE
 40
1.0
  9
$DIMASZ
 40
12.0
  9
$DIMEXO
 40
20.0
  9
$DIMDLI
 40
200.0
  9
$DIMRND
 40
0.0
  9
$DIMDLE
 40
0.0
  9
$DIMEXE
 40
20.0
  9
$DIMTP
 40
0.0
  9
$DIMTM
 40
0.0
  9
$DIMTXT
 40
64.0
  9
$DIMCEN
 40
0.09
  9
$DIMTSZ
 40
0.0
  9
$DIMTOL
 70
     0
  9
$DIMLIM
 70
     0
  9
$DIMTIH
 70
     0
  9
$DIMTOH
 70
     0
  9
$DIMSE1
 70
     0
  9
$DIMSE2
 70
     0
  9
$DIMTAD
 70
     1
  9
$DIMZIN
 70
     8
  9
$DIMBLK
  1
DOT1
  9
$DIMASO
 70
     1
  9
$DIMSHO
 70
     0
  9
$DIMPOST
  1

  9
$DIMAPOST
  1

  9
$DIMALT
 70
     0
  9
$DIMALTD
 70
     2
  9
$DIMALTF
 40
25.4
  9
$DIMLFAC
 40
1.0
  9
$DIMTOFL
 70
     1
  9
$DIMTVP
 40
0.0
  9
$DIMTIX
 70
     1
  9
$DIMSOXD
 70
     0
  9
$DIMSAH
 70
     1
  9
$DIMBLK1
  1
_ORIGIN
  9
$DIMBLK2
  1
_ORIGIN
  9
$DIMSTYLE
  2
STANDARD
  9
$DIMCLRD
 70
     7
  9
$DIMCLRE
 70
     7
  9
$DIMCLRT
 70
     7
  9
$DIMTFAC
 40
1.0
  9
$DIMGAP
 40
25.0
  9
$LUNITS
 70
     2
  9
$LUPREC
 70
     4
  9
$SKETCHINC
 40
0.1
  9
$FILLETRAD
 40
3.0
  9
$AUNITS
 70
     1
  9
$AUPREC
 70
     3
  9
$MENU
  1
ACAD
  9
$ELEVATION
 40
0.0
  9
$PELEVATION
 40
0.0
  9
$THICKNESS
 40
50.0
  9
$LIMCHECK
 70
     0
  9
$BLIPMODE
 70
     0
  9
$CHAMFERA
 40
0.0
  9
$CHAMFERB
 40
0.0
  9
$SKPOLY
 70
     0
  9
$TDCREATE
 40
2453019.62301037
  9
$TDUPDATE
 40
2454960.56222787
  9
$TDINDWG
 40
1.6855252778
  9
$TDUSRTIMER
 40
1.6855252778
  9
$USRTIMER
 70
     1
  9
$ANGBASE
 50
0.0
  9
$ANGDIR
 70
     0
  9
$PDMODE
 70
     3
  9
$PDSIZE
 40
-2.0
  9
$PLINEWID
 40
0.0
  9
$COORDS
 70
     2
  9
$SPLFRAME
 70
     0
  9
$SPLINETYPE
 70
     6
  9
$SPLINESEGS
 70
     8
  9
$ATTDIA
 70
     1
  9
$ATTREQ
 70
     1
  9
$HANDLING
 70
     0
  9
$HANDSEED
  5
E804
  9
$SURFTAB1
 70
     6
  9
$SURFTAB2
 70
     6
  9
$SURFTYPE
 70
     6
  9
$SURFU
 70
     6
  9
$SURFV
 70
     6
  9
$UCSNAME
  2

  9
$UCSORG
 10
0.0
 20
0.0
 30
0.0
  9
$UCSXDIR
 10
1.0
 20
0.0
 30
0.0
  9
$UCSYDIR
 10
0.0
 20
1.0
 30
0.0
  9
$PUCSNAME
  2

  9
$PUCSORG
 10
0.0
 20
0.0
 30
0.0
  9
$PUCSXDIR
 10
1.0
 20
0.0
 30
0.0
  9
$PUCSYDIR
 10
0.0
 20
1.0
 30
0.0
  9
$USERI1
 70
     0
  9
$USERI2
 70
     0
  9
$USERI3
 70
     0
  9
$USERI4
 70
     0
  9
$USERI5
 70
     0
  9
$USERR1
 40
20.0
  9
$USERR2
 40
0.0
  9
$USERR3
 40
0.0
  9
$USERR4
 40
0.0
  9
$USERR5
 40
0.0
  9
$WORLDVIEW
 70
     1
  9
$SHADEDGE
 70
     3
  9
$SHADEDIF
 70
    70
  9
$TILEMODE
 70
     1
  9
$MAXACTVP
 70
    48
  9
$PINSBASE
 10
0.0
 20
0.0
 30
0.0
  9
$PLIMCHECK
 70
     0
  9
$PEXTMIN
 10
-100000000000000000000.0
 20
-100000000000000000000.0
 30
-100000000000000000000.0
  9
$PEXTMAX
 10
100000000000000000000.0
 20
100000000000000000000.0
 30
100000000000000000000.0
  9
$PLIMMIN
 10
0.0
 20
0.0
  9
$PLIMMAX
 10
12.0
 20
9.0
  9
$UNITMODE
 70
     0
  9
$VISRETAIN
 70
     0
  9
$PLINEGEN
 70
     0
  9
$PSLTSCALE
 70
     0
  9
$TREEDEPTH
 70
  3020
  0
ENDSEC
  0
SECTION
  2
TABLES
  0
TABLE
  2
LTYPE
 70
     2
  0
LTYPE
  2
CONTINUOUS
 70
     0
  3
実線
 72
    65
 73
     0
 40
0.0
  0
LTYPE
  2
DASHDOT
 70
     0
  3
____ _ ____ _ ____ _ ____ _ ____ _ ____ _ ____
 72
    65
 73
     4
 40
5.5
 49
4.0
 49
-0.6
 49
0.3
 49
-0.6
  0
ENDTAB
  0
TABLE
  2
LAYER
 70
    10
  0
LAYER
  2
0
 70
     0
 62
     7
  6
CONTINUOUS
  0
LAYER
  2
BASIS
 70
     0
 62
     6
  6
DASHDOT
  0
LAYER
  2
OUTLINE
 70
     0
 62
     3
  6
CONTINUOUS
  0
LAYER
  2
DETAIL
 70
     0
 62
     5
  6
CONTINUOUS
  0
LAYER
  2
SIZE
 70
     0
 62
    30
  6
CONTINUOUS
  0
LAYER
  2
ARRANGE
 70
     0
 62
     1
  6
CONTINUOUS
  0
LAYER
  2
DEFPOINTS
 70
     0
 62
     7
  6
CONTINUOUS
  0
LAYER
  2
ETC
 70
     0
 62
    61
  6
CONTINUOUS
  0
LAYER
  2
FIX
 70
     0
 62
    11
  6
CONTINUOUS
  0
LAYER
  2
NOTE
 70
     0
 62
     4
  6
CONTINUOUS
  0
ENDTAB
  0
TABLE
  2
STYLE
 70
     1
  0
STYLE
  2
STANDARD
 70
     0
 40
64.0
 41
0.9
 50
0.0
 71
     0
 42
64.0
  3
SIMPLEX.shx
  4
BIGFONT.shx
  0
ENDTAB
  0
TABLE
  2
APPID
 70
    15
  0
APPID
  2
ACAD
 70
     0
  0
APPID
  2
AUTOCAD_POSTSCRIPT_FIGURE
 70
     0
  0
APPID
  2
ACAD_EXEMPT_FROM_CAD_STANDARDS
 70
     0
  0
APPID
  2
ACAD_PSEXT
 70
     0
  0
APPID
  2
ACAUTHENVIRON
 70
     0
  0
APPID
  2
GENIUS_GENOENT_13
 70
     0
  0
APPID
  2
GENIUS_GENCFG_13
 70
     0
  0
APPID
  2
GENIUS_GENCFG0_13
 70
     0
  0
APPID
  2
GENIUS_GENCFG1_13
 70
     0
  0
APPID
  2
GENIUS_GENCFG2_13
 70
     0
  0
APPID
  2
GENIUS_GENCFG3_13
 70
     0
  0
APPID
  2
GENIUS_GENCFG4_13
 70
     0
  0
APPID
  2
GENIUS_GEVCFG0_13
 70
     0
  0
APPID
  2
CONTENTBLOCKICON
 70
     0
  0
APPID
  2
CONTENTBLOCKDESCRIPTION
 70
     0
  0
ENDTAB
  0
TABLE
  2
DIMSTYLE
 70
     1
  0
DIMSTYLE
  2
STANDARD
 70
     0
  3

  4

  5

  6

  7

 40
1.0
 41
0.18
 42
0.0625
 43
0.38
 44
0.18
 45
0.0
 46
0.0
 47
0.0
 48
0.0
140
0.18
141
0.09
142
0.0
143
25.4
144
1.0
145
0.0
146
1.0
147
0.09
 71
     0
 72
     0
 73
     1
 74
     1
 75
     0
 76
     0
 77
     0
 78
     0
170
     0
171
     2
172
     0
173
     0
174
     0
175
     0
176
     7
177
     7
178
     7
  0
ENDTAB
  0
TABLE
  2
VIEW
 70
     1
  0
VIEW
  2
ALL
 70
     0
 40
4282.619808
 10
0.0
 20
41.309904
 41
5940.0
 11
0.0
 21
0.0
 31
1.0
 12
0.0
 22
0.0
 32
0.0
 42
50.0
 43
0.0
 44
0.0
 50
0.0
 71
     0
  0
ENDTAB
  0
TABLE
  2
UCS
 70
     0
  0
ENDTAB
  0
TABLE
  2
VPORT
 70
     1
  0
VPORT
  2
*ACTIVE
 70
     0
 10
0.0
 20
0.0
 11
1.0
 21
1.0
 12
152.043929
 22
-25.634756
 13
0.0
 23
0.0
 14
1.0
 24
1.0
 15
0.0
 25
0.0
 16
0.0
 26
0.0
 36
1.0
 17
0.0
 27
0.0
 37
0.0
 40
1215.23578
 41
1.631081
 42
50.0
 43
0.0
 44
0.0
 50
0.0
 51
0.0
 71
     0
 72
  1000
 73
     1
 74
     0
 75
     0
 76
     0
 77
     0
 78
     0
  0
ENDTAB
  0
ENDSEC
  0
SECTION
  2
BLOCKS
  0
BLOCK
  8
0
  2
DOT1
 70
     0
 10
0.0
 20
0.0
 30
0.0
  3
DOT1
  1

  0
CIRCLE
  8
SIZE
  6
CONTINUOUS
 62
     7
 10
0.0
 20
0.0
 30
0.0
 40
3.0
  0
ENDBLK
  8
0
  0
BLOCK
  8
0
  2
_ORIGIN
 70
     0
 10
0.0
 20
0.0
 30
0.0
  3
_ORIGIN
  1

  0
CIRCLE
  8
0
  6
CONTINUOUS
 62
     7
 10
0.0
 20
0.0
 30
0.0
 40
0.5
  0
LINE
  8
0
  6
CONTINUOUS
 62
     7
 10
0.0
 20
0.0
 30
0.0
 11
-1.0
 21
0.0
 31
0.0
  0
ENDBLK
  8
0
  0
ENDSEC
  0
SECTION
  2
ENTITIES
  0
TEXT
  8
ETC
  6
CONTINUOUS
 62
    61
 10
427.421147
 20
536.788052
 30
0.0
 40
40.0
  1
PS-60SMTA3_4
 41
0.9
  0
TEXT
  8
ETC
  6
CONTINUOUS
 62
    61
 10
423.235153
 20
476.091774
 30
0.0
 40
40.0
  1
システム部材
 41
0.9
  0
TEXT
  8
ETC
  6
CONTINUOUS
 62
    61
 10
473.842656
 20
394.221663
 30
0.0
 40
40.0
  1
PS-60SMTA3
 41
0.9
  0
CIRCLE
  8
ARRANGE
  6
CONTINUOUS
 62
     1
 10
0.0
 20
0.0
 30
0.0
 40
40.0
  0
POINT
  8
ARRANGE
  6
CONTINUOUS
 62
     1
 10
0.0
 20
0.0
 30
0.0
 39
50.0
  0
TEXT
  8
ETC
  6
CONTINUOUS
 62
    61
 10
473.842656
 20
324.221663
 30
0.0
 40
40.0
  1
PS-60SMXTA3
 41
0.9
  0
CIRCLE
  8
FIX
  6
CONTINUOUS
 62
    11
 10
0.0
 20
-325.0
 30
0.0
 40
7.0
  0
CIRCLE
  8
FIX
  6
CONTINUOUS
 62
    11
 10
0.0
 20
-325.0
 30
0.0
 40
4.0
  0
LINE
  8
NOTE
  6
CONTINUOUS
 62
     4
 10
-20.0
 20
-325.0
 30
0.0
 11
20.0
 21
-325.0
 31
0.0
  0
LINE
  8
NOTE
  6
CONTINUOUS
 62
     4
 10
-20.0
 20
-190.0
 30
0.0
 11
20.0
 21
-190.0
 31
0.0
  0
CIRCLE
  8
FIX
  6
CONTINUOUS
 62
    11
 10
0.0
 20
-190.0
 30
0.0
 40
4.0
  0
CIRCLE
  8
FIX
  6
CONTINUOUS
 62
    11
 10
0.0
 20
325.0
 30
0.0
 40
7.0
  0
LINE
  8
NOTE
  6
CONTINUOUS
 62
     4
 10
0.0
 20
-190.0
 30
0.0
 11
8.708662
 21
-229.040482
 31
0.0
  0
LINE
  8
NOTE
  6
CONTINUOUS
 62
     4
 10
27.062164
 20
-219.455717
 30
0.0
 11
0.0
 21
-190.0
 31
0.0
  0
LINE
  8
NOTE
  6
CONTINUOUS
 62
     4
 10
0.0
 20
325.0
 30
0.0
 11
38.290972
 21
336.56726
 31
0.0
  0
LINE
  8
NOTE
  6
CONTINUOUS
 62
     4
 10
27.377324
 20
354.163027
 30
0.0
 11
0.0
 21
325.0
 31
0.0
  0
LINE
  8
NOTE
  6
CONTINUOUS
 62
     4
 10
0.0
 20
-190.0
 30
0.0
 11
161.918351
 21
-503.530308
 31
0.0
  0
LINE
  8
NOTE
  6
CONTINUOUS
 62
     4
 10
0.0
 20
325.0
 30
0.0
 11
110.312776
 21
389.888969
 31
0.0
  0
LINE
  8
NOTE
  6
CONTINUOUS
 62
     4
 10
-20.0
 20
190.0
 30
0.0
 11
20.0
 21
190.0
 31
0.0
  0
CIRCLE
  8
FIX
  6
CONTINUOUS
 62
    11
 10
0.0
 20
190.0
 30
0.0
 40
4.0
  0
CIRCLE
  8
FIX
  6
CONTINUOUS
 62
    11
 10
0.0
 20
325.0
 30
0.0
 40
4.0
  0
LINE
  8
NOTE
  6
CONTINUOUS
 62
     4
 10
-20.0
 20
325.0
 30
0.0
 11
20.0
 21
325.0
 31
0.0
  0
LINE
  8
BASIS
  6
DASHDOT
 62
     6
 10
-228.560706
 20
0.0
 30
0.0
 11
72.953332
 21
0.0
 31
0.0
  0
LINE
  8
OUTLINE
  6
CONTINUOUS
 62
     3
 10
-2.0
 20
350.0
 30
0.0
 11
-2.0
 21
-350.0
 31
0.0
  0
LINE
  8
OUTLINE
  6
CONTINUOUS
 62
     3
 10
-130.0
 20
301.0
 30
0.0
 11
-130.0
 21
-300.5
 31
0.0
  0
LINE
  8
OUTLINE
  6
CONTINUOUS
 62
     3
 10
0.0
 20
350.0
 30
0.0
 11
0.0
 21
-350.0
 31
0.0
  0
LINE
  8
OUTLINE
  6
CONTINUOUS
 62
     3
 10
-130.0
 20
301.0
 30
0.0
 11
-130.0
 21
-300.5
 31
0.0
  0
LINE
  8
OUTLINE
  6
CONTINUOUS
 62
     3
 10
-2.0
 20
350.0
 30
0.0
 11
-2.0
 21
-350.0
 31
0.0
  0
LINE
  8
OUTLINE
  6
CONTINUOUS
 62
     3
 10
0.0
 20
350.0
 30
0.0
 11
0.0
 21
-350.0
 31
0.0
  0
LINE
  8
OUTLINE
  6
CONTINUOUS
 62
     3
 10
0.0
 20
-305.0
 30
0.0
 11
0.0
 21
-345.0
 31
0.0
  0
LINE
  8
NOTE
  6
CONTINUOUS
 62
     4
 10
-289.45022
 20
-471.216896
 30
0.0
 11
-213.8252
 21
-471.216896
 31
0.0
  0
TEXT
  8
NOTE
  6
CONTINUOUS
 62
     4
 10
-269.437106
 20
-454.553826
 30
0.0
 40
40.0
  1
EL
 41
0.9
  0
LINE
  8
NOTE
  6
CONTINUOUS
 62
     4
 10
0.0
 20
-350.0
 30
0.0
 11
-213.8252
 21
-471.216896
 31
0.0
  0
LINE
  8
OUTLINE
  6
CONTINUOUS
 62
     3
 10
0.0
 20
-350.0
 30
0.0
 11
-2.0
 21
-350.0
 31
0.0
  0
LINE
  8
NOTE
  6
CONTINUOUS
 62
     4
 10
0.0
 20
-350.0
 30
0.0
 11
-38.525171
 21
-360.76156
 31
0.0
  0
LINE
  8
NOTE
  6
CONTINUOUS
 62
     4
 10
-27.982997
 20
-378.58237
 30
0.0
 11
0.0
 21
-350.0
 31
0.0
  0
LINE
  8
OUTLINE
  6
CONTINUOUS
 62
     3
 10
0.0
 20
-350.0
 30
0.0
 11
-2.0
 21
-350.0
 31
0.0
  0
LINE
  8
OUTLINE
  6
CONTINUOUS
 62
     3
 10
-2.0
 20
-308.0
 30
0.0
 11
-123.0
 21
-308.0
 31
0.0
  0
LINE
  8
OUTLINE
  6
CONTINUOUS
 62
     3
 10
-2.0
 20
-308.0
 30
0.0
 11
-123.0
 21
-308.0
 31
0.0
  0
LINE
  8
OUTLINE
  6
CONTINUOUS
 62
     3
 10
-130.0
 20
-301.0
 30
0.0
 11
-123.0
 21
-308.0
 31
0.0
  0
LINE
  8
OUTLINE
  6
CONTINUOUS
 62
     3
 10
-130.0
 20
-301.0
 30
0.0
 11
-123.0
 21
-308.0
 31
0.0
  0
LINE
  8
OUTLINE
  6
CONTINUOUS
 62
     3
 10
0.0
 20
-170.0
 30
0.0
 11
0.0
 21
-210.0
 31
0.0
  0
LINE
  8
OUTLINE
  6
CONTINUOUS
 62
     3
 10
0.0
 20
305.0
 30
0.0
 11
0.0
 21
345.0
 31
0.0
  0
LINE
  8
OUTLINE
  6
CONTINUOUS
 62
     3
 10
-2.0
 20
308.0
 30
0.0
 11
-123.0
 21
308.0
 31
0.0
  0
LINE
  8
OUTLINE
  6
CONTINUOUS
 62
     3
 10
-2.0
 20
308.0
 30
0.0
 11
-123.0
 21
308.0
 31
0.0
  0
LINE
  8
OUTLINE
  6
CONTINUOUS
 62
     3
 10
-130.0
 20
301.0
 30
0.0
 11
-123.0
 21
308.0
 31
0.0
  0
LINE
  8
OUTLINE
  6
CONTINUOUS
 62
     3
 10
-130.0
 20
301.0
 30
0.0
 11
-123.0
 21
308.0
 31
0.0
  0
LINE
  8
OUTLINE
  6
CONTINUOUS
 62
     3
 10
0.0
 20
170.0
 30
0.0
 11
0.0
 21
210.0
 31
0.0
  0
LINE
  8
OUTLINE
  6
CONTINUOUS
 62
     3
 10
0.0
 20
350.0
 30
0.0
 11
-2.0
 21
350.0
 31
0.0
  0
LINE
  8
OUTLINE
  6
CONTINUOUS
 62
     3
 10
0.0
 20
350.0
 30
0.0
 11
-2.0
 21
350.0
 31
0.0
  0
LINE
  8
NOTE
  6
CONTINUOUS
 62
     4
 10
161.918351
 20
-503.530308
 30
0.0
 11
349.553975
 21
-503.530308
 31
0.0
  0
TEXT
  8
NOTE
  6
CONTINUOUS
 62
     4
 10
179.393238
 20
-480.926374
 30
0.0
 40
40.0
  1
8-φ8
 41
0.9
  0
LINE
  8
NOTE
  6
CONTINUOUS
 62
     4
 10
110.312776
 20
389.888969
 30
0.0
 11
323.796796
 21
389.888969
 31
0.0
  0
TEXT
  8
NOTE
  6
CONTINUOUS
 62
     4
 10
124.144372
 20
413.999831
 30
0.0
 40
40.0
  1
4-φ14
 41
0.9
  0
LINE
  8
SIZE
  6
CONTINUOUS
 62
    30
 10
40.0
 20
325.0
 30
0.0
 11
365.032382
 21
325.0
 31
0.0
  0
LINE
  8
SIZE
  6
CONTINUOUS
 62
    30
 10
40.0
 20
-325.0
 30
0.0
 11
365.032382
 21
-325.0
 31
0.0
  0
LINE
  8
SIZE
  6
CONTINUOUS
 62
    30
 10
345.032382
 20
313.0
 30
0.0
 11
345.032382
 21
-313.0
 31
0.0
  0
CIRCLE
  8
SIZE
  6
CONTINUOUS
 62
    30
 10
345.032382
 20
325.0
 30
0.0
 40
6.0
  0
LINE
  8
SIZE
  6
CONTINUOUS
 62
    30
 10
345.032382
 20
325.0
 30
0.0
 11
345.032382
 21
313.0
 31
0.0
  0
CIRCLE
  8
SIZE
  6
CONTINUOUS
 62
    30
 10
345.032382
 20
-325.0
 30
0.0
 40
6.0
  0
LINE
  8
SIZE
  6
CONTINUOUS
 62
    30
 10
345.032382
 20
-325.0
 30
0.0
 11
345.032382
 21
-313.0
 31
0.0
  0
TEXT
  8
SIZE
  6
CONTINUOUS
 62
    30
 10
320.032382
 20
-80.928
 30
0.0
 40
64.0
  1
650
 50
90.0
 41
0.9
 51
0.0
  7
STANDARD
 71
     0
 72
     1
 11
320.032382
 21
0.0
 31
0.0
210
0.0
220
0.0
230
1.0
  0
POINT
  8
DEFPOINTS
  6
CONTINUOUS
 62
    30
 10
20.0
 20
325.0
 30
0.0
  0
POINT
  8
DEFPOINTS
  6
CONTINUOUS
 62
    30
 10
20.0
 20
-325.0
 30
0.0
  0
POINT
  8
DEFPOINTS
  6
CONTINUOUS
 62
    30
 10
345.032382
 20
-325.0
 30
0.0
  0
LINE
  8
SIZE
  6
CONTINUOUS
 62
    30
 10
40.0
 20
190.0
 30
0.0
 11
237.844079
 21
190.0
 31
0.0
  0
LINE
  8
SIZE
  6
CONTINUOUS
 62
    30
 10
40.0
 20
-190.0
 30
0.0
 11
237.844079
 21
-190.0
 31
0.0
  0
LINE
  8
SIZE
  6
CONTINUOUS
 62
    30
 10
217.844079
 20
178.0
 30
0.0
 11
217.844079
 21
-178.0
 31
0.0
  0
CIRCLE
  8
SIZE
  6
CONTINUOUS
 62
    30
 10
217.844079
 20
190.0
 30
0.0
 40
6.0
  0
LINE
  8
SIZE
  6
CONTINUOUS
 62
    30
 10
217.844079
 20
190.0
 30
0.0
 11
217.844079
 21
178.0
 31
0.0
  0
CIRCLE
  8
SIZE
  6
CONTINUOUS
 62
    30
 10
217.844079
 20
-190.0
 30
0.0
 40
6.0
  0
LINE
  8
SIZE
  6
CONTINUOUS
 62
    30
 10
217.844079
 20
-190.0
 30
0.0
 11
217.844079
 21
-178.0
 31
0.0
  0
TEXT
  8
SIZE
  6
CONTINUOUS
 62
    30
 10
192.844079
 20
-80.928
 30
0.0
 40
64.0
  1
380
 50
90.0
 41
0.9
 51
0.0
  7
STANDARD
 71
     0
 72
     1
 11
192.844079
 21
0.0
 31
0.0
210
0.0
220
0.0
230
1.0
  0
POINT
  8
DEFPOINTS
  6
CONTINUOUS
 62
    30
 10
20.0
 20
190.0
 30
0.0
  0
POINT
  8
DEFPOINTS
  6
CONTINUOUS
 62
    30
 10
20.0
 20
-190.0
 30
0.0
  0
POINT
  8
DEFPOINTS
  6
CONTINUOUS
 62
    30
 10
217.844079
 20
-190.0
 30
0.0
  0
LINE
  8
SIZE
  6
CONTINUOUS
 62
    30
 10
-143.0
 20
308.0
 30
0.0
 11
-321.023103
 21
308.0
 31
0.0
  0
LINE
  8
SIZE
  6
CONTINUOUS
 62
    30
 10
-143.0
 20
-308.0
 30
0.0
 11
-321.023103
 21
-308.0
 31
0.0
  0
LINE
  8
SIZE
  6
CONTINUOUS
 62
    30
 10
-301.023103
 20
296.0
 30
0.0
 11
-301.023103
 21
-296.0
 31
0.0
  0
CIRCLE
  8
SIZE
  6
CONTINUOUS
 62
    30
 10
-301.023103
 20
308.0
 30
0.0
 40
6.0
  0
LINE
  8
SIZE
  6
CONTINUOUS
 62
    30
 10
-301.023103
 20
308.0
 30
0.0
 11
-301.023103
 21
296.0
 31
0.0
  0
CIRCLE
  8
SIZE
  6
CONTINUOUS
 62
    30
 10
-301.023103
 20
-308.0
 30
0.0
 40
6.0
  0
LINE
  8
SIZE
  6
CONTINUOUS
 62
    30
 10
-301.023103
 20
-308.0
 30
0.0
 11
-301.023103
 21
-296.0
 31
0.0
  0
TEXT
  8
SIZE
  6
CONTINUOUS
 62
    30
 10
-326.023103
 20
-109.152
 30
0.0
 40
64.0
  1
□616
 50
90.0
 41
0.9
 51
0.0
  7
STANDARD
 71
     0
 72
     1
 11
-326.023103
 21
-0.0
 31
0.0
210
0.0
220
0.0
230
1.0
  0
POINT
  8
DEFPOINTS
  6
CONTINUOUS
 62
    30
 10
-123.0
 20
308.0
 30
0.0
  0
POINT
  8
DEFPOINTS
  6
CONTINUOUS
 62
    30
 10
-123.0
 20
-308.0
 30
0.0
  0
POINT
  8
DEFPOINTS
  6
CONTINUOUS
 62
    30
 10
-301.023103
 20
-308.0
 30
0.0
  0
LINE
  8
SIZE
  6
CONTINUOUS
 62
    30
 10
-22.0
 20
350.0
 30
0.0
 11
-443.582258
 21
350.0
 31
0.0
  0
LINE
  8
SIZE
  6
CONTINUOUS
 62
    30
 10
-22.0
 20
-350.0
 30
0.0
 11
-443.582258
 21
-350.0
 31
0.0
  0
LINE
  8
SIZE
  6
CONTINUOUS
 62
    30
 10
-423.582258
 20
338.0
 30
0.0
 11
-423.582258
 21
-338.0
 31
0.0
  0
CIRCLE
  8
SIZE
  6
CONTINUOUS
 62
    30
 10
-423.582258
 20
350.0
 30
0.0
 40
6.0
  0
LINE
  8
SIZE
  6
CONTINUOUS
 62
    30
 10
-423.582258
 20
350.0
 30
0.0
 11
-423.582258
 21
338.0
 31
0.0
  0
CIRCLE
  8
SIZE
  6
CONTINUOUS
 62
    30
 10
-423.582258
 20
-350.0
 30
0.0
 40
6.0
  0
LINE
  8
SIZE
  6
CONTINUOUS
 62
    30
 10
-423.582258
 20
-350.0
 30
0.0
 11
-423.582258
 21
-338.0
 31
0.0
  0
TEXT
  8
SIZE
  6
CONTINUOUS
 62
    30
 10
-448.582258
 20
-81.504
 30
0.0
 40
64.0
  1
700
 50
90.0
 41
0.9
 51
0.0
  7
STANDARD
 71
     0
 72
     1
 11
-448.582258
 21
-0.0
 31
0.0
210
0.0
220
0.0
230
1.0
  0
POINT
  8
DEFPOINTS
  6
CONTINUOUS
 62
    30
 10
-2.0
 20
350.0
 30
0.0
  0
POINT
  8
DEFPOINTS
  6
CONTINUOUS
 62
    30
 10
-2.0
 20
-350.0
 30
0.0
  0
POINT
  8
DEFPOINTS
  6
CONTINUOUS
 62
    30
 10
-423.582258
 20
-350.0
 30
0.0
  0
LINE
  8
SIZE
  6
CONTINUOUS
 62
    30
 10
-183.0
 20
-276.904384
 30
0.0
 11
-183.0
 21
-628.128178
 31
0.0
  0
LINE
  8
SIZE
  6
CONTINUOUS
 62
    30
 10
0.0
 20
-370.0
 30
0.0
 11
0.0
 21
-628.128178
 31
0.0
  0
LINE
  8
SIZE
  6
CONTINUOUS
 62
    30
 10
-12.0
 20
-608.128178
 30
0.0
 11
-171.0
 21
-608.128178
 31
0.0
  0
LINE
  8
SIZE
  6
CONTINUOUS
 62
    30
 10
-183.0
 20
-608.128178
 30
0.0
 11
-521.48
 21
-608.128178
 31
0.0
  0
CIRCLE
  8
SIZE
  6
CONTINUOUS
 62
    30
 10
0.0
 20
-608.128178
 30
0.0
 40
6.0
  0
LINE
  8
SIZE
  6
CONTINUOUS
 62
    30
 10
0.0
 20
-608.128178
 30
0.0
 11
-12.0
 21
-608.128178
 31
0.0
  0
CIRCLE
  8
SIZE
  6
CONTINUOUS
 62
    30
 10
-183.0
 20
-608.128178
 30
0.0
 40
6.0
  0
LINE
  8
SIZE
  6
CONTINUOUS
 62
    30
 10
-183.0
 20
-608.128178
 30
0.0
 11
-171.0
 21
-608.128178
 31
0.0
  0
TEXT
  8
SIZE
  6
CONTINUOUS
 62
    30
 10
-501.952
 20
-583.128178
 30
0.0
 40
64.0
  1
183以下
 50
0.0
 41
0.9
 51
0.0
  7
STANDARD
 71
     0
 72
     1
 11
-358.24
 21
-583.128178
 31
0.0
210
0.0
220
0.0
230
1.0
  0
POINT
  8
DEFPOINTS
  6
CONTINUOUS
 62
    30
 10
-183.0
 20
-256.904384
 30
0.0
  0
POINT
  8
DEFPOINTS
  6
CONTINUOUS
 62
    30
 10
0.0
 20
-350.0
 30
0.0
  0
POINT
  8
DEFPOINTS
  6
CONTINUOUS
 62
    30
 10
0.0
 20
-608.128178
 30
0.0
  0
LINE
  8
SIZE
  6
CONTINUOUS
 62
    30
 10
0.0
 20
370.0
 30
0.0
 11
0.0
 21
427.050945
 31
0.0
  0
LINE
  8
SIZE
  6
CONTINUOUS
 62
    30
 10
-130.0
 20
321.0
 30
0.0
 11
-130.0
 21
427.050945
 31
0.0
  0
LINE
  8
SIZE
  6
CONTINUOUS
 62
    30
 10
12.0
 20
407.050945
 30
0.0
 11
24.0
 21
407.050945
 31
0.0
  0
LINE
  8
SIZE
  6
CONTINUOUS
 62
    30
 10
-142.0
 20
407.050945
 30
0.0
 11
-154.0
 21
407.050945
 31
0.0
  0
LINE
  8
SIZE
  6
CONTINUOUS
 62
    30
 10
0.0
 20
407.050945
 30
0.0
 11
-130.0
 21
407.050945
 31
0.0
  0
CIRCLE
  8
SIZE
  6
CONTINUOUS
 62
    30
 10
0.0
 20
407.050945
 30
0.0
 40
6.0
  0
LINE
  8
SIZE
  6
CONTINUOUS
 62
    30
 10
0.0
 20
407.050945
 30
0.0
 11
12.0
 21
407.050945
 31
0.0
  0
CIRCLE
  8
SIZE
  6
CONTINUOUS
 62
    30
 10
-130.0
 20
407.050945
 30
0.0
 40
6.0
  0
LINE
  8
SIZE
  6
CONTINUOUS
 62
    30
 10
-130.0
 20
407.050945
 30
0.0
 11
-142.0
 21
407.050945
 31
0.0
  0
TEXT
  8
SIZE
  6
CONTINUOUS
 62
    30
 10
-140.168
 20
432.050945
 30
0.0
 40
64.0
  1
130
 50
0.0
 41
0.9
 51
0.0
  7
STANDARD
 71
     0
 72
     1
 11
-65.0
 21
432.050945
 31
0.0
210
0.0
220
0.0
230
1.0
  0
POINT
  8
DEFPOINTS
  6
CONTINUOUS
 62
    30
 10
0.0
 20
350.0
 30
0.0
  0
POINT
  8
DEFPOINTS
  6
CONTINUOUS
 62
    30
 10
-130.0
 20
301.0
 30
0.0
  0
POINT
  8
DEFPOINTS
  6
CONTINUOUS
 62
    30
 10
-130.0
 20
407.050945
 30
0.0
  0
ARC
  8
DETAIL
  6
CONTINUOUS
 62
     5
 10
2.25
 20
-365.551415
 30
0.0
 40
4.5
 50
60.0
 51
120.0
  0
ARC
  8
DETAIL
  6
CONTINUOUS
 62
     5
 10
2.25
 20
-360.895644
 30
0.0
 40
4.5
 50
60.0
 51
120.0
  0
ARC
  8
DETAIL
  6
CONTINUOUS
 62
     5
 10
2.25
 20
-353.101415
 30
0.0
 40
4.5
 50
240.0
 51
300.0
  0
LINE
  8
DETAIL
  6
CONTINUOUS
 62
     5
 10
0.668233
 20
-403.229901
 30
0.0
 11
-0.324313
 21
-403.108032
 31
0.0
  0
LINE
  8
DETAIL
  6
CONTINUOUS
 62
     5
 10
-0.324313
 20
-403.108032
 30
0.0
 11
0.285033
 21
-398.145301
 31
0.0
  0
LINE
  8
DETAIL
  6
CONTINUOUS
 62
     5
 10
2.270126
 20
-398.38904
 30
0.0
 11
-0.707513
 21
-398.023432
 31
0.0
  0
LINE
  8
DETAIL
  6
CONTINUOUS
 62
     5
 10
-0.707513
 20
-398.023432
 30
0.0
 11
0.488735
 21
-388.280774
 31
0.0
  0
LINE
  8
DETAIL
  6
CONTINUOUS
 62
     5
 10
9.0
 20
-388.280774
 30
0.0
 11
0.0
 21
-388.280774
 31
0.0
  0
ARC
  8
DETAIL
  6
CONTINUOUS
 62
     5
 10
0.277475
 20
-308.577765
 30
0.0
 40
9.082005
 50
13.225151
 51
91.750783
  0
LINE
  8
DETAIL
  6
CONTINUOUS
 62
     5
 10
-2.0
 20
350.0
 30
0.0
 11
-2.0
 21
-350.0
 31
0.0
  0
LINE
  8
DETAIL
  6
CONTINUOUS
 62
     5
 10
-130.0
 20
301.0
 30
0.0
 11
-130.0
 21
-300.5
 31
0.0
  0
LINE
  8
DETAIL
  6
CONTINUOUS
 62
     5
 10
0.0
 20
350.0
 30
0.0
 11
0.0
 21
-350.0
 31
0.0
  0
LINE
  8
DETAIL
  6
CONTINUOUS
 62
     5
 10
-130.0
 20
301.0
 30
0.0
 11
-130.0
 21
-300.5
 31
0.0
  0
LINE
  8
DETAIL
  6
CONTINUOUS
 62
     5
 10
-2.0
 20
350.0
 30
0.0
 11
-2.0
 21
-350.0
 31
0.0
  0
LINE
  8
DETAIL
  6
CONTINUOUS
 62
     5
 10
0.0
 20
350.0
 30
0.0
 11
0.0
 21
-350.0
 31
0.0
  0
LINE
  8
DETAIL
  6
CONTINUOUS
 62
     5
 10
0.0
 20
-305.0
 30
0.0
 11
0.0
 21
-345.0
 31
0.0
  0
LINE
  8
DETAIL
  6
CONTINUOUS
 62
     5
 10
0.0
 20
-356.998529
 30
0.0
 11
0.0
 21
-323.5
 31
0.0
  0
LINE
  8
DETAIL
  6
CONTINUOUS
 62
     5
 10
0.0
 20
-350.0
 30
0.0
 11
-2.0
 21
-350.0
 31
0.0
  0
LINE
  8
DETAIL
  6
CONTINUOUS
 62
     5
 10
0.0
 20
-388.280774
 30
0.0
 11
0.0
 21
-361.654301
 31
0.0
  0
LINE
  8
DETAIL
  6
CONTINUOUS
 62
     5
 10
0.0
 20
-330.0
 30
0.0
 11
0.0
 21
-370.0
 31
0.0
  0
LINE
  8
DETAIL
  6
CONTINUOUS
 62
     5
 10
0.0
 20
-350.0
 30
0.0
 11
-2.0
 21
-350.0
 31
0.0
  0
LINE
  8
DETAIL
  6
CONTINUOUS
 62
     5
 10
-2.0
 20
-308.0
 30
0.0
 11
-123.0
 21
-308.0
 31
0.0
  0
LINE
  8
DETAIL
  6
CONTINUOUS
 62
     5
 10
-2.0
 20
-308.0
 30
0.0
 11
-123.0
 21
-308.0
 31
0.0
  0
LINE
  8
DETAIL
  6
CONTINUOUS
 62
     5
 10
-130.0
 20
-227.582141
 30
0.0
 11
-177.452929
 21
-249.552943
 31
0.0
  0
LINE
  8
DETAIL
  6
CONTINUOUS
 62
     5
 10
-130.0
 20
-226.904384
 30
0.0
 11
-177.852257
 21
-249.077126
 31
0.0
  0
ARC
  8
DETAIL
  6
CONTINUOUS
 62
     5
 10
-181.5
 20
-256.904384
 30
0.0
 40
0.9
 50
145.009932
 51
10.0
  0
ARC
  8
DETAIL
  6
CONTINUOUS
 62
     5
 10
-181.5
 20
-256.904384
 30
0.0
 40
1.5
 50
145.009932
 51
10.0
  0
LINE
  8
DETAIL
  6
CONTINUOUS
 62
     5
 10
-180.991067
 20
-254.607793
 30
0.0
 11
-180.400182
 21
-254.503604
 31
0.0
  0
LINE
  8
DETAIL
  6
CONTINUOUS
 62
     5
 10
-180.022788
 20
-256.643911
 30
0.0
 11
-180.400182
 21
-254.503604
 31
0.0
  0
LINE
  8
DETAIL
  6
CONTINUOUS
 62
     5
 10
-180.613673
 20
-256.7481
 30
0.0
 11
-180.991067
 21
-254.607793
 31
0.0
  0
LINE
  8
DETAIL
  6
CONTINUOUS
 62
     5
 10
-177.854685
 20
-249.080595
 30
0.0
 11
-182.728877
 21
-256.044232
 31
0.0
  0
LINE
  8
DETAIL
  6
CONTINUOUS
 62
     5
 10
-177.505683
 20
-249.628312
 30
0.0
 11
-182.237326
 21
-256.388293
 31
0.0
  0
LINE
  8
DETAIL
  6
CONTINUOUS
 62
     5
 10
-130.0
 20
-301.0
 30
0.0
 11
-123.0
 21
-308.0
 31
0.0
  0
LINE
  8
DETAIL
  6
CONTINUOUS
 62
     5
 10
-130.0
 20
-301.0
 30
0.0
 11
-123.0
 21
-308.0
 31
0.0
  0
LINE
  8
DETAIL
  6
CONTINUOUS
 62
     5
 10
0.0
 20
-170.0
 30
0.0
 11
0.0
 21
-210.0
 31
0.0
  0
LINE
  8
DETAIL
  6
CONTINUOUS
 62
     5
 10
0.0
 20
305.0
 30
0.0
 11
0.0
 21
345.0
 31
0.0
  0
LINE
  8
DETAIL
  6
CONTINUOUS
 62
     5
 10
-2.0
 20
308.0
 30
0.0
 11
-123.0
 21
308.0
 31
0.0
  0
LINE
  8
DETAIL
  6
CONTINUOUS
 62
     5
 10
-2.0
 20
308.0
 30
0.0
 11
-123.0
 21
308.0
 31
0.0
  0
LINE
  8
DETAIL
  6
CONTINUOUS
 62
     5
 10
-130.0
 20
301.0
 30
0.0
 11
-123.0
 21
308.0
 31
0.0
  0
LINE
  8
DETAIL
  6
CONTINUOUS
 62
     5
 10
-130.0
 20
301.0
 30
0.0
 11
-123.0
 21
308.0
 31
0.0
  0
LINE
  8
DETAIL
  6
CONTINUOUS
 62
     5
 10
0.0
 20
170.0
 30
0.0
 11
0.0
 21
210.0
 31
0.0
  0
LINE
  8
DETAIL
  6
CONTINUOUS
 62
     5
 10
0.0
 20
350.0
 30
0.0
 11
-2.0
 21
350.0
 31
0.0
  0
LINE
  8
DETAIL
  6
CONTINUOUS
 62
     5
 10
0.0
 20
350.0
 30
0.0
 11
-2.0
 21
350.0
 31
0.0
  0
LINE
  8
DETAIL
  6
CONTINUOUS
 62
     5
 10
9.118612
 20
-356.927598
 30
0.0
 11
9.118612
 21
-306.5
 31
0.0
  0
ARC
  8
DETAIL
  6
CONTINUOUS
 62
     5
 10
6.75
 20
-357.757186
 30
0.0
 40
4.5
 50
240.0
 51
300.0
  0
ARC
  8
DETAIL
  6
CONTINUOUS
 62
     5
 10
6.75
 20
-365.551415
 30
0.0
 40
4.5
 50
60.0
 51
120.0
  0
ARC
  8
DETAIL
  6
CONTINUOUS
 62
     5
 10
6.75
 20
-353.101415
 30
0.0
 40
4.5
 50
240.0
 51
300.0
  0
LINE
  8
DETAIL
  6
CONTINUOUS
 62
     5
 10
8.331767
 20
-403.229901
 30
0.0
 11
9.324313
 21
-403.108032
 31
0.0
  0
LINE
  8
DETAIL
  6
CONTINUOUS
 62
     5
 10
8.331767
 20
-403.229901
 30
0.0
 11
7.72242
 21
-398.26717
 31
0.0
  0
LINE
  8
DETAIL
  6
CONTINUOUS
 62
     5
 10
9.324313
 20
-403.108032
 30
0.0
 11
8.714967
 21
-398.145301
 31
0.0
  0
LINE
  8
DETAIL
  6
CONTINUOUS
 62
     5
 10
6.729874
 20
-398.38904
 30
0.0
 11
6.0
 21
-392.444691
 31
0.0
  0
LINE
  8
DETAIL
  6
CONTINUOUS
 62
     5
 10
4.0
 20
-403.280774
 30
0.0
 11
4.0
 21
-398.280774
 31
0.0
  0
LINE
  8
DETAIL
  6
CONTINUOUS
 62
     5
 10
5.0
 20
-403.280774
 30
0.0
 11
5.0
 21
-398.280774
 31
0.0
  0
LINE
  8
DETAIL
  6
CONTINUOUS
 62
     5
 10
5.0
 20
-403.280774
 30
0.0
 11
4.0
 21
-403.280774
 31
0.0
  0
LINE
  8
DETAIL
  6
CONTINUOUS
 62
     5
 10
2.270126
 20
-398.38904
 30
0.0
 11
3.0
 21
-392.444691
 31
0.0
  0
LINE
  8
DETAIL
  6
CONTINUOUS
 62
     5
 10
0.668233
 20
-403.229901
 30
0.0
 11
1.27758
 21
-398.26717
 31
0.0
  0
LINE
  8
DETAIL
  6
CONTINUOUS
 62
     5
 10
6.0
 20
-398.280774
 30
0.0
 11
3.0
 21
-398.280774
 31
0.0
  0
LINE
  8
DETAIL
  6
CONTINUOUS
 62
     5
 10
6.729874
 20
-398.38904
 30
0.0
 11
9.707513
 21
-398.023432
 31
0.0
  0
LINE
  8
DETAIL
  6
CONTINUOUS
 62
     5
 10
6.0
 20
-398.280774
 30
0.0
 11
6.0
 21
-388.280774
 31
0.0
  0
LINE
  8
DETAIL
  6
CONTINUOUS
 62
     5
 10
3.0
 20
-398.280774
 30
0.0
 11
3.0
 21
-388.280774
 31
0.0
  0
LINE
  8
DETAIL
  6
CONTINUOUS
 62
     5
 10
9.707513
 20
-398.023432
 30
0.0
 11
8.511265
 21
-388.280774
 31
0.0
  0
LINE
  8
DETAIL
  6
CONTINUOUS
 62
     5
 10
9.0
 20
-388.280774
 30
0.0
 11
9.0
 21
-361.654301
 31
0.0
  0
ENDSEC
  0
EOF
