  0
SECTION
  2
HEADER
  9
$ACADVER
  1
AC1009
  9
$DWGCODEPAGE
  3
dos932
  9
$INSBASE
 10
0.0
 20
0.0
 30
0.0
  9
$EXTMIN
 10
-923.53548600000011
 20
-691.32945952066257
 30
0.0
  9
$EXTMAX
 10
2631.4143708490442
 20
996.95827247389593
 30
50.0
  9
$LIMMIN
 10
-2970.0
 20
-2100.0
  9
$LIMMAX
 10
2970.0
 20
2100.0
  9
$ORTHOMODE
 70
     1
  9
$REGENMODE
 70
     1
  9
$FILLMODE
 70
     1
  9
$QTEXTMODE
 70
     0
  9
$MIRRTEXT
 70
     0
  9
$LTSCALE
 40
20.0
  9
$ATTMODE
 70
     1
  9
$TEXTSIZE
 40
64.0
  9
$TRACEWID
 40
0.05
  9
$TEXTSTYLE
  7
STANDARD
  9
$CLAYER
  8
SIZE
  9
$CELTYPE
  6
CONTINUOUS
  9
$CECOLOR
 62
     7
  9
$DIMSCALE
 40
1.0
  9
$DIMASZ
 40
12.0
  9
$DIMEXO
 40
20.0
  9
$DIMDLI
 40
200.0
  9
$DIMRND
 40
0.0
  9
$DIMDLE
 40
0.0
  9
$DIMEXE
 40
20.0
  9
$DIMTP
 40
0.0
  9
$DIMTM
 40
0.0
  9
$DIMTXT
 40
64.0
  9
$DIMCEN
 40
0.09
  9
$DIMTSZ
 40
0.0
  9
$DIMTOL
 70
     0
  9
$DIMLIM
 70
     0
  9
$DIMTIH
 70
     0
  9
$DIMTOH
 70
     0
  9
$DIMSE1
 70
     0
  9
$DIMSE2
 70
     0
  9
$DIMTAD
 70
     1
  9
$DIMZIN
 70
     8
  9
$DIMBLK
  1

  9
$DIMASO
 70
     1
  9
$DIMSHO
 70
     0
  9
$DIMPOST
  1

  9
$DIMAPOST
  1

  9
$DIMALT
 70
     0
  9
$DIMALTD
 70
     2
  9
$DIMALTF
 40
25.399999999999999
  9
$DIMLFAC
 40
1.0
  9
$DIMTOFL
 70
     1
  9
$DIMTVP
 40
0.0
  9
$DIMTIX
 70
     1
  9
$DIMSOXD
 70
     0
  9
$DIMSAH
 70
     0
  9
$DIMBLK1
  1

  9
$DIMBLK2
  1

  9
$DIMSTYLE
  2
STANDARD
  9
$DIMCLRD
 70
     7
  9
$DIMCLRE
 70
     7
  9
$DIMCLRT
 70
     7
  9
$DIMTFAC
 40
1.0
  9
$DIMGAP
 40
25.0
  9
$LUNITS
 70
     2
  9
$LUPREC
 70
     4
  9
$SKETCHINC
 40
0.1
  9
$FILLETRAD
 40
3.0
  9
$AUNITS
 70
     1
  9
$AUPREC
 70
     3
  9
$MENU
  1
ACAD
  9
$ELEVATION
 40
0.0
  9
$PELEVATION
 40
0.0
  9
$THICKNESS
 40
50.0
  9
$LIMCHECK
 70
     0
  9
$CHAMFERA
 40
0.0
  9
$CHAMFERB
 40
0.0
  9
$SKPOLY
 70
     0
  9
$TDCREATE
 40
2453019.62301037
  9
$TDUPDATE
 40
2458493.412635764
  9
$TDINDWG
 40
1.7125044097
  9
$TDUSRTIMER
 40
1.7125044097
  9
$USRTIMER
 70
     1
  9
$ANGBASE
 50
0.0
  9
$ANGDIR
 70
     0
  9
$PDMODE
 70
     3
  9
$PDSIZE
 40
-2.0
  9
$PLINEWID
 40
0.0
  9
$SPLFRAME
 70
     0
  9
$SPLINETYPE
 70
     6
  9
$SPLINESEGS
 70
     8
  9
$SURFTAB1
 70
     6
  9
$SURFTAB2
 70
     6
  9
$SURFTYPE
 70
     6
  9
$SURFU
 70
     6
  9
$SURFV
 70
     6
  9
$UCSNAME
  2

  9
$UCSORG
 10
0.0
 20
0.0
 30
0.0
  9
$UCSXDIR
 10
1.0
 20
0.0
 30
0.0
  9
$UCSYDIR
 10
0.0
 20
1.0
 30
0.0
  9
$PUCSNAME
  2

  9
$PUCSORG
 10
0.0
 20
0.0
 30
0.0
  9
$PUCSXDIR
 10
1.0
 20
0.0
 30
0.0
  9
$PUCSYDIR
 10
0.0
 20
1.0
 30
0.0
  9
$USERI1
 70
     0
  9
$USERI2
 70
     0
  9
$USERI3
 70
     0
  9
$USERI4
 70
     0
  9
$USERI5
 70
     0
  9
$USERR1
 40
20.0
  9
$USERR2
 40
0.0
  9
$USERR3
 40
0.0
  9
$USERR4
 40
0.0
  9
$USERR5
 40
0.0
  9
$WORLDVIEW
 70
     1
  9
$SHADEDGE
 70
     3
  9
$SHADEDIF
 70
    70
  9
$TILEMODE
 70
     1
  9
$MAXACTVP
 70
    48
  9
$PINSBASE
 10
0.0
 20
0.0
 30
0.0
  9
$PLIMCHECK
 70
     0
  9
$PEXTMIN
 10
-100000000000000000000.0
 20
-100000000000000000000.0
 30
-100000000000000000000.0
  9
$PEXTMAX
 10
100000000000000000000.0
 20
100000000000000000000.0
 30
100000000000000000000.0
  9
$PLIMMIN
 10
0.0
 20
0.0
  9
$PLIMMAX
 10
12.0
 20
9.0
  9
$UNITMODE
 70
     0
  9
$VISRETAIN
 70
     0
  9
$PLINEGEN
 70
     0
  9
$PSLTSCALE
 70
     0
  9
$TREEDEPTH
 70
  3020
  9
$ATTDIA
 70
     0
  9
$ATTREQ
 70
     1
  9
$BLIPMODE
 70
     1
  9
$COORDS
 70
     1
  9
$DRAGMODE
 70
     2
  9
$OSMODE
 70
     0
  9
$HANDLING
 70
     0
  9
$HANDSEED
  5
EB13
  0
ENDSEC
  0
SECTION
  2
TABLES
  0
TABLE
  2
LTYPE
 70
     2
  0
LTYPE
  2
CONTINUOUS
 70
     0
  3
実線
 72
    65
 73
     0
 40
0.0
  0
LTYPE
  2
DASHDOT
 70
     0
  3
____ _ ____ _ ____ _ ____ _ ____ _ ____ _ ____
 72
    65
 73
     4
 40
5.5
 49
4.0
 49
-0.6
 49
0.3
 49
-0.6
  0
ENDTAB
  0
TABLE
  2
LAYER
 70
    12
  0
LAYER
  2
0
 70
     0
 62
     7
  6
CONTINUOUS
  0
LAYER
  2
BASIS
 70
     0
 62
     6
  6
DASHDOT
  0
LAYER
  2
OUTLINE
 70
     0
 62
     3
  6
CONTINUOUS
  0
LAYER
  2
DETAIL
 70
     0
 62
     5
  6
CONTINUOUS
  0
LAYER
  2
SIZE
 70
     0
 62
    30
  6
CONTINUOUS
  0
LAYER
  2
ARRANGE
 70
     0
 62
     1
  6
CONTINUOUS
  0
LAYER
  2
DEFPOINTS
 70
     0
 62
     7
  6
CONTINUOUS
  0
LAYER
  2
ETC
 70
     0
 62
    61
  6
CONTINUOUS
  0
LAYER
  2
FIX
 70
     0
 62
    11
  6
CONTINUOUS
  0
LAYER
  2
NOTE
 70
     0
 62
     4
  6
CONTINUOUS
  0
LAYER
  2
SERVICESPACE
 70
    64
 62
     2
  6
DASHDOT
  0
LAYER
  2
SYMBOLLINE
 70
    64
 62
    15
  6
CONTINUOUS
  0
ENDTAB
  0
TABLE
  2
STYLE
 70
     1
  0
STYLE
  2
STANDARD
 70
     0
 40
64.0
 41
0.9
 50
0.0
 71
     0
 42
64.0
  3
SIMPLEX.shx
  4
BIGFONT.shx
  0
ENDTAB
  0
TABLE
  2
APPID
 70
    18
  0
APPID
  2
ACAD
 70
     0
  0
APPID
  2
AUTOCAD_POSTSCRIPT_FIGURE
 70
     0
  0
APPID
  2
ACAD_EXEMPT_FROM_CAD_STANDARDS
 70
     0
  0
APPID
  2
ACAD_PSEXT
 70
     0
  0
APPID
  2
ACAUTHENVIRON
 70
     0
  0
APPID
  2
GENIUS_GENOENT_13
 70
     0
  0
APPID
  2
GENIUS_GENCFG_13
 70
     0
  0
APPID
  2
GENIUS_GENCFG0_13
 70
     0
  0
APPID
  2
GENIUS_GENCFG1_13
 70
     0
  0
APPID
  2
GENIUS_GENCFG2_13
 70
     0
  0
APPID
  2
GENIUS_GENCFG3_13
 70
     0
  0
APPID
  2
GENIUS_GENCFG4_13
 70
     0
  0
APPID
  2
GENIUS_GEVCFG0_13
 70
     0
  0
APPID
  2
CONTENTBLOCKICON
 70
     0
  0
APPID
  2
CONTENTBLOCKDESCRIPTION
 70
     0
  0
APPID
  2
ACAD_NAV_VCDISPLAY
 70
     0
  0
APPID
  2
ACAD_MLEADERVER
 70
     0
  0
APPID
  2
ACADANNOMONITORALERTICONDISABLE
 70
     0
  0
ENDTAB
  0
TABLE
  2
DIMSTYLE
 70
     1
  0
DIMSTYLE
  2
STANDARD
 70
     0
  3

  4

  5
_ORIGIN
  6

  7

 40
1.0
 41
12.0
 42
20.0
 43
200.0
 44
20.0
 45
0.0
 46
0.0
 47
0.0
 48
0.0
140
64.0
141
0.09
142
0.0
143
25.399999999999999
144
1.0
145
0.0
146
1.0
147
25.0
 71
     0
 72
     0
 73
     0
 74
     0
 75
     0
 76
     0
 77
     1
 78
     8
170
     0
171
     2
172
     1
173
     0
174
     1
175
     0
176
     7
177
     7
178
     7
  0
ENDTAB
  0
TABLE
  2
VIEW
 70
     1
  0
VIEW
  2
ALL
 70
     0
 40
4282.6198079999986
 10
0.0
 20
41.309904000000003
 41
5940.0
 11
0.0
 21
0.0
 31
1.0
 12
0.0
 22
0.0
 32
0.0
 42
50.0
 43
0.0
 44
0.0
 50
0.0
 71
     0
  0
ENDTAB
  0
TABLE
  2
UCS
 70
     0
  0
ENDTAB
  0
TABLE
  2
VPORT
 70
     1
  0
VPORT
  2
*ACTIVE
 70
     0
 10
0.0
 20
0.0
 11
1.0
 21
1.0
 12
-212.70804024005429
 22
223.19416215318779
 13
0.0
 23
0.0
 14
1.0
 24
1.0
 15
0.0
 25
0.0
 16
0.0
 26
0.0
 36
1.0
 17
0.0
 27
0.0
 37
0.0
 40
3026.150025433999
 41
2.443734015345269
 42
50.0
 43
0.0
 44
0.0
 50
0.0
 51
0.0
 71
     0
 72
  1000
 73
     1
 74
     3
 75
     0
 76
     0
 77
     0
 78
     0
  0
ENDTAB
  0
ENDSEC
  0
SECTION
  2
BLOCKS
  0
BLOCK
  8
0
  2
_ORIGIN
 70
     0
 10
0.0
 20
0.0
 30
0.0
  3
_ORIGIN
  1
_ORIGIN
  0
CIRCLE
  8
0
  6
CONTINUOUS
 62
     7
 10
0.0
 20
0.0
 30
0.0
 40
0.5
  0
LINE
  8
0
  6
CONTINUOUS
 62
     7
 10
0.0
 20
0.0
 30
0.0
 11
-1.0
 21
0.0
 31
0.0
  0
ENDBLK
  8
0
  0
ENDSEC
  0
SECTION
  2
ENTITIES
  0
POINT
  8
ARRANGE
  6
CONTINUOUS
 62
     1
 10
0.0
 20
0.0
 30
0.0
  0
CIRCLE
  8
ARRANGE
  6
CONTINUOUS
 62
     1
 10
0.0
 20
0.0
 30
0.0
 40
40.0
  0
TEXT
  8
ETC
  6
CONTINUOUS
 62
    61
 10
486.42593916201031
 20
832.55233217419868
 30
0.0
 40
40.0
  1
PS-70SHB3_2
 41
0.9
  0
TEXT
  8
ETC
  6
CONTINUOUS
 62
    61
 10
482.23994516201037
 20
771.85605317419868
 30
0.0
 40
40.0
  1
システム部材
 41
0.9
  0
TEXT
  8
ETC
  6
CONTINUOUS
 62
    61
 10
532.84744716201021
 20
689.98594317419861
 30
0.0
 40
40.0
  1
PS-70SHB3
 41
0.9
  0
LINE
  8
BASIS
  6
DASHDOT
 62
     6
 39
50.0
 10
0.0
 20
-492.859847
 30
0.0
 11
0.0
 21
497.95597400000003
 31
0.0
  0
LINE
  8
BASIS
  6
DASHDOT
 62
     6
 39
50.0
 10
-497.99899799999997
 20
0.0
 30
0.0
 11
513.81017900000006
 21
0.0
 31
0.0
  0
LINE
  8
OUTLINE
  6
CONTINUOUS
 62
     3
 10
400.0
 20
-415.0
 30
0.0
 11
-400.0
 21
-415.0
 31
0.0
  0
LINE
  8
OUTLINE
  6
CONTINUOUS
 62
     3
 10
400.0
 20
415.0
 30
0.0
 11
-400.0
 21
415.0
 31
0.0
  0
LINE
  8
OUTLINE
  6
CONTINUOUS
 62
     3
 10
400.0
 20
-415.0
 30
0.0
 11
-400.0
 21
-415.0
 31
0.0
  0
LINE
  8
OUTLINE
  6
CONTINUOUS
 62
     3
 10
400.0
 20
415.0
 30
0.0
 11
-400.0
 21
415.0
 31
0.0
  0
LINE
  8
OUTLINE
  6
CONTINUOUS
 62
     3
 10
-415.0
 20
400.0
 30
0.0
 11
-415.0
 21
-400.0
 31
0.0
  0
LINE
  8
OUTLINE
  6
CONTINUOUS
 62
     3
 10
-415.0
 20
400.0
 30
0.0
 11
-415.0
 21
-400.0
 31
0.0
  0
ARC
  8
OUTLINE
  6
CONTINUOUS
 62
     3
 10
-400.0
 20
-400.0
 30
0.0
 40
15.0
 50
180.0
 51
270.0
  0
LINE
  8
NOTE
  6
CONTINUOUS
 62
     4
 10
-400.0
 20
-380.0
 30
0.0
 11
-400.0
 21
-420.0
 31
0.0
  0
ARC
  8
OUTLINE
  6
CONTINUOUS
 62
     3
 10
-400.0
 20
-400.0
 30
0.0
 40
15.0
 50
180.0
 51
270.0
  0
CIRCLE
  8
FIX
  6
CONTINUOUS
 62
    11
 10
-400.0
 20
-400.0
 30
0.0
 40
7.5
  0
CIRCLE
  8
FIX
  6
CONTINUOUS
 62
    11
 10
-400.0
 20
-400.0
 30
0.0
 40
7.5
  0
LINE
  8
NOTE
  6
CONTINUOUS
 62
     4
 10
-380.0
 20
-400.0
 30
0.0
 11
-420.0
 21
-400.0
 31
0.0
  0
LINE
  8
NOTE
  6
CONTINUOUS
 62
     4
 10
-200.0
 20
-380.0
 30
0.0
 11
-200.0
 21
-420.0
 31
0.0
  0
CIRCLE
  8
FIX
  6
CONTINUOUS
 62
    11
 10
-200.0
 20
-400.0
 30
0.0
 40
7.5
  0
CIRCLE
  8
FIX
  6
CONTINUOUS
 62
    11
 10
-200.0
 20
-400.0
 30
0.0
 40
7.5
  0
LINE
  8
NOTE
  6
CONTINUOUS
 62
     4
 10
-180.0
 20
-400.0
 30
0.0
 11
-220.0
 21
-400.0
 31
0.0
  0
CIRCLE
  8
FIX
  6
CONTINUOUS
 62
    11
 10
-400.0
 20
-200.0
 30
0.0
 40
7.5
  0
LINE
  8
NOTE
  6
CONTINUOUS
 62
     4
 10
-380.0
 20
-200.0
 30
0.0
 11
-420.0
 21
-200.0
 31
0.0
  0
CIRCLE
  8
FIX
  6
CONTINUOUS
 62
    11
 10
-400.0
 20
-200.0
 30
0.0
 40
7.5
  0
LINE
  8
NOTE
  6
CONTINUOUS
 62
     4
 10
-400.0
 20
-180.0
 30
0.0
 11
-400.0
 21
-220.0
 31
0.0
  0
CIRCLE
  8
FIX
  6
CONTINUOUS
 62
    11
 10
-400.0
 20
200.0
 30
0.0
 40
7.5
  0
CIRCLE
  8
FIX
  6
CONTINUOUS
 62
    11
 10
-400.0
 20
200.0
 30
0.0
 40
7.5
  0
LINE
  8
NOTE
  6
CONTINUOUS
 62
     4
 10
-380.0
 20
200.0
 30
0.0
 11
-420.0
 21
200.0
 31
0.0
  0
LINE
  8
NOTE
  6
CONTINUOUS
 62
     4
 10
-400.0
 20
180.0
 30
0.0
 11
-400.0
 21
220.0
 31
0.0
  0
ARC
  8
OUTLINE
  6
CONTINUOUS
 62
     3
 10
-400.0
 20
400.0
 30
0.0
 40
15.0
 50
90.0
 51
180.0
  0
LINE
  8
NOTE
  6
CONTINUOUS
 62
     4
 10
-400.0
 20
380.0
 30
0.0
 11
-400.0
 21
420.0
 31
0.0
  0
ARC
  8
OUTLINE
  6
CONTINUOUS
 62
     3
 10
-400.0
 20
400.0
 30
0.0
 40
15.0
 50
90.0
 51
180.0
  0
CIRCLE
  8
FIX
  6
CONTINUOUS
 62
    11
 10
-400.0
 20
400.0
 30
0.0
 40
7.5
  0
LINE
  8
NOTE
  6
CONTINUOUS
 62
     4
 10
-380.0
 20
400.0
 30
0.0
 11
-420.0
 21
400.0
 31
0.0
  0
CIRCLE
  8
FIX
  6
CONTINUOUS
 62
    11
 10
-400.0
 20
400.0
 30
0.0
 40
7.5
  0
LINE
  8
NOTE
  6
CONTINUOUS
 62
     4
 10
-200.0
 20
380.0
 30
0.0
 11
-200.0
 21
420.0
 31
0.0
  0
CIRCLE
  8
FIX
  6
CONTINUOUS
 62
    11
 10
-200.0
 20
400.0
 30
0.0
 40
7.5
  0
CIRCLE
  8
FIX
  6
CONTINUOUS
 62
    11
 10
-200.0
 20
400.0
 30
0.0
 40
7.5
  0
LINE
  8
NOTE
  6
CONTINUOUS
 62
     4
 10
-180.0
 20
400.0
 30
0.0
 11
-220.0
 21
400.0
 31
0.0
  0
LINE
  8
OUTLINE
  6
CONTINUOUS
 62
     3
 10
415.0
 20
400.0
 30
0.0
 11
415.0
 21
-400.0
 31
0.0
  0
LINE
  8
OUTLINE
  6
CONTINUOUS
 62
     3
 10
415.0
 20
400.0
 30
0.0
 11
415.0
 21
-400.0
 31
0.0
  0
LINE
  8
NOTE
  6
CONTINUOUS
 62
     4
 10
400.0
 20
-200.0
 30
0.0
 11
518.31277599999976
 21
-288.148123
 31
0.0
  0
LINE
  8
NOTE
  6
CONTINUOUS
 62
     4
 10
200.0
 20
-380.0
 30
0.0
 11
200.0
 21
-420.0
 31
0.0
  0
CIRCLE
  8
FIX
  6
CONTINUOUS
 62
    11
 10
200.0
 20
-400.0
 30
0.0
 40
7.5
  0
CIRCLE
  8
FIX
  6
CONTINUOUS
 62
    11
 10
200.0
 20
-400.0
 30
0.0
 40
7.5
  0
LINE
  8
NOTE
  6
CONTINUOUS
 62
     4
 10
180.0
 20
-400.0
 30
0.0
 11
220.0
 21
-400.0
 31
0.0
  0
ARC
  8
OUTLINE
  6
CONTINUOUS
 62
     3
 10
400.0
 20
-400.0
 30
0.0
 40
15.0
 50
270.0
 51
0.0
  0
LINE
  8
NOTE
  6
CONTINUOUS
 62
     4
 10
400.0
 20
-380.0
 30
0.0
 11
400.0
 21
-420.0
 31
0.0
  0
ARC
  8
OUTLINE
  6
CONTINUOUS
 62
     3
 10
400.0
 20
-400.0
 30
0.0
 40
15.0
 50
270.0
 51
0.0
  0
CIRCLE
  8
FIX
  6
CONTINUOUS
 62
    11
 10
400.0
 20
-400.0
 30
0.0
 40
7.5
  0
CIRCLE
  8
FIX
  6
CONTINUOUS
 62
    11
 10
400.0
 20
-400.0
 30
0.0
 40
7.5
  0
LINE
  8
NOTE
  6
CONTINUOUS
 62
     4
 10
380.0
 20
-400.0
 30
0.0
 11
420.0
 21
-400.0
 31
0.0
  0
CIRCLE
  8
FIX
  6
CONTINUOUS
 62
    11
 10
400.0
 20
-200.0
 30
0.0
 40
7.5
  0
LINE
  8
NOTE
  6
CONTINUOUS
 62
     4
 10
400.0
 20
-200.0
 30
0.0
 11
424.54513499999979
 21
-231.583799
 31
0.0
  0
LINE
  8
NOTE
  6
CONTINUOUS
 62
     4
 10
437.04860999999983
 20
-215.079804
 30
0.0
 11
400.0
 21
-200.0
 31
0.0
  0
CIRCLE
  8
FIX
  6
CONTINUOUS
 62
    11
 10
400.0
 20
-200.0
 30
0.0
 40
7.5
  0
LINE
  8
NOTE
  6
CONTINUOUS
 62
     4
 10
380.0
 20
-200.0
 30
0.0
 11
420.0
 21
-200.0
 31
0.0
  0
LINE
  8
NOTE
  6
CONTINUOUS
 62
     4
 10
400.0
 20
-180.0
 30
0.0
 11
400.0
 21
-220.0
 31
0.0
  0
TEXT
  8
NOTE
  6
CONTINUOUS
 62
     4
 10
537.90076599999975
 20
-265.54419000000001
 30
0.0
 40
40.0
  1
8-φ15
 41
0.9
  0
LINE
  8
NOTE
  6
CONTINUOUS
 62
     4
 10
518.31277599999976
 20
-288.148123
 30
0.0
 11
722.0128279999999
 21
-288.148123
 31
0.0
  0
LINE
  8
NOTE
  6
CONTINUOUS
 62
     4
 10
400.0
 20
400.0
 30
0.0
 11
510.31277599999981
 21
464.88896900000009
 31
0.0
  0
LINE
  8
NOTE
  6
CONTINUOUS
 62
     4
 10
380.0
 20
200.0
 30
0.0
 11
420.0
 21
200.0
 31
0.0
  0
CIRCLE
  8
FIX
  6
CONTINUOUS
 62
    11
 10
400.0
 20
200.0
 30
0.0
 40
7.5
  0
CIRCLE
  8
FIX
  6
CONTINUOUS
 62
    11
 10
400.0
 20
200.0
 30
0.0
 40
7.5
  0
LINE
  8
NOTE
  6
CONTINUOUS
 62
     4
 10
400.0
 20
180.0
 30
0.0
 11
400.0
 21
220.0
 31
0.0
  0
LINE
  8
NOTE
  6
CONTINUOUS
 62
     4
 10
200.0
 20
380.0
 30
0.0
 11
200.0
 21
420.0
 31
0.0
  0
CIRCLE
  8
FIX
  6
CONTINUOUS
 62
    11
 10
200.0
 20
400.0
 30
0.0
 40
7.5
  0
CIRCLE
  8
FIX
  6
CONTINUOUS
 62
    11
 10
200.0
 20
400.0
 30
0.0
 40
7.5
  0
LINE
  8
NOTE
  6
CONTINUOUS
 62
     4
 10
180.0
 20
400.0
 30
0.0
 11
220.0
 21
400.0
 31
0.0
  0
ARC
  8
OUTLINE
  6
CONTINUOUS
 62
     3
 10
400.0
 20
400.0
 30
0.0
 40
15.0
 50
0.0
 51
90.0
  0
LINE
  8
NOTE
  6
CONTINUOUS
 62
     4
 10
400.0
 20
400.0
 30
0.0
 11
438.29097199999978
 21
411.56725999999998
 31
0.0
  0
LINE
  8
NOTE
  6
CONTINUOUS
 62
     4
 10
427.37732399999999
 20
429.16302700000011
 30
0.0
 11
400.0
 21
400.0
 31
0.0
  0
LINE
  8
NOTE
  6
CONTINUOUS
 62
     4
 10
400.0
 20
380.0
 30
0.0
 11
400.0
 21
420.0
 31
0.0
  0
ARC
  8
OUTLINE
  6
CONTINUOUS
 62
     3
 10
400.0
 20
400.0
 30
0.0
 40
15.0
 50
0.0
 51
90.0
  0
CIRCLE
  8
OUTLINE
  6
CONTINUOUS
 62
     3
 10
400.0
 20
400.0
 30
0.0
 40
7.5
  0
CIRCLE
  8
FIX
  6
CONTINUOUS
 62
    11
 10
400.0
 20
400.0
 30
0.0
 40
7.5
  0
LINE
  8
NOTE
  6
CONTINUOUS
 62
     4
 10
380.0
 20
400.0
 30
0.0
 11
420.0
 21
400.0
 31
0.0
  0
LINE
  8
NOTE
  6
CONTINUOUS
 62
     4
 10
510.31277599999981
 20
464.88896900000009
 30
0.0
 11
728.91686500000014
 21
464.88896900000009
 31
0.0
  0
TEXT
  8
NOTE
  6
CONTINUOUS
 62
     4
 10
526.88722899999993
 20
488.99983100000009
 30
0.0
 40
40.0
  1
4-φ15
 41
0.9
  0
LINE
  8
SIZE
  6
CONTINUOUS
 62
    30
 10
-200.0
 20
440.0
 30
0.0
 11
-200.0
 21
557.52252700000008
 31
0.0
  0
LINE
  8
SIZE
  6
CONTINUOUS
 62
    30
 10
200.0
 20
440.0
 30
0.0
 11
200.0
 21
557.52252700000008
 31
0.0
  0
LINE
  8
SIZE
  6
CONTINUOUS
 62
    30
 10
-188.0
 20
537.52252700000008
 30
0.0
 11
188.0
 21
537.52252700000008
 31
0.0
  0
CIRCLE
  8
SIZE
  6
CONTINUOUS
 62
    30
 10
-200.0
 20
537.52252700000008
 30
0.0
 40
6.0
  0
LINE
  8
SIZE
  6
CONTINUOUS
 62
    30
 10
-200.0
 20
537.52252700000008
 30
0.0
 11
-188.0
 21
537.52252700000008
 31
0.0
  0
CIRCLE
  8
SIZE
  6
CONTINUOUS
 62
    30
 10
200.0
 20
537.52252700000008
 30
0.0
 40
6.0
  0
LINE
  8
SIZE
  6
CONTINUOUS
 62
    30
 10
200.0
 20
537.52252700000008
 30
0.0
 11
188.0
 21
537.52252700000008
 31
0.0
  0
TEXT
  8
SIZE
  6
CONTINUOUS
 62
    30
 10
-74.05714285714285
 20
562.52252700000008
 30
0.0
 40
64.0
  1
400
 41
0.9
 72
     1
 11
0.0
 21
562.52252700000008
 31
0.0
  0
POINT
  8
DEFPOINTS
  6
CONTINUOUS
 62
    30
 10
-200.0
 20
420.0
 30
0.0
  0
POINT
  8
DEFPOINTS
  6
CONTINUOUS
 62
    30
 10
200.0
 20
420.0
 30
0.0
  0
POINT
  8
DEFPOINTS
  6
CONTINUOUS
 62
    30
 10
200.0
 20
537.52252700000008
 30
0.0
  0
LINE
  8
SIZE
  6
CONTINUOUS
 62
    30
 10
400.0
 20
440.0
 30
0.0
 11
400.0
 21
690.86142100000006
 31
0.0
  0
LINE
  8
SIZE
  6
CONTINUOUS
 62
    30
 10
-400.0
 20
440.0
 30
0.0
 11
-400.0
 21
690.86142100000006
 31
0.0
  0
LINE
  8
SIZE
  6
CONTINUOUS
 62
    30
 10
388.0
 20
670.86142100000006
 30
0.0
 11
-388.0
 21
670.86142100000006
 31
0.0
  0
CIRCLE
  8
SIZE
  6
CONTINUOUS
 62
    30
 10
400.0
 20
670.86142100000006
 30
0.0
 40
6.0
  0
LINE
  8
SIZE
  6
CONTINUOUS
 62
    30
 10
400.0
 20
670.86142100000006
 30
0.0
 11
388.0
 21
670.86142100000006
 31
0.0
  0
CIRCLE
  8
SIZE
  6
CONTINUOUS
 62
    30
 10
-400.0
 20
670.86142100000006
 30
0.0
 40
6.0
  0
LINE
  8
SIZE
  6
CONTINUOUS
 62
    30
 10
-400.0
 20
670.86142100000006
 30
0.0
 11
-388.0
 21
670.86142100000006
 31
0.0
  0
TEXT
  8
SIZE
  6
CONTINUOUS
 62
    30
 10
-74.057142857142864
 20
695.86142100000006
 30
0.0
 40
64.0
  1
800
 41
0.9
 72
     1
 11
0.0
 21
695.86142100000006
 31
0.0
  0
POINT
  8
DEFPOINTS
  6
CONTINUOUS
 62
    30
 10
400.0
 20
420.0
 30
0.0
  0
POINT
  8
DEFPOINTS
  6
CONTINUOUS
 62
    30
 10
-400.0
 20
420.0
 30
0.0
  0
POINT
  8
DEFPOINTS
  6
CONTINUOUS
 62
    30
 10
-400.0
 20
670.86142100000006
 30
0.0
  0
LINE
  8
SIZE
  6
CONTINUOUS
 62
    30
 10
415.0
 20
440.0
 30
0.0
 11
415.0
 21
830.20031500000005
 31
0.0
  0
LINE
  8
SIZE
  6
CONTINUOUS
 62
    30
 10
-415.0
 20
440.0
 30
0.0
 11
-415.0
 21
830.20031500000005
 31
0.0
  0
LINE
  8
SIZE
  6
CONTINUOUS
 62
    30
 10
403.0
 20
810.20031500000005
 30
0.0
 11
-403.0
 21
810.20031500000005
 31
0.0
  0
CIRCLE
  8
SIZE
  6
CONTINUOUS
 62
    30
 10
415.0
 20
810.20031500000005
 30
0.0
 40
6.0
  0
LINE
  8
SIZE
  6
CONTINUOUS
 62
    30
 10
415.0
 20
810.20031500000005
 30
0.0
 11
403.0
 21
810.20031500000005
 31
0.0
  0
CIRCLE
  8
SIZE
  6
CONTINUOUS
 62
    30
 10
-415.0
 20
810.20031500000005
 30
0.0
 40
6.0
  0
LINE
  8
SIZE
  6
CONTINUOUS
 62
    30
 10
-415.0
 20
810.20031500000005
 30
0.0
 11
-403.0
 21
810.20031500000005
 31
0.0
  0
TEXT
  8
SIZE
  6
CONTINUOUS
 62
    30
 10
-74.057142857142864
 20
835.20031500000005
 30
0.0
 40
64.0
  1
830
 41
0.9
 72
     1
 11
0.0
 21
835.20031500000005
 31
0.0
  0
POINT
  8
DEFPOINTS
  6
CONTINUOUS
 62
    30
 10
415.0
 20
420.0
 30
0.0
  0
POINT
  8
DEFPOINTS
  6
CONTINUOUS
 62
    30
 10
-415.0
 20
420.0
 30
0.0
  0
POINT
  8
DEFPOINTS
  6
CONTINUOUS
 62
    30
 10
-415.0
 20
810.20031500000005
 30
0.0
  0
LINE
  8
SIZE
  6
CONTINUOUS
 62
    30
 10
-440.0
 20
200.0
 30
0.0
 11
-578.28261199999997
 21
200.0
 31
0.0
  0
LINE
  8
SIZE
  6
CONTINUOUS
 62
    30
 10
-440.0
 20
-200.0
 30
0.0
 11
-578.28261199999997
 21
-200.0
 31
0.0
  0
LINE
  8
SIZE
  6
CONTINUOUS
 62
    30
 10
-558.28261199999997
 20
188.0
 30
0.0
 11
-558.28261199999997
 21
-188.0
 31
0.0
  0
CIRCLE
  8
SIZE
  6
CONTINUOUS
 62
    30
 10
-558.28261199999997
 20
200.0
 30
0.0
 40
6.0
  0
LINE
  8
SIZE
  6
CONTINUOUS
 62
    30
 10
-558.28261199999997
 20
200.0
 30
0.0
 11
-558.28261199999997
 21
188.0
 31
0.0
  0
CIRCLE
  8
SIZE
  6
CONTINUOUS
 62
    30
 10
-558.28261199999997
 20
-200.0
 30
0.0
 40
6.0
  0
LINE
  8
SIZE
  6
CONTINUOUS
 62
    30
 10
-558.28261199999997
 20
-200.0
 30
0.0
 11
-558.28261199999997
 21
-188.0
 31
0.0
  0
TEXT
  8
SIZE
  6
CONTINUOUS
 62
    30
 10
-583.28261199999997
 20
-74.05714285714285
 30
0.0
 40
64.0
  1
400
 50
90.0
 41
0.9
 72
     1
 11
-583.28261199999997
 21
0.0
 31
0.0
  0
POINT
  8
DEFPOINTS
  6
CONTINUOUS
 62
    30
 10
-420.0
 20
200.0
 30
0.0
  0
POINT
  8
DEFPOINTS
  6
CONTINUOUS
 62
    30
 10
-420.0
 20
-200.0
 30
0.0
  0
POINT
  8
DEFPOINTS
  6
CONTINUOUS
 62
    30
 10
-558.28261199999997
 20
-200.0
 30
0.0
  0
LINE
  8
SIZE
  6
CONTINUOUS
 62
    30
 10
-440.0
 20
400.0
 30
0.0
 11
-707.68079299999999
 21
400.0
 31
0.0
  0
LINE
  8
SIZE
  6
CONTINUOUS
 62
    30
 10
-440.0
 20
-400.0
 30
0.0
 11
-707.68079299999999
 21
-400.0
 31
0.0
  0
LINE
  8
SIZE
  6
CONTINUOUS
 62
    30
 10
-687.68079299999999
 20
388.0
 30
0.0
 11
-687.68079299999999
 21
-388.0
 31
0.0
  0
CIRCLE
  8
SIZE
  6
CONTINUOUS
 62
    30
 10
-687.68079299999999
 20
400.0
 30
0.0
 40
6.0
  0
LINE
  8
SIZE
  6
CONTINUOUS
 62
    30
 10
-687.68079299999999
 20
400.0
 30
0.0
 11
-687.68079299999999
 21
388.0
 31
0.0
  0
CIRCLE
  8
SIZE
  6
CONTINUOUS
 62
    30
 10
-687.68079299999999
 20
-400.0
 30
0.0
 40
6.0
  0
LINE
  8
SIZE
  6
CONTINUOUS
 62
    30
 10
-687.68079299999999
 20
-400.0
 30
0.0
 11
-687.68079299999999
 21
-388.0
 31
0.0
  0
TEXT
  8
SIZE
  6
CONTINUOUS
 62
    30
 10
-712.68079299999999
 20
-74.057142857142864
 30
0.0
 40
64.0
  1
800
 50
90.0
 41
0.9
 72
     1
 11
-712.68079299999999
 21
0.0
 31
0.0
  0
POINT
  8
DEFPOINTS
  6
CONTINUOUS
 62
    30
 10
-420.0
 20
400.0
 30
0.0
  0
POINT
  8
DEFPOINTS
  6
CONTINUOUS
 62
    30
 10
-420.0
 20
-400.0
 30
0.0
  0
POINT
  8
DEFPOINTS
  6
CONTINUOUS
 62
    30
 10
-687.68079299999999
 20
-400.0
 30
0.0
  0
LINE
  8
SIZE
  6
CONTINUOUS
 62
    30
 10
-440.0
 20
415.0
 30
0.0
 11
-854.53548599999999
 21
415.0
 31
0.0
  0
LINE
  8
SIZE
  6
CONTINUOUS
 62
    30
 10
-440.0
 20
-415.0
 30
0.0
 11
-854.53548599999999
 21
-415.0
 31
0.0
  0
LINE
  8
SIZE
  6
CONTINUOUS
 62
    30
 10
-834.53548599999999
 20
403.0
 30
0.0
 11
-834.53548599999999
 21
-403.0
 31
0.0
  0
CIRCLE
  8
SIZE
  6
CONTINUOUS
 62
    30
 10
-834.53548599999999
 20
415.0
 30
0.0
 40
6.0
  0
LINE
  8
SIZE
  6
CONTINUOUS
 62
    30
 10
-834.53548599999999
 20
415.0
 30
0.0
 11
-834.53548599999999
 21
403.0
 31
0.0
  0
CIRCLE
  8
SIZE
  6
CONTINUOUS
 62
    30
 10
-834.53548599999999
 20
-415.0
 30
0.0
 40
6.0
  0
LINE
  8
SIZE
  6
CONTINUOUS
 62
    30
 10
-834.53548599999999
 20
-415.0
 30
0.0
 11
-834.53548599999999
 21
-403.0
 31
0.0
  0
TEXT
  8
SIZE
  6
CONTINUOUS
 62
    30
 10
-859.53548599999999
 20
-74.057142857142864
 30
0.0
 40
64.0
  1
830
 50
90.0
 41
0.9
 72
     1
 11
-859.53548599999999
 21
0.0
 31
0.0
  0
POINT
  8
DEFPOINTS
  6
CONTINUOUS
 62
    30
 10
-420.0
 20
415.0
 30
0.0
  0
POINT
  8
DEFPOINTS
  6
CONTINUOUS
 62
    30
 10
-420.0
 20
-415.0
 30
0.0
  0
POINT
  8
DEFPOINTS
  6
CONTINUOUS
 62
    30
 10
-834.53548599999999
 20
-415.0
 30
0.0
  0
POINT
  8
DEFPOINTS
  6
CONTINUOUS
 62
    30
 10
367.0
 20
-367.0
 30
0.0
  0
POINT
  8
DEFPOINTS
  6
CONTINUOUS
 62
    30
 10
-369.0
 20
-350.0
 30
0.0
  0
LINE
  8
DETAIL
  6
CONTINUOUS
 62
     5
 10
400.0
 20
-415.0
 30
0.0
 11
-400.0
 21
-415.0
 31
0.0
  0
LINE
  8
DETAIL
  6
CONTINUOUS
 62
     5
 10
400.0
 20
415.0
 30
0.0
 11
-400.0
 21
415.0
 31
0.0
  0
LINE
  8
DETAIL
  6
CONTINUOUS
 62
     5
 10
-367.0
 20
346.104781
 30
0.0
 11
367.0
 21
346.104781
 31
0.0
  0
LINE
  8
DETAIL
  6
CONTINUOUS
 62
     5
 10
367.0
 20
350.0
 30
0.0
 11
-367.0
 21
350.0
 31
0.0
  0
LINE
  8
DETAIL
  6
CONTINUOUS
 62
     5
 10
367.0
 20
316.48453399999988
 30
0.0
 11
-367.0
 21
316.48453399999988
 31
0.0
  0
LINE
  8
DETAIL
  6
CONTINUOUS
 62
     5
 10
367.0
 20
-83.678686999999968
 30
0.0
 11
-367.0
 21
-83.678686999999911
 31
0.0
  0
LINE
  8
DETAIL
  6
CONTINUOUS
 62
     5
 10
367.0
 20
-50.0
 30
0.0
 11
-367.0
 21
-49.999999999999943
 31
0.0
  0
LINE
  8
DETAIL
  6
CONTINUOUS
 62
     5
 10
367.0
 20
16.48453400000005
 30
0.0
 11
-367.0
 21
16.48453400000005
 31
0.0
  0
LINE
  8
DETAIL
  6
CONTINUOUS
 62
     5
 10
367.0
 20
50.0
 30
0.0
 11
-367.0
 21
50.0
 31
0.0
  0
LINE
  8
DETAIL
  6
CONTINUOUS
 62
     5
 10
367.0
 20
116.4845340000001
 30
0.0
 11
-367.0
 21
116.4845340000001
 31
0.0
  0
LINE
  8
DETAIL
  6
CONTINUOUS
 62
     5
 10
367.0
 20
150.0
 30
0.0
 11
-367.0
 21
150.0
 31
0.0
  0
LINE
  8
DETAIL
  6
CONTINUOUS
 62
     5
 10
367.0
 20
216.48453399999991
 30
0.0
 11
-367.0
 21
216.48453399999991
 31
0.0
  0
LINE
  8
DETAIL
  6
CONTINUOUS
 62
     5
 10
367.0
 20
250.0
 30
0.0
 11
-367.0
 21
250.0
 31
0.0
  0
LINE
  8
DETAIL
  6
CONTINUOUS
 62
     5
 10
-367.0
 20
-53.895218999999997
 30
0.0
 11
367.0
 21
-53.895218999999997
 31
0.0
  0
LINE
  8
DETAIL
  6
CONTINUOUS
 62
     5
 10
-367.0
 20
46.104781000000003
 30
0.0
 11
367.0
 21
46.104781000000003
 31
0.0
  0
LINE
  8
DETAIL
  6
CONTINUOUS
 62
     5
 10
-367.0
 20
146.104781
 30
0.0
 11
367.0
 21
146.104781
 31
0.0
  0
LINE
  8
DETAIL
  6
CONTINUOUS
 62
     5
 10
-367.0
 20
246.104781
 30
0.0
 11
367.0
 21
246.104781
 31
0.0
  0
LINE
  8
DETAIL
  6
CONTINUOUS
 62
     5
 10
-367.0
 20
-153.895219
 30
0.0
 11
367.0
 21
-153.895219
 31
0.0
  0
LINE
  8
DETAIL
  6
CONTINUOUS
 62
     5
 10
367.0
 20
-150.0
 30
0.0
 11
-367.0
 21
-150.0
 31
0.0
  0
LINE
  8
DETAIL
  6
CONTINUOUS
 62
     5
 10
367.0
 20
-350.0
 30
0.0
 11
-367.0
 21
-350.0
 31
0.0
  0
LINE
  8
DETAIL
  6
CONTINUOUS
 62
     5
 10
367.0
 20
-283.515466
 30
0.0
 11
-367.0
 21
-283.51546600000012
 31
0.0
  0
LINE
  8
DETAIL
  6
CONTINUOUS
 62
     5
 10
367.0
 20
-250.0
 30
0.0
 11
-367.0
 21
-250.0
 31
0.0
  0
LINE
  8
DETAIL
  6
CONTINUOUS
 62
     5
 10
367.0
 20
-183.515466
 30
0.0
 11
-367.0
 21
-183.51546600000009
 31
0.0
  0
LINE
  8
DETAIL
  6
CONTINUOUS
 62
     5
 10
-367.0
 20
-253.895219
 30
0.0
 11
367.0
 21
-253.895219
 31
0.0
  0
LINE
  8
DETAIL
  6
CONTINUOUS
 62
     5
 10
367.0
 20
-367.0
 30
0.0
 11
-367.0
 21
-367.0
 31
0.0
  0
LINE
  8
DETAIL
  6
CONTINUOUS
 62
     5
 10
367.0
 20
367.0
 30
0.0
 11
-367.0
 21
367.0
 31
0.0
  0
LINE
  8
DETAIL
  6
CONTINUOUS
 62
     5
 10
400.0
 20
-415.0
 30
0.0
 11
-400.0
 21
-415.0
 31
0.0
  0
LINE
  8
DETAIL
  6
CONTINUOUS
 62
     5
 10
400.0
 20
415.0
 30
0.0
 11
-400.0
 21
415.0
 31
0.0
  0
LINE
  8
DETAIL
  6
CONTINUOUS
 62
     5
 10
-415.0
 20
400.0
 30
0.0
 11
-415.0
 21
-400.0
 31
0.0
  0
LINE
  8
DETAIL
  6
CONTINUOUS
 62
     5
 10
-367.0
 20
367.0
 30
0.0
 11
-367.0
 21
-367.0
 31
0.0
  0
LINE
  8
DETAIL
  6
CONTINUOUS
 62
     5
 10
-415.0
 20
400.0
 30
0.0
 11
-415.0
 21
-400.0
 31
0.0
  0
ARC
  8
DETAIL
  6
CONTINUOUS
 62
     5
 10
-400.0
 20
-400.0
 30
0.0
 40
15.0
 50
180.0
 51
270.0
  0
ARC
  8
DETAIL
  6
CONTINUOUS
 62
     5
 10
-400.0
 20
-400.0
 30
0.0
 40
15.0
 50
180.0
 51
270.0
  0
CIRCLE
  8
DETAIL
  6
CONTINUOUS
 62
     5
 10
-400.0
 20
-400.0
 30
0.0
 40
7.5
  0
CIRCLE
  8
DETAIL
  6
CONTINUOUS
 62
     5
 10
-400.0
 20
-400.0
 30
0.0
 40
7.5
  0
CIRCLE
  8
DETAIL
  6
CONTINUOUS
 62
     5
 10
-200.0
 20
-400.0
 30
0.0
 40
7.5
  0
CIRCLE
  8
DETAIL
  6
CONTINUOUS
 62
     5
 10
-200.0
 20
-400.0
 30
0.0
 40
7.5
  0
CIRCLE
  8
DETAIL
  6
CONTINUOUS
 62
     5
 10
-400.0
 20
-200.0
 30
0.0
 40
7.5
  0
CIRCLE
  8
DETAIL
  6
CONTINUOUS
 62
     5
 10
-400.0
 20
-200.0
 30
0.0
 40
7.5
  0
CIRCLE
  8
DETAIL
  6
CONTINUOUS
 62
     5
 10
-400.0
 20
200.0
 30
0.0
 40
7.5
  0
CIRCLE
  8
DETAIL
  6
CONTINUOUS
 62
     5
 10
-400.0
 20
200.0
 30
0.0
 40
7.5
  0
ARC
  8
DETAIL
  6
CONTINUOUS
 62
     5
 10
-400.0
 20
400.0
 30
0.0
 40
15.0
 50
90.0
 51
180.0
  0
ARC
  8
DETAIL
  6
CONTINUOUS
 62
     5
 10
-400.0
 20
400.0
 30
0.0
 40
15.0
 50
90.0
 51
180.0
  0
CIRCLE
  8
DETAIL
  6
CONTINUOUS
 62
     5
 10
-400.0
 20
400.0
 30
0.0
 40
7.5
  0
CIRCLE
  8
DETAIL
  6
CONTINUOUS
 62
     5
 10
-400.0
 20
400.0
 30
0.0
 40
7.5
  0
CIRCLE
  8
DETAIL
  6
CONTINUOUS
 62
     5
 10
-200.0
 20
400.0
 30
0.0
 40
7.5
  0
CIRCLE
  8
DETAIL
  6
CONTINUOUS
 62
     5
 10
-200.0
 20
400.0
 30
0.0
 40
7.5
  0
LINE
  8
DETAIL
  6
CONTINUOUS
 62
     5
 10
415.0
 20
400.0
 30
0.0
 11
415.0
 21
-400.0
 31
0.0
  0
LINE
  8
DETAIL
  6
CONTINUOUS
 62
     5
 10
367.0
 20
367.0
 30
0.0
 11
367.0
 21
-367.0
 31
0.0
  0
LINE
  8
DETAIL
  6
CONTINUOUS
 62
     5
 10
415.0
 20
400.0
 30
0.0
 11
415.0
 21
-400.0
 31
0.0
  0
CIRCLE
  8
DETAIL
  6
CONTINUOUS
 62
     5
 10
200.0
 20
-400.0
 30
0.0
 40
7.5
  0
CIRCLE
  8
DETAIL
  6
CONTINUOUS
 62
     5
 10
200.0
 20
-400.0
 30
0.0
 40
7.5
  0
ARC
  8
DETAIL
  6
CONTINUOUS
 62
     5
 10
400.0
 20
-400.0
 30
0.0
 40
15.0
 50
270.0
 51
0.0
  0
ARC
  8
DETAIL
  6
CONTINUOUS
 62
     5
 10
400.0
 20
-400.0
 30
0.0
 40
15.0
 50
270.0
 51
0.0
  0
CIRCLE
  8
DETAIL
  6
CONTINUOUS
 62
     5
 10
400.0
 20
-400.0
 30
0.0
 40
7.5
  0
CIRCLE
  8
DETAIL
  6
CONTINUOUS
 62
     5
 10
400.0
 20
-400.0
 30
0.0
 40
7.5
  0
CIRCLE
  8
DETAIL
  6
CONTINUOUS
 62
     5
 10
400.0
 20
-200.0
 30
0.0
 40
7.5
  0
CIRCLE
  8
DETAIL
  6
CONTINUOUS
 62
     5
 10
400.0
 20
-200.0
 30
0.0
 40
7.5
  0
CIRCLE
  8
DETAIL
  6
CONTINUOUS
 62
     5
 10
400.0
 20
200.0
 30
0.0
 40
7.5
  0
CIRCLE
  8
DETAIL
  6
CONTINUOUS
 62
     5
 10
400.0
 20
200.0
 30
0.0
 40
7.5
  0
CIRCLE
  8
DETAIL
  6
CONTINUOUS
 62
     5
 10
200.0
 20
400.0
 30
0.0
 40
7.5
  0
CIRCLE
  8
DETAIL
  6
CONTINUOUS
 62
     5
 10
200.0
 20
400.0
 30
0.0
 40
7.5
  0
ARC
  8
DETAIL
  6
CONTINUOUS
 62
     5
 10
400.0
 20
400.0
 30
0.0
 40
15.0
 50
0.0
 51
90.0
  0
ARC
  8
DETAIL
  6
CONTINUOUS
 62
     5
 10
400.0
 20
400.0
 30
0.0
 40
15.0
 50
0.0
 51
90.0
  0
CIRCLE
  8
DETAIL
  6
CONTINUOUS
 62
     5
 10
400.0
 20
400.0
 30
0.0
 40
7.5
  0
CIRCLE
  8
DETAIL
  6
CONTINUOUS
 62
     5
 10
400.0
 20
400.0
 30
0.0
 40
7.5
  0
LINE
  8
SIZE
  6
CONTINUOUS
 62
    30
 10
367.0
 20
-387.0
 30
0.0
 11
367.0
 21
-674.41331799455838
 31
0.0
  0
LINE
  8
SIZE
  6
CONTINUOUS
 62
    30
 10
-367.0
 20
-387.0
 30
0.0
 11
-367.0
 21
-674.41331799455838
 31
0.0
  0
LINE
  8
SIZE
  6
CONTINUOUS
 62
    30
 10
355.0
 20
-654.41331799455838
 30
0.0
 11
-355.0
 21
-654.41331799455838
 31
0.0
  0
CIRCLE
  8
SIZE
  6
CONTINUOUS
 62
    30
 10
367.0
 20
-654.41331799455838
 30
0.0
 40
6.0
  0
LINE
  8
SIZE
  6
CONTINUOUS
 62
    30
 10
367.0
 20
-654.41331799455838
 30
0.0
 11
355.0
 21
-654.41331799455838
 31
0.0
  0
CIRCLE
  8
SIZE
  6
CONTINUOUS
 62
    30
 10
-367.0
 20
-654.41331799455838
 30
0.0
 40
6.0
  0
LINE
  8
SIZE
  6
CONTINUOUS
 62
    30
 10
-367.0
 20
-654.41331799455838
 30
0.0
 11
-355.0
 21
-654.41331799455838
 31
0.0
  0
TEXT
  8
SIZE
  6
CONTINUOUS
 62
    30
 10
-115.488
 20
-629.41331799455838
 30
0.0
 40
64.0
  1
□734
 50
0.0
 41
0.9
 51
0.0
  7
STANDARD
 71
     0
 72
     1
 11
0.0
 21
-629.41331799455838
 31
0.0
210
0.0
220
0.0
230
1.0
  0
POINT
  8
DEFPOINTS
  6
CONTINUOUS
 62
    30
 10
367.0
 20
-367.0
 30
0.0
  0
POINT
  8
DEFPOINTS
  6
CONTINUOUS
 62
    30
 10
-367.0
 20
-367.0
 30
0.0
  0
POINT
  8
DEFPOINTS
  6
CONTINUOUS
 62
    30
 10
-367.0
 20
-654.41331799455838
 30
0.0
  0
ENDSEC
  0
EOF
