  0
SECTION
  2
HEADER
  9
$ACADVER
  1
AC1009
  9
$DWGCODEPAGE
  3
dos932
  9
$INSBASE
 10
0.0
 20
0.0
 30
0.0
  9
$EXTMIN
 10
-538.96209500000009
 20
-694.35702300000003
 30
0.0
  9
$EXTMAX
 10
819.99257557142846
 20
613.60444699999994
 30
50.0
  9
$LIMMIN
 10
-2970.0
 20
-2100.0
  9
$LIMMAX
 10
2970.0
 20
2100.0
  9
$ORTHOMODE
 70
     1
  9
$REGENMODE
 70
     1
  9
$FILLMODE
 70
     1
  9
$QTEXTMODE
 70
     0
  9
$MIRRTEXT
 70
     0
  9
$LTSCALE
 40
20.0
  9
$ATTMODE
 70
     1
  9
$TEXTSIZE
 40
64.0
  9
$TRACEWID
 40
0.05
  9
$TEXTSTYLE
  7
STANDARD
  9
$CLAYER
  8
SIZE
  9
$CELTYPE
  6
CONTINUOUS
  9
$CECOLOR
 62
     7
  9
$DIMSCALE
 40
1.0
  9
$DIMASZ
 40
12.0
  9
$DIMEXO
 40
20.0
  9
$DIMDLI
 40
200.0
  9
$DIMRND
 40
0.0
  9
$DIMDLE
 40
0.0
  9
$DIMEXE
 40
20.0
  9
$DIMTP
 40
0.0
  9
$DIMTM
 40
0.0
  9
$DIMTXT
 40
64.0
  9
$DIMCEN
 40
0.09
  9
$DIMTSZ
 40
0.0
  9
$DIMTOL
 70
     0
  9
$DIMLIM
 70
     0
  9
$DIMTIH
 70
     0
  9
$DIMTOH
 70
     0
  9
$DIMSE1
 70
     0
  9
$DIMSE2
 70
     0
  9
$DIMTAD
 70
     1
  9
$DIMZIN
 70
     8
  9
$DIMBLK
  1

  9
$DIMASO
 70
     1
  9
$DIMSHO
 70
     0
  9
$DIMPOST
  1

  9
$DIMAPOST
  1

  9
$DIMALT
 70
     0
  9
$DIMALTD
 70
     2
  9
$DIMALTF
 40
25.399999999999999
  9
$DIMLFAC
 40
1.0
  9
$DIMTOFL
 70
     1
  9
$DIMTVP
 40
0.0
  9
$DIMTIX
 70
     1
  9
$DIMSOXD
 70
     0
  9
$DIMSAH
 70
     0
  9
$DIMBLK1
  1

  9
$DIMBLK2
  1

  9
$DIMSTYLE
  2
STANDARD
  9
$DIMCLRD
 70
     7
  9
$DIMCLRE
 70
     7
  9
$DIMCLRT
 70
     7
  9
$DIMTFAC
 40
1.0
  9
$DIMGAP
 40
25.0
  9
$LUNITS
 70
     2
  9
$LUPREC
 70
     4
  9
$SKETCHINC
 40
0.1
  9
$FILLETRAD
 40
3.0
  9
$AUNITS
 70
     1
  9
$AUPREC
 70
     3
  9
$MENU
  1
ACAD
  9
$ELEVATION
 40
0.0
  9
$PELEVATION
 40
0.0
  9
$THICKNESS
 40
50.0
  9
$LIMCHECK
 70
     0
  9
$CHAMFERA
 40
0.0
  9
$CHAMFERB
 40
0.0
  9
$SKPOLY
 70
     0
  9
$TDCREATE
 40
2453019.62301037
  9
$TDUPDATE
 40
2458509.623685996
  9
$TDINDWG
 40
1.7138122801
  9
$TDUSRTIMER
 40
1.7138122801
  9
$USRTIMER
 70
     1
  9
$ANGBASE
 50
0.0
  9
$ANGDIR
 70
     0
  9
$PDMODE
 70
     3
  9
$PDSIZE
 40
-2.0
  9
$PLINEWID
 40
0.0
  9
$SPLFRAME
 70
     0
  9
$SPLINETYPE
 70
     6
  9
$SPLINESEGS
 70
     8
  9
$SURFTAB1
 70
     6
  9
$SURFTAB2
 70
     6
  9
$SURFTYPE
 70
     6
  9
$SURFU
 70
     6
  9
$SURFV
 70
     6
  9
$UCSNAME
  2

  9
$UCSORG
 10
0.0
 20
0.0
 30
0.0
  9
$UCSXDIR
 10
1.0
 20
0.0
 30
0.0
  9
$UCSYDIR
 10
0.0
 20
1.0
 30
0.0
  9
$PUCSNAME
  2

  9
$PUCSORG
 10
0.0
 20
0.0
 30
0.0
  9
$PUCSXDIR
 10
1.0
 20
0.0
 30
0.0
  9
$PUCSYDIR
 10
0.0
 20
1.0
 30
0.0
  9
$USERI1
 70
     0
  9
$USERI2
 70
     0
  9
$USERI3
 70
     0
  9
$USERI4
 70
     0
  9
$USERI5
 70
     0
  9
$USERR1
 40
20.0
  9
$USERR2
 40
0.0
  9
$USERR3
 40
0.0
  9
$USERR4
 40
0.0
  9
$USERR5
 40
0.0
  9
$WORLDVIEW
 70
     1
  9
$SHADEDGE
 70
     3
  9
$SHADEDIF
 70
    70
  9
$TILEMODE
 70
     1
  9
$MAXACTVP
 70
    48
  9
$PINSBASE
 10
0.0
 20
0.0
 30
0.0
  9
$PLIMCHECK
 70
     0
  9
$PEXTMIN
 10
-100000000000000000000.0
 20
-100000000000000000000.0
 30
-100000000000000000000.0
  9
$PEXTMAX
 10
100000000000000000000.0
 20
100000000000000000000.0
 30
100000000000000000000.0
  9
$PLIMMIN
 10
0.0
 20
0.0
  9
$PLIMMAX
 10
12.0
 20
9.0
  9
$UNITMODE
 70
     0
  9
$VISRETAIN
 70
     0
  9
$PLINEGEN
 70
     0
  9
$PSLTSCALE
 70
     0
  9
$TREEDEPTH
 70
  3020
  9
$ATTDIA
 70
     0
  9
$ATTREQ
 70
     1
  9
$BLIPMODE
 70
     1
  9
$COORDS
 70
     1
  9
$DRAGMODE
 70
     2
  9
$OSMODE
 70
     0
  9
$HANDLING
 70
     0
  9
$HANDSEED
  5
EB0D
  0
ENDSEC
  0
SECTION
  2
TABLES
  0
TABLE
  2
LTYPE
 70
     2
  0
LTYPE
  2
CONTINUOUS
 70
     0
  3
実線
 72
    65
 73
     0
 40
0.0
  0
LTYPE
  2
DASHDOT
 70
     0
  3
____ _ ____ _ ____ _ ____ _ ____ _ ____ _ ____
 72
    65
 73
     4
 40
5.5
 49
4.0
 49
-0.6
 49
0.3
 49
-0.6
  0
ENDTAB
  0
TABLE
  2
LAYER
 70
    12
  0
LAYER
  2
0
 70
     0
 62
     7
  6
CONTINUOUS
  0
LAYER
  2
BASIS
 70
     0
 62
     6
  6
DASHDOT
  0
LAYER
  2
OUTLINE
 70
     0
 62
     3
  6
CONTINUOUS
  0
LAYER
  2
DETAIL
 70
     0
 62
     5
  6
CONTINUOUS
  0
LAYER
  2
SIZE
 70
     0
 62
    30
  6
CONTINUOUS
  0
LAYER
  2
ARRANGE
 70
     0
 62
     1
  6
CONTINUOUS
  0
LAYER
  2
DEFPOINTS
 70
     0
 62
     7
  6
CONTINUOUS
  0
LAYER
  2
ETC
 70
     0
 62
    61
  6
CONTINUOUS
  0
LAYER
  2
FIX
 70
     0
 62
    11
  6
CONTINUOUS
  0
LAYER
  2
NOTE
 70
     0
 62
     4
  6
CONTINUOUS
  0
LAYER
  2
SERVICESPACE
 70
    64
 62
     2
  6
DASHDOT
  0
LAYER
  2
SYMBOLLINE
 70
    64
 62
    15
  6
CONTINUOUS
  0
ENDTAB
  0
TABLE
  2
STYLE
 70
     1
  0
STYLE
  2
STANDARD
 70
     0
 40
64.0
 41
0.9
 50
0.0
 71
     0
 42
64.0
  3
SIMPLEX.shx
  4
BIGFONT.shx
  0
ENDTAB
  0
TABLE
  2
APPID
 70
    18
  0
APPID
  2
ACAD
 70
     0
  0
APPID
  2
AUTOCAD_POSTSCRIPT_FIGURE
 70
     0
  0
APPID
  2
ACAD_EXEMPT_FROM_CAD_STANDARDS
 70
     0
  0
APPID
  2
ACAD_PSEXT
 70
     0
  0
APPID
  2
ACAUTHENVIRON
 70
     0
  0
APPID
  2
GENIUS_GENOENT_13
 70
     0
  0
APPID
  2
GENIUS_GENCFG_13
 70
     0
  0
APPID
  2
GENIUS_GENCFG0_13
 70
     0
  0
APPID
  2
GENIUS_GENCFG1_13
 70
     0
  0
APPID
  2
GENIUS_GENCFG2_13
 70
     0
  0
APPID
  2
GENIUS_GENCFG3_13
 70
     0
  0
APPID
  2
GENIUS_GENCFG4_13
 70
     0
  0
APPID
  2
GENIUS_GEVCFG0_13
 70
     0
  0
APPID
  2
CONTENTBLOCKICON
 70
     0
  0
APPID
  2
CONTENTBLOCKDESCRIPTION
 70
     0
  0
APPID
  2
ACAD_NAV_VCDISPLAY
 70
     0
  0
APPID
  2
ACAD_MLEADERVER
 70
     0
  0
APPID
  2
ACADANNOMONITORALERTICONDISABLE
 70
     0
  0
ENDTAB
  0
TABLE
  2
DIMSTYLE
 70
     1
  0
DIMSTYLE
  2
STANDARD
 70
     0
  3

  4

  5
_ORIGIN
  6

  7

 40
1.0
 41
12.0
 42
20.0
 43
200.0
 44
20.0
 45
0.0
 46
0.0
 47
0.0
 48
0.0
140
64.0
141
0.09
142
0.0
143
25.399999999999999
144
1.0
145
0.0
146
1.0
147
25.0
 71
     0
 72
     0
 73
     0
 74
     0
 75
     0
 76
     0
 77
     1
 78
     8
170
     0
171
     2
172
     1
173
     0
174
     1
175
     0
176
     7
177
     7
178
     7
  0
ENDTAB
  0
TABLE
  2
VIEW
 70
     1
  0
VIEW
  2
ALL
 70
     0
 40
4282.6198079999986
 10
0.0
 20
41.309904000000003
 41
5940.0
 11
0.0
 21
0.0
 31
1.0
 12
0.0
 22
0.0
 32
0.0
 42
50.0
 43
0.0
 44
0.0
 50
0.0
 71
     0
  0
ENDTAB
  0
TABLE
  2
UCS
 70
     0
  0
ENDTAB
  0
TABLE
  2
VPORT
 70
     1
  0
VPORT
  2
*ACTIVE
 70
     0
 10
0.0
 20
0.0
 11
1.0
 21
1.0
 12
227.78761008870421
 22
9.5904199049382441
 13
0.0
 23
0.0
 14
1.0
 24
1.0
 15
0.0
 25
0.0
 16
0.0
 26
0.0
 36
1.0
 17
0.0
 27
0.0
 37
0.0
 40
1772.221104343063
 41
2.421994884910486
 42
50.0
 43
0.0
 44
0.0
 50
0.0
 51
0.0
 71
     0
 72
  1000
 73
     1
 74
     3
 75
     0
 76
     0
 77
     0
 78
     0
  0
ENDTAB
  0
ENDSEC
  0
SECTION
  2
BLOCKS
  0
BLOCK
  8
0
  2
_ORIGIN
 70
     0
 10
0.0
 20
0.0
 30
0.0
  3
_ORIGIN
  1
_ORIGIN
  0
CIRCLE
  8
0
  6
CONTINUOUS
 62
     7
 10
0.0
 20
0.0
 30
0.0
 40
0.5
  0
LINE
  8
0
  6
CONTINUOUS
 62
     7
 10
0.0
 20
0.0
 30
0.0
 11
-1.0
 21
0.0
 31
0.0
  0
ENDBLK
  8
0
  0
ENDSEC
  0
SECTION
  2
ENTITIES
  0
POINT
  8
ARRANGE
  6
CONTINUOUS
 62
     1
 10
0.0
 20
0.0
 30
0.0
  0
CIRCLE
  8
ARRANGE
  6
CONTINUOUS
 62
     1
 10
0.0
 20
0.0
 30
0.0
 40
40.0
  0
TEXT
  8
ETC
  6
CONTINUOUS
 62
    61
 10
427.42114700000002
 20
544.61126519296613
 30
0.0
 40
40.0
  1
PS-70SMTB3_4
 41
0.9
  0
TEXT
  8
ETC
  6
CONTINUOUS
 62
    61
 10
423.23515300000008
 20
483.91498619296613
 30
0.0
 40
40.0
  1
システム部材
 41
0.9
  0
TEXT
  8
ETC
  6
CONTINUOUS
 62
    61
 10
473.84265599999998
 20
402.04487619296611
 30
0.0
 40
40.0
  1
PS-70SMTB3
 41
0.9
  0
TEXT
  8
NOTE
  6
CONTINUOUS
 62
     4
 10
77.473283000000038
 20
468.17725200000001
 30
0.0
 40
40.0
  1
4-φ15
 41
0.9
  0
TEXT
  8
NOTE
  6
CONTINUOUS
 62
     4
 10
148.113979
 20
-329.07944700000002
 30
0.0
 40
40.0
  1
8-φ15
 41
0.9
  0
TEXT
  8
NOTE
  6
CONTINUOUS
 62
     4
 10
-350.28712799999988
 20
-540.50265899999999
 30
0.0
 40
40.0
  1
EL
 41
0.9
  0
LINE
  8
NOTE
  6
CONTINUOUS
 62
     4
 39
50.0
 10
-281.43532699999997
 20
-547.22286500000007
 30
0.0
 11
-366.25108299999999
 21
-547.22286500000007
 31
0.0
  0
LINE
  8
NOTE
  6
CONTINUOUS
 62
     4
 39
50.0
 10
275.17980299999999
 20
459.82683200000002
 30
0.0
 11
64.771475000000009
 21
459.82683200000002
 31
0.0
  0
LINE
  8
NOTE
  6
CONTINUOUS
 62
     4
 39
50.0
 10
337.59959600000002
 20
-334.16942899999998
 30
0.0
 11
128.88788400000001
 21
-334.16942899999998
 31
0.0
  0
LINE
  8
NOTE
  6
CONTINUOUS
 62
     4
 39
50.0
 10
64.771475000000009
 20
459.82683200000002
 30
0.0
 11
0.0
 21
400.0
 31
0.0
  0
LINE
  8
NOTE
  6
CONTINUOUS
 62
     4
 39
50.0
 10
128.88788400000001
 20
-334.16942899999998
 30
0.0
 11
0.0
 21
-200.0
 31
0.0
  0
LINE
  8
NOTE
  6
CONTINUOUS
 62
     4
 39
50.0
 10
-281.43532699999997
 20
-547.22286500000007
 30
0.0
 11
0.0
 21
-415.0
 31
0.0
  0
LINE
  8
NOTE
  6
CONTINUOUS
 62
     4
 10
0.0
 20
-200.0
 30
0.0
 11
26.388421000000111
 21
-214.60017099999999
 31
0.0
  0
LINE
  8
NOTE
  6
CONTINUOUS
 62
     4
 10
11.89581499999986
 20
-223.974141
 30
0.0
 11
0.0
 21
-200.0
 31
0.0
  0
CIRCLE
  8
FIX
  6
CONTINUOUS
 62
    11
 10
0.0
 20
-200.0
 30
0.0
 40
7.5
  0
LINE
  8
NOTE
  6
CONTINUOUS
 62
     4
 10
20.0
 20
-200.0
 30
0.0
 11
-20.0
 21
-200.0
 31
0.0
  0
LINE
  8
NOTE
  6
CONTINUOUS
 62
     4
 10
20.0
 20
-400.0
 30
0.0
 11
-20.0
 21
-400.0
 31
0.0
  0
CIRCLE
  8
FIX
  6
CONTINUOUS
 62
    11
 10
0.0
 20
-400.0
 30
0.0
 40
7.5
  0
LINE
  8
NOTE
  6
CONTINUOUS
 62
     4
 10
20.0
 20
200.0
 30
0.0
 11
-20.0
 21
200.0
 31
0.0
  0
CIRCLE
  8
FIX
  6
CONTINUOUS
 62
    11
 10
0.0
 20
200.0
 30
0.0
 40
7.5
  0
LINE
  8
NOTE
  6
CONTINUOUS
 62
     4
 10
20.0
 20
400.0
 30
0.0
 11
-20.0
 21
400.0
 31
0.0
  0
CIRCLE
  8
FIX
  6
CONTINUOUS
 62
    11
 10
0.0
 20
400.0
 30
0.0
 40
7.5
  0
LINE
  8
NOTE
  6
CONTINUOUS
 62
     4
 10
0.0
 20
400.0
 30
0.0
 11
27.05515500000001
 21
411.56725999999998
 31
0.0
  0
LINE
  8
NOTE
  6
CONTINUOUS
 62
     4
 10
13.42421400000012
 20
426.08565300000009
 30
0.0
 11
0.0
 21
400.0
 31
0.0
  0
LINE
  8
BASIS
  6
DASHDOT
 62
     6
 10
-230.56070600000001
 20
0.0
 30
0.0
 11
72.953332000000046
 21
0.0
 31
0.0
  0
LINE
  8
OUTLINE
  6
CONTINUOUS
 62
     3
 10
-2.0
 20
415.0
 30
0.0
 11
-2.0
 21
-415.0
 31
0.0
  0
LINE
  8
OUTLINE
  6
CONTINUOUS
 62
     3
 10
-145.0
 20
360.0
 30
0.0
 11
-145.0
 21
-360.0
 31
0.0
  0
LINE
  8
OUTLINE
  6
CONTINUOUS
 62
     3
 10
0.0
 20
415.0
 30
0.0
 11
0.0
 21
-415.0
 31
0.0
  0
LINE
  8
OUTLINE
  6
CONTINUOUS
 62
     3
 10
-145.0
 20
360.0
 30
0.0
 11
-145.0
 21
-360.0
 31
0.0
  0
LINE
  8
OUTLINE
  6
CONTINUOUS
 62
     3
 10
-2.0
 20
415.0
 30
0.0
 11
-2.0
 21
-415.0
 31
0.0
  0
LINE
  8
OUTLINE
  6
CONTINUOUS
 62
     3
 10
0.0
 20
415.0
 30
0.0
 11
0.0
 21
-415.0
 31
0.0
  0
LINE
  8
OUTLINE
  6
CONTINUOUS
 62
     3
 10
-2.0
 20
-367.0
 30
0.0
 11
-138.0
 21
-367.0
 31
0.0
  0
LINE
  8
OUTLINE
  6
CONTINUOUS
 62
     3
 10
-2.0
 20
-367.0
 30
0.0
 11
-138.0
 21
-367.0
 31
0.0
  0
LINE
  8
OUTLINE
  6
CONTINUOUS
 62
     3
 10
-145.0
 20
-360.0
 30
0.0
 11
-138.0
 21
-367.0
 31
0.0
  0
LINE
  8
OUTLINE
  6
CONTINUOUS
 62
     3
 10
-145.0
 20
-360.0
 30
0.0
 11
-138.0
 21
-367.0
 31
0.0
  0
LINE
  8
OUTLINE
  6
CONTINUOUS
 62
     3
 10
0.0
 20
-415.0
 30
0.0
 11
-2.0
 21
-415.0
 31
0.0
  0
LINE
  8
NOTE
  6
CONTINUOUS
 62
     4
 10
0.0
 20
-415.0
 30
0.0
 11
-38.525171
 21
-421.04368699999998
 31
0.0
  0
LINE
  8
NOTE
  6
CONTINUOUS
 62
     4
 10
-27.982997000000069
 20
-438.92366500000003
 30
0.0
 11
0.0
 21
-415.0
 31
0.0
  0
LINE
  8
OUTLINE
  6
CONTINUOUS
 62
     3
 10
0.0
 20
-415.0
 30
0.0
 11
-2.0
 21
-415.0
 31
0.0
  0
LINE
  8
OUTLINE
  6
CONTINUOUS
 62
     3
 10
0.0
 20
-180.0
 30
0.0
 11
0.0
 21
-220.0
 31
0.0
  0
LINE
  8
OUTLINE
  6
CONTINUOUS
 62
     3
 10
0.0
 20
180.0
 30
0.0
 11
0.0
 21
220.0
 31
0.0
  0
LINE
  8
OUTLINE
  6
CONTINUOUS
 62
     3
 10
-2.0
 20
367.0
 30
0.0
 11
-138.0
 21
367.0
 31
0.0
  0
LINE
  8
OUTLINE
  6
CONTINUOUS
 62
     3
 10
-2.0
 20
367.0
 30
0.0
 11
-138.0
 21
367.0
 31
0.0
  0
LINE
  8
OUTLINE
  6
CONTINUOUS
 62
     3
 10
-145.0
 20
360.0
 30
0.0
 11
-138.0
 21
367.0
 31
0.0
  0
LINE
  8
OUTLINE
  6
CONTINUOUS
 62
     3
 10
-145.0
 20
360.0
 30
0.0
 11
-138.0
 21
367.0
 31
0.0
  0
LINE
  8
OUTLINE
  6
CONTINUOUS
 62
     3
 10
0.0
 20
415.0
 30
0.0
 11
-2.0
 21
415.0
 31
0.0
  0
LINE
  8
OUTLINE
  6
CONTINUOUS
 62
     3
 10
0.0
 20
415.0
 30
0.0
 11
-2.0
 21
415.0
 31
0.0
  0
LINE
  8
SIZE
  6
CONTINUOUS
 62
    30
 10
40.0
 20
400.0
 30
0.0
 11
404.23419000000013
 21
400.0
 31
0.0
  0
LINE
  8
SIZE
  6
CONTINUOUS
 62
    30
 10
40.0
 20
-400.0
 30
0.0
 11
404.23419000000013
 21
-400.0
 31
0.0
  0
LINE
  8
SIZE
  6
CONTINUOUS
 62
    30
 10
384.23419000000013
 20
388.0
 30
0.0
 11
384.23419000000013
 21
-388.0
 31
0.0
  0
CIRCLE
  8
SIZE
  6
CONTINUOUS
 62
    30
 10
384.23419000000013
 20
400.0
 30
0.0
 40
6.0
  0
LINE
  8
SIZE
  6
CONTINUOUS
 62
    30
 10
384.23419000000013
 20
400.0
 30
0.0
 11
384.23419000000013
 21
388.0
 31
0.0
  0
CIRCLE
  8
SIZE
  6
CONTINUOUS
 62
    30
 10
384.23419000000013
 20
-400.0
 30
0.0
 40
6.0
  0
LINE
  8
SIZE
  6
CONTINUOUS
 62
    30
 10
384.23419000000013
 20
-400.0
 30
0.0
 11
384.23419000000013
 21
-388.0
 31
0.0
  0
TEXT
  8
SIZE
  6
CONTINUOUS
 62
    30
 10
359.23419000000013
 20
-74.057142857142864
 30
0.0
 40
64.0
  1
800
 50
90.0
 41
0.9
 72
     1
 11
359.23419000000013
 21
0.0
 31
0.0
  0
POINT
  8
DEFPOINTS
  6
CONTINUOUS
 62
    30
 10
20.0
 20
400.0
 30
0.0
  0
POINT
  8
DEFPOINTS
  6
CONTINUOUS
 62
    30
 10
20.0
 20
-400.0
 30
0.0
  0
POINT
  8
DEFPOINTS
  6
CONTINUOUS
 62
    30
 10
384.23419000000013
 20
-400.0
 30
0.0
  0
LINE
  8
SIZE
  6
CONTINUOUS
 62
    30
 10
40.0
 20
200.0
 30
0.0
 11
277.04588599999988
 21
200.0
 31
0.0
  0
LINE
  8
SIZE
  6
CONTINUOUS
 62
    30
 10
40.0
 20
-200.0
 30
0.0
 11
277.04588599999988
 21
-200.0
 31
0.0
  0
LINE
  8
SIZE
  6
CONTINUOUS
 62
    30
 10
257.04588599999988
 20
188.0
 30
0.0
 11
257.04588599999988
 21
-188.0
 31
0.0
  0
CIRCLE
  8
SIZE
  6
CONTINUOUS
 62
    30
 10
257.04588599999988
 20
200.0
 30
0.0
 40
6.0
  0
LINE
  8
SIZE
  6
CONTINUOUS
 62
    30
 10
257.04588599999988
 20
200.0
 30
0.0
 11
257.04588599999988
 21
188.0
 31
0.0
  0
CIRCLE
  8
SIZE
  6
CONTINUOUS
 62
    30
 10
257.04588599999988
 20
-200.0
 30
0.0
 40
6.0
  0
LINE
  8
SIZE
  6
CONTINUOUS
 62
    30
 10
257.04588599999988
 20
-200.0
 30
0.0
 11
257.04588599999988
 21
-188.0
 31
0.0
  0
TEXT
  8
SIZE
  6
CONTINUOUS
 62
    30
 10
232.04588599999991
 20
-74.05714285714285
 30
0.0
 40
64.0
  1
400
 50
90.0
 41
0.9
 72
     1
 11
232.04588599999991
 21
0.0
 31
0.0
  0
POINT
  8
DEFPOINTS
  6
CONTINUOUS
 62
    30
 10
20.0
 20
200.0
 30
0.0
  0
POINT
  8
DEFPOINTS
  6
CONTINUOUS
 62
    30
 10
20.0
 20
-200.0
 30
0.0
  0
POINT
  8
DEFPOINTS
  6
CONTINUOUS
 62
    30
 10
257.04588599999988
 20
-200.0
 30
0.0
  0
POINT
  8
DEFPOINTS
  6
CONTINUOUS
 62
    30
 10
-138.0
 20
367.0
 30
0.0
  0
POINT
  8
DEFPOINTS
  6
CONTINUOUS
 62
    30
 10
-138.0
 20
-367.0
 30
0.0
  0
LINE
  8
SIZE
  6
CONTINUOUS
 62
    30
 10
-145.0
 20
382.0
 30
0.0
 11
-145.0
 21
544.60444699999994
 31
0.0
  0
LINE
  8
SIZE
  6
CONTINUOUS
 62
    30
 10
0.0
 20
435.0
 30
0.0
 11
0.0
 21
544.60444699999994
 31
0.0
  0
LINE
  8
SIZE
  6
CONTINUOUS
 62
    30
 10
-157.0
 20
524.60444699999994
 30
0.0
 11
-169.0
 21
524.60444699999994
 31
0.0
  0
LINE
  8
SIZE
  6
CONTINUOUS
 62
    30
 10
12.0
 20
524.60444699999994
 30
0.0
 11
24.0
 21
524.60444699999994
 31
0.0
  0
LINE
  8
SIZE
  6
CONTINUOUS
 62
    30
 10
-145.0
 20
524.60444699999994
 30
0.0
 11
0.0
 21
524.60444699999994
 31
0.0
  0
CIRCLE
  8
SIZE
  6
CONTINUOUS
 62
    30
 10
-145.0
 20
524.60444699999994
 30
0.0
 40
6.0
  0
LINE
  8
SIZE
  6
CONTINUOUS
 62
    30
 10
-145.0
 20
524.60444699999994
 30
0.0
 11
-157.0
 21
524.60444699999994
 31
0.0
  0
CIRCLE
  8
SIZE
  6
CONTINUOUS
 62
    30
 10
0.0
 20
524.60444699999994
 30
0.0
 40
6.0
  0
LINE
  8
SIZE
  6
CONTINUOUS
 62
    30
 10
0.0
 20
524.60444699999994
 30
0.0
 11
12.0
 21
524.60444699999994
 31
0.0
  0
TEXT
  8
SIZE
  6
CONTINUOUS
 62
    30
 10
-141.07142857142861
 20
549.60444699999994
 30
0.0
 40
64.0
  1
145
 41
0.9
 72
     1
 11
-72.5
 21
549.60444699999994
 31
0.0
  0
POINT
  8
DEFPOINTS
  6
CONTINUOUS
 62
    30
 10
-145.0
 20
362.0
 30
0.0
  0
POINT
  8
DEFPOINTS
  6
CONTINUOUS
 62
    30
 10
0.0
 20
415.0
 30
0.0
  0
POINT
  8
DEFPOINTS
  6
CONTINUOUS
 62
    30
 10
0.0
 20
524.60444699999994
 30
0.0
  0
LINE
  8
SIZE
  6
CONTINUOUS
 62
    30
 10
-20.0
 20
415.0
 30
0.0
 11
-469.96209500000009
 21
415.0
 31
0.0
  0
LINE
  8
SIZE
  6
CONTINUOUS
 62
    30
 10
-22.0
 20
-415.0
 30
0.0
 11
-469.96209500000009
 21
-415.0
 31
0.0
  0
LINE
  8
SIZE
  6
CONTINUOUS
 62
    30
 10
-449.96209500000009
 20
403.0
 30
0.0
 11
-449.96209500000009
 21
-403.0
 31
0.0
  0
CIRCLE
  8
SIZE
  6
CONTINUOUS
 62
    30
 10
-449.96209500000009
 20
415.0
 30
0.0
 40
6.0
  0
LINE
  8
SIZE
  6
CONTINUOUS
 62
    30
 10
-449.96209500000009
 20
415.0
 30
0.0
 11
-449.96209500000009
 21
403.0
 31
0.0
  0
CIRCLE
  8
SIZE
  6
CONTINUOUS
 62
    30
 10
-449.96209500000009
 20
-415.0
 30
0.0
 40
6.0
  0
LINE
  8
SIZE
  6
CONTINUOUS
 62
    30
 10
-449.96209500000009
 20
-415.0
 30
0.0
 11
-449.96209500000009
 21
-403.0
 31
0.0
  0
TEXT
  8
SIZE
  6
CONTINUOUS
 62
    30
 10
-474.96209500000009
 20
-74.057142857142864
 30
0.0
 40
64.0
  1
830
 50
90.0
 41
0.9
 72
     1
 11
-474.96209500000009
 21
0.0
 31
0.0
  0
POINT
  8
DEFPOINTS
  6
CONTINUOUS
 62
    30
 10
0.0
 20
415.0
 30
0.0
  0
POINT
  8
DEFPOINTS
  6
CONTINUOUS
 62
    30
 10
-2.0
 20
-415.0
 30
0.0
  0
POINT
  8
DEFPOINTS
  6
CONTINUOUS
 62
    30
 10
-449.96209500000009
 20
-415.0
 30
0.0
  0
LINE
  8
SIZE
  6
CONTINUOUS
 62
    30
 10
-190.0
 20
-324.874348
 30
0.0
 11
-190.0
 21
-694.35702300000003
 31
0.0
  0
LINE
  8
SIZE
  6
CONTINUOUS
 62
    30
 10
0.0
 20
-430.46043800000001
 30
0.0
 11
0.0
 21
-694.35702300000003
 31
0.0
  0
LINE
  8
SIZE
  6
CONTINUOUS
 62
    30
 10
-12.0
 20
-674.35702300000003
 30
0.0
 11
-178.0
 21
-674.35702300000003
 31
0.0
  0
LINE
  8
SIZE
  6
CONTINUOUS
 62
    30
 10
-190.0
 20
-674.35702300000003
 30
0.0
 11
-528.48000000000002
 21
-674.35702300000003
 31
0.0
  0
CIRCLE
  8
SIZE
  6
CONTINUOUS
 62
    30
 10
0.0
 20
-674.35702300000003
 30
0.0
 40
6.0
  0
LINE
  8
SIZE
  6
CONTINUOUS
 62
    30
 10
0.0
 20
-674.35702300000003
 30
0.0
 11
-12.0
 21
-674.35702300000003
 31
0.0
  0
CIRCLE
  8
SIZE
  6
CONTINUOUS
 62
    30
 10
-190.0
 20
-674.35702300000003
 30
0.0
 40
6.0
  0
LINE
  8
SIZE
  6
CONTINUOUS
 62
    30
 10
-190.0
 20
-674.35702300000003
 30
0.0
 11
-178.0
 21
-674.35702300000003
 31
0.0
  0
TEXT
  8
SIZE
  6
CONTINUOUS
 62
    30
 10
-503.48000000000002
 20
-649.35702300000003
 30
0.0
 40
64.0
  1
190以下
 41
0.9
 72
     1
 11
-365.24000000000001
 21
-649.35702300000003
 31
0.0
  0
POINT
  8
DEFPOINTS
  6
CONTINUOUS
 62
    30
 10
-190.0
 20
-304.874348
 30
0.0
  0
POINT
  8
DEFPOINTS
  6
CONTINUOUS
 62
    30
 10
0.0
 20
-410.46043800000001
 30
0.0
  0
POINT
  8
DEFPOINTS
  6
CONTINUOUS
 62
    30
 10
0.0
 20
-674.35702300000003
 30
0.0
  0
ARC
  8
DETAIL
  6
CONTINUOUS
 62
     5
 10
2.25
 20
-430.55141500000002
 30
0.0
 40
4.5
 50
59.999999999999858
 51
120.0000000000002
  0
ARC
  8
DETAIL
  6
CONTINUOUS
 62
     5
 10
2.25
 20
-425.89564400000012
 30
0.0
 40
4.5
 50
59.999999999999858
 51
120.0000000000002
  0
ARC
  8
DETAIL
  6
CONTINUOUS
 62
     5
 10
2.25
 20
-418.10141499999997
 30
0.0
 40
4.5
 50
239.9999999999998
 51
300.00000000000011
  0
LINE
  8
DETAIL
  6
CONTINUOUS
 62
     5
 10
0.6682329999998729
 20
-468.22990099999998
 30
0.0
 11
-0.3243130000000747
 21
-468.10803199999998
 31
0.0
  0
LINE
  8
DETAIL
  6
CONTINUOUS
 62
     5
 10
-0.3243130000000747
 20
-468.10803199999998
 30
0.0
 11
0.2850330000001122
 21
-463.14530100000002
 31
0.0
  0
LINE
  8
DETAIL
  6
CONTINUOUS
 62
     5
 10
2.2701259999998911
 20
-463.38904000000002
 30
0.0
 11
-0.7075129999998353
 21
-463.02343200000001
 31
0.0
  0
LINE
  8
DETAIL
  6
CONTINUOUS
 62
     5
 10
-0.7075129999998353
 20
-463.02343200000001
 30
0.0
 11
0.488734999999906
 21
-453.28077400000001
 31
0.0
  0
LINE
  8
DETAIL
  6
CONTINUOUS
 62
     5
 10
9.0
 20
-453.28077400000001
 30
0.0
 11
0.0
 21
-453.28077400000001
 31
0.0
  0
ARC
  8
DETAIL
  6
CONTINUOUS
 62
     5
 10
0.2774749999998676
 20
-373.577765
 30
0.0
 40
9.0820050000000005
 50
13.225151000001251
 51
91.750783000005214
  0
LINE
  8
DETAIL
  6
CONTINUOUS
 62
     5
 10
-2.0
 20
415.0
 30
0.0
 11
-2.0
 21
-415.0
 31
0.0
  0
LINE
  8
DETAIL
  6
CONTINUOUS
 62
     5
 10
-145.0
 20
360.0
 30
0.0
 11
-145.0
 21
-360.0
 31
0.0
  0
LINE
  8
DETAIL
  6
CONTINUOUS
 62
     5
 10
0.0
 20
415.0
 30
0.0
 11
0.0
 21
-415.0
 31
0.0
  0
LINE
  8
DETAIL
  6
CONTINUOUS
 62
     5
 10
-145.0
 20
360.0
 30
0.0
 11
-145.0
 21
-360.0
 31
0.0
  0
LINE
  8
DETAIL
  6
CONTINUOUS
 62
     5
 10
-2.0
 20
415.0
 30
0.0
 11
-2.0
 21
-415.0
 31
0.0
  0
LINE
  8
DETAIL
  6
CONTINUOUS
 62
     5
 10
0.0
 20
415.0
 30
0.0
 11
0.0
 21
-415.0
 31
0.0
  0
LINE
  8
DETAIL
  6
CONTINUOUS
 62
     5
 10
-2.0
 20
-367.0
 30
0.0
 11
-138.0
 21
-367.0
 31
0.0
  0
LINE
  8
DETAIL
  6
CONTINUOUS
 62
     5
 10
-2.0
 20
-367.0
 30
0.0
 11
-138.0
 21
-367.0
 31
0.0
  0
LINE
  8
DETAIL
  6
CONTINUOUS
 62
     5
 10
-145.0
 20
-360.0
 30
0.0
 11
-138.0
 21
-367.0
 31
0.0
  0
LINE
  8
DETAIL
  6
CONTINUOUS
 62
     5
 10
-145.0
 20
-360.0
 30
0.0
 11
-138.0
 21
-367.0
 31
0.0
  0
LINE
  8
DETAIL
  6
CONTINUOUS
 62
     5
 10
0.0
 20
-380.0
 30
0.0
 11
0.0
 21
-420.0
 31
0.0
  0
LINE
  8
DETAIL
  6
CONTINUOUS
 62
     5
 10
0.0
 20
-421.99852900000002
 30
0.0
 11
0.0
 21
-388.5
 31
0.0
  0
LINE
  8
DETAIL
  6
CONTINUOUS
 62
     5
 10
0.0
 20
-395.0
 30
0.0
 11
0.0
 21
-435.0
 31
0.0
  0
LINE
  8
DETAIL
  6
CONTINUOUS
 62
     5
 10
0.0
 20
-415.0
 30
0.0
 11
-2.0
 21
-415.0
 31
0.0
  0
LINE
  8
DETAIL
  6
CONTINUOUS
 62
     5
 10
0.0
 20
-453.28077400000001
 30
0.0
 11
0.0
 21
-426.65430099999998
 31
0.0
  0
LINE
  8
DETAIL
  6
CONTINUOUS
 62
     5
 10
0.0
 20
-415.0
 30
0.0
 11
-2.0
 21
-415.0
 31
0.0
  0
LINE
  8
DETAIL
  6
CONTINUOUS
 62
     5
 10
-145.0
 20
-284.19322399999999
 30
0.0
 11
-184.45292900000001
 21
-297.52290699999998
 31
0.0
  0
LINE
  8
DETAIL
  6
CONTINUOUS
 62
     5
 10
-145.0
 20
-283.515466
 30
0.0
 11
-184.85225700000001
 21
-297.04709000000003
 31
0.0
  0
ARC
  8
DETAIL
  6
CONTINUOUS
 62
     5
 10
-188.5
 20
-304.874348
 30
0.0
 40
0.9
 50
145.00993199999559
 51
9.9999999999974758
  0
ARC
  8
DETAIL
  6
CONTINUOUS
 62
     5
 10
-188.5
 20
-304.874348
 30
0.0
 40
1.5
 50
145.00993199999559
 51
9.9999999999974758
  0
LINE
  8
DETAIL
  6
CONTINUOUS
 62
     5
 10
-187.9910669999999
 20
-302.57775700000002
 30
0.0
 11
-187.40018199999989
 21
-302.473568
 31
0.0
  0
LINE
  8
DETAIL
  6
CONTINUOUS
 62
     5
 10
-187.02278799999999
 20
-304.61387500000001
 30
0.0
 11
-187.40018199999989
 21
-302.473568
 31
0.0
  0
LINE
  8
DETAIL
  6
CONTINUOUS
 62
     5
 10
-187.61367300000009
 20
-304.71806400000003
 30
0.0
 11
-187.9910669999999
 21
-302.57775700000002
 31
0.0
  0
LINE
  8
DETAIL
  6
CONTINUOUS
 62
     5
 10
-184.85468499999999
 20
-297.05055900000002
 30
0.0
 11
-189.72887700000001
 21
-304.01419600000003
 31
0.0
  0
LINE
  8
DETAIL
  6
CONTINUOUS
 62
     5
 10
-184.50568299999989
 20
-297.598276
 30
0.0
 11
-189.23732599999991
 21
-304.35825699999998
 31
0.0
  0
LINE
  8
DETAIL
  6
CONTINUOUS
 62
     5
 10
0.0
 20
-180.0
 30
0.0
 11
0.0
 21
-220.0
 31
0.0
  0
LINE
  8
DETAIL
  6
CONTINUOUS
 62
     5
 10
0.0
 20
180.0
 30
0.0
 11
0.0
 21
220.0
 31
0.0
  0
LINE
  8
DETAIL
  6
CONTINUOUS
 62
     5
 10
-2.0
 20
367.0
 30
0.0
 11
-138.0
 21
367.0
 31
0.0
  0
LINE
  8
DETAIL
  6
CONTINUOUS
 62
     5
 10
-2.0
 20
367.0
 30
0.0
 11
-138.0
 21
367.0
 31
0.0
  0
LINE
  8
DETAIL
  6
CONTINUOUS
 62
     5
 10
-145.0
 20
360.0
 30
0.0
 11
-138.0
 21
367.0
 31
0.0
  0
LINE
  8
DETAIL
  6
CONTINUOUS
 62
     5
 10
-145.0
 20
360.0
 30
0.0
 11
-138.0
 21
367.0
 31
0.0
  0
LINE
  8
DETAIL
  6
CONTINUOUS
 62
     5
 10
0.0
 20
415.0
 30
0.0
 11
-2.0
 21
415.0
 31
0.0
  0
LINE
  8
DETAIL
  6
CONTINUOUS
 62
     5
 10
0.0
 20
415.0
 30
0.0
 11
-2.0
 21
415.0
 31
0.0
  0
LINE
  8
DETAIL
  6
CONTINUOUS
 62
     5
 10
9.1186119999999846
 20
-421.92759799999999
 30
0.0
 11
9.1186119999999846
 21
-371.5
 31
0.0
  0
ARC
  8
DETAIL
  6
CONTINUOUS
 62
     5
 10
6.75
 20
-422.75718599999999
 30
0.0
 40
4.5
 50
239.9999999999998
 51
300.00000000000011
  0
ARC
  8
DETAIL
  6
CONTINUOUS
 62
     5
 10
6.75
 20
-430.55141500000002
 30
0.0
 40
4.5
 50
59.999999999999858
 51
120.0000000000002
  0
ARC
  8
DETAIL
  6
CONTINUOUS
 62
     5
 10
6.75
 20
-418.10141499999997
 30
0.0
 40
4.5
 50
239.9999999999998
 51
300.00000000000011
  0
LINE
  8
DETAIL
  6
CONTINUOUS
 62
     5
 10
8.3317670000001272
 20
-468.22990099999998
 30
0.0
 11
9.3243130000000747
 21
-468.10803199999998
 31
0.0
  0
LINE
  8
DETAIL
  6
CONTINUOUS
 62
     5
 10
8.3317670000001272
 20
-468.22990099999998
 30
0.0
 11
7.7224200000000556
 21
-463.26717000000002
 31
0.0
  0
LINE
  8
DETAIL
  6
CONTINUOUS
 62
     5
 10
9.3243130000000747
 20
-468.10803199999998
 30
0.0
 11
8.7149669999998878
 21
-463.14530100000002
 31
0.0
  0
LINE
  8
DETAIL
  6
CONTINUOUS
 62
     5
 10
6.7298740000001089
 20
-463.38904000000002
 30
0.0
 11
6.0
 21
-457.44469099999998
 31
0.0
  0
LINE
  8
DETAIL
  6
CONTINUOUS
 62
     5
 10
4.0
 20
-468.28077400000001
 30
0.0
 11
4.0
 21
-463.28077400000001
 31
0.0
  0
LINE
  8
DETAIL
  6
CONTINUOUS
 62
     5
 10
5.0
 20
-468.28077400000001
 30
0.0
 11
5.0
 21
-463.28077400000001
 31
0.0
  0
LINE
  8
DETAIL
  6
CONTINUOUS
 62
     5
 10
5.0
 20
-468.28077400000001
 30
0.0
 11
4.0
 21
-468.28077400000001
 31
0.0
  0
LINE
  8
DETAIL
  6
CONTINUOUS
 62
     5
 10
2.2701259999998911
 20
-463.38904000000002
 30
0.0
 11
3.0
 21
-457.44469099999998
 31
0.0
  0
LINE
  8
DETAIL
  6
CONTINUOUS
 62
     5
 10
0.6682329999998729
 20
-468.22990099999998
 30
0.0
 11
1.277579999999944
 21
-463.26717000000002
 31
0.0
  0
LINE
  8
DETAIL
  6
CONTINUOUS
 62
     5
 10
6.0
 20
-463.28077400000001
 30
0.0
 11
3.0
 21
-463.28077400000001
 31
0.0
  0
LINE
  8
DETAIL
  6
CONTINUOUS
 62
     5
 10
6.7298740000001089
 20
-463.38904000000002
 30
0.0
 11
9.7075129999998353
 21
-463.02343200000001
 31
0.0
  0
LINE
  8
DETAIL
  6
CONTINUOUS
 62
     5
 10
6.0
 20
-463.28077400000001
 30
0.0
 11
6.0
 21
-453.28077400000001
 31
0.0
  0
LINE
  8
DETAIL
  6
CONTINUOUS
 62
     5
 10
3.0
 20
-463.28077400000001
 30
0.0
 11
3.0
 21
-453.28077400000001
 31
0.0
  0
LINE
  8
DETAIL
  6
CONTINUOUS
 62
     5
 10
9.7075129999998353
 20
-463.02343200000001
 30
0.0
 11
8.511265000000094
 21
-453.28077400000001
 31
0.0
  0
LINE
  8
DETAIL
  6
CONTINUOUS
 62
     5
 10
9.0
 20
-453.28077400000001
 30
0.0
 11
9.0
 21
-426.65430099999998
 31
0.0
  0
LINE
  8
SIZE
  6
CONTINUOUS
 62
    30
 10
-22.0
 20
367.00000000000011
 30
0.0
 11
-325.03428142621573
 21
367.00000000000011
 31
0.0
  0
LINE
  8
SIZE
  6
CONTINUOUS
 62
    30
 10
-22.0
 20
-367.00000000000011
 30
0.0
 11
-325.03428142621561
 21
-367.00000000000023
 31
0.0
  0
LINE
  8
SIZE
  6
CONTINUOUS
 62
    30
 10
-305.03428142621573
 20
355.00000000000011
 30
0.0
 11
-305.03428142621561
 21
-355.00000000000023
 31
0.0
  0
CIRCLE
  8
SIZE
  6
CONTINUOUS
 62
    30
 10
-305.03428142621573
 20
367.00000000000011
 30
0.0
 40
6.0
  0
LINE
  8
SIZE
  6
CONTINUOUS
 62
    30
 10
-305.03428142621573
 20
367.00000000000011
 30
0.0
 11
-305.03428142621573
 21
355.00000000000011
 31
0.0
  0
CIRCLE
  8
SIZE
  6
CONTINUOUS
 62
    30
 10
-305.03428142621561
 20
-367.00000000000023
 30
0.0
 40
6.0
  0
LINE
  8
SIZE
  6
CONTINUOUS
 62
    30
 10
-305.03428142621561
 20
-367.00000000000023
 30
0.0
 11
-305.03428142621561
 21
-355.00000000000023
 31
0.0
  0
TEXT
  8
SIZE
  6
CONTINUOUS
 62
    30
 10
-330.03428142621561
 20
-80.927999999999969
 30
0.0
 40
64.0
  1
734
 50
90.0
 41
0.9
 51
0.0
  7
STANDARD
 71
     0
 72
     1
 11
-330.03428142621561
 21
0.0000000000000237
 31
0.0
210
0.0
220
0.0
230
1.0
  0
POINT
  8
DEFPOINTS
  6
CONTINUOUS
 62
    30
 10
-2.0000000000000009
 20
367.00000000000011
 30
0.0
  0
POINT
  8
DEFPOINTS
  6
CONTINUOUS
 62
    30
 10
-2.0
 20
-367.00000000000011
 30
0.0
  0
POINT
  8
DEFPOINTS
  6
CONTINUOUS
 62
    30
 10
-305.03428142621561
 20
-367.00000000000023
 30
0.0
  0
ENDSEC
  0
EOF
