  0
SECTION
  2
HEADER
  9
$ACADVER
  1
AC1009
  9
$INSBASE
 10
0.0
 20
0.0
 30
0.0
  9
$EXTMIN
 10
-201.2369189244591
 20
-145.19084066135201
 30
0.0
  9
$EXTMAX
 10
840.20929335597828
 20
413.07565229407032
 30
50.0
  9
$LIMMIN
 10
-2970.0
 20
-2100.0
  9
$LIMMAX
 10
2970.0
 20
2100.0
  9
$ORTHOMODE
 70
     1
  9
$REGENMODE
 70
     1
  9
$FILLMODE
 70
     1
  9
$QTEXTMODE
 70
     0
  9
$MIRRTEXT
 70
     0
  9
$DRAGMODE
 70
     2
  9
$LTSCALE
 40
20.0
  9
$OSMODE
 70
    55
  9
$ATTMODE
 70
     1
  9
$TEXTSIZE
 40
64.0
  9
$TRACEWID
 40
0.05
  9
$TEXTSTYLE
  7
STANDARD
  9
$CLAYER
  8
SIZE
  9
$CELTYPE
  6
CONTINUOUS
  9
$CECOLOR
 62
     7
  9
$DIMSCALE
 40
1.0
  9
$DIMASZ
 40
12.0
  9
$DIMEXO
 40
20.0
  9
$DIMDLI
 40
200.0
  9
$DIMRND
 40
0.0
  9
$DIMDLE
 40
0.0
  9
$DIMEXE
 40
20.0
  9
$DIMTP
 40
0.0
  9
$DIMTM
 40
0.0
  9
$DIMTXT
 40
64.0
  9
$DIMCEN
 40
0.09
  9
$DIMTSZ
 40
0.0
  9
$DIMTOL
 70
     0
  9
$DIMLIM
 70
     0
  9
$DIMTIH
 70
     0
  9
$DIMTOH
 70
     0
  9
$DIMSE1
 70
     0
  9
$DIMSE2
 70
     0
  9
$DIMTAD
 70
     1
  9
$DIMZIN
 70
     8
  9
$DIMBLK
  1

  9
$DIMASO
 70
     1
  9
$DIMSHO
 70
     0
  9
$DIMPOST
  1

  9
$DIMAPOST
  1

  9
$DIMALT
 70
     0
  9
$DIMALTD
 70
     2
  9
$DIMALTF
 40
25.399999999999999
  9
$DIMLFAC
 40
1.0
  9
$DIMTOFL
 70
     1
  9
$DIMTVP
 40
0.0
  9
$DIMTIX
 70
     1
  9
$DIMSOXD
 70
     0
  9
$DIMSAH
 70
     0
  9
$DIMBLK1
  1

  9
$DIMBLK2
  1

  9
$DIMSTYLE
  2
STANDARD
  9
$DIMCLRD
 70
     7
  9
$DIMCLRE
 70
     7
  9
$DIMCLRT
 70
     7
  9
$DIMTFAC
 40
1.0
  9
$DIMGAP
 40
25.0
  9
$LUNITS
 70
     2
  9
$LUPREC
 70
     4
  9
$SKETCHINC
 40
0.1
  9
$FILLETRAD
 40
3.0
  9
$AUNITS
 70
     1
  9
$AUPREC
 70
     3
  9
$MENU
  1
ACAD
  9
$ELEVATION
 40
0.0
  9
$PELEVATION
 40
0.0
  9
$THICKNESS
 40
50.0
  9
$LIMCHECK
 70
     0
  9
$BLIPMODE
 70
     0
  9
$CHAMFERA
 40
0.0
  9
$CHAMFERB
 40
0.0
  9
$SKPOLY
 70
     0
  9
$TDCREATE
 40
2453019.6230103709
  9
$TDUPDATE
 40
2456342.6280602198
  9
$TDINDWG
 40
1.6428946874999999
  9
$TDUSRTIMER
 40
1.6428946874999999
  9
$USRTIMER
 70
     1
  9
$ANGBASE
 50
0.0
  9
$ANGDIR
 70
     0
  9
$PDMODE
 70
     3
  9
$PDSIZE
 40
-2.0
  9
$PLINEWID
 40
0.0
  9
$COORDS
 70
     1
  9
$SPLFRAME
 70
     0
  9
$SPLINETYPE
 70
     6
  9
$SPLINESEGS
 70
     8
  9
$ATTDIA
 70
     0
  9
$ATTREQ
 70
     1
  9
$HANDLING
 70
     1
  9
$HANDSEED
  5
197
  9
$SURFTAB1
 70
     6
  9
$SURFTAB2
 70
     6
  9
$SURFTYPE
 70
     6
  9
$SURFU
 70
     6
  9
$SURFV
 70
     6
  9
$UCSNAME
  2

  9
$UCSORG
 10
0.0
 20
0.0
 30
0.0
  9
$UCSXDIR
 10
1.0
 20
0.0
 30
0.0
  9
$UCSYDIR
 10
0.0
 20
1.0
 30
0.0
  9
$PUCSNAME
  2

  9
$PUCSORG
 10
0.0
 20
0.0
 30
0.0
  9
$PUCSXDIR
 10
1.0
 20
0.0
 30
0.0
  9
$PUCSYDIR
 10
0.0
 20
1.0
 30
0.0
  9
$USERI1
 70
     0
  9
$USERI2
 70
     0
  9
$USERI3
 70
     0
  9
$USERI4
 70
     0
  9
$USERI5
 70
     0
  9
$USERR1
 40
20.0
  9
$USERR2
 40
0.0
  9
$USERR3
 40
0.0
  9
$USERR4
 40
0.0
  9
$USERR5
 40
0.0
  9
$WORLDVIEW
 70
     1
  9
$SHADEDGE
 70
     3
  9
$SHADEDIF
 70
    70
  9
$TILEMODE
 70
     1
  9
$MAXACTVP
 70
    48
  9
$PLIMCHECK
 70
     0
  9
$PEXTMIN
 10
-1.0000000000000000E+020
 20
-1.0000000000000000E+020
 30
-1.0000000000000000E+020
  9
$PEXTMAX
 10
1.0000000000000000E+020
 20
1.0000000000000000E+020
 30
1.0000000000000000E+020
  9
$PLIMMIN
 10
0.0
 20
0.0
  9
$PLIMMAX
 10
12.0
 20
9.0
  9
$UNITMODE
 70
     0
  9
$VISRETAIN
 70
     0
  9
$PLINEGEN
 70
     0
  9
$PSLTSCALE
 70
     0
  0
ENDSEC
  0
SECTION
  2
TABLES
  0
TABLE
  2
VPORT
 70
     1
  0
VPORT
  2
*ACTIVE
 70
     0
 10
0.0
 20
0.0
 11
1.0
 21
1.0
 12
517.17453921309425
 22
21.28483654813056
 13
0.0
 23
0.0
 14
1.0
 24
1.0
 15
0.0
 25
0.0
 16
0.0
 26
0.0
 36
1.0
 17
0.0
 27
0.0
 37
0.0
 40
1096.199527821231
 41
1.6865079365079361
 42
50.0
 43
0.0
 44
0.0
 50
0.0
 51
0.0
 71
     0
 72
  1000
 73
     1
 74
     0
 75
     0
 76
     0
 77
     0
 78
     0
  0
ENDTAB
  0
TABLE
  2
LTYPE
 70
     3
  0
LTYPE
  2
CONTINUOUS
 70
     0
  3
実線
 72
    65
 73
     0
 40
0.0
  0
LTYPE
  2
DASHDOT
 70
     0
  3
____ _ ____ _ ____ _ ____ _ ____ _ ____ _ ____
 72
    65
 73
     4
 40
5.5
 49
4.0
 49
-0.6
 49
0.3
 49
-0.6
  0
ENDTAB
  0
TABLE
  2
LAYER
 70
    12
  0
LAYER
  2
0
 70
     0
 62
     7
  6
CONTINUOUS
  0
LAYER
  2
SIZE
 70
     0
 62
    30
  6
CONTINUOUS
  0
LAYER
  2
BASIS
 70
     0
 62
     6
  6
DASHDOT
  0
LAYER
  2
OUTLINE
 70
     0
 62
     3
  6
CONTINUOUS
  0
LAYER
  2
DETAIL
 70
     0
 62
     5
  6
CONTINUOUS
  0
LAYER
  2
ARRANGE
 70
     0
 62
     1
  6
CONTINUOUS
  0
LAYER
  2
DEFPOINTS
 70
     0
 62
     7
  6
CONTINUOUS
  0
LAYER
  2
ETC
 70
     0
 62
    61
  6
CONTINUOUS
  0
LAYER
  2
FIX
 70
     0
 62
    11
  6
CONTINUOUS
  0
LAYER
  2
NOTE
 70
     0
 62
     4
  6
CONTINUOUS
  0
LAYER
  2
SERVICESPACE
 70
     0
 62
     2
  6
DASHDOT
  0
LAYER
  2
SYMBOLLINE
 70
     0
 62
    15
  6
CONTINUOUS
  0
ENDTAB
  0
TABLE
  2
STYLE
 70
     3
  0
STYLE
  2
STANDARD
 70
     0
 40
64.0
 41
0.9
 50
0.0
 71
     0
 42
64.0
  3
SIMPLEX.shx
  4
BIGFONT.shx
  0
STYLE
  2
ANNOTATIVE
 70
     0
 40
0.0
 41
1.0
 50
0.0
 71
     0
 42
0.2
  3
txt
  4

  0
STYLE
  2
STANDARD1
 70
     0
 40
0.0
 41
1.0
 50
0.0
 71
     0
 42
4.0
  3
MONOTXT
  4
BIGFONT
  0
ENDTAB
  0
TABLE
  2
VIEW
 70
     1
  0
VIEW
  2
ALL
 70
     0
 40
4282.6198079999976
 10
0.0
 20
41.309904000000003
 41
5940.0
 11
0.0
 21
0.0
 31
1.0
 12
0.0
 22
0.0
 32
0.0
 42
50.0
 43
0.0
 44
0.0
 50
0.0
 71
     0
  0
ENDTAB
  0
TABLE
  2
UCS
 70
     0
  0
ENDTAB
  0
TABLE
  2
APPID
 70
    18
  0
APPID
  2
ACAD
 70
     0
  0
APPID
  2
ACADANNOTATIVE
 70
     0
  0
APPID
  2
AUTOCAD_POSTSCRIPT_FIGURE
 70
     0
  0
APPID
  2
ACAD_EXEMPT_FROM_CAD_STANDARDS
 70
     0
  0
APPID
  2
ACAD_PSEXT
 70
     0
  0
APPID
  2
ACAUTHENVIRON
 70
     0
  0
APPID
  2
GENIUS_GENOENT_13
 70
     0
  0
APPID
  2
GENIUS_GENCFG_13
 70
     0
  0
APPID
  2
GENIUS_GENCFG0_13
 70
     0
  0
APPID
  2
GENIUS_GENCFG1_13
 70
     0
  0
APPID
  2
GENIUS_GENCFG2_13
 70
     0
  0
APPID
  2
GENIUS_GENCFG3_13
 70
     0
  0
APPID
  2
GENIUS_GENCFG4_13
 70
     0
  0
APPID
  2
GENIUS_GEVCFG0_13
 70
     0
  0
APPID
  2
CONTENTBLOCKICON
 70
     0
  0
APPID
  2
CONTENTBLOCKDESCRIPTION
 70
     0
  0
APPID
  2
ACAD_NAV_VCDISPLAY
 70
     0
  0
APPID
  2
ACAD_MLEADERVER
 70
     0
  0
ENDTAB
  0
TABLE
  2
DIMSTYLE
 70
     2
  0
DIMSTYLE
  2
STANDARD
 70
     0
  3

  4

  5

  6

  7

 40
1.0
 41
0.18
 42
0.0625
 43
0.38
 44
0.18
 45
0.0
 46
0.0
 47
0.0
 48
0.0
140
0.18
141
0.09
142
0.0
143
25.399999999999999
144
1.0
145
0.0
146
1.0
147
0.09
 71
     0
 72
     0
 73
     1
 74
     1
 75
     0
 76
     0
 77
     0
 78
     0
170
     0
171
     2
172
     0
173
     0
174
     0
175
     0
176
     7
177
     7
178
     7
  0
DIMSTYLE
  2
ANNOTATIVE
 70
     0
  3

  4

  5

  6

  7

 40
1.0
 41
0.18
 42
0.0625
 43
0.38
 44
0.18
 45
0.0
 46
0.0
 47
0.0
 48
0.0
140
0.18
141
0.09
142
0.0
143
25.399999999999999
144
1.0
145
0.0
146
1.0
147
0.09
 71
     0
 72
     0
 73
     1
 74
     1
 75
     0
 76
     0
 77
     0
 78
     0
170
     0
171
     2
172
     0
173
     0
174
     0
175
     0
176
     0
177
     0
178
     0
  0
ENDTAB
  0
ENDSEC
  0
SECTION
  2
BLOCKS
  0
BLOCK
  8
0
  2
$MODEL_SPACE
 70
     0
 10
0.0
 20
0.0
 30
0.0
  3
$MODEL_SPACE
  1

  0
ENDBLK
  5
6D
  8
0
  0
BLOCK
 67
     1
  8
0
  2
$PAPER_SPACE
 70
     0
 10
0.0
 20
0.0
 30
0.0
  3
$PAPER_SPACE
  1

  0
ENDBLK
  5
69
 67
     1
  8
0
  0
BLOCK
  8
0
  2
_ORIGIN
 70
     0
 10
0.0
 20
0.0
 30
0.0
  3
_ORIGIN
  1

  0
CIRCLE
  5
92
  8
0
  6
CONTINUOUS
 62
     7
 10
0.0
 20
0.0
 30
0.0
 40
0.5
  0
LINE
  5
93
  8
0
  6
CONTINUOUS
 62
     7
 10
0.0
 20
0.0
 30
0.0
 11
-1.0
 21
0.0
 31
0.0
  0
ENDBLK
  5
94
  8
0
  0
ENDSEC
  0
SECTION
  2
ENTITIES
  0
TEXT
  5
95
  8
ETC
  6
CONTINUOUS
 62
    61
 10
214.83786478455019
 20
349.07565229407032
 30
0.0
 40
64.0
  1
PX-02KUS2_2
 41
0.9
  0
TEXT
  5
96
  8
ETC
  6
CONTINUOUS
 62
    61
 10
210.6518707845498
 20
231.12034227923911
 30
0.0
 40
64.0
  1
システム部材
 41
0.9
  0
CIRCLE
  5
97
  8
ARRANGE
  6
CONTINUOUS
 62
     1
 10
0.0
 20
0.0
 30
0.0
 40
40.0
  0
POINT
  5
98
  8
ARRANGE
  6
CONTINUOUS
 62
     1
 10
0.0
 20
0.0
 30
0.0
 39
50.0
  0
LINE
  5
99
  8
BASIS
  6
DASHDOT
 62
     6
 39
35.0
 10
0.0
 20
-76.49978071001992
 30
0.0
 11
0.0
 21
76.49978071001992
 31
0.0
  0
LINE
  5
9A
  8
BASIS
  6
DASHDOT
 62
     6
 39
24.5
 10
61.473501105494357
 20
0.0000000000000021
 30
0.0
 11
-61.473501105494393
 21
0.0000000000000021
 31
0.0
  0
TEXT
  5
9B
  8
ETC
  6
CONTINUOUS
 62
    61
 10
261.35326903310568
 20
122.97156939301389
 30
0.0
 40
40.0
  1
PX-02KUS2
 41
0.9
  0
LINE
  5
9C
  8
SIZE
  6
CONTINUOUS
 62
    30
 10
-34.999999860000052
 20
-74.999999780000053
 30
0.0
 11
-34.999999860000081
 21
-145.19084066135201
 31
0.0
  0
LINE
  5
9D
  8
SIZE
  6
CONTINUOUS
 62
    30
 10
34.999999859999832
 20
-74.999999780000053
 30
0.0
 11
34.999999859999811
 21
-145.19084066135201
 31
0.0
  0
LINE
  5
9E
  8
SIZE
  6
CONTINUOUS
 62
    30
 10
-46.999999860000067
 20
-125.190840661352
 30
0.0
 11
-58.999999860000067
 21
-125.190840661352
 31
0.0
  0
LINE
  5
9F
  8
SIZE
  6
CONTINUOUS
 62
    30
 10
46.999999859999818
 20
-125.190840661352
 30
0.0
 11
202.2571427171427
 21
-125.190840661352
 31
0.0
  0
LINE
  5
A0
  8
SIZE
  6
CONTINUOUS
 62
    30
 10
-34.999999860000081
 20
-125.190840661352
 30
0.0
 11
34.999999859999811
 21
-125.190840661352
 31
0.0
  0
CIRCLE
  5
A1
  8
SIZE
  6
CONTINUOUS
 62
    30
 10
-34.999999860000081
 20
-125.190840661352
 30
0.0
 40
6.0
  0
LINE
  5
A2
  8
SIZE
  6
CONTINUOUS
 62
    30
 10
-34.999999860000081
 20
-125.190840661352
 30
0.0
 11
-46.999999860000067
 21
-125.190840661352
 31
0.0
  0
CIRCLE
  5
A3
  8
SIZE
  6
CONTINUOUS
 62
    30
 10
34.999999859999811
 20
-125.190840661352
 30
0.0
 40
6.0
  0
LINE
  5
A4
  8
SIZE
  6
CONTINUOUS
 62
    30
 10
34.999999859999811
 20
-125.190840661352
 30
0.0
 11
46.999999859999818
 21
-125.190840661352
 31
0.0
  0
TEXT
  5
A5
  8
SIZE
  6
CONTINUOUS
 62
    30
 10
83.999999859999861
 20
-100.190840661352
 30
0.0
 40
64.0
  1
70
 41
0.9
 72
     1
 11
130.62857128857129
 21
-100.190840661352
 31
0.0
  0
POINT
  5
A6
  8
DEFPOINTS
  6
CONTINUOUS
 62
    30
 10
-34.999999860000052
 20
-54.999999780000053
 30
0.0
  0
POINT
  5
A7
  8
DEFPOINTS
  6
CONTINUOUS
 62
    30
 10
34.999999859999832
 20
-54.999999780000053
 30
0.0
  0
POINT
  5
A8
  8
DEFPOINTS
  6
CONTINUOUS
 62
    30
 10
34.999999859999811
 20
-125.190840661352
 30
0.0
  0
LINE
  5
A9
  8
SIZE
  6
CONTINUOUS
 62
    30
 10
-49.999999880000459
 20
59.999999759999817
 30
0.0
 11
-132.2369189244591
 21
59.999999759999838
 31
0.0
  0
LINE
  5
AA
  8
SIZE
  6
CONTINUOUS
 62
    30
 10
-49.999999880000459
 20
-59.999999760000257
 30
0.0
 11
-132.2369189244591
 21
-59.999999760000229
 31
0.0
  0
LINE
  5
AB
  8
SIZE
  6
CONTINUOUS
 62
    30
 10
-112.2369189244591
 20
47.999999759999838
 30
0.0
 11
-112.2369189244591
 21
-47.999999760000229
 31
0.0
  0
CIRCLE
  5
AC
  8
SIZE
  6
CONTINUOUS
 62
    30
 10
-112.2369189244591
 20
59.999999759999838
 30
0.0
 40
6.0
  0
LINE
  5
AD
  8
SIZE
  6
CONTINUOUS
 62
    30
 10
-112.2369189244591
 20
59.999999759999838
 30
0.0
 11
-112.2369189244591
 21
47.999999759999838
 31
0.0
  0
CIRCLE
  5
AE
  8
SIZE
  6
CONTINUOUS
 62
    30
 10
-112.2369189244591
 20
-59.999999760000229
 30
0.0
 40
6.0
  0
LINE
  5
AF
  8
SIZE
  6
CONTINUOUS
 62
    30
 10
-112.2369189244591
 20
-59.999999760000229
 30
0.0
 11
-112.2369189244591
 21
-47.999999760000229
 31
0.0
  0
TEXT
  5
B0
  8
SIZE
  6
CONTINUOUS
 62
    30
 10
-137.2369189244591
 20
-68.571428571428783
 30
0.0
 40
64.0
  1
120
 50
90.0
 41
0.9
 72
     1
 11
-137.2369189244591
 21
-0.0000000000002155
 31
0.0
  0
POINT
  5
B1
  8
DEFPOINTS
  6
CONTINUOUS
 62
    30
 10
-29.99999988000047
 20
59.99999975999981
 30
0.0
  0
POINT
  5
B2
  8
DEFPOINTS
  6
CONTINUOUS
 62
    30
 10
-29.99999988000047
 20
-59.999999760000257
 30
0.0
  0
POINT
  5
B3
  8
DEFPOINTS
  6
CONTINUOUS
 62
    30
 10
-112.2369189244591
 20
-59.999999760000229
 30
0.0
  0
LINE
  5
B4
  8
OUTLINE
  6
CONTINUOUS
 62
     3
 10
34.99999986000001
 20
-47.999999807999757
 30
0.0
 11
34.99999986000001
 21
47.999999808000211
 31
0.0
  0
LINE
  5
B5
  8
OUTLINE
  6
CONTINUOUS
 62
     3
 10
-34.99999986000001
 20
-47.999999807999757
 30
0.0
 11
-34.99999986000001
 21
47.999999808000211
 31
0.0
  0
LINE
  5
B6
  8
OUTLINE
  6
CONTINUOUS
 62
     3
 10
-29.99999988000047
 20
59.99999975999981
 30
0.0
 11
29.99999987999945
 21
59.99999975999981
 31
0.0
  0
ARC
  5
B7
  8
OUTLINE
  6
CONTINUOUS
 62
     3
 10
-29.99999988000047
 20
54.999999780000053
 30
0.0
 40
4.9999999800000001
 50
90.0
 51
180.0
  0
LINE
  5
B8
  8
OUTLINE
  6
CONTINUOUS
 62
     3
 10
-34.99999986000045
 20
47.999999808000211
 30
0.0
 11
-34.99999986000045
 21
54.999999780000053
 31
0.0
  0
ARC
  5
B9
  8
OUTLINE
  6
CONTINUOUS
 62
     3
 10
29.99999987999945
 20
54.999999780000053
 30
0.0
 40
4.9999999800000001
 50
0.0
 51
90.0
  0
LINE
  5
BA
  8
OUTLINE
  6
CONTINUOUS
 62
     3
 10
34.999999859999669
 20
47.999999808000211
 30
0.0
 11
34.999999859999427
 21
54.999999780000053
 31
0.0
  0
ARC
  5
BB
  8
OUTLINE
  6
CONTINUOUS
 62
     3
 10
29.99999987999945
 20
-54.999999780000053
 30
0.0
 40
4.9999999800000001
 50
270.0
 51
0.0
  0
LINE
  5
BC
  8
OUTLINE
  6
CONTINUOUS
 62
     3
 10
34.999999859999427
 20
-54.999999780000053
 30
0.0
 11
34.999999859999427
 21
-47.999999807999757
 31
0.0
  0
ARC
  5
BD
  8
OUTLINE
  6
CONTINUOUS
 62
     3
 10
-29.99999988000047
 20
-54.999999780000053
 30
0.0
 40
4.9999999800000001
 50
180.0
 51
270.0
  0
LINE
  5
BE
  8
OUTLINE
  6
CONTINUOUS
 62
     3
 10
-34.99999986000045
 20
-54.999999780000053
 30
0.0
 11
-34.99999986000045
 21
-47.999999807999757
 31
0.0
  0
LINE
  5
BF
  8
OUTLINE
  6
CONTINUOUS
 62
     3
 10
-29.99999988000047
 20
-59.999999760000257
 30
0.0
 11
29.99999987999945
 21
-59.999999760000257
 31
0.0
  0
LINE
  5
C0
  8
DETAIL
  6
CONTINUOUS
 62
     5
 10
-10.699999957200021
 20
38.202852828550022
 30
0.0
 11
-10.699999957200021
 21
39.682348442790492
 31
0.0
  0
ARC
  5
C1
  8
DETAIL
  6
CONTINUOUS
 62
     5
 10
-11.499999954000151
 20
39.049999843799917
 30
0.0
 40
0.599999997599975
 50
0.0
 51
90.0
  0
ARC
  5
C2
  8
DETAIL
  6
CONTINUOUS
 62
     5
 10
-21.2999999148002
 20
39.049999843799917
 30
0.0
 40
0.5999999976000235
 50
90.0
 51
180.0
  0
LINE
  5
C3
  8
DETAIL
  6
CONTINUOUS
 62
     5
 10
-11.499999954000151
 20
39.649999841400131
 30
0.0
 11
-21.2999999148002
 21
39.649999841400131
 31
0.0
  0
LINE
  5
C4
  8
DETAIL
  6
CONTINUOUS
 62
     5
 10
-21.89999991240018
 20
3.5499999858002398
 30
0.0
 11
-21.89999991240018
 21
39.049999843799917
 31
0.0
  0
LINE
  5
C5
  8
DETAIL
  6
CONTINUOUS
 62
     5
 10
-10.899999956400171
 20
35.849999856599887
 30
0.0
 11
10.89999995639994
 21
35.849999856599887
 31
0.0
  0
LINE
  5
C6
  8
DETAIL
  6
CONTINUOUS
 62
     5
 10
-10.899999956400171
 20
35.849999856599887
 30
0.0
 11
-10.899999956400171
 21
39.049999843799917
 31
0.0
  0
LINE
  5
C7
  8
DETAIL
  6
CONTINUOUS
 62
     5
 10
10.699999957200021
 20
38.202852828550022
 30
0.0
 11
10.699999957200021
 21
39.682348442790492
 31
0.0
  0
ARC
  5
C8
  8
DETAIL
  6
CONTINUOUS
 62
     5
 10
21.299999914799969
 20
39.049999843799917
 30
0.0
 40
0.599999997599975
 50
0.0
 51
90.0
  0
ARC
  5
C9
  8
DETAIL
  6
CONTINUOUS
 62
     5
 10
11.49999995399992
 20
39.049999843799917
 30
0.0
 40
0.5999999976000235
 50
90.0
 51
180.0
  0
LINE
  5
CA
  8
DETAIL
  6
CONTINUOUS
 62
     5
 10
21.299999914799969
 20
39.649999841400131
 30
0.0
 11
11.49999995399992
 21
39.649999841400131
 31
0.0
  0
LINE
  5
CB
  8
DETAIL
  6
CONTINUOUS
 62
     5
 10
21.899999912399949
 20
3.5499999858002398
 30
0.0
 11
21.899999912399949
 21
39.049999843799917
 31
0.0
  0
LINE
  5
CC
  8
DETAIL
  6
CONTINUOUS
 62
     5
 10
10.89999995639994
 20
35.849999856599887
 30
0.0
 11
10.89999995639994
 21
39.049999843799917
 31
0.0
  0
LINE
  5
CD
  8
DETAIL
  6
CONTINUOUS
 62
     5
 10
0.0000000000001137
 20
2.9499999882004881
 30
0.0
 11
21.299999914799969
 21
2.9499999882004881
 31
0.0
  0
ARC
  5
CE
  8
DETAIL
  6
CONTINUOUS
 62
     5
 10
21.299999914799969
 20
3.5499999858002398
 30
0.0
 40
0.5999999976000235
 50
270.0
 51
0.0
  0
LINE
  5
CF
  8
DETAIL
  6
CONTINUOUS
 62
     5
 10
14.99999994000007
 20
2.9499999882004881
 30
0.0
 11
14.99999994000007
 21
3.4499999862000541
 31
0.0
  0
LINE
  5
D0
  8
DETAIL
  6
CONTINUOUS
 62
     5
 10
-14.99999994000007
 20
3.4499999862000541
 30
0.0
 11
14.99999994000007
 21
3.4499999862000541
 31
0.0
  0
ARC
  5
D1
  8
DETAIL
  6
CONTINUOUS
 62
     5
 10
0.0000000000001137
 20
-70.799999716797629
 30
0.0
 40
75.749999696997733
 50
78.578813725000828
 51
101.4211862749992
  0
LINE
  5
D2
  8
DETAIL
  6
CONTINUOUS
 62
     5
 10
-21.2999999148002
 20
2.9499999882004881
 30
0.0
 11
0.0000000000001137
 21
2.9499999882004881
 31
0.0
  0
ARC
  5
D3
  8
DETAIL
  6
CONTINUOUS
 62
     5
 10
-21.2999999148002
 20
3.5499999858002398
 30
0.0
 40
0.5999999976000235
 50
180.0
 51
270.0
  0
LINE
  5
D4
  8
DETAIL
  6
CONTINUOUS
 62
     5
 10
-14.99999994000007
 20
2.9499999882004881
 30
0.0
 11
-14.99999994000007
 21
3.4499999862000541
 31
0.0
  0
ARC
  5
D5
  8
DETAIL
  6
CONTINUOUS
 62
     5
 10
-21.999999912000131
 20
-10.79999995679964
 30
0.0
 40
0.099999999600015
 50
90.0
 51
180.0
  0
ARC
  5
D6
  8
DETAIL
  6
CONTINUOUS
 62
     5
 10
21.999999911999911
 20
-10.79999995679964
 30
0.0
 40
0.0999999996000033
 50
0.0
 51
90.0
  0
ARC
  5
D7
  8
DETAIL
  6
CONTINUOUS
 62
     5
 10
20.59999991760003
 20
-38.299999846799892
 30
0.0
 40
1.4999999940000031
 50
270.0
 51
0.0
  0
ARC
  5
D8
  8
DETAIL
  6
CONTINUOUS
 62
     5
 10
-20.59999991760003
 20
-38.299999846799892
 30
0.0
 40
1.4999999940000091
 50
180.0
 51
270.0
  0
LINE
  5
D9
  8
DETAIL
  6
CONTINUOUS
 62
     5
 10
20.59999991760003
 20
-39.799999840799963
 30
0.0
 11
-20.59999991760003
 21
-39.799999840799963
 31
0.0
  0
LINE
  5
DA
  8
DETAIL
  6
CONTINUOUS
 62
     5
 10
-21.999999912000131
 20
-10.69999995719991
 30
0.0
 11
21.999999911999911
 21
-10.69999995719991
 31
0.0
  0
LINE
  5
DB
  8
DETAIL
  6
CONTINUOUS
 62
     5
 10
-22.09999991159987
 20
-38.299999846799892
 30
0.0
 11
-22.09999991159987
 21
-10.79999995679964
 31
0.0
  0
LINE
  5
DC
  8
DETAIL
  6
CONTINUOUS
 62
     5
 10
22.09999991160009
 20
-38.299999846799892
 30
0.0
 11
22.09999991160009
 21
-10.79999995679964
 31
0.0
  0
LINE
  5
DD
  8
DETAIL
  6
CONTINUOUS
 62
     5
 10
-34.99999986000001
 20
-47.999999807999757
 30
0.0
 11
34.99999986000001
 21
-47.999999807999757
 31
0.0
  0
LINE
  5
DE
  8
DETAIL
  6
CONTINUOUS
 62
     5
 10
-34.99999986000001
 20
47.999999808000211
 30
0.0
 11
34.99999986000001
 21
47.999999808000211
 31
0.0
  0
LINE
  5
DF
  8
DETAIL
  6
CONTINUOUS
 62
     5
 10
34.99999986000001
 20
-47.999999807999757
 30
0.0
 11
34.99999986000001
 21
47.999999808000211
 31
0.0
  0
LINE
  5
E0
  8
DETAIL
  6
CONTINUOUS
 62
     5
 10
-34.99999986000001
 20
-47.999999807999757
 30
0.0
 11
-34.99999986000001
 21
47.999999808000211
 31
0.0
  0
TEXT
  5
E1
  8
DETAIL
  6
CONTINUOUS
 62
     5
 10
-20.139076219967482
 20
-27.07502156755163
 30
0.0
 40
4.3199999954356567
  1
弱
 50
0.000002504479134
 41
1.0416666666666661
  7
STANDARD1
  0
TEXT
  5
E2
  8
DETAIL
  6
CONTINUOUS
 62
     5
 10
-18.445261631202239
 20
25.697818085452131
 30
0.0
 40
4.8000001715348626
  1
２４時間換気
 50
0.000002504479134
 41
1.0416665976798121
  7
STANDARD1
  0
TEXT
  5
E3
  8
DETAIL
  6
CONTINUOUS
 62
     5
 10
14.581509782100619
 20
-27.175227306489891
 30
0.0
 40
4.3199999954356567
  1
強
 50
0.000002504479134
 41
1.0416666666666661
  7
STANDARD1
  0
LINE
  5
E4
  8
DETAIL
  6
CONTINUOUS
 62
     5
 10
25.599999897600242
 20
-41.79999983280004
 30
0.0
 11
25.59999989759968
 21
42.999999828000441
 31
0.0
  0
ARC
  5
E5
  8
DETAIL
  6
CONTINUOUS
 62
     5
 10
24.09999990359972
 20
42.999999828000441
 30
0.0
 40
1.4999999940000091
 50
0.0
 51
90.0
  0
LINE
  5
E6
  8
DETAIL
  6
CONTINUOUS
 62
     5
 10
-24.099999903600409
 20
44.499999822000063
 30
0.0
 11
24.09999990359972
 21
44.499999822000063
 31
0.0
  0
LINE
  5
E7
  8
DETAIL
  6
CONTINUOUS
 62
     5
 10
-25.59999989759956
 20
-41.79999983280004
 30
0.0
 11
-25.599999897600469
 21
42.999999828000441
 31
0.0
  0
ARC
  5
E8
  8
DETAIL
  6
CONTINUOUS
 62
     5
 10
-24.099999903600409
 20
42.999999828000441
 30
0.0
 40
1.4999999940000091
 50
90.0
 51
180.0
  0
ARC
  5
E9
  8
DETAIL
  6
CONTINUOUS
 62
     5
 10
-24.09999990359972
 20
-41.79999983280004
 30
0.0
 40
1.4999999940000091
 50
180.0
 51
270.0
  0
LINE
  5
EA
  8
DETAIL
  6
CONTINUOUS
 62
     5
 10
24.099999903600288
 20
-43.299999826800097
 30
0.0
 11
-24.09999990359972
 21
-43.299999826800097
 31
0.0
  0
ARC
  5
EB
  8
DETAIL
  6
CONTINUOUS
 62
     5
 10
24.099999903600288
 20
-41.79999983280004
 30
0.0
 40
1.4999999939999971
 50
270.0
 51
0.0
  0
ARC
  5
EC
  8
DETAIL
  6
CONTINUOUS
 62
     5
 10
-11.499999954000151
 20
38.999999844000293
 30
0.0
 40
0.7999999967999834
 50
0.0
 51
90.0
  0
ARC
  5
ED
  8
DETAIL
  6
CONTINUOUS
 62
     5
 10
-21.299999914799969
 20
38.999999844000293
 30
0.0
 40
0.7999999967999467
 50
90.0
 51
180.0
  0
LINE
  5
EE
  8
DETAIL
  6
CONTINUOUS
 62
     5
 10
-11.499999954000151
 20
39.799999840799963
 30
0.0
 11
-21.299999914799969
 21
39.799999840799963
 31
0.0
  0
LINE
  5
EF
  8
DETAIL
  6
CONTINUOUS
 62
     5
 10
-22.09999991159987
 20
3.4999999860001481
 30
0.0
 11
-22.09999991159987
 21
41.099999835600087
 31
0.0
  0
LINE
  5
F0
  8
DETAIL
  6
CONTINUOUS
 62
     5
 10
10.699999957200021
 20
35.999999856000159
 30
0.0
 11
-10.699999957200021
 21
35.999999856000159
 31
0.0
  0
LINE
  5
F1
  8
DETAIL
  6
CONTINUOUS
 62
     5
 10
-10.699999957200021
 20
35.999999856000159
 30
0.0
 11
-10.699999957200021
 21
41.099999835600087
 31
0.0
  0
LINE
  5
F2
  8
DETAIL
  6
CONTINUOUS
 62
     5
 10
-21.257721742501761
 20
41.099999835600087
 30
0.0
 11
-11.496650682045919
 21
41.099999835600087
 31
0.0
  0
ARC
  5
F3
  8
DETAIL
  6
CONTINUOUS
 62
     5
 10
21.299999914799969
 20
38.999999844000293
 30
0.0
 40
0.7999999967999834
 50
0.0
 51
90.0
  0
ARC
  5
F4
  8
DETAIL
  6
CONTINUOUS
 62
     5
 10
11.49999995399992
 20
38.999999844000293
 30
0.0
 40
0.7999999967999467
 50
90.0
 51
180.0
  0
LINE
  5
F5
  8
DETAIL
  6
CONTINUOUS
 62
     5
 10
21.299999914799969
 20
39.799999840799963
 30
0.0
 11
11.49999995399992
 21
39.799999840799963
 31
0.0
  0
LINE
  5
F6
  8
DETAIL
  6
CONTINUOUS
 62
     5
 10
22.09999991160009
 20
3.4999999860001481
 30
0.0
 11
22.09999991160009
 21
41.099999835600087
 31
0.0
  0
LINE
  5
F7
  8
DETAIL
  6
CONTINUOUS
 62
     5
 10
10.699999957200021
 20
35.999999856000159
 30
0.0
 11
10.699999957200021
 21
41.099999835600087
 31
0.0
  0
LINE
  5
F8
  8
DETAIL
  6
CONTINUOUS
 62
     5
 10
11.608669423083141
 20
41.099999835600087
 30
0.0
 11
21.30796155277665
 21
41.099999835600087
 31
0.0
  0
ARC
  5
F9
  8
DETAIL
  6
CONTINUOUS
 62
     5
 10
21.299999914799969
 20
3.4999999860001481
 30
0.0
 40
0.7999999968000183
 50
270.0
 51
0.0
  0
LINE
  5
FA
  8
DETAIL
  6
CONTINUOUS
 62
     5
 10
-21.299999914799969
 20
2.6999999892000219
 30
0.0
 11
21.299999914799969
 21
2.6999999892000219
 31
0.0
  0
ARC
  5
FB
  8
DETAIL
  6
CONTINUOUS
 62
     5
 10
-21.299999914799969
 20
3.4999999860001481
 30
0.0
 40
0.7999999967999834
 50
180.0
 51
270.0
  0
TEXT
  5
FC
  8
DETAIL
  6
CONTINUOUS
 62
     5
 10
0.2062046638205857
 20
9.3574098256185607
 30
0.0
 40
3.8880002343106712
  1
切
 50
0.000002504479134
 41
1.0416666453744281
  7
STANDARD1
  0
TEXT
  5
FD
  8
DETAIL
  6
CONTINUOUS
 62
     5
 10
-5.1224187686408396
 20
11.10955749317054
 30
0.0
 40
3.8880002343106712
  1
入
 50
0.000002504479134
 41
1.0416666453744281
  7
STANDARD1
  0
LINE
  5
FE
  8
DETAIL
  6
CONTINUOUS
 62
     5
 10
1.655262473431889
 20
14.700371893531161
 30
0.0
 11
-1.5552638295154111
 21
9.7003719135313986
 31
0.0
  0
LINE
  5
FF
  8
DETAIL
  6
CONTINUOUS
 62
     5
 10
-34.99999986000045
 20
-47.999999807999757
 30
0.0
 11
34.999999859999427
 21
-47.999999807999757
 31
0.0
  0
LINE
  5
100
  8
DETAIL
  6
CONTINUOUS
 62
     5
 10
-34.99999986000045
 20
47.999999808000211
 30
0.0
 11
34.999999859999669
 21
47.999999808000211
 31
0.0
  0
LINE
  5
101
  8
DETAIL
  6
CONTINUOUS
 62
     5
 10
-29.99999988000047
 20
59.99999975999981
 30
0.0
 11
29.99999987999945
 21
59.99999975999981
 31
0.0
  0
ARC
  5
102
  8
DETAIL
  6
CONTINUOUS
 62
     5
 10
-29.99999988000047
 20
54.999999780000053
 30
0.0
 40
4.9999999800000001
 50
90.0
 51
180.0
  0
LINE
  5
103
  8
DETAIL
  6
CONTINUOUS
 62
     5
 10
-34.99999986000045
 20
47.999999808000211
 30
0.0
 11
-34.99999986000045
 21
54.999999780000053
 31
0.0
  0
ARC
  5
104
  8
DETAIL
  6
CONTINUOUS
 62
     5
 10
29.99999987999945
 20
54.999999780000053
 30
0.0
 40
4.9999999800000001
 50
0.0
 51
90.0
  0
LINE
  5
105
  8
DETAIL
  6
CONTINUOUS
 62
     5
 10
34.999999859999669
 20
47.999999808000211
 30
0.0
 11
34.999999859999427
 21
54.999999780000053
 31
0.0
  0
ARC
  5
106
  8
DETAIL
  6
CONTINUOUS
 62
     5
 10
29.99999987999945
 20
-54.999999780000053
 30
0.0
 40
4.9999999800000001
 50
270.0
 51
0.0
  0
LINE
  5
107
  8
DETAIL
  6
CONTINUOUS
 62
     5
 10
34.999999859999427
 20
-54.999999780000053
 30
0.0
 11
34.999999859999427
 21
-47.999999807999757
 31
0.0
  0
ARC
  5
108
  8
DETAIL
  6
CONTINUOUS
 62
     5
 10
-29.99999988000047
 20
-54.999999780000053
 30
0.0
 40
4.9999999800000001
 50
180.0
 51
270.0
  0
LINE
  5
109
  8
DETAIL
  6
CONTINUOUS
 62
     5
 10
-34.99999986000045
 20
-54.999999780000053
 30
0.0
 11
-34.99999986000045
 21
-47.999999807999757
 31
0.0
  0
LINE
  5
10A
  8
DETAIL
  6
CONTINUOUS
 62
     5
 10
-29.99999988000047
 20
-59.999999760000257
 30
0.0
 11
29.99999987999945
 21
-59.999999760000257
 31
0.0
  0
LINE
  5
10B
  8
DETAIL
  6
CONTINUOUS
 62
     5
 10
21.599999913600069
 20
-11.09999995559974
 30
0.0
 11
21.599999913600069
 21
-38.099999847599527
 31
0.0
  0
ARC
  5
10C
  8
DETAIL
  6
CONTINUOUS
 62
     5
 10
21.399999914400151
 20
-11.09999995559974
 30
0.0
 40
0.199999999200055
 50
0.0000009999948896
 51
90.0
  0
LINE
  5
10D
  8
DETAIL
  6
CONTINUOUS
 62
     5
 10
-20.233333252399799
 20
-10.899999956399819
 30
0.0
 11
21.399999914400151
 21
-10.899999956399819
 31
0.0
  0
ARC
  5
10E
  8
DETAIL
  6
CONTINUOUS
 62
     5
 10
-20.233333252399799
 20
-11.09999995559974
 30
0.0
 40
0.1999999991998183
 50
90.0
 51
179.99999900000509
  0
LINE
  5
10F
  8
DETAIL
  6
CONTINUOUS
 62
     5
 10
-20.433333251599951
 20
-38.099999847599527
 30
0.0
 11
-20.433333251599951
 21
-11.09999995559974
 31
0.0
  0
ARC
  5
110
  8
DETAIL
  6
CONTINUOUS
 62
     5
 10
-18.933333257600111
 20
-38.099999847599527
 30
0.0
 40
1.499999993999962
 50
179.99999900000509
 51
270.0
  0
LINE
  5
111
  8
DETAIL
  6
CONTINUOUS
 62
     5
 10
20.099999919600009
 20
-39.59999984159959
 30
0.0
 11
-18.933333257600111
 21
-39.59999984159959
 31
0.0
  0
ARC
  5
112
  8
DETAIL
  6
CONTINUOUS
 62
     5
 10
20.099999919600009
 20
-38.099999847599527
 30
0.0
 40
1.4999999939999971
 50
270.0
 51
0.0000009999948896
  0
LINE
  5
113
  8
DETAIL
  6
CONTINUOUS
 62
     5
 10
21.49999991399989
 20
-11.09999995559974
 30
0.0
 11
21.49999991399989
 21
-38.099999847599527
 31
0.0
  0
ARC
  5
114
  8
DETAIL
  6
CONTINUOUS
 62
     5
 10
21.2999999148002
 20
-11.09999995559974
 30
0.0
 40
0.199999999200055
 50
0.0000009999948896
 51
90.0
  0
LINE
  5
115
  8
DETAIL
  6
CONTINUOUS
 62
     5
 10
-20.133333252800082
 20
-10.899999956399819
 30
0.0
 11
21.2999999148002
 21
-10.899999956399819
 31
0.0
  0
ARC
  5
116
  8
DETAIL
  6
CONTINUOUS
 62
     5
 10
-20.133333252800082
 20
-11.09999995559974
 30
0.0
 40
0.1999999991998183
 50
90.0
 51
179.99999900000509
  0
LINE
  5
117
  8
DETAIL
  6
CONTINUOUS
 62
     5
 10
-20.333333251999989
 20
-38.099999847599527
 30
0.0
 11
-20.333333251999989
 21
-11.09999995559974
 31
0.0
  0
ARC
  5
118
  8
DETAIL
  6
CONTINUOUS
 62
     5
 10
-18.833333258000149
 20
-38.099999847599527
 30
0.0
 40
1.503329993986666
 50
179.99999900000509
 51
266.18592400000409
  0
LINE
  5
119
  8
DETAIL
  6
CONTINUOUS
 62
     5
 10
19.99999992000005
 20
-39.59999984159959
 30
0.0
 11
-18.933333257600111
 21
-39.59999984159959
 31
0.0
  0
ARC
  5
11A
  8
DETAIL
  6
CONTINUOUS
 62
     5
 10
19.99999992000005
 20
-38.099999847599527
 30
0.0
 40
1.4999999939999971
 50
270.0
 51
0.0000009999948896
  0
ARC
  5
11B
  8
DETAIL
  6
CONTINUOUS
 62
     5
 10
3.499999986000033
 20
20.449999918199861
 30
0.0
 40
0.99999999599999
 50
0.0
 51
90.0
  0
ARC
  5
11C
  8
DETAIL
  6
CONTINUOUS
 62
     5
 10
3.499999986000033
 20
20.449999918199861
 30
0.0
 40
0.99999999599999
 50
270.0
 51
0.0
  0
LINE
  5
11D
  8
DETAIL
  6
CONTINUOUS
 62
     5
 10
0.0000000000001137
 20
19.449999922200281
 30
0.0
 11
3.499999986000033
 21
19.449999922200281
 31
0.0
  0
LINE
  5
11E
  8
DETAIL
  6
CONTINUOUS
 62
     5
 10
0.0000000000001137
 20
21.449999914200362
 30
0.0
 11
3.499999986000033
 21
21.449999914200362
 31
0.0
  0
LINE
  5
11F
  8
DETAIL
  6
CONTINUOUS
 62
     5
 10
0.0000000000001137
 20
21.449999914200362
 30
0.0
 11
-3.499999986000033
 21
21.449999914200362
 31
0.0
  0
LINE
  5
120
  8
DETAIL
  6
CONTINUOUS
 62
     5
 10
0.0000000000001137
 20
19.449999922200281
 30
0.0
 11
-3.499999986000033
 21
19.449999922200281
 31
0.0
  0
ARC
  5
121
  8
DETAIL
  6
CONTINUOUS
 62
     5
 10
-3.499999986000033
 20
20.449999918199861
 30
0.0
 40
0.9999999960000016
 50
90.0
 51
180.0
  0
ARC
  5
122
  8
DETAIL
  6
CONTINUOUS
 62
     5
 10
-3.499999986000033
 20
20.449999918199861
 30
0.0
 40
0.99999999599999
 50
180.0
 51
270.0
  0
LINE
  5
123
  8
DETAIL
  6
CONTINUOUS
 62
     5
 10
-4.4618638131955768
 20
20.258276450712341
 30
0.0
 11
4.4618638132050128
 21
20.258276450712341
 31
0.0
  0
LINE
  5
124
  8
DETAIL
  6
CONTINUOUS
 62
     5
 10
-4.4287117520982511
 20
20.091609784712318
 30
0.0
 11
4.4287117521076871
 21
20.091609784712318
 31
0.0
  0
LINE
  5
125
  8
DETAIL
  6
CONTINUOUS
 62
     5
 10
-4.328748671270545
 20
19.924943118712338
 30
0.0
 11
4.3287486712800387
 21
19.924943118712338
 31
0.0
  0
LINE
  5
126
  8
DETAIL
  6
CONTINUOUS
 62
     5
 10
-4.21738556539617
 20
19.75827645271238
 30
0.0
 11
4.2173855654056061
 21
19.75827645271232
 31
0.0
  0
LINE
  5
127
  8
DETAIL
  6
CONTINUOUS
 62
     5
 10
-3.980695226269745
 20
19.59160978671235
 30
0.0
 11
3.980695226279237
 21
19.59160978671235
 31
0.0
  0
LINE
  5
128
  8
DETAIL
  6
CONTINUOUS
 62
     5
 10
-4.4950158742929043
 20
20.42494311671231
 30
0.0
 11
4.4950158743023394
 21
20.42494311671231
 31
0.0
  0
LINE
  5
129
  8
DETAIL
  6
CONTINUOUS
 62
     5
 10
-4.4718320285998621
 20
20.591609782712279
 30
0.0
 11
4.4718320286092981
 21
20.591609782712279
 31
0.0
  0
LINE
  5
12A
  8
DETAIL
  6
CONTINUOUS
 62
     5
 10
-4.4386799675025372
 20
20.758276448712341
 30
0.0
 11
4.4386799675119724
 21
20.758276448712309
 31
0.0
  0
LINE
  5
12B
  8
DETAIL
  6
CONTINUOUS
 62
     5
 10
-4.3622335102428451
 20
20.924943114712281
 30
0.0
 11
4.3622335102523371
 21
20.924943114712281
 31
0.0
  0
LINE
  5
12C
  8
DETAIL
  6
CONTINUOUS
 62
     5
 10
-4.2508704043684116
 20
21.09160978071225
 30
0.0
 11
4.2508704043779053
 21
21.0916097807123
 31
0.0
  0
LINE
  5
12D
  8
DETAIL
  6
CONTINUOUS
 62
     5
 10
-4.0556955332593807
 20
21.258276446712269
 30
0.0
 11
4.0556955332688167
 21
21.258276446712269
 31
0.0
  0
LINE
  5
12E
  8
DETAIL
  6
CONTINUOUS
 62
     5
 10
-3.6259690336415238
 20
21.424943112712239
 30
0.0
 11
3.6259690336510171
 21
21.424943112712239
 31
0.0
  0
TEXT
  5
136
  8
ETC
  6
CONTINUOUS
 62
    61
 10
260.00135663417541
 20
54.590767244267752
 30
0.0
 40
40.0
  1
PX-02KUS
 41
0.9
  0
ENDSEC
  0
EOF
