  0
SECTION
  2
HEADER
  9
$ACADVER
  1
AC1009
  9
$INSBASE
 10
0.0
 20
0.0
 30
0.0
  9
$EXTMIN
 10
-423.61447799906091
 20
-573.73350388805193
 30
-0.0000000349181948
  9
$EXTMAX
 10
1127.2888343400409
 20
648.96241347184514
 30
0.0000000814935747
  9
$LIMMIN
 10
-4200.0
 20
-2970.0
  9
$LIMMAX
 10
4200.0
 20
2970.0
  9
$ORTHOMODE
 70
     1
  9
$REGENMODE
 70
     1
  9
$FILLMODE
 70
     1
  9
$QTEXTMODE
 70
     0
  9
$MIRRTEXT
 70
     0
  9
$DRAGMODE
 70
     2
  9
$LTSCALE
 40
20.0
  9
$OSMODE
 70
    47
  9
$ATTMODE
 70
     1
  9
$TEXTSIZE
 40
64.0
  9
$TRACEWID
 40
0.05
  9
$TEXTSTYLE
  7
STANDARD
  9
$CLAYER
  8
SIZE
  9
$CELTYPE
  6
CONTINUOUS
  9
$CECOLOR
 62
    30
  9
$DIMSCALE
 40
1.0
  9
$DIMASZ
 40
2.0
  9
$DIMEXO
 40
20.0
  9
$DIMDLI
 40
200.0
  9
$DIMRND
 40
0.0
  9
$DIMDLE
 40
0.0
  9
$DIMEXE
 40
30.0
  9
$DIMTP
 40
0.0
  9
$DIMTM
 40
0.0
  9
$DIMTXT
 40
64.0
  9
$DIMCEN
 40
0.09
  9
$DIMTSZ
 40
0.0
  9
$DIMTOL
 70
     0
  9
$DIMLIM
 70
     0
  9
$DIMTIH
 70
     0
  9
$DIMTOH
 70
     0
  9
$DIMSE1
 70
     0
  9
$DIMSE2
 70
     0
  9
$DIMTAD
 70
     1
  9
$DIMZIN
 70
     8
  9
$DIMBLK
  1
DOT1
  9
$DIMASO
 70
     1
  9
$DIMSHO
 70
     0
  9
$DIMPOST
  1

  9
$DIMAPOST
  1

  9
$DIMALT
 70
     0
  9
$DIMALTD
 70
     2
  9
$DIMALTF
 40
25.399999999999999
  9
$DIMLFAC
 40
1.0
  9
$DIMTOFL
 70
     1
  9
$DIMTVP
 40
0.0
  9
$DIMTIX
 70
     1
  9
$DIMSOXD
 70
     0
  9
$DIMSAH
 70
     0
  9
$DIMBLK1
  1

  9
$DIMBLK2
  1

  9
$DIMSTYLE
  2
STANDARD
  9
$DIMCLRD
 70
     7
  9
$DIMCLRE
 70
     7
  9
$DIMCLRT
 70
     7
  9
$DIMTFAC
 40
1.0
  9
$DIMGAP
 40
0.09
  9
$LUNITS
 70
     2
  9
$LUPREC
 70
     4
  9
$SKETCHINC
 40
0.1
  9
$FILLETRAD
 40
10.0
  9
$AUNITS
 70
     1
  9
$AUPREC
 70
     3
  9
$MENU
  1
ACAD
  9
$ELEVATION
 40
0.0
  9
$PELEVATION
 40
0.0
  9
$THICKNESS
 40
0.0
  9
$LIMCHECK
 70
     1
  9
$BLIPMODE
 70
     0
  9
$CHAMFERA
 40
0.0
  9
$CHAMFERB
 40
0.0
  9
$SKPOLY
 70
     0
  9
$TDCREATE
 40
2451605.4120833329
  9
$TDUPDATE
 40
2455075.582077893
  9
$TDINDWG
 40
0.2757230787
  9
$TDUSRTIMER
 40
0.2757229051
  9
$USRTIMER
 70
     1
  9
$ANGBASE
 50
0.0
  9
$ANGDIR
 70
     0
  9
$PDMODE
 70
     3
  9
$PDSIZE
 40
-2.0
  9
$PLINEWID
 40
0.0
  9
$COORDS
 70
     0
  9
$SPLFRAME
 70
     0
  9
$SPLINETYPE
 70
     6
  9
$SPLINESEGS
 70
     8
  9
$ATTDIA
 70
     0
  9
$ATTREQ
 70
     1
  9
$HANDLING
 70
     1
  9
$HANDSEED
  5
2B2
  9
$SURFTAB1
 70
     6
  9
$SURFTAB2
 70
     6
  9
$SURFTYPE
 70
     6
  9
$SURFU
 70
     6
  9
$SURFV
 70
     6
  9
$UCSNAME
  2

  9
$UCSORG
 10
0.0
 20
0.0
 30
0.0
  9
$UCSXDIR
 10
1.0
 20
0.0
 30
0.0
  9
$UCSYDIR
 10
0.0
 20
1.0
 30
0.0
  9
$PUCSNAME
  2

  9
$PUCSORG
 10
0.0
 20
0.0
 30
0.0
  9
$PUCSXDIR
 10
1.0
 20
0.0
 30
0.0
  9
$PUCSYDIR
 10
0.0
 20
1.0
 30
0.0
  9
$USERI1
 70
     0
  9
$USERI2
 70
     0
  9
$USERI3
 70
     0
  9
$USERI4
 70
     0
  9
$USERI5
 70
     0
  9
$USERR1
 40
20.0
  9
$USERR2
 40
0.0
  9
$USERR3
 40
0.0
  9
$USERR4
 40
0.0
  9
$USERR5
 40
0.0
  9
$WORLDVIEW
 70
     1
  9
$SHADEDGE
 70
     3
  9
$SHADEDIF
 70
    70
  9
$TILEMODE
 70
     1
  9
$MAXACTVP
 70
    48
  9
$PLIMCHECK
 70
     0
  9
$PEXTMIN
 10
-1.0000000000000000E+020
 20
-1.0000000000000000E+020
 30
-1.0000000000000000E+020
  9
$PEXTMAX
 10
1.0000000000000000E+020
 20
1.0000000000000000E+020
 30
1.0000000000000000E+020
  9
$PLIMMIN
 10
0.0
 20
0.0
  9
$PLIMMAX
 10
12.0
 20
9.0
  9
$UNITMODE
 70
     0
  9
$VISRETAIN
 70
     0
  9
$PLINEGEN
 70
     0
  9
$PSLTSCALE
 70
     0
  0
ENDSEC
  0
SECTION
  2
TABLES
  0
TABLE
  2
VPORT
 70
     1
  0
VPORT
  2
*ACTIVE
 70
     0
 10
0.0
 20
0.0
 11
1.0
 21
1.0
 12
384.24130074416922
 22
24.91424875277778
 13
0.0
 23
0.0
 14
400.0
 24
400.0
 15
400.0
 25
400.0
 16
0.0
 26
0.0
 36
1.0
 17
0.0
 27
0.0
 37
0.0
 40
1384.161062917145
 41
1.7812499999999989
 42
50.0
 43
0.0
 44
0.0
 50
0.0
 51
0.0
 71
     0
 72
   500
 73
     1
 74
     0
 75
     0
 76
     0
 77
     0
 78
     0
  0
ENDTAB
  0
TABLE
  2
LTYPE
 70
     3
  0
LTYPE
  2
CONTINUOUS
 70
     0
  3
実線
 72
    65
 73
     0
 40
0.0
  0
LTYPE
  2
DASHDOT
 70
     0
  3
____ _ ____ _ ____ _ ____ _ ____ _ ____ _ ____
 72
    65
 73
     4
 40
5.5
 49
4.0
 49
-0.6
 49
0.3
 49
-0.6
  0
ENDTAB
  0
TABLE
  2
LAYER
 70
    12
  0
LAYER
  2
0
 70
     0
 62
     7
  6
CONTINUOUS
  0
LAYER
  2
SIZE
 70
     0
 62
    30
  6
CONTINUOUS
  0
LAYER
  2
OUTLINE
 70
     0
 62
     3
  6
CONTINUOUS
  0
LAYER
  2
DETAIL
 70
     0
 62
     5
  6
CONTINUOUS
  0
LAYER
  2
BASIS
 70
     0
 62
     6
  6
DASHDOT
  0
LAYER
  2
NOTE
 70
     0
 62
     4
  6
CONTINUOUS
  0
LAYER
  2
ARRANGE
 70
     0
 62
     1
  6
CONTINUOUS
  0
LAYER
  2
FIX
 70
     0
 62
    11
  6
CONTINUOUS
  0
LAYER
  2
ETC
 70
     0
 62
    61
  6
CONTINUOUS
  0
LAYER
  2
DEFPOINTS
 70
     0
 62
     7
  6
CONTINUOUS
  0
LAYER
  2
SERVICESPACE
 70
     0
 62
     2
  6
DASHDOT
  0
LAYER
  2
SYMBOLLINE
 70
     0
 62
    15
  6
CONTINUOUS
  0
ENDTAB
  0
TABLE
  2
STYLE
 70
     2
  0
STYLE
  2
STANDARD
 70
     0
 40
0.0
 41
0.9
 50
0.0
 71
     0
 42
64.0
  3
SIMPLEX
  4
BIGFONT
  0
STYLE
  2
ANNOTATIVE
 70
     0
 40
0.0
 41
1.0
 50
0.0
 71
     0
 42
0.2
  3
txt
  4

  0
ENDTAB
  0
TABLE
  2
VIEW
 70
     1
  0
VIEW
  2
ALL
 70
     0
 40
6374.9789810000002
 10
0.0
 20
58.11501599999999
 41
8842.1052629999976
 11
0.0
 21
0.0
 31
1.0
 12
0.0
 22
0.0
 32
0.0
 42
50.0
 43
0.0
 44
0.0
 50
0.0
 71
     0
  0
ENDTAB
  0
TABLE
  2
UCS
 70
     0
  0
ENDTAB
  0
TABLE
  2
APPID
 70
     4
  0
APPID
  2
ACAD
 70
     0
  0
APPID
  2
ACADANNOTATIVE
 70
     0
  0
APPID
  2
ACAD_MLEADERVER
 70
     0
  0
APPID
  2
ACAD_EXEMPT_FROM_CAD_STANDARDS
 70
     0
  0
ENDTAB
  0
TABLE
  2
DIMSTYLE
 70
     2
  0
DIMSTYLE
  2
STANDARD
 70
     0
  3

  4

  5

  6

  7

 40
1.0
 41
0.18
 42
0.0625
 43
0.38
 44
0.18
 45
0.0
 46
0.0
 47
0.0
 48
0.0
140
0.18
141
0.09
142
0.0
143
25.399999999999999
144
1.0
145
0.0
146
1.0
147
0.09
 71
     0
 72
     0
 73
     1
 74
     1
 75
     0
 76
     0
 77
     0
 78
     0
170
     0
171
     2
172
     0
173
     0
174
     0
175
     0
176
     7
177
     7
178
     7
  0
DIMSTYLE
  2
ANNOTATIVE
 70
     0
  3

  4

  5

  6

  7

 40
1.0
 41
0.18
 42
0.0625
 43
0.38
 44
0.18
 45
0.0
 46
0.0
 47
0.0
 48
0.0
140
0.18
141
0.09
142
0.0
143
25.399999999999999
144
1.0
145
0.0
146
1.0
147
0.09
 71
     0
 72
     0
 73
     1
 74
     1
 75
     0
 76
     0
 77
     0
 78
     0
170
     0
171
     2
172
     0
173
     0
174
     0
175
     0
176
     0
177
     0
178
     0
  0
ENDTAB
  0
ENDSEC
  0
SECTION
  2
BLOCKS
  0
BLOCK
  8
0
  2
$MODEL_SPACE
 70
     0
 10
0.0
 20
0.0
 30
0.0
  3
$MODEL_SPACE
  1

  0
ENDBLK
  5
255
  8
0
  0
BLOCK
 67
     1
  8
0
  2
$PAPER_SPACE
 70
     0
 10
0.0
 20
0.0
 30
0.0
  3
$PAPER_SPACE
  1

  0
ENDBLK
  5
251
 67
     1
  8
0
  0
BLOCK
  8
SIZE
  2
DOT1
 70
     0
 10
0.0
 20
0.0
 30
0.0
  3
DOT1
  1

  0
CIRCLE
  5
35
  8
SIZE
  6
CONTINUOUS
 62
     8
 10
0.0
 20
0.0
 30
0.0
 40
3.0
  0
ENDBLK
  5
36
  8
SIZE
  0
ENDSEC
  0
SECTION
  2
ENTITIES
  0
ARC
  5
39
  8
DETAIL
  6
CONTINUOUS
 62
     5
 10
-111.99078399999991
 20
-149.30816299999981
 30
0.0
 40
41.919732000000003
 50
217.06169799999989
 51
247.3684089999999
  0
LINE
  5
3A
  8
DETAIL
  6
CONTINUOUS
 62
     5
 10
0.0
 20
-188.0
 30
0.0
 11
-128.12167700000001
 21
-188.0
 31
0.0
  0
ARC
  5
3B
  8
DETAIL
  6
CONTINUOUS
 62
     5
 10
111.990548
 20
-149.30803199999991
 30
0.0
 40
41.919944000000001
 50
292.63182
 51
322.93845399999998
  0
LINE
  5
3C
  8
DETAIL
  6
CONTINUOUS
 62
     5
 10
0.0
 20
-188.0
 30
0.0
 11
128.12167700000001
 21
-188.0
 31
0.0
  0
LINE
  5
3D
  8
DETAIL
  6
CONTINUOUS
 62
     5
 10
-155.0
 20
-154.4717879999998
 30
0.0
 11
-145.44218499999999
 21
-174.57212399999989
 31
0.0
  0
LINE
  5
3E
  8
DETAIL
  6
CONTINUOUS
 62
     5
 10
155.0
 20
-154.47169600000001
 30
0.0
 11
145.44218499999999
 21
-174.57203200000001
 31
0.0
  0
LINE
  5
3F
  8
DETAIL
  6
CONTINUOUS
 62
     5
 10
-155.0
 20
-154.4717879999998
 30
0.0
 11
-155.0
 21
-150.0
 31
0.0
  0
LINE
  5
40
  8
DETAIL
  6
CONTINUOUS
 62
     5
 10
155.0
 20
-154.47169600000001
 30
0.0
 11
155.0
 21
-150.0
 31
0.0
  0
ARC
  5
41
  8
DETAIL
  6
CONTINUOUS
 62
     5
 10
-27.097950000000001
 20
-326.312702
 30
0.0
 40
453.31271299999992
 50
89.987619999999964
 51
101.123942
  0
ARC
  5
42
  8
DETAIL
  6
CONTINUOUS
 62
     5
 10
1633.0817649999999
 20
-66.766005000000007
 30
0.0
 40
1783.081766
 50
175.10881699999999
 51
180.00161399999999
  0
ARC
  5
43
  8
DETAIL
  6
CONTINUOUS
 62
     5
 10
-103.8630629999999
 20
79.939087999999984
 30
0.0
 40
40.0
 50
105.5057679999999
 51
172.3470879999999
  0
LINE
  5
44
  8
DETAIL
  6
CONTINUOUS
 62
     5
 10
-150.0
 20
-66.816222999999994
 30
0.0
 11
-150.0
 21
-150.0
 31
0.0
  0
CIRCLE
  5
45
  8
DETAIL
  6
CONTINUOUS
 62
     5
 10
-145.0
 20
-84.0
 30
0.0
 40
2.25
  0
CIRCLE
  5
46
  8
DETAIL
  6
CONTINUOUS
 62
     5
 10
-102.0
 20
102.0
 30
0.0
 40
2.25
  0
CIRCLE
  5
47
  8
DETAIL
  6
CONTINUOUS
 62
     5
 10
102.0
 20
102.0
 30
0.0
 40
2.25
  0
CIRCLE
  5
48
  8
DETAIL
  6
CONTINUOUS
 62
     5
 10
145.0
 20
-84.0
 30
0.0
 40
2.25
  0
LINE
  5
49
  8
DETAIL
  6
CONTINUOUS
 62
     5
 10
150.0
 20
-66.816222999999994
 30
0.0
 11
150.0
 21
-150.0
 31
0.0
  0
ARC
  5
4A
  8
DETAIL
  6
CONTINUOUS
 62
     5
 10
103.8630629999999
 20
79.939087999999984
 30
0.0
 40
40.0
 50
7.6529119999999988
 51
74.494231999999982
  0
ARC
  5
4B
  8
DETAIL
  6
CONTINUOUS
 62
     5
 10
-1633.0817649999999
 20
-66.766005000000007
 30
0.0
 40
1783.081766
 50
359.99838599999998
 51
4.8911829999999981
  0
ARC
  5
4C
  8
DETAIL
  6
CONTINUOUS
 62
     5
 10
27.097950000000001
 20
-326.312702
 30
0.0
 40
453.31271299999992
 50
78.876058
 51
90.012379999999979
  0
LINE
  5
4D
  8
DETAIL
  6
CONTINUOUS
 62
     5
 10
-27.0
 20
127.0
 30
0.0
 11
27.0
 21
127.0
 31
0.0
  0
LINE
  5
4E
  8
BASIS
  6
DASHDOT
 62
     6
 10
-201.74396399999989
 20
0.0
 30
0.0
 11
199.48890599999999
 21
0.0
 31
0.0
  0
LINE
  5
4F
  8
BASIS
  6
DASHDOT
 62
     6
 10
0.0
 20
-275.94531099999989
 30
0.0
 11
0.0
 21
220.63346299999989
 31
0.0
  0
LINE
  5
50
  8
NOTE
  6
CONTINUOUS
 62
     4
 10
-102.0
 20
82.0
 30
0.0
 11
-102.0
 21
122.0
 31
0.0
  0
LINE
  5
51
  8
NOTE
  6
CONTINUOUS
 62
     4
 10
-122.0
 20
102.0
 30
0.0
 11
-82.0
 21
102.0
 31
0.0
  0
LINE
  5
52
  8
NOTE
  6
CONTINUOUS
 62
     4
 10
102.0
 20
82.0
 30
0.0
 11
102.0
 21
122.0
 31
0.0
  0
LINE
  5
53
  8
NOTE
  6
CONTINUOUS
 62
     4
 10
122.0
 20
102.0
 30
0.0
 11
82.0
 21
102.0
 31
0.0
  0
LINE
  5
54
  8
NOTE
  6
CONTINUOUS
 62
     4
 10
-145.0
 20
-104.0
 30
0.0
 11
-145.0
 21
-64.0
 31
0.0
  0
LINE
  5
55
  8
NOTE
  6
CONTINUOUS
 62
     4
 10
-165.0
 20
-84.0
 30
0.0
 11
-125.0
 21
-84.0
 31
0.0
  0
LINE
  5
56
  8
NOTE
  6
CONTINUOUS
 62
     4
 10
145.0
 20
-104.0
 30
0.0
 11
145.0
 21
-64.0
 31
0.0
  0
LINE
  5
57
  8
NOTE
  6
CONTINUOUS
 62
     4
 10
165.0
 20
-84.0
 30
0.0
 11
125.0
 21
-84.0
 31
0.0
  0
LINE
  5
58
  8
SIZE
  6
CONTINUOUS
 62
    30
 10
-20.0
 20
127.0
 30
0.0
 11
-357.78227999999979
 21
127.0
 31
0.0
  0
LINE
  5
59
  8
SIZE
  6
CONTINUOUS
 62
    30
 10
-148.12167700000001
 20
-188.0
 30
0.0
 11
-357.78227999999979
 21
-188.0
 31
0.0
  0
LINE
  5
5A
  8
SIZE
  6
CONTINUOUS
 62
    30
 10
-327.7822799999999
 20
127.0
 30
0.0
 11
-327.7822799999999
 21
-188.0
 31
0.0
  0
TEXT
  5
5B
  8
SIZE
  6
CONTINUOUS
 62
    30
 10
-359.37424099999998
 20
-98.193989571428574
 30
0.0
 40
64.0
  1
315
 50
90.0
 41
0.9
 72
     1
 11
-359.37424099999998
 21
-29.62256099999999
 31
0.0
  0
CIRCLE
  5
5C
  8
SIZE
  6
CONTINUOUS
 62
    30
 10
-327.7822799999999
 20
127.0
 30
0.0
 40
6.0
  0
CIRCLE
  5
5D
  8
SIZE
  6
CONTINUOUS
 62
    30
 10
-327.7822799999999
 20
-188.0
 30
0.0
 40
6.0
  0
LINE
  5
61
  8
SIZE
  6
CONTINUOUS
 62
    30
 10
-150.0
 20
-170.287372
 30
0.0
 11
-150.0
 21
-440.62162699999988
 31
0.0
  0
LINE
  5
62
  8
SIZE
  6
CONTINUOUS
 62
    30
 10
150.0
 20
-170.287464
 30
0.0
 11
150.0
 21
-440.62162699999988
 31
0.0
  0
LINE
  5
63
  8
SIZE
  6
CONTINUOUS
 62
    30
 10
-150.0
 20
-410.62162699999999
 30
0.0
 11
150.0
 21
-410.62162699999999
 31
0.0
  0
TEXT
  5
64
  8
SIZE
  6
CONTINUOUS
 62
    30
 10
-74.05714285714285
 20
-392.53863799999988
 30
0.0
 40
64.0
  1
300
 41
0.9
 72
     1
 11
0.0
 21
-392.53863799999988
 31
0.0
  0
CIRCLE
  5
65
  8
SIZE
  6
CONTINUOUS
 62
    30
 10
-150.0
 20
-410.62162699999999
 30
0.0
 40
6.0
  0
CIRCLE
  5
66
  8
SIZE
  6
CONTINUOUS
 62
    30
 10
150.0
 20
-410.62162699999999
 30
0.0
 40
6.0
  0
LINE
  5
6A
  8
SIZE
  6
CONTINUOUS
 62
    30
 10
-155.0
 20
-170.287372
 30
0.0
 11
-155.0
 21
-573.49354699999981
 31
0.0
  0
LINE
  5
6B
  8
SIZE
  6
CONTINUOUS
 62
    30
 10
155.0
 20
-170.287464
 30
0.0
 11
155.0
 21
-573.49354699999981
 31
0.0
  0
LINE
  5
6C
  8
SIZE
  6
CONTINUOUS
 62
    30
 10
-155.0
 20
-543.49354699999992
 30
0.0
 11
155.0
 21
-543.49354699999992
 31
0.0
  0
TEXT
  5
6D
  8
SIZE
  6
CONTINUOUS
 62
    30
 10
-68.571428571428555
 20
-526.04392300000006
 30
0.0
 40
64.0
  1
310
 41
0.9
 72
     1
 11
0.0
 21
-526.04392300000006
 31
0.0
  0
CIRCLE
  5
6E
  8
SIZE
  6
CONTINUOUS
 62
    30
 10
-155.0
 20
-543.49354699999992
 30
0.0
 40
6.0
  0
CIRCLE
  5
6F
  8
SIZE
  6
CONTINUOUS
 62
    30
 10
155.0
 20
-543.49354699999992
 30
0.0
 40
6.0
  0
TEXT
  5
73
  8
NOTE
  6
CONTINUOUS
 62
     4
 10
177.86864299999999
 20
250.810743
 30
0.0
 40
64.0
  1
4×φ4.5ノックアウト取付穴
 41
0.9
  0
LINE
  5
74
  8
NOTE
  6
CONTINUOUS
 62
     4
 10
161.552932
 20
226.54129800000001
 30
0.0
 11
1126.7057130000001
 21
226.54129800000001
 31
0.0
  0
LINE
  5
75
  8
NOTE
  6
CONTINUOUS
 62
     4
 10
102.0
 20
102.0
 30
0.0
 11
161.552932
 21
226.54129800000001
 31
0.0
  0
LINE
  5
76
  8
NOTE
  6
CONTINUOUS
 62
     4
 10
109.9646059999999
 20
141.1990439999999
 30
0.0
 11
102.0
 21
102.0
 31
0.0
  0
LINE
  5
77
  8
NOTE
  6
CONTINUOUS
 62
     4
 10
102.0
 20
102.0
 30
0.0
 11
128.4970729999998
 21
131.9650649999999
 31
0.0
  0
CIRCLE
  5
78
  8
FIX
  6
CONTINUOUS
 62
    11
 10
-102.0
 20
102.0
 30
0.0
 40
2.25
  0
CIRCLE
  5
79
  8
FIX
  6
CONTINUOUS
 62
    11
 10
102.0
 20
102.0
 30
0.0
 40
2.25
  0
CIRCLE
  5
7A
  8
FIX
  6
CONTINUOUS
 62
    11
 10
-145.0
 20
-84.0
 30
0.0
 40
2.25
  0
CIRCLE
  5
7B
  8
FIX
  6
CONTINUOUS
 62
    11
 10
145.0
 20
-84.0
 30
0.0
 40
2.25
  0
LINE
  5
7C
  8
DETAIL
  6
CONTINUOUS
 62
     5
 10
155.0
 20
-150.0
 30
0.0
 11
-155.0
 21
-150.0
 31
0.0
  0
LINE
  5
7D
  8
DETAIL
  6
CONTINUOUS
 62
     5
 10
148.09171499999991
 20
-169.0
 30
0.0
 11
-148.09175899999991
 21
-169.0
 31
0.0
  0
CIRCLE
  5
7E
  8
DETAIL
  6
CONTINUOUS
 62
     5
 10
0.0
 20
0.0
 30
0.0
 40
98.500000000000014
  0
LINE
  5
7F
  8
SIZE
  6
CONTINUOUS
 62
    30
 10
98.500000000000014
 20
20.0
 30
0.0
 11
98.500000000000014
 21
298.60154399999999
 31
0.0
  0
LINE
  5
80
  8
SIZE
  6
CONTINUOUS
 62
    30
 10
-98.500000000000014
 20
20.0
 30
0.0
 11
-98.500000000000014
 21
298.60154399999999
 31
0.0
  0
LINE
  5
81
  8
SIZE
  6
CONTINUOUS
 62
    30
 10
98.500000000000014
 20
268.60154399999988
 30
0.0
 11
-96.5
 21
268.60154399999988
 31
0.0
  0
TEXT
  5
82
  8
SIZE
  6
CONTINUOUS
 62
    30
 10
-383.37000957142862
 20
300.60154399999999
 30
0.0
 40
64.0
  1
φ197
 41
0.9
 72
     1
 11
-274.47858100000002
 21
300.60154399999999
 31
0.0
  0
CIRCLE
  5
83
  8
SIZE
  6
CONTINUOUS
 62
    30
 10
98.500000000000014
 20
268.60154399999988
 30
0.0
 40
6.0
  0
CIRCLE
  5
84
  8
SIZE
  6
CONTINUOUS
 62
    30
 10
-98.500000000000014
 20
268.60154399999988
 30
0.0
 40
6.0
  0
LINE
  5
88
  8
OUTLINE
  6
CONTINUOUS
 62
     3
 10
155.0
 20
-150.0
 30
0.0
 11
150.0
 21
-150.0
 31
0.0
  0
LINE
  5
89
  8
OUTLINE
  6
CONTINUOUS
 62
     3
 10
-27.0
 20
127.0
 30
0.0
 11
27.0
 21
127.0
 31
0.0
  0
ARC
  5
8A
  8
OUTLINE
  6
CONTINUOUS
 62
     3
 10
27.097950000000001
 20
-326.312702
 30
0.0
 40
453.31271299999992
 50
78.876058
 51
90.012379999999979
  0
ARC
  5
8B
  8
OUTLINE
  6
CONTINUOUS
 62
     3
 10
-1633.0817649999999
 20
-66.766005000000007
 30
0.0
 40
1783.081766
 50
359.99838599999998
 51
4.8911829999999981
  0
ARC
  5
8C
  8
OUTLINE
  6
CONTINUOUS
 62
     3
 10
103.8630629999999
 20
79.939087999999984
 30
0.0
 40
40.0
 50
7.6529119999999988
 51
74.494231999999982
  0
LINE
  5
8D
  8
OUTLINE
  6
CONTINUOUS
 62
     3
 10
150.0
 20
-66.816222999999994
 30
0.0
 11
150.0
 21
-150.0
 31
0.0
  0
LINE
  5
8E
  8
OUTLINE
  6
CONTINUOUS
 62
     3
 10
-150.0
 20
-66.816222999999994
 30
0.0
 11
-150.0
 21
-150.0
 31
0.0
  0
ARC
  5
8F
  8
OUTLINE
  6
CONTINUOUS
 62
     3
 10
-103.8630629999999
 20
79.939087999999984
 30
0.0
 40
40.0
 50
105.5057679999999
 51
172.3470879999999
  0
ARC
  5
90
  8
OUTLINE
  6
CONTINUOUS
 62
     3
 10
1633.0817649999999
 20
-66.766005000000007
 30
0.0
 40
1783.081766
 50
175.10881699999999
 51
180.00161399999999
  0
ARC
  5
91
  8
OUTLINE
  6
CONTINUOUS
 62
     3
 10
-27.097950000000001
 20
-326.312702
 30
0.0
 40
453.31271299999992
 50
89.987619999999964
 51
101.123942
  0
LINE
  5
92
  8
OUTLINE
  6
CONTINUOUS
 62
     3
 10
155.0
 20
-154.47169600000001
 30
0.0
 11
155.0
 21
-150.0
 31
0.0
  0
LINE
  5
93
  8
OUTLINE
  6
CONTINUOUS
 62
     3
 10
-155.0
 20
-154.4717879999998
 30
0.0
 11
-155.0
 21
-150.0
 31
0.0
  0
LINE
  5
94
  8
OUTLINE
  6
CONTINUOUS
 62
     3
 10
155.0
 20
-154.47169600000001
 30
0.0
 11
145.44218499999999
 21
-174.57203200000001
 31
0.0
  0
LINE
  5
95
  8
OUTLINE
  6
CONTINUOUS
 62
     3
 10
-155.0
 20
-154.4717879999998
 30
0.0
 11
-145.44218499999999
 21
-174.57212399999989
 31
0.0
  0
LINE
  5
96
  8
OUTLINE
  6
CONTINUOUS
 62
     3
 10
0.0
 20
-188.0
 30
0.0
 11
128.12167700000001
 21
-188.0
 31
0.0
  0
ARC
  5
97
  8
OUTLINE
  6
CONTINUOUS
 62
     3
 10
111.990548
 20
-149.30803199999991
 30
0.0
 40
41.919944000000001
 50
292.63182
 51
322.93845399999998
  0
LINE
  5
98
  8
OUTLINE
  6
CONTINUOUS
 62
     3
 10
0.0
 20
-188.0
 30
0.0
 11
-128.12167700000001
 21
-188.0
 31
0.0
  0
ARC
  5
99
  8
OUTLINE
  6
CONTINUOUS
 62
     3
 10
-111.99078399999991
 20
-149.30816299999981
 30
0.0
 40
41.919732000000003
 50
217.06169799999989
 51
247.3684089999999
  0
LINE
  5
9A
  8
OUTLINE
  6
CONTINUOUS
 62
     3
 10
-150.0
 20
-150.0
 30
0.0
 11
-155.0
 21
-150.0
 31
0.0
  0
POINT
  5
9B
  8
ARRANGE
  6
CONTINUOUS
 62
     1
 10
0.0
 20
0.0
 30
0.0
  0
CIRCLE
  5
9C
  8
ARRANGE
  6
CONTINUOUS
 62
     1
 10
0.0
 20
0.0
 30
0.0
 40
40.0
  0
LINE
  5
9D
  8
SIZE
  6
CONTINUOUS
 62
    30
 10
-122.0
 20
102.0
 30
0.0
 11
-258.5973259999999
 21
102.0
 31
0.0
  0
LINE
  5
9E
  8
SIZE
  6
CONTINUOUS
 62
    30
 10
-165.0
 20
-84.0
 30
0.0
 11
-258.5973259999999
 21
-84.0
 31
0.0
  0
LINE
  5
9F
  8
SIZE
  6
CONTINUOUS
 62
    30
 10
-228.59732600000001
 20
102.0
 30
0.0
 11
-228.59732600000001
 21
-84.0
 31
0.0
  0
TEXT
  5
A0
  8
SIZE
  6
CONTINUOUS
 62
    30
 10
-239.8097149999999
 20
-58.200000000000003
 30
0.0
 40
64.0
  1
186
 50
90.0
 41
0.9
 72
     1
 11
-239.8097149999999
 21
9.0
 31
0.0
  0
CIRCLE
  5
A1
  8
SIZE
  6
CONTINUOUS
 62
    30
 10
-228.59732600000001
 20
102.0
 30
0.0
 40
6.0
  0
CIRCLE
  5
A2
  8
SIZE
  6
CONTINUOUS
 62
    30
 10
-228.59732600000001
 20
-84.0
 30
0.0
 40
6.0
  0
LINE
  5
A6
  8
SIZE
  6
CONTINUOUS
 62
    30
 10
102.0
 20
122.0
 30
0.0
 11
102.0
 21
418.08293900000001
 31
0.0
  0
LINE
  5
A7
  8
SIZE
  6
CONTINUOUS
 62
    30
 10
-102.0
 20
122.0
 30
0.0
 11
-102.0
 21
418.08293900000001
 31
0.0
  0
LINE
  5
A8
  8
SIZE
  6
CONTINUOUS
 62
    30
 10
102.0
 20
388.08293900000001
 30
0.0
 11
-102.0
 21
388.08293899999978
 31
0.0
  0
TEXT
  5
A9
  8
SIZE
  6
CONTINUOUS
 62
    30
 10
-76.789627428571421
 20
421.07860299999987
 30
0.0
 40
64.0
  1
204
 41
0.9
 72
     1
 11
-1.361056
 21
421.07860299999987
 31
0.0
  0
CIRCLE
  5
AA
  8
SIZE
  6
CONTINUOUS
 62
    30
 10
102.0
 20
388.08293900000001
 30
0.0
 40
6.0
  0
CIRCLE
  5
AB
  8
SIZE
  6
CONTINUOUS
 62
    30
 10
-102.0
 20
388.08293900000001
 30
0.0
 40
6.0
  0
LINE
  5
AF
  8
SIZE
  6
CONTINUOUS
 62
    30
 10
145.0
 20
-64.0
 30
0.0
 11
145.0
 21
568.88731100000018
 31
0.0
  0
LINE
  5
B0
  8
SIZE
  6
CONTINUOUS
 62
    30
 10
-145.0
 20
-64.0
 30
0.0
 11
-145.0
 21
568.88731100000018
 31
0.0
  0
LINE
  5
B1
  8
SIZE
  6
CONTINUOUS
 62
    30
 10
145.0
 20
538.88731099999995
 30
0.0
 11
-145.0
 21
538.88731099999995
 31
0.0
  0
TEXT
  5
B2
  8
SIZE
  6
CONTINUOUS
 62
    30
 10
-64.37292985714285
 20
563.08079800000007
 30
0.0
 40
64.0
  1
290
 41
0.9
 72
     1
 11
9.6842129999999997
 21
563.08079800000007
 31
0.0
  0
CIRCLE
  5
B3
  8
SIZE
  6
CONTINUOUS
 62
    30
 10
145.0
 20
538.88731099999995
 30
0.0
 40
6.0
  0
CIRCLE
  5
B4
  8
SIZE
  6
CONTINUOUS
 62
    30
 10
-145.0
 20
538.88731099999995
 30
0.0
 40
6.0
  0
LINE
  5
B8
  8
SIZE
  6
CONTINUOUS
 62
    30
 10
-92.5
 20
268.60154399999988
 30
0.0
 11
-371.40567900000002
 21
268.60154399999988
 31
0.0
  0
LINE
  5
B9
  8
SIZE
  6
CONTINUOUS
 62
    30
 10
122.0
 20
102.0
 30
0.0
 11
331.45217599999989
 21
102.0
 31
0.0
  0
LINE
  5
BA
  8
SIZE
  6
CONTINUOUS
 62
    30
 10
165.0
 20
0.0
 30
0.0
 11
331.45217599999989
 21
0.0
 31
0.0
  0
LINE
  5
BB
  8
SIZE
  6
CONTINUOUS
 62
    30
 10
301.45217599999989
 20
102.0
 30
0.0
 11
301.45217599999989
 21
2.0
 31
0.0
  0
TEXT
  5
BC
  8
SIZE
  6
CONTINUOUS
 62
    30
 10
285.039851
 20
-161.26271957142859
 30
0.0
 40
64.0
  1
102
 50
90.0
 41
0.9
 72
     1
 11
285.039851
 21
-92.691291000000007
 31
0.0
  0
CIRCLE
  5
BD
  8
SIZE
  6
CONTINUOUS
 62
    30
 10
301.45217599999989
 20
102.0
 30
0.0
 40
6.0
  0
CIRCLE
  5
BE
  8
SIZE
  6
CONTINUOUS
 62
    30
 10
301.45217599999989
 20
0.0
 30
0.0
 40
6.0
  0
LINE
  5
C2
  8
SIZE
  6
CONTINUOUS
 62
    30
 10
20.0
 20
127.0
 30
0.0
 11
467.18292999999989
 21
127.0
 31
0.0
  0
LINE
  5
C3
  8
SIZE
  6
CONTINUOUS
 62
    30
 10
151.4297879999998
 20
0.0
 30
0.0
 11
467.18292999999989
 21
0.0
 31
0.0
  0
LINE
  5
C4
  8
SIZE
  6
CONTINUOUS
 62
    30
 10
437.18292999999989
 20
127.0
 30
0.0
 11
437.18292999999989
 21
2.0
 31
0.0
  0
TEXT
  5
C5
  8
SIZE
  6
CONTINUOUS
 62
    30
 10
419.11637899999999
 20
-168.04847957142849
 30
0.0
 40
64.0
  1
127
 50
90.0
 41
0.9
 72
     1
 11
419.11637899999999
 21
-99.477051000000003
 31
0.0
  0
CIRCLE
  5
C6
  8
SIZE
  6
CONTINUOUS
 62
    30
 10
437.18292999999989
 20
127.0
 30
0.0
 40
6.0
  0
CIRCLE
  5
C7
  8
SIZE
  6
CONTINUOUS
 62
    30
 10
437.18292999999989
 20
0.0
 30
0.0
 40
6.0
  0
LINE
  5
CB
  8
SIZE
  6
CONTINUOUS
 62
    30
 10
301.45217599999989
 20
6.0
 30
0.0
 11
301.45217599999989
 21
-169.03108499999999
 31
0.0
  0
LINE
  5
CC
  8
SIZE
  6
CONTINUOUS
 62
    30
 10
437.18292999999989
 20
6.0
 30
0.0
 11
437.18292999999989
 21
-170.7275239999999
 31
0.0
  0
TEXT
  5
275
  8
ETC
  6
CONTINUOUS
 62
    61
 10
633.10359692505665
 20
598.57332643081872
 30
0.0
 40
50.0
  1
PZ-20VS3_3
 41
0.9
  0
TEXT
  5
276
  8
ETC
  6
CONTINUOUS
 62
    61
 10
741.72756887083585
 20
462.81825010614813
 30
0.0
 40
40.0
  1
PZ-20VS3
 41
0.9
  0
TEXT
  5
277
  8
ETC
  6
CONTINUOUS
 62
    61
 10
627.88953492505675
 20
523.50875364241642
 30
0.0
 40
50.0
  1
システム部材
 41
0.9
  0
ENDSEC
  0
EOF
