  0
SECTION
  2
HEADER
  9
$ACADVER
  1
AC1009
  9
$INSBASE
 10
0.0
 20
0.0
 30
0.0
  9
$EXTMIN
 10
-1226.6235121370121
 20
-498.50462196453731
 30
-0.0015258207003583
  9
$EXTMAX
 10
735.71778896231615
 20
591.86097297568256
 30
0.0000000349246037
  9
$LIMMIN
 10
-4200.0
 20
-2970.0
  9
$LIMMAX
 10
4200.0
 20
2970.0
  9
$ORTHOMODE
 70
     1
  9
$REGENMODE
 70
     1
  9
$FILLMODE
 70
     1
  9
$QTEXTMODE
 70
     0
  9
$MIRRTEXT
 70
     0
  9
$DRAGMODE
 70
     2
  9
$LTSCALE
 40
20.0
  9
$OSMODE
 70
    47
  9
$ATTMODE
 70
     1
  9
$TEXTSIZE
 40
64.0
  9
$TRACEWID
 40
0.05
  9
$TEXTSTYLE
  7
STANDARD
  9
$CLAYER
  8
OUTLINE
  9
$CELTYPE
  6
CONTINUOUS
  9
$CECOLOR
 62
     3
  9
$DIMSCALE
 40
1.0
  9
$DIMASZ
 40
2.0
  9
$DIMEXO
 40
20.0
  9
$DIMDLI
 40
200.0
  9
$DIMRND
 40
0.0
  9
$DIMDLE
 40
0.0
  9
$DIMEXE
 40
30.0
  9
$DIMTP
 40
0.0
  9
$DIMTM
 40
0.0
  9
$DIMTXT
 40
64.0
  9
$DIMCEN
 40
0.09
  9
$DIMTSZ
 40
0.0
  9
$DIMTOL
 70
     0
  9
$DIMLIM
 70
     0
  9
$DIMTIH
 70
     0
  9
$DIMTOH
 70
     0
  9
$DIMSE1
 70
     0
  9
$DIMSE2
 70
     0
  9
$DIMTAD
 70
     1
  9
$DIMZIN
 70
     8
  9
$DIMBLK
  1
DOT1
  9
$DIMASO
 70
     1
  9
$DIMSHO
 70
     0
  9
$DIMPOST
  1

  9
$DIMAPOST
  1

  9
$DIMALT
 70
     0
  9
$DIMALTD
 70
     2
  9
$DIMALTF
 40
25.399999999999999
  9
$DIMLFAC
 40
1.0
  9
$DIMTOFL
 70
     1
  9
$DIMTVP
 40
0.0
  9
$DIMTIX
 70
     1
  9
$DIMSOXD
 70
     0
  9
$DIMSAH
 70
     0
  9
$DIMBLK1
  1

  9
$DIMBLK2
  1

  9
$DIMSTYLE
  2
STANDARD
  9
$DIMCLRD
 70
     7
  9
$DIMCLRE
 70
     7
  9
$DIMCLRT
 70
     7
  9
$DIMTFAC
 40
1.0
  9
$DIMGAP
 40
0.09
  9
$LUNITS
 70
     2
  9
$LUPREC
 70
     4
  9
$SKETCHINC
 40
0.1
  9
$FILLETRAD
 40
10.0
  9
$AUNITS
 70
     1
  9
$AUPREC
 70
     3
  9
$MENU
  1
ACAD
  9
$ELEVATION
 40
0.0
  9
$PELEVATION
 40
0.0
  9
$THICKNESS
 40
0.0
  9
$LIMCHECK
 70
     1
  9
$BLIPMODE
 70
     0
  9
$CHAMFERA
 40
0.0
  9
$CHAMFERB
 40
0.0
  9
$SKPOLY
 70
     0
  9
$TDCREATE
 40
2451604.7728587971
  9
$TDUPDATE
 40
2455075.6717930562
  9
$TDINDWG
 40
0.0389693287
  9
$TDUSRTIMER
 40
0.0389691435
  9
$USRTIMER
 70
     1
  9
$ANGBASE
 50
0.0
  9
$ANGDIR
 70
     0
  9
$PDMODE
 70
     3
  9
$PDSIZE
 40
-2.0
  9
$PLINEWID
 40
0.0
  9
$COORDS
 70
     0
  9
$SPLFRAME
 70
     0
  9
$SPLINETYPE
 70
     6
  9
$SPLINESEGS
 70
     8
  9
$ATTDIA
 70
     0
  9
$ATTREQ
 70
     1
  9
$HANDLING
 70
     1
  9
$HANDSEED
  5
1E6
  9
$SURFTAB1
 70
     6
  9
$SURFTAB2
 70
     6
  9
$SURFTYPE
 70
     6
  9
$SURFU
 70
     6
  9
$SURFV
 70
     6
  9
$UCSNAME
  2

  9
$UCSORG
 10
0.0
 20
0.0
 30
0.0
  9
$UCSXDIR
 10
1.0
 20
0.0
 30
0.0
  9
$UCSYDIR
 10
0.0
 20
1.0
 30
0.0
  9
$PUCSNAME
  2

  9
$PUCSORG
 10
0.0
 20
0.0
 30
0.0
  9
$PUCSXDIR
 10
1.0
 20
0.0
 30
0.0
  9
$PUCSYDIR
 10
0.0
 20
1.0
 30
0.0
  9
$USERI1
 70
     0
  9
$USERI2
 70
     0
  9
$USERI3
 70
     0
  9
$USERI4
 70
     0
  9
$USERI5
 70
     0
  9
$USERR1
 40
20.0
  9
$USERR2
 40
0.0
  9
$USERR3
 40
0.0
  9
$USERR4
 40
0.0
  9
$USERR5
 40
0.0
  9
$WORLDVIEW
 70
     1
  9
$SHADEDGE
 70
     3
  9
$SHADEDIF
 70
    70
  9
$TILEMODE
 70
     1
  9
$MAXACTVP
 70
    48
  9
$PLIMCHECK
 70
     0
  9
$PEXTMIN
 10
-1.0000000000000000E+020
 20
-1.0000000000000000E+020
 30
-1.0000000000000000E+020
  9
$PEXTMAX
 10
1.0000000000000000E+020
 20
1.0000000000000000E+020
 30
1.0000000000000000E+020
  9
$PLIMMIN
 10
0.0
 20
0.0
  9
$PLIMMAX
 10
12.0
 20
9.0
  9
$UNITMODE
 70
     0
  9
$VISRETAIN
 70
     0
  9
$PLINEGEN
 70
     0
  9
$PSLTSCALE
 70
     0
  0
ENDSEC
  0
SECTION
  2
TABLES
  0
TABLE
  2
VPORT
 70
     1
  0
VPORT
  2
*ACTIVE
 70
     0
 10
0.0
 20
0.0
 11
1.0
 21
1.0
 12
-299.66567936717121
 22
11.883520012731189
 13
0.0
 23
0.0
 14
400.0
 24
400.0
 15
400.0
 25
400.0
 16
0.0
 26
0.0
 36
1.0
 17
0.0
 27
0.0
 37
0.0
 40
1242.5315424588509
 41
1.7812499999999989
 42
50.0
 43
0.0
 44
0.0
 50
0.0
 51
0.0
 71
     0
 72
   500
 73
     1
 74
     0
 75
     0
 76
     0
 77
     0
 78
     0
  0
ENDTAB
  0
TABLE
  2
LTYPE
 70
     3
  0
LTYPE
  2
CONTINUOUS
 70
     0
  3
実線
 72
    65
 73
     0
 40
0.0
  0
LTYPE
  2
DASHDOT
 70
     0
  3
____ _ ____ _ ____ _ ____ _ ____ _ ____ _ ____
 72
    65
 73
     4
 40
5.5
 49
4.0
 49
-0.6
 49
0.3
 49
-0.6
  0
ENDTAB
  0
TABLE
  2
LAYER
 70
    12
  0
LAYER
  2
0
 70
     0
 62
     7
  6
CONTINUOUS
  0
LAYER
  2
OUTLINE
 70
     0
 62
     3
  6
CONTINUOUS
  0
LAYER
  2
SIZE
 70
     0
 62
    30
  6
CONTINUOUS
  0
LAYER
  2
DETAIL
 70
     0
 62
     5
  6
CONTINUOUS
  0
LAYER
  2
BASIS
 70
     0
 62
     6
  6
DASHDOT
  0
LAYER
  2
NOTE
 70
     0
 62
     4
  6
CONTINUOUS
  0
LAYER
  2
ARRANGE
 70
     0
 62
     1
  6
CONTINUOUS
  0
LAYER
  2
FIX
 70
     0
 62
    11
  6
CONTINUOUS
  0
LAYER
  2
ETC
 70
     0
 62
    61
  6
CONTINUOUS
  0
LAYER
  2
DEFPOINTS
 70
     0
 62
     7
  6
CONTINUOUS
  0
LAYER
  2
SERVICESPACE
 70
     0
 62
     2
  6
DASHDOT
  0
LAYER
  2
SYMBOLLINE
 70
     0
 62
    15
  6
CONTINUOUS
  0
ENDTAB
  0
TABLE
  2
STYLE
 70
     2
  0
STYLE
  2
STANDARD
 70
     0
 40
0.0
 41
0.9
 50
0.0
 71
     0
 42
64.0
  3
SIMPLEX
  4
BIGFONT
  0
STYLE
  2
ANNOTATIVE
 70
     0
 40
0.0
 41
1.0
 50
0.0
 71
     0
 42
0.2
  3
txt
  4

  0
ENDTAB
  0
TABLE
  2
VIEW
 70
     1
  0
VIEW
  2
ALL
 70
     0
 40
6374.9789810000002
 10
0.0
 20
58.11501599999999
 41
8842.1052629999976
 11
0.0
 21
0.0
 31
1.0
 12
0.0
 22
0.0
 32
0.0
 42
50.0
 43
0.0
 44
0.0
 50
0.0
 71
     0
  0
ENDTAB
  0
TABLE
  2
UCS
 70
     0
  0
ENDTAB
  0
TABLE
  2
APPID
 70
     4
  0
APPID
  2
ACAD
 70
     0
  0
APPID
  2
ACADANNOTATIVE
 70
     0
  0
APPID
  2
ACAD_MLEADERVER
 70
     0
  0
APPID
  2
ACAD_EXEMPT_FROM_CAD_STANDARDS
 70
     0
  0
ENDTAB
  0
TABLE
  2
DIMSTYLE
 70
     2
  0
DIMSTYLE
  2
STANDARD
 70
     0
  3

  4

  5

  6

  7

 40
1.0
 41
0.18
 42
0.0625
 43
0.38
 44
0.18
 45
0.0
 46
0.0
 47
0.0
 48
0.0
140
0.18
141
0.09
142
0.0
143
25.399999999999999
144
1.0
145
0.0
146
1.0
147
0.09
 71
     0
 72
     0
 73
     1
 74
     1
 75
     0
 76
     0
 77
     0
 78
     0
170
     0
171
     2
172
     0
173
     0
174
     0
175
     0
176
     7
177
     7
178
     7
  0
DIMSTYLE
  2
ANNOTATIVE
 70
     0
  3

  4

  5

  6

  7

 40
1.0
 41
0.18
 42
0.0625
 43
0.38
 44
0.18
 45
0.0
 46
0.0
 47
0.0
 48
0.0
140
0.18
141
0.09
142
0.0
143
25.399999999999999
144
1.0
145
0.0
146
1.0
147
0.09
 71
     0
 72
     0
 73
     1
 74
     1
 75
     0
 76
     0
 77
     0
 78
     0
170
     0
171
     2
172
     0
173
     0
174
     0
175
     0
176
     0
177
     0
178
     0
  0
ENDTAB
  0
ENDSEC
  0
SECTION
  2
BLOCKS
  0
BLOCK
  8
0
  2
$MODEL_SPACE
 70
     0
 10
0.0
 20
0.0
 30
0.0
  3
$MODEL_SPACE
  1

  0
ENDBLK
  5
17C
  8
0
  0
BLOCK
 67
     1
  8
0
  2
$PAPER_SPACE
 70
     0
 10
0.0
 20
0.0
 30
0.0
  3
$PAPER_SPACE
  1

  0
ENDBLK
  5
178
 67
     1
  8
0
  0
BLOCK
  8
SIZE
  2
DOT1
 70
     0
 10
0.0
 20
0.0
 30
0.0
  3
DOT1
  1

  0
CIRCLE
  5
35
  8
SIZE
  6
CONTINUOUS
 62
     8
 10
0.0
 20
0.0
 30
0.0
 40
3.0
  0
ENDBLK
  5
36
  8
SIZE
  0
ENDSEC
  0
SECTION
  2
ENTITIES
  0
TEXT
  5
37
  8
ETC
  6
CONTINUOUS
 62
    61
 10
261.90224917935552
 20
464.8963836260441
 30
0.0
 40
50.0
  1
システム部材
 41
0.9
  0
LINE
  5
38
  8
DETAIL
  6
CONTINUOUS
 62
     5
 10
-98.500000000000014
 20
54.0
 30
0.0
 11
98.500000000000014
 21
54.0
 31
0.0
  0
ARC
  5
39
  8
DETAIL
  6
CONTINUOUS
 62
     5
 10
-6.864082999999999
 20
-20.482223000000001
 30
0.0
 40
133.40379300000001
 50
183.63155800000001
 51
241.75327699999991
  0
LINE
  5
3A
  8
DETAIL
  6
CONTINUOUS
 62
     5
 10
-70.0
 20
-138.0
 30
0.0
 11
70.0
 21
-138.0
 31
0.0
  0
ARC
  5
3B
  8
DETAIL
  6
CONTINUOUS
 62
     5
 10
6.864082999999999
 20
-20.482223000000001
 30
0.0
 40
133.40379300000001
 50
298.24672299999992
 51
356.36844200000002
  0
LINE
  5
3C
  8
DETAIL
  6
CONTINUOUS
 62
     5
 10
150.0
 20
0.0
 30
0.0
 11
150.0
 21
-8.0
 31
0.0
  0
LINE
  5
3D
  8
DETAIL
  6
CONTINUOUS
 62
     5
 10
140.0
 20
-8.0
 30
0.0
 11
140.0
 21
-28.932047999999991
 31
0.0
  0
LINE
  5
3E
  8
DETAIL
  6
CONTINUOUS
 62
     5
 10
-155.0
 20
0.0
 30
0.0
 11
155.0
 21
0.0
 31
0.0
  0
ARC
  5
3F
  8
DETAIL
  6
CONTINUOUS
 62
     5
 10
129.1400129999999
 20
6.6799929999999987
 30
0.0
 40
26.708822999999999
 50
293.991851
 51
345.51631200000008
  0
LINE
  5
40
  8
DETAIL
  6
CONTINUOUS
 62
     5
 10
-150.0
 20
-8.0
 30
0.0
 11
-150.0
 21
0.0
 31
0.0
  0
LINE
  5
41
  8
DETAIL
  6
CONTINUOUS
 62
     5
 10
-140.0
 20
-8.0
 30
0.0
 11
-140.0
 21
-28.932047999999991
 31
0.0
  0
LINE
  5
42
  8
DETAIL
  6
CONTINUOUS
 62
     5
 10
98.500000000000014
 20
54.0
 30
0.0
 11
98.500000000000014
 21
0.0
 31
0.0
  0
LINE
  5
43
  8
DETAIL
  6
CONTINUOUS
 62
     5
 10
-98.500000000000014
 20
54.0
 30
0.0
 11
-98.500000000000014
 21
0.0
 31
0.0
  0
LINE
  5
44
  8
BASIS
  6
DASHDOT
 62
     6
 10
0.0
 20
96.943139000000002
 30
0.0
 11
0.0
 21
-206.946946
 31
0.0
  0
ARC
  5
45
  8
DETAIL
  6
CONTINUOUS
 62
     5
 10
-129.1400129999999
 20
6.6799929999999987
 30
0.0
 40
26.708822999999999
 50
194.483688
 51
246.00814900000009
  0
LINE
  5
46
  8
DETAIL
  6
CONTINUOUS
 62
     5
 10
-150.0
 20
-8.0
 30
0.0
 11
150.0
 21
-8.0
 31
0.0
  0
LINE
  5
47
  8
SIZE
  6
CONTINUOUS
 62
    30
 10
-175.0
 20
0.0
 30
0.0
 11
-308.68104899999997
 21
0.0
 31
0.0
  0
LINE
  5
48
  8
SIZE
  6
CONTINUOUS
 62
    30
 10
-171.45276799999991
 20
-8.0
 30
0.0
 11
-308.68104899999997
 21
-8.0
 31
0.0
  0
LINE
  5
49
  8
SIZE
  6
CONTINUOUS
 62
    30
 10
-278.68104899999997
 20
-2.0
 30
0.0
 11
-278.68104899999997
 21
0.0
 31
0.0
  0
TEXT
  5
4A
  8
SIZE
  6
CONTINUOUS
 62
    30
 10
-310.68104899999997
 20
-65.334940000000003
 30
0.0
 40
64.0
  1
8
 50
90.0
 41
0.9
 72
     1
 11
-310.68104899999997
 21
-46.13494
 31
0.0
  0
CIRCLE
  5
4B
  8
SIZE
  6
CONTINUOUS
 62
    30
 10
-278.68104899999997
 20
0.0
 30
0.0
 40
6.0
  0
CIRCLE
  5
4C
  8
SIZE
  6
CONTINUOUS
 62
    30
 10
-278.68104899999997
 20
-8.0
 30
0.0
 40
6.0
  0
LINE
  5
50
  8
SIZE
  6
CONTINUOUS
 62
    30
 10
90.0
 20
-138.0
 30
0.0
 11
346.14489800000001
 21
-138.0
 31
0.0
  0
LINE
  5
51
  8
SIZE
  6
CONTINUOUS
 62
    30
 10
175.0
 20
0.0
 30
0.0
 11
346.14489800000001
 21
0.0
 31
0.0
  0
LINE
  5
52
  8
SIZE
  6
CONTINUOUS
 62
    30
 10
316.14489800000001
 20
-136.0
 30
0.0
 11
316.14489800000001
 21
-2.0
 31
0.0
  0
TEXT
  5
53
  8
SIZE
  6
CONTINUOUS
 62
    30
 10
292.09536299999991
 20
-298.95307757142848
 30
0.0
 40
64.0
  1
138
 50
90.0
 41
0.9
 72
     1
 11
292.09536299999991
 21
-230.3816489999999
 31
0.0
  0
CIRCLE
  5
54
  8
SIZE
  6
CONTINUOUS
 62
    30
 10
316.14489800000001
 20
-138.0
 30
0.0
 40
6.0
  0
CIRCLE
  5
55
  8
SIZE
  6
CONTINUOUS
 62
    30
 10
316.14489800000001
 20
0.0
 30
0.0
 40
6.0
  0
LINE
  5
59
  8
SIZE
  6
CONTINUOUS
 62
    30
 10
90.0
 20
-138.0
 30
0.0
 11
501.19519400000001
 21
-138.0
 31
0.0
  0
LINE
  5
5B
  8
SIZE
  6
CONTINUOUS
 62
    30
 10
471.19519400000001
 20
-138.0
 30
0.0
 11
471.19519400000001
 21
54.0
 31
0.0
  0
TEXT
  5
5C
  8
SIZE
  6
CONTINUOUS
 62
    30
 10
439.19519400000001
 20
-99.571428571428569
 30
0.0
 40
64.0
  1
192
 50
90.0
 41
0.9
 72
     1
 11
439.19519400000001
 21
-31.0
 31
0.0
  0
CIRCLE
  5
5D
  8
SIZE
  6
CONTINUOUS
 62
    30
 10
471.19519400000001
 20
-138.0
 30
0.0
 40
6.0
  0
CIRCLE
  5
5E
  8
SIZE
  6
CONTINUOUS
 62
    30
 10
471.19519400000001
 20
54.0
 30
0.0
 40
6.0
  0
LINE
  5
62
  8
SIZE
  6
CONTINUOUS
 62
    30
 10
316.14489800000001
 20
53.0
 30
0.0
 11
316.14489800000001
 21
175.28844599999991
 31
0.0
  0
LINE
  5
63
  8
SIZE
  6
CONTINUOUS
 62
    30
 10
155.0
 20
20.0
 30
0.0
 11
155.0
 21
462.82912700000003
 31
0.0
  0
LINE
  5
64
  8
SIZE
  6
CONTINUOUS
 62
    30
 10
-155.0
 20
20.0
 30
0.0
 11
-155.0
 21
462.82912700000003
 31
0.0
  0
LINE
  5
65
  8
SIZE
  6
CONTINUOUS
 62
    30
 10
155.0
 20
432.82912700000003
 30
0.0
 11
-155.0
 21
432.82912700000003
 31
0.0
  0
TEXT
  5
66
  8
SIZE
  6
CONTINUOUS
 62
    30
 10
-68.571428571428555
 20
457.06573586500957
 30
0.0
 40
64.0
  1
310
 41
0.9
 72
     1
 11
0.0
 21
457.06573586500957
 31
0.0
  0
CIRCLE
  5
67
  8
SIZE
  6
CONTINUOUS
 62
    30
 10
155.0
 20
432.82912700000003
 30
0.0
 40
6.0
  0
CIRCLE
  5
68
  8
SIZE
  6
CONTINUOUS
 62
    30
 10
-155.0
 20
432.82912700000003
 30
0.0
 40
6.0
  0
LINE
  5
6C
  8
SIZE
  6
CONTINUOUS
 62
    30
 10
150.0
 20
20.0
 30
0.0
 11
150.0
 21
336.46229799999998
 31
0.0
  0
LINE
  5
6D
  8
SIZE
  6
CONTINUOUS
 62
    30
 10
-150.0
 20
20.0
 30
0.0
 11
-150.0
 21
336.46229799999998
 31
0.0
  0
LINE
  5
6E
  8
SIZE
  6
CONTINUOUS
 62
    30
 10
150.0
 20
306.46229799999992
 30
0.0
 11
-150.0
 21
306.46229799999992
 31
0.0
  0
TEXT
  5
6F
  8
SIZE
  6
CONTINUOUS
 62
    30
 10
-74.05714285714285
 20
329.038804213726
 30
0.0
 40
64.0
  1
300
 41
0.9
 72
     1
 11
0.0
 21
329.038804213726
 31
0.0
  0
CIRCLE
  5
70
  8
SIZE
  6
CONTINUOUS
 62
    30
 10
150.0
 20
306.46229799999992
 30
0.0
 40
6.0
  0
CIRCLE
  5
71
  8
SIZE
  6
CONTINUOUS
 62
    30
 10
-150.0
 20
306.46229799999992
 30
0.0
 40
6.0
  0
CIRCLE
  5
75
  8
FIX
  6
CONTINUOUS
 62
    11
 10
-102.0
 20
-4.0
 30
0.0
 40
2.25
  0
LINE
  5
76
  8
NOTE
  6
CONTINUOUS
 62
     4
 10
-102.0
 20
-24.0
 30
0.0
 11
-102.0
 21
16.0
 31
0.0
  0
LINE
  5
77
  8
NOTE
  6
CONTINUOUS
 62
     4
 10
-122.0
 20
-4.0
 30
0.0
 11
-82.0
 21
-4.0
 31
0.0
  0
LINE
  5
78
  8
NOTE
  6
CONTINUOUS
 62
     4
 10
-145.0
 20
-24.0
 30
0.0
 11
-145.0
 21
16.0
 31
0.0
  0
LINE
  5
79
  8
NOTE
  6
CONTINUOUS
 62
     4
 10
-165.0
 20
-4.0
 30
0.0
 11
-125.0
 21
-4.0
 31
0.0
  0
CIRCLE
  5
7A
  8
FIX
  6
CONTINUOUS
 62
    11
 10
-145.0
 20
-4.0
 30
0.0
 40
2.25
  0
LINE
  5
7B
  8
NOTE
  6
CONTINUOUS
 62
     4
 10
-178.5023939999999
 20
17.853822999999991
 30
0.0
 11
-145.0
 21
-4.0
 31
0.0
  0
LINE
  5
7C
  8
NOTE
  6
CONTINUOUS
 62
     4
 10
-145.0
 20
-4.0
 30
0.0
 11
-163.0870129999999
 21
31.677163
 31
0.0
  0
LINE
  5
7D
  8
NOTE
  6
CONTINUOUS
 62
     4
 10
-145.0
 20
-4.0
 30
0.0
 11
-248.57559000000001
 21
111.768827
 31
0.0
  0
CIRCLE
  5
7E
  8
FIX
  6
CONTINUOUS
 62
    11
 10
102.0
 20
-4.0
 30
0.0
 40
2.25
  0
LINE
  5
7F
  8
NOTE
  6
CONTINUOUS
 62
     4
 10
102.0
 20
-24.0
 30
0.0
 11
102.0
 21
16.0
 31
0.0
  0
LINE
  5
80
  8
NOTE
  6
CONTINUOUS
 62
     4
 10
122.0
 20
-4.0
 30
0.0
 11
82.0
 21
-4.0
 31
0.0
  0
CIRCLE
  5
81
  8
FIX
  6
CONTINUOUS
 62
    11
 10
145.0
 20
-4.0
 30
0.0
 40
2.25
  0
LINE
  5
82
  8
NOTE
  6
CONTINUOUS
 62
     4
 10
145.0
 20
-24.0
 30
0.0
 11
145.0
 21
16.0
 31
0.0
  0
LINE
  5
83
  8
NOTE
  6
CONTINUOUS
 62
     4
 10
165.0
 20
-4.0
 30
0.0
 11
125.0
 21
-4.0
 31
0.0
  0
LINE
  5
84
  8
SIZE
  6
CONTINUOUS
 62
    30
 10
98.500000000000014
 20
73.0
 30
0.0
 11
98.500000000000014
 21
205.66177699999989
 31
0.0
  0
LINE
  5
85
  8
SIZE
  6
CONTINUOUS
 62
    30
 10
-98.500000000000014
 20
73.0
 30
0.0
 11
-98.500000000000014
 21
205.66177699999989
 31
0.0
  0
LINE
  5
86
  8
SIZE
  6
CONTINUOUS
 62
    30
 10
98.500000000000014
 20
175.661777
 30
0.0
 11
-98.500000000000014
 21
175.661777
 31
0.0
  0
TEXT
  5
87
  8
SIZE
  6
CONTINUOUS
 62
    30
 10
-108.89142857142851
 20
196.83946534297999
 30
0.0
 40
64.0
  1
φ197
 41
0.9
 72
     1
 11
0.0
 21
196.83946534297999
 31
0.0
  0
CIRCLE
  5
88
  8
SIZE
  6
CONTINUOUS
 62
    30
 10
98.500000000000014
 20
175.661777
 30
0.0
 40
6.0
  0
CIRCLE
  5
89
  8
SIZE
  6
CONTINUOUS
 62
    30
 10
-98.500000000000014
 20
175.661777
 30
0.0
 40
6.0
  0
LINE
  5
8D
  8
SIZE
  6
CONTINUOUS
 62
    30
 10
316.14489800000001
 20
-136.0
 30
0.0
 11
316.14489800000001
 21
-304.22726699999998
 31
0.0
  0
LINE
  5
8E
  8
SIZE
  6
CONTINUOUS
 62
    30
 10
175.0
 20
0.0
 30
0.0
 11
346.14489800000001
 21
0.0
 31
0.0
  0
LINE
  5
8F
  8
SIZE
  6
CONTINUOUS
 62
    30
 10
118.5
 20
54.0
 30
0.0
 11
495.06747891968632
 21
54.0
 31
0.0
  0
LINE
  5
90
  8
SIZE
  6
CONTINUOUS
 62
    30
 10
316.14489800000001
 20
-2.0
 30
0.0
 11
316.14489800000001
 21
54.0
 31
0.0
  0
TEXT
  5
91
  8
SIZE
  6
CONTINUOUS
 62
    30
 10
284.14489800000001
 20
75.656829000000016
 30
0.0
 40
64.0
  1
54
 50
90.0
 41
0.9
 72
     1
 11
284.14489800000001
 21
123.656829
 31
0.0
  0
CIRCLE
  5
92
  8
SIZE
  6
CONTINUOUS
 62
    30
 10
316.14489800000001
 20
0.0
 30
0.0
 40
6.0
  0
CIRCLE
  5
93
  8
SIZE
  6
CONTINUOUS
 62
    30
 10
316.14489800000001
 20
54.0
 30
0.0
 40
6.0
  0
LINE
  5
97
  8
OUTLINE
  6
CONTINUOUS
 62
     3
 10
-150.0
 20
-8.0
 30
0.0
 11
150.0
 21
-8.0
 31
0.0
  0
ARC
  5
98
  8
OUTLINE
  6
CONTINUOUS
 62
     3
 10
-129.1400129999999
 20
6.6799929999999987
 30
0.0
 40
26.708822999999999
 50
194.483688
 51
246.00814900000009
  0
LINE
  5
9B
  8
OUTLINE
  6
CONTINUOUS
 62
     3
 10
-140.0
 20
-8.0
 30
0.0
 11
-140.0
 21
-28.932047999999991
 31
0.0
  0
LINE
  5
9C
  8
OUTLINE
  6
CONTINUOUS
 62
     3
 10
-150.0
 20
-8.0
 30
0.0
 11
-150.0
 21
0.0
 31
0.0
  0
ARC
  5
9D
  8
OUTLINE
  6
CONTINUOUS
 62
     3
 10
129.1400129999999
 20
6.6799929999999987
 30
0.0
 40
26.708822999999999
 50
293.991851
 51
345.51631200000008
  0
LINE
  5
9E
  8
OUTLINE
  6
CONTINUOUS
 62
     3
 10
-155.0
 20
0.0
 30
0.0
 11
155.0
 21
0.0
 31
0.0
  0
LINE
  5
9F
  8
OUTLINE
  6
CONTINUOUS
 62
     3
 10
140.0
 20
-8.0
 30
0.0
 11
140.0
 21
-28.932047999999991
 31
0.0
  0
LINE
  5
A0
  8
OUTLINE
  6
CONTINUOUS
 62
     3
 10
150.0
 20
0.0
 30
0.0
 11
150.0
 21
-8.0
 31
0.0
  0
ARC
  5
A1
  8
OUTLINE
  6
CONTINUOUS
 62
     3
 10
6.864082999999999
 20
-20.482223000000001
 30
0.0
 40
133.40379300000001
 50
298.24672299999992
 51
356.36844200000002
  0
LINE
  5
A2
  8
OUTLINE
  6
CONTINUOUS
 62
     3
 10
-70.0
 20
-138.0
 30
0.0
 11
70.0
 21
-138.0
 31
0.0
  0
ARC
  5
A3
  8
OUTLINE
  6
CONTINUOUS
 62
     3
 10
-6.864082999999999
 20
-20.482223000000001
 30
0.0
 40
133.40379300000001
 50
183.63155800000001
 51
241.75327699999991
  0
POINT
  5
A5
  8
ARRANGE
  6
CONTINUOUS
 62
     1
 10
0.0
 20
0.0
 30
0.0
  0
CIRCLE
  5
A6
  8
ARRANGE
  6
CONTINUOUS
 62
     1
 10
0.0
 20
0.0
 30
0.0
 40
40.0
  0
TEXT
  5
A7
  8
NOTE
  6
CONTINUOUS
 62
     4
 10
-1204.3400300000001
 20
145.47801299999981
 30
0.0
 40
64.0
  1
4×φ4.5ノックアウト取付穴
 41
0.9
  0
LINE
  5
A8
  8
NOTE
  6
CONTINUOUS
 62
     4
 10
-1226.007233999999
 20
111.768827
 30
0.0
 11
-248.57559000000001
 21
111.768827
 31
0.0
  0
LINE
  5
A9
  8
SIZE
  6
CONTINUOUS
 62
    30
 10
102.0
 20
-24.0
 30
0.0
 11
102.0
 21
-348.895105
 31
0.0
  0
LINE
  5
AA
  8
SIZE
  6
CONTINUOUS
 62
    30
 10
-102.0
 20
-24.0
 30
0.0
 11
-102.0
 21
-348.895105
 31
0.0
  0
LINE
  5
AB
  8
SIZE
  6
CONTINUOUS
 62
    30
 10
102.0
 20
-318.895105
 30
0.0
 11
-102.0
 21
-318.895105
 31
0.0
  0
TEXT
  5
AC
  8
SIZE
  6
CONTINUOUS
 62
    30
 10
-75.428571428571416
 20
-301.476384
 30
0.0
 40
64.0
  1
204
 41
0.9
 72
     1
 11
0.0
 21
-301.476384
 31
0.0
  0
CIRCLE
  5
AD
  8
SIZE
  6
CONTINUOUS
 62
    30
 10
102.0
 20
-318.895105
 30
0.0
 40
6.0
  0
CIRCLE
  5
AE
  8
SIZE
  6
CONTINUOUS
 62
    30
 10
-102.0
 20
-318.895105
 30
0.0
 40
6.0
  0
LINE
  5
B2
  8
SIZE
  6
CONTINUOUS
 62
    30
 10
145.0
 20
-24.0
 30
0.0
 11
145.0
 21
-498.41485499999987
 31
0.0
  0
LINE
  5
B3
  8
SIZE
  6
CONTINUOUS
 62
    30
 10
-145.0
 20
-24.0
 30
0.0
 11
-145.0
 21
-498.41485499999987
 31
0.0
  0
LINE
  5
B4
  8
SIZE
  6
CONTINUOUS
 62
    30
 10
145.0
 20
-468.41485499999987
 30
0.0
 11
-145.0
 21
-468.41485499999987
 31
0.0
  0
TEXT
  5
B5
  8
SIZE
  6
CONTINUOUS
 62
    30
 10
-74.05714285714285
 20
-447.62986699999999
 30
0.0
 40
64.0
  1
290
 41
0.9
 72
     1
 11
0.0
 21
-447.62986699999999
 31
0.0
  0
CIRCLE
  5
B6
  8
SIZE
  6
CONTINUOUS
 62
    30
 10
145.0
 20
-468.41485499999987
 30
0.0
 40
6.0
  0
CIRCLE
  5
B7
  8
SIZE
  6
CONTINUOUS
 62
    30
 10
-145.0
 20
-468.41485499999987
 30
0.0
 40
6.0
  0
LINE
  5
BB
  8
SIZE
  6
CONTINUOUS
 62
    30
 10
-278.68104899999997
 20
0.0
 30
0.0
 11
-278.68104899999997
 21
-69.199407999999991
 31
0.0
  0
TEXT
  5
BC
  8
ETC
  6
CONTINUOUS
 62
    61
 10
270.58802300000002
 20
541.65980000000002
 30
0.0
 40
50.0
  1
PZ-20VSD4_1
 41
0.9
  0
TEXT
  5
BD
  8
ETC
  6
CONTINUOUS
 62
    61
 10
372.42402913655133
 20
401.12095863417039
 30
0.0
 40
40.0
  1
PZ-20VSD4
 41
0.9
  0
LINE
  5
C3
  8
OUTLINE
  6
CONTINUOUS
 62
     3
 10
-98.500000000000014
 20
0.0
 30
0.0
 11
-98.500000000000014
 21
54.0
 31
0.0
  0
LINE
  5
C4
  8
OUTLINE
  6
CONTINUOUS
 62
     3
 10
-98.500000000000014
 20
54.0
 30
0.0
 11
98.500000000000014
 21
54.0
 31
0.0
  0
LINE
  5
C5
  8
OUTLINE
  6
CONTINUOUS
 62
     3
 10
98.500000000000014
 20
54.0
 30
0.0
 11
98.500000000000014
 21
0.0
 31
0.0
  0
ENDSEC
  0
EOF
