  0
SECTION
  2
HEADER
  9
$ACADVER
  1
AC1009
  9
$INSBASE
 10
0.0
 20
0.0
 30
0.0
  9
$EXTMIN
 10
-497.95529839810467
 20
-573.73350388805193
 30
-0.0015258207003583
  9
$EXTMAX
 10
1133.697525753752
 20
609.53522836735283
 30
0.0000000349246037
  9
$LIMMIN
 10
-4200.0
 20
-2970.0
  9
$LIMMAX
 10
4200.0
 20
2970.0
  9
$ORTHOMODE
 70
     0
  9
$REGENMODE
 70
     1
  9
$FILLMODE
 70
     1
  9
$QTEXTMODE
 70
     0
  9
$MIRRTEXT
 70
     0
  9
$DRAGMODE
 70
     2
  9
$LTSCALE
 40
20.0
  9
$OSMODE
 70
    47
  9
$ATTMODE
 70
     1
  9
$TEXTSIZE
 40
64.0
  9
$TRACEWID
 40
0.05
  9
$TEXTSTYLE
  7
STANDARD
  9
$CLAYER
  8
SIZE
  9
$CELTYPE
  6
CONTINUOUS
  9
$CECOLOR
 62
    30
  9
$DIMSCALE
 40
1.0
  9
$DIMASZ
 40
2.0
  9
$DIMEXO
 40
20.0
  9
$DIMDLI
 40
200.0
  9
$DIMRND
 40
0.0
  9
$DIMDLE
 40
0.0
  9
$DIMEXE
 40
30.0
  9
$DIMTP
 40
0.0
  9
$DIMTM
 40
0.0
  9
$DIMTXT
 40
64.0
  9
$DIMCEN
 40
0.09
  9
$DIMTSZ
 40
0.0
  9
$DIMTOL
 70
     0
  9
$DIMLIM
 70
     0
  9
$DIMTIH
 70
     0
  9
$DIMTOH
 70
     0
  9
$DIMSE1
 70
     0
  9
$DIMSE2
 70
     0
  9
$DIMTAD
 70
     1
  9
$DIMZIN
 70
     8
  9
$DIMBLK
  1
DOT1
  9
$DIMASO
 70
     1
  9
$DIMSHO
 70
     0
  9
$DIMPOST
  1

  9
$DIMAPOST
  1

  9
$DIMALT
 70
     0
  9
$DIMALTD
 70
     2
  9
$DIMALTF
 40
25.399999999999999
  9
$DIMLFAC
 40
1.0
  9
$DIMTOFL
 70
     1
  9
$DIMTVP
 40
0.0
  9
$DIMTIX
 70
     1
  9
$DIMSOXD
 70
     0
  9
$DIMSAH
 70
     0
  9
$DIMBLK1
  1

  9
$DIMBLK2
  1

  9
$DIMSTYLE
  2
STANDARD
  9
$DIMCLRD
 70
     7
  9
$DIMCLRE
 70
     7
  9
$DIMCLRT
 70
     7
  9
$DIMTFAC
 40
1.0
  9
$DIMGAP
 40
0.09
  9
$LUNITS
 70
     2
  9
$LUPREC
 70
     4
  9
$SKETCHINC
 40
0.1
  9
$FILLETRAD
 40
10.0
  9
$AUNITS
 70
     1
  9
$AUPREC
 70
     3
  9
$MENU
  1
ACAD
  9
$ELEVATION
 40
0.0
  9
$PELEVATION
 40
0.0
  9
$THICKNESS
 40
0.0
  9
$LIMCHECK
 70
     1
  9
$BLIPMODE
 70
     0
  9
$CHAMFERA
 40
0.0
  9
$CHAMFERB
 40
0.0
  9
$SKPOLY
 70
     0
  9
$TDCREATE
 40
2451604.7817824068
  9
$TDUPDATE
 40
2455075.672464537
  9
$TDINDWG
 40
0.0639154167
  9
$TDUSRTIMER
 40
0.0639152315
  9
$USRTIMER
 70
     1
  9
$ANGBASE
 50
0.0
  9
$ANGDIR
 70
     0
  9
$PDMODE
 70
     3
  9
$PDSIZE
 40
-2.0
  9
$PLINEWID
 40
0.0
  9
$COORDS
 70
     0
  9
$SPLFRAME
 70
     0
  9
$SPLINETYPE
 70
     6
  9
$SPLINESEGS
 70
     8
  9
$ATTDIA
 70
     0
  9
$ATTREQ
 70
     1
  9
$HANDLING
 70
     1
  9
$HANDSEED
  5
210
  9
$SURFTAB1
 70
     6
  9
$SURFTAB2
 70
     6
  9
$SURFTYPE
 70
     6
  9
$SURFU
 70
     6
  9
$SURFV
 70
     6
  9
$UCSNAME
  2

  9
$UCSORG
 10
0.0
 20
0.0
 30
0.0
  9
$UCSXDIR
 10
1.0
 20
0.0
 30
0.0
  9
$UCSYDIR
 10
0.0
 20
1.0
 30
0.0
  9
$PUCSNAME
  2

  9
$PUCSORG
 10
0.0
 20
0.0
 30
0.0
  9
$PUCSXDIR
 10
1.0
 20
0.0
 30
0.0
  9
$PUCSYDIR
 10
0.0
 20
1.0
 30
0.0
  9
$USERI1
 70
     0
  9
$USERI2
 70
     0
  9
$USERI3
 70
     0
  9
$USERI4
 70
     0
  9
$USERI5
 70
     0
  9
$USERR1
 40
20.0
  9
$USERR2
 40
0.0
  9
$USERR3
 40
0.0
  9
$USERR4
 40
0.0
  9
$USERR5
 40
0.0
  9
$WORLDVIEW
 70
     1
  9
$SHADEDGE
 70
     3
  9
$SHADEDIF
 70
    70
  9
$TILEMODE
 70
     1
  9
$MAXACTVP
 70
    48
  9
$PLIMCHECK
 70
     0
  9
$PEXTMIN
 10
-1.0000000000000000E+020
 20
-1.0000000000000000E+020
 30
-1.0000000000000000E+020
  9
$PEXTMAX
 10
1.0000000000000000E+020
 20
1.0000000000000000E+020
 30
1.0000000000000000E+020
  9
$PLIMMIN
 10
0.0
 20
0.0
  9
$PLIMMAX
 10
12.0
 20
9.0
  9
$UNITMODE
 70
     0
  9
$VISRETAIN
 70
     0
  9
$PLINEGEN
 70
     0
  9
$PSLTSCALE
 70
     0
  0
ENDSEC
  0
SECTION
  2
TABLES
  0
TABLE
  2
VPORT
 70
     1
  0
VPORT
  2
*ACTIVE
 70
     0
 10
0.0
 20
0.0
 11
1.0
 21
1.0
 12
314.39080595911508
 22
-15.87916069912148
 13
0.0
 23
0.0
 14
400.0
 24
400.0
 15
400.0
 25
400.0
 16
0.0
 26
0.0
 36
1.0
 17
0.0
 27
0.0
 37
0.0
 40
1339.527255049222
 41
1.78125
 42
50.0
 43
0.0
 44
0.0
 50
0.0
 51
0.0
 71
     0
 72
   500
 73
     1
 74
     0
 75
     0
 76
     0
 77
     0
 78
     0
  0
ENDTAB
  0
TABLE
  2
LTYPE
 70
     3
  0
LTYPE
  2
CONTINUOUS
 70
     0
  3
実線
 72
    65
 73
     0
 40
0.0
  0
LTYPE
  2
DASHDOT
 70
     0
  3
____ _ ____ _ ____ _ ____ _ ____ _ ____ _ ____
 72
    65
 73
     4
 40
5.5
 49
4.0
 49
-0.6
 49
0.3
 49
-0.6
  0
ENDTAB
  0
TABLE
  2
LAYER
 70
    12
  0
LAYER
  2
0
 70
     0
 62
     7
  6
CONTINUOUS
  0
LAYER
  2
SIZE
 70
     0
 62
    30
  6
CONTINUOUS
  0
LAYER
  2
OUTLINE
 70
     0
 62
     3
  6
CONTINUOUS
  0
LAYER
  2
DETAIL
 70
     0
 62
     5
  6
CONTINUOUS
  0
LAYER
  2
BASIS
 70
     0
 62
     6
  6
DASHDOT
  0
LAYER
  2
NOTE
 70
     0
 62
     4
  6
CONTINUOUS
  0
LAYER
  2
ARRANGE
 70
     0
 62
     1
  6
CONTINUOUS
  0
LAYER
  2
FIX
 70
     0
 62
    11
  6
CONTINUOUS
  0
LAYER
  2
ETC
 70
     0
 62
    61
  6
CONTINUOUS
  0
LAYER
  2
DEFPOINTS
 70
     0
 62
     7
  6
CONTINUOUS
  0
LAYER
  2
SERVICESPACE
 70
     0
 62
     2
  6
DASHDOT
  0
LAYER
  2
SYMBOLLINE
 70
     0
 62
    15
  6
CONTINUOUS
  0
ENDTAB
  0
TABLE
  2
STYLE
 70
     2
  0
STYLE
  2
STANDARD
 70
     0
 40
0.0
 41
0.9
 50
0.0
 71
     0
 42
64.0
  3
SIMPLEX
  4
BIGFONT
  0
STYLE
  2
ANNOTATIVE
 70
     0
 40
0.0
 41
1.0
 50
0.0
 71
     0
 42
0.2
  3
txt
  4

  0
ENDTAB
  0
TABLE
  2
VIEW
 70
     1
  0
VIEW
  2
ALL
 70
     0
 40
6374.9789810000002
 10
0.0
 20
58.11501599999999
 41
8842.1052629999976
 11
0.0
 21
0.0
 31
1.0
 12
0.0
 22
0.0
 32
0.0
 42
50.0
 43
0.0
 44
0.0
 50
0.0
 71
     0
  0
ENDTAB
  0
TABLE
  2
UCS
 70
     0
  0
ENDTAB
  0
TABLE
  2
APPID
 70
     4
  0
APPID
  2
ACAD
 70
     0
  0
APPID
  2
ACADANNOTATIVE
 70
     0
  0
APPID
  2
ACAD_MLEADERVER
 70
     0
  0
APPID
  2
ACAD_EXEMPT_FROM_CAD_STANDARDS
 70
     0
  0
ENDTAB
  0
TABLE
  2
DIMSTYLE
 70
     2
  0
DIMSTYLE
  2
STANDARD
 70
     0
  3

  4

  5

  6

  7

 40
1.0
 41
0.18
 42
0.0625
 43
0.38
 44
0.18
 45
0.0
 46
0.0
 47
0.0
 48
0.0
140
0.18
141
0.09
142
0.0
143
25.399999999999999
144
1.0
145
0.0
146
1.0
147
0.09
 71
     0
 72
     0
 73
     1
 74
     1
 75
     0
 76
     0
 77
     0
 78
     0
170
     0
171
     2
172
     0
173
     0
174
     0
175
     0
176
     7
177
     7
178
     7
  0
DIMSTYLE
  2
ANNOTATIVE
 70
     0
  3

  4

  5

  6

  7

 40
1.0
 41
0.18
 42
0.0625
 43
0.38
 44
0.18
 45
0.0
 46
0.0
 47
0.0
 48
0.0
140
0.18
141
0.09
142
0.0
143
25.399999999999999
144
1.0
145
0.0
146
1.0
147
0.09
 71
     0
 72
     0
 73
     1
 74
     1
 75
     0
 76
     0
 77
     0
 78
     0
170
     0
171
     2
172
     0
173
     0
174
     0
175
     0
176
     0
177
     0
178
     0
  0
ENDTAB
  0
ENDSEC
  0
SECTION
  2
BLOCKS
  0
BLOCK
  8
0
  2
$MODEL_SPACE
 70
     0
 10
0.0
 20
0.0
 30
0.0
  3
$MODEL_SPACE
  1

  0
ENDBLK
  5
1B3
  8
0
  0
BLOCK
 67
     1
  8
0
  2
$PAPER_SPACE
 70
     0
 10
0.0
 20
0.0
 30
0.0
  3
$PAPER_SPACE
  1

  0
ENDBLK
  5
1AF
 67
     1
  8
0
  0
BLOCK
  8
SIZE
  2
DOT1
 70
     0
 10
0.0
 20
0.0
 30
0.0
  3
DOT1
  1

  0
CIRCLE
  5
35
  8
SIZE
  6
CONTINUOUS
 62
     8
 10
0.0
 20
0.0
 30
0.0
 40
3.0
  0
ENDBLK
  5
36
  8
SIZE
  0
ENDSEC
  0
SECTION
  2
ENTITIES
  0
ARC
  5
38
  8
DETAIL
  6
CONTINUOUS
 62
     5
 10
-111.99078399999991
 20
-149.30816299999981
 30
0.0
 40
41.919732000000003
 50
217.06169799999989
 51
247.3684089999999
  0
ARC
  5
39
  8
DETAIL
  6
CONTINUOUS
 62
     5
 10
-111.99078399999991
 20
-149.69118499999999
 30
0.0
 40
41.919732000000003
 50
217.06169799999989
 51
247.3684089999999
  0
LINE
  5
3A
  8
DETAIL
  6
CONTINUOUS
 62
     5
 10
0.0
 20
-188.38302200000001
 30
0.0
 11
-128.12167700000001
 21
-188.38302200000001
 31
0.0
  0
LINE
  5
3B
  8
DETAIL
  6
CONTINUOUS
 62
     5
 10
0.0
 20
-188.0
 30
0.0
 11
-128.12167700000001
 21
-188.0
 31
0.0
  0
ARC
  5
3C
  8
DETAIL
  6
CONTINUOUS
 62
     5
 10
111.990548
 20
-149.30803199999991
 30
0.0
 40
41.919944000000001
 50
292.63182
 51
322.93845399999998
  0
ARC
  5
3D
  8
DETAIL
  6
CONTINUOUS
 62
     5
 10
111.990548
 20
-149.69105400000001
 30
0.0
 40
41.919944000000001
 50
292.63182
 51
322.93845399999998
  0
LINE
  5
3E
  8
DETAIL
  6
CONTINUOUS
 62
     5
 10
0.0
 20
-188.38302200000001
 30
0.0
 11
128.12167700000001
 21
-188.38302200000001
 31
0.0
  0
LINE
  5
3F
  8
DETAIL
  6
CONTINUOUS
 62
     5
 10
0.0
 20
-188.0
 30
0.0
 11
128.12167700000001
 21
-188.0
 31
0.0
  0
LINE
  5
40
  8
DETAIL
  6
CONTINUOUS
 62
     5
 10
-155.0
 20
-155.63755699999999
 30
0.0
 11
-145.44218499999999
 21
-174.9551459999999
 31
0.0
  0
LINE
  5
41
  8
DETAIL
  6
CONTINUOUS
 62
     5
 10
155.0
 20
-155.63746499999991
 30
0.0
 11
145.44218499999999
 21
-174.9550539999999
 31
0.0
  0
LINE
  5
42
  8
DETAIL
  6
CONTINUOUS
 62
     5
 10
-155.0
 20
-154.4717879999998
 30
0.0
 11
-145.44218499999999
 21
-174.57212399999989
 31
0.0
  0
LINE
  5
43
  8
DETAIL
  6
CONTINUOUS
 62
     5
 10
155.0
 20
-154.47169600000001
 30
0.0
 11
145.44218499999999
 21
-174.57203200000001
 31
0.0
  0
LINE
  5
44
  8
DETAIL
  6
CONTINUOUS
 62
     5
 10
-150.0
 20
-150.0
 30
0.0
 11
-155.0
 21
-150.0
 31
0.0
  0
LINE
  5
45
  8
DETAIL
  6
CONTINUOUS
 62
     5
 10
150.0
 20
-150.0
 30
0.0
 11
155.0
 21
-150.0
 31
0.0
  0
LINE
  5
46
  8
DETAIL
  6
CONTINUOUS
 62
     5
 10
-155.0
 20
-155.63755699999999
 30
0.0
 11
-155.0
 21
-150.0
 31
0.0
  0
LINE
  5
47
  8
DETAIL
  6
CONTINUOUS
 62
     5
 10
155.0
 20
-155.63746499999991
 30
0.0
 11
155.0
 21
-150.0
 31
0.0
  0
LINE
  5
48
  8
DETAIL
  6
CONTINUOUS
 62
     5
 10
-154.445671
 20
-155.63755699999999
 30
0.0
 11
-136.782251
 21
-155.63755699999999
 31
0.0
  0
LINE
  5
49
  8
DETAIL
  6
CONTINUOUS
 62
     5
 10
154.445671
 20
-155.63746499999991
 30
0.0
 11
136.78225800000001
 21
-155.63746499999991
 31
0.0
  0
ARC
  5
4A
  8
DETAIL
  6
CONTINUOUS
 62
     5
 10
-43.665135999999997
 20
18.63437399999998
 30
0.0
 40
99.767345000000006
 50
80.384237999999982
 51
115.2799629999999
  0
ARC
  5
4B
  8
DETAIL
  6
CONTINUOUS
 62
     5
 10
-27.097950000000001
 20
-326.312702
 30
0.0
 40
453.31271299999992
 50
89.987619999999964
 51
101.123942
  0
ARC
  5
4C
  8
DETAIL
  6
CONTINUOUS
 62
     5
 10
1633.0817649999999
 20
-66.766005000000007
 30
0.0
 40
1783.081766
 50
175.10881699999999
 51
180.00161399999999
  0
ARC
  5
4D
  8
DETAIL
  6
CONTINUOUS
 62
     5
 10
-54.674715999999989
 20
40.794765999999981
 30
0.0
 40
75.029273000000003
 50
114.904398
 51
159.942306
  0
ARC
  5
4E
  8
DETAIL
  6
CONTINUOUS
 62
     5
 10
222.30612500000001
 20
-39.657764999999998
 30
0.0
 40
363.32259799999991
 50
163.006631
 51
184.2868729999999
  0
ARC
  5
4F
  8
DETAIL
  6
CONTINUOUS
 62
     5
 10
-103.8630629999999
 20
79.939087999999984
 30
0.0
 40
40.0
 50
105.5057679999999
 51
172.3470879999999
  0
LINE
  5
50
  8
DETAIL
  6
CONTINUOUS
 62
     5
 10
-150.0
 20
-66.816222999999994
 30
0.0
 11
-150.0
 21
-150.0
 31
0.0
  0
LINE
  5
51
  8
DETAIL
  6
CONTINUOUS
 62
     5
 10
-140.0
 20
-66.816222999999994
 30
0.0
 11
-140.0
 21
-150.0
 31
0.0
  0
LINE
  5
52
  8
DETAIL
  6
CONTINUOUS
 62
     5
 10
-101.0529999999999
 20
-48.556553000000001
 30
0.0
 11
-101.0529999999999
 21
-186.03367800000001
 31
0.0
  0
ARC
  5
53
  8
DETAIL
  6
CONTINUOUS
 62
     5
 10
-27.008337999999998
 20
1207.111973
 30
0.0
 40
1395.111973
 50
266.95763399999998
 51
270.00034199999988
  0
LINE
  5
54
  8
DETAIL
  6
CONTINUOUS
 62
     5
 10
-140.0
 20
-150.0
 30
0.0
 11
-150.0
 21
-150.0
 31
0.0
  0
CIRCLE
  5
55
  8
DETAIL
  6
CONTINUOUS
 62
     5
 10
-145.0
 20
-84.0
 30
0.0
 40
2.25
  0
CIRCLE
  5
56
  8
DETAIL
  6
CONTINUOUS
 62
     5
 10
-102.0
 20
102.0
 30
0.0
 40
2.25
  0
CIRCLE
  5
57
  8
DETAIL
  6
CONTINUOUS
 62
     5
 10
102.0
 20
102.0
 30
0.0
 40
2.25
  0
CIRCLE
  5
58
  8
DETAIL
  6
CONTINUOUS
 62
     5
 10
145.0
 20
-84.0
 30
0.0
 40
2.25
  0
LINE
  5
59
  8
DETAIL
  6
CONTINUOUS
 62
     5
 10
140.0
 20
-150.0
 30
0.0
 11
150.0
 21
-150.0
 31
0.0
  0
ARC
  5
5A
  8
DETAIL
  6
CONTINUOUS
 62
     5
 10
27.008337999999998
 20
1207.111973
 30
0.0
 40
1395.111973
 50
269.99965800000001
 51
273.04236600000002
  0
LINE
  5
5B
  8
DETAIL
  6
CONTINUOUS
 62
     5
 10
101.0529999999999
 20
-48.556553000000001
 30
0.0
 11
101.0529999999999
 21
-186.03367800000001
 31
0.0
  0
LINE
  5
5C
  8
DETAIL
  6
CONTINUOUS
 62
     5
 10
140.0
 20
-66.816222999999994
 30
0.0
 11
140.0
 21
-150.0
 31
0.0
  0
LINE
  5
5D
  8
DETAIL
  6
CONTINUOUS
 62
     5
 10
150.0
 20
-66.816222999999994
 30
0.0
 11
150.0
 21
-150.0
 31
0.0
  0
ARC
  5
5E
  8
DETAIL
  6
CONTINUOUS
 62
     5
 10
103.8630629999999
 20
79.939087999999984
 30
0.0
 40
40.0
 50
7.6529119999999988
 51
74.494231999999982
  0
ARC
  5
5F
  8
DETAIL
  6
CONTINUOUS
 62
     5
 10
-173.0415449999999
 20
-35.601382999999998
 30
0.0
 40
314.59398399999998
 50
354.30559299999999
 51
21.984154999999991
  0
ARC
  5
60
  8
DETAIL
  6
CONTINUOUS
 62
     5
 10
-1633.0817649999999
 20
-66.766005000000007
 30
0.0
 40
1783.081766
 50
359.99838599999998
 51
4.8911829999999981
  0
ARC
  5
61
  8
DETAIL
  6
CONTINUOUS
 62
     5
 10
27.097950000000001
 20
-326.312702
 30
0.0
 40
453.31271299999992
 50
78.876058
 51
90.012379999999979
  0
ARC
  5
62
  8
DETAIL
  6
CONTINUOUS
 62
     5
 10
42.408522999999988
 20
20.180223999999988
 30
0.0
 40
98.038214999999994
 50
38.444445000000002
 51
99.042586
  0
LINE
  5
63
  8
DETAIL
  6
CONTINUOUS
 62
     5
 10
-27.0
 20
117.0
 30
0.0
 11
27.0
 21
117.0
 31
0.0
  0
LINE
  5
64
  8
DETAIL
  6
CONTINUOUS
 62
     5
 10
-27.0
 20
127.0
 30
0.0
 11
27.0
 21
127.0
 31
0.0
  0
ARC
  5
65
  8
DETAIL
  6
CONTINUOUS
 62
     5
 10
-70.740853999999999
 20
-114.2060249999999
 30
0.0
 40
77.96177299999998
 50
207.33047500000001
 51
247.11966200000001
  0
ARC
  5
66
  8
DETAIL
  6
CONTINUOUS
 62
     5
 10
70.740663999999995
 20
-114.205911
 30
0.0
 40
77.961950999999999
 50
292.88043399999992
 51
332.66957500000001
  0
LINE
  5
67
  8
BASIS
  6
DASHDOT
 62
     6
 10
-201.74396399999989
 20
0.0
 30
0.0
 11
199.48890599999999
 21
0.0
 31
0.0
  0
LINE
  5
68
  8
BASIS
  6
DASHDOT
 62
     6
 10
0.0
 20
-275.94531099999989
 30
0.0
 11
0.0
 21
220.63346299999989
 31
0.0
  0
LINE
  5
69
  8
NOTE
  6
CONTINUOUS
 62
     4
 10
-102.0
 20
82.0
 30
0.0
 11
-102.0
 21
122.0
 31
0.0
  0
LINE
  5
6A
  8
NOTE
  6
CONTINUOUS
 62
     4
 10
-122.0
 20
102.0
 30
0.0
 11
-82.0
 21
102.0
 31
0.0
  0
LINE
  5
6B
  8
NOTE
  6
CONTINUOUS
 62
     4
 10
102.0
 20
82.0
 30
0.0
 11
102.0
 21
122.0
 31
0.0
  0
LINE
  5
6C
  8
NOTE
  6
CONTINUOUS
 62
     4
 10
122.0
 20
102.0
 30
0.0
 11
82.0
 21
102.0
 31
0.0
  0
LINE
  5
6D
  8
NOTE
  6
CONTINUOUS
 62
     4
 10
-145.0
 20
-104.0
 30
0.0
 11
-145.0
 21
-64.0
 31
0.0
  0
LINE
  5
6E
  8
NOTE
  6
CONTINUOUS
 62
     4
 10
-165.0
 20
-84.0
 30
0.0
 11
-125.0
 21
-84.0
 31
0.0
  0
LINE
  5
6F
  8
NOTE
  6
CONTINUOUS
 62
     4
 10
145.0
 20
-104.0
 30
0.0
 11
145.0
 21
-64.0
 31
0.0
  0
LINE
  5
70
  8
NOTE
  6
CONTINUOUS
 62
     4
 10
165.0
 20
-84.0
 30
0.0
 11
125.0
 21
-84.0
 31
0.0
  0
LINE
  5
71
  8
SIZE
  6
CONTINUOUS
 62
    30
 10
-20.0
 20
127.0
 30
0.0
 11
-295.82804099999998
 21
127.0
 31
0.0
  0
LINE
  5
72
  8
SIZE
  6
CONTINUOUS
 62
    30
 10
-20.0
 20
117.0
 30
0.0
 11
-295.82804099999998
 21
117.0
 31
0.0
  0
LINE
  5
73
  8
SIZE
  6
CONTINUOUS
 62
    30
 10
-265.82804099999998
 20
125.0
 30
0.0
 11
-265.82804099999998
 21
119.0
 31
0.0
  0
TEXT
  5
74
  8
SIZE
  6
CONTINUOUS
 62
    30
 10
-297.82804099999998
 20
160.97539585714279
 30
0.0
 40
64.0
  1
10
 50
90.0
 41
0.9
 72
     1
 11
-297.82804099999998
 21
202.1182529999999
 31
0.0
  0
CIRCLE
  5
75
  8
SIZE
  6
CONTINUOUS
 62
    30
 10
-265.82804099999998
 20
127.0
 30
0.0
 40
6.0
  0
CIRCLE
  5
76
  8
SIZE
  6
CONTINUOUS
 62
    30
 10
-265.82804099999998
 20
117.0
 30
0.0
 40
6.0
  0
LINE
  5
7A
  8
SIZE
  6
CONTINUOUS
 62
    30
 10
-20.0
 20
127.0
 30
0.0
 11
-431.36391800000001
 21
127.0
 31
0.0
  0
LINE
  5
7B
  8
SIZE
  6
CONTINUOUS
 62
    30
 10
-148.12167700000001
 20
-188.0
 30
0.0
 11
-431.36391800000001
 21
-188.0
 31
0.0
  0
LINE
  5
7C
  8
SIZE
  6
CONTINUOUS
 62
    30
 10
-401.36391800000001
 20
127.0
 30
0.0
 11
-401.36391800000001
 21
-188.0
 31
0.0
  0
TEXT
  5
7D
  8
SIZE
  6
CONTINUOUS
 62
    30
 10
-433.36391799999979
 20
-126.5714285714286
 30
0.0
 40
64.0
  1
315
 50
90.0
 41
0.9
 72
     1
 11
-433.36391799999979
 21
-58.0
 31
0.0
  0
CIRCLE
  5
7E
  8
SIZE
  6
CONTINUOUS
 62
    30
 10
-401.36391800000001
 20
127.0
 30
0.0
 40
6.0
  0
CIRCLE
  5
7F
  8
SIZE
  6
CONTINUOUS
 62
    30
 10
-401.36391800000001
 20
-188.0
 30
0.0
 40
6.0
  0
LINE
  5
83
  8
SIZE
  6
CONTINUOUS
 62
    30
 10
-150.0
 20
-170.287372
 30
0.0
 11
-150.0
 21
-440.62162699999988
 31
0.0
  0
LINE
  5
84
  8
SIZE
  6
CONTINUOUS
 62
    30
 10
150.0
 20
-170.287464
 30
0.0
 11
150.0
 21
-440.62162699999988
 31
0.0
  0
LINE
  5
85
  8
SIZE
  6
CONTINUOUS
 62
    30
 10
-150.0
 20
-410.62162699999999
 30
0.0
 11
150.0
 21
-410.62162699999999
 31
0.0
  0
TEXT
  5
86
  8
SIZE
  6
CONTINUOUS
 62
    30
 10
-74.05714285714285
 20
-381.86228599999993
 30
0.0
 40
64.0
  1
300
 41
0.9
 72
     1
 11
0.0
 21
-381.86228599999993
 31
0.0
  0
CIRCLE
  5
87
  8
SIZE
  6
CONTINUOUS
 62
    30
 10
-150.0
 20
-410.62162699999999
 30
0.0
 40
6.0
  0
CIRCLE
  5
88
  8
SIZE
  6
CONTINUOUS
 62
    30
 10
150.0
 20
-410.62162699999999
 30
0.0
 40
6.0
  0
LINE
  5
8C
  8
SIZE
  6
CONTINUOUS
 62
    30
 10
-155.0
 20
-170.287372
 30
0.0
 11
-155.0
 21
-573.49354699999981
 31
0.0
  0
LINE
  5
8D
  8
SIZE
  6
CONTINUOUS
 62
    30
 10
155.0
 20
-170.287464
 30
0.0
 11
155.0
 21
-573.49354699999981
 31
0.0
  0
LINE
  5
8E
  8
SIZE
  6
CONTINUOUS
 62
    30
 10
-155.0
 20
-543.49354699999992
 30
0.0
 11
155.0
 21
-543.49354699999992
 31
0.0
  0
TEXT
  5
8F
  8
SIZE
  6
CONTINUOUS
 62
    30
 10
-68.571428571428555
 20
-516.66377899999998
 30
0.0
 40
64.0
  1
310
 41
0.9
 72
     1
 11
0.0
 21
-516.66377899999998
 31
0.0
  0
CIRCLE
  5
90
  8
SIZE
  6
CONTINUOUS
 62
    30
 10
-155.0
 20
-543.49354699999992
 30
0.0
 40
6.0
  0
CIRCLE
  5
91
  8
SIZE
  6
CONTINUOUS
 62
    30
 10
155.0
 20
-543.49354699999992
 30
0.0
 40
6.0
  0
LINE
  5
95
  8
SIZE
  6
CONTINUOUS
 62
    30
 10
-265.82804099999998
 20
127.0
 30
0.0
 11
-265.82804099999998
 21
252.29270999999989
 31
0.0
  0
TEXT
  5
96
  8
NOTE
  6
CONTINUOUS
 62
     4
 10
177.86864299999999
 20
250.810743
 30
0.0
 40
64.0
  1
4×φ4.5ノックアウト取付穴
 41
0.9
  0
LINE
  5
97
  8
NOTE
  6
CONTINUOUS
 62
     4
 10
161.552932
 20
226.54129800000001
 30
0.0
 11
1126.7057130000001
 21
226.54129800000001
 31
0.0
  0
LINE
  5
98
  8
NOTE
  6
CONTINUOUS
 62
     4
 10
102.0
 20
102.0
 30
0.0
 11
161.552932
 21
226.54129800000001
 31
0.0
  0
LINE
  5
99
  8
NOTE
  6
CONTINUOUS
 62
     4
 10
109.9646059999999
 20
141.1990439999999
 30
0.0
 11
102.0
 21
102.0
 31
0.0
  0
LINE
  5
9A
  8
NOTE
  6
CONTINUOUS
 62
     4
 10
102.0
 20
102.0
 30
0.0
 11
128.4970729999998
 21
131.9650649999999
 31
0.0
  0
CIRCLE
  5
9B
  8
FIX
  6
CONTINUOUS
 62
    11
 10
-102.0
 20
102.0
 30
0.0
 40
2.25
  0
CIRCLE
  5
9C
  8
FIX
  6
CONTINUOUS
 62
    11
 10
102.0
 20
102.0
 30
0.0
 40
2.25
  0
CIRCLE
  5
9D
  8
FIX
  6
CONTINUOUS
 62
    11
 10
-145.0
 20
-84.0
 30
0.0
 40
2.25
  0
CIRCLE
  5
9E
  8
FIX
  6
CONTINUOUS
 62
    11
 10
145.0
 20
-84.0
 30
0.0
 40
2.25
  0
POINT
  5
9F
  8
ARRANGE
  6
CONTINUOUS
 62
     1
 10
0.0
 20
0.0
 30
0.0
  0
CIRCLE
  5
A0
  8
ARRANGE
  6
CONTINUOUS
 62
     1
 10
0.0
 20
0.0
 30
0.0
 40
40.0
  0
LINE
  5
A1
  8
OUTLINE
  6
CONTINUOUS
 62
     3
 10
-27.0
 20
127.0
 30
0.0
 11
27.0
 21
127.0
 31
0.0
  0
ARC
  5
A2
  8
OUTLINE
  6
CONTINUOUS
 62
     3
 10
27.097950000000001
 20
-326.312702
 30
0.0
 40
453.31271299999992
 50
78.876058
 51
90.012379999999979
  0
ARC
  5
A3
  8
OUTLINE
  6
CONTINUOUS
 62
     3
 10
-1633.0817649999999
 20
-66.766005000000007
 30
0.0
 40
1783.081766
 50
359.99838599999998
 51
4.8911829999999981
  0
ARC
  5
A4
  8
OUTLINE
  6
CONTINUOUS
 62
     3
 10
103.8630629999999
 20
79.939087999999984
 30
0.0
 40
40.0
 50
7.6529119999999988
 51
74.494231999999982
  0
LINE
  5
A5
  8
OUTLINE
  6
CONTINUOUS
 62
     3
 10
150.0
 20
-66.816222999999994
 30
0.0
 11
150.0
 21
-150.0
 31
0.0
  0
LINE
  5
A6
  8
OUTLINE
  6
CONTINUOUS
 62
     3
 10
-150.0
 20
-66.816222999999994
 30
0.0
 11
-150.0
 21
-150.0
 31
0.0
  0
ARC
  5
A7
  8
OUTLINE
  6
CONTINUOUS
 62
     3
 10
-103.8630629999999
 20
79.939087999999984
 30
0.0
 40
40.0
 50
105.5057679999999
 51
172.3470879999999
  0
ARC
  5
A8
  8
OUTLINE
  6
CONTINUOUS
 62
     3
 10
1633.0817649999999
 20
-66.766005000000007
 30
0.0
 40
1783.081766
 50
175.10881699999999
 51
180.00161399999999
  0
ARC
  5
A9
  8
OUTLINE
  6
CONTINUOUS
 62
     3
 10
-27.097950000000001
 20
-326.312702
 30
0.0
 40
453.31271299999992
 50
89.987619999999964
 51
101.123942
  0
LINE
  5
AA
  8
OUTLINE
  6
CONTINUOUS
 62
     3
 10
155.0
 20
-155.63746499999991
 30
0.0
 11
155.0
 21
-150.0
 31
0.0
  0
LINE
  5
AB
  8
OUTLINE
  6
CONTINUOUS
 62
     3
 10
-155.0
 20
-155.63755699999999
 30
0.0
 11
-155.0
 21
-150.0
 31
0.0
  0
LINE
  5
AC
  8
OUTLINE
  6
CONTINUOUS
 62
     3
 10
150.0
 20
-150.0
 30
0.0
 11
155.0
 21
-150.0
 31
0.0
  0
LINE
  5
AD
  8
OUTLINE
  6
CONTINUOUS
 62
     3
 10
-150.0
 20
-150.0
 30
0.0
 11
-155.0
 21
-150.0
 31
0.0
  0
LINE
  5
AE
  8
OUTLINE
  6
CONTINUOUS
 62
     3
 10
155.0
 20
-155.63746499999991
 30
0.0
 11
145.44218499999999
 21
-174.9550539999999
 31
0.0
  0
LINE
  5
AF
  8
OUTLINE
  6
CONTINUOUS
 62
     3
 10
-155.0
 20
-155.63755699999999
 30
0.0
 11
-145.44218499999999
 21
-174.9551459999999
 31
0.0
  0
LINE
  5
B0
  8
OUTLINE
  6
CONTINUOUS
 62
     3
 10
0.0
 20
-188.38302200000001
 30
0.0
 11
128.12167700000001
 21
-188.38302200000001
 31
0.0
  0
ARC
  5
B1
  8
OUTLINE
  6
CONTINUOUS
 62
     3
 10
111.990548
 20
-149.69105400000001
 30
0.0
 40
41.919944000000001
 50
292.63182
 51
322.93845399999998
  0
LINE
  5
B2
  8
OUTLINE
  6
CONTINUOUS
 62
     3
 10
0.0
 20
-188.38302200000001
 30
0.0
 11
-128.12167700000001
 21
-188.38302200000001
 31
0.0
  0
ARC
  5
B3
  8
OUTLINE
  6
CONTINUOUS
 62
     3
 10
-111.99078399999991
 20
-149.69118499999999
 30
0.0
 40
41.919732000000003
 50
217.06169799999989
 51
247.3684089999999
  0
LINE
  5
B4
  8
SIZE
  6
CONTINUOUS
 62
    30
 10
-102.0
 20
122.0
 30
0.0
 11
-102.0
 21
270.20132699999999
 31
0.0
  0
LINE
  5
B5
  8
SIZE
  6
CONTINUOUS
 62
    30
 10
102.0
 20
122.0
 30
0.0
 11
102.0
 21
270.20132699999999
 31
0.0
  0
LINE
  5
B6
  8
SIZE
  6
CONTINUOUS
 62
    30
 10
-102.0
 20
240.20132699999991
 30
0.0
 11
102.0
 21
240.20132699999991
 31
0.0
  0
TEXT
  5
B7
  8
SIZE
  6
CONTINUOUS
 62
    30
 10
-75.428571428571416
 20
262.5886319999999
 30
0.0
 40
64.0
  1
204
 41
0.9
 72
     1
 11
0.0
 21
262.5886319999999
 31
0.0
  0
CIRCLE
  5
B8
  8
SIZE
  6
CONTINUOUS
 62
    30
 10
-102.0
 20
240.20132699999991
 30
0.0
 40
6.0
  0
CIRCLE
  5
B9
  8
SIZE
  6
CONTINUOUS
 62
    30
 10
102.0
 20
240.20132699999991
 30
0.0
 40
6.0
  0
LINE
  5
BD
  8
SIZE
  6
CONTINUOUS
 62
    30
 10
122.0
 20
102.0
 30
0.0
 11
301.50388500000008
 21
102.0
 31
0.0
  0
LINE
  5
BE
  8
SIZE
  6
CONTINUOUS
 62
    30
 10
158.7447949999999
 20
0.0
 30
0.0
 11
301.50388500000008
 21
0.0
 31
0.0
  0
LINE
  5
BF
  8
SIZE
  6
CONTINUOUS
 62
    30
 10
271.50388500000003
 20
102.0
 30
0.0
 11
271.50388500000003
 21
2.0
 31
0.0
  0
TEXT
  5
C0
  8
SIZE
  6
CONTINUOUS
 62
    30
 10
257.92887899999999
 20
-249.3751655714286
 30
0.0
 40
64.0
  1
102
 50
90.0
 41
0.9
 72
     1
 11
257.92887899999999
 21
-180.80373700000001
 31
0.0
  0
CIRCLE
  5
C1
  8
SIZE
  6
CONTINUOUS
 62
    30
 10
271.50388500000003
 20
102.0
 30
0.0
 40
6.0
  0
CIRCLE
  5
C2
  8
SIZE
  6
CONTINUOUS
 62
    30
 10
271.50388500000003
 20
0.0
 30
0.0
 40
6.0
  0
LINE
  5
C6
  8
SIZE
  6
CONTINUOUS
 62
    30
 10
20.0
 20
127.0
 30
0.0
 11
436.18949199999997
 21
127.0
 31
0.0
  0
LINE
  5
C7
  8
SIZE
  6
CONTINUOUS
 62
    30
 10
158.7447949999999
 20
0.0
 30
0.0
 11
436.18949199999997
 21
0.0
 31
0.0
  0
LINE
  5
C8
  8
SIZE
  6
CONTINUOUS
 62
    30
 10
406.18949199999992
 20
127.0
 30
0.0
 11
406.18949199999992
 21
2.0
 31
0.0
  0
TEXT
  5
C9
  8
SIZE
  6
CONTINUOUS
 62
    30
 10
377.95441199999999
 20
-246.58545657142849
 30
0.0
 40
64.0
  1
127
 50
90.0
 41
0.9
 72
     1
 11
377.95441199999999
 21
-178.01402799999991
 31
0.0
  0
CIRCLE
  5
CA
  8
SIZE
  6
CONTINUOUS
 62
    30
 10
406.18949199999992
 20
127.0
 30
0.0
 40
6.0
  0
CIRCLE
  5
CB
  8
SIZE
  6
CONTINUOUS
 62
    30
 10
406.18949199999992
 20
0.0
 30
0.0
 40
6.0
  0
LINE
  5
CF
  8
SIZE
  6
CONTINUOUS
 62
    30
 10
122.0
 20
102.0
 30
0.0
 11
576.879684
 21
102.0
 31
0.0
  0
LINE
  5
D0
  8
SIZE
  6
CONTINUOUS
 62
    30
 10
165.0
 20
-84.0
 30
0.0
 11
576.879684
 21
-84.0
 31
0.0
  0
LINE
  5
D1
  8
SIZE
  6
CONTINUOUS
 62
    30
 10
546.879684
 20
102.0
 30
0.0
 11
546.879684
 21
-82.0
 31
0.0
  0
TEXT
  5
D2
  8
SIZE
  6
CONTINUOUS
 62
    30
 10
523.14894700000002
 20
-248.175904
 30
0.0
 40
64.0
  1
186
 50
90.0
 41
0.9
 72
     1
 11
523.14894700000002
 21
-180.97590400000001
 31
0.0
  0
CIRCLE
  5
D3
  8
SIZE
  6
CONTINUOUS
 62
    30
 10
546.879684
 20
102.0
 30
0.0
 40
6.0
  0
CIRCLE
  5
D4
  8
SIZE
  6
CONTINUOUS
 62
    30
 10
546.879684
 20
-84.0
 30
0.0
 40
6.0
  0
LINE
  5
D8
  8
SIZE
  6
CONTINUOUS
 62
    30
 10
145.0
 20
-64.0
 30
0.0
 11
145.0
 21
413.25639299999989
 31
0.0
  0
LINE
  5
D9
  8
SIZE
  6
CONTINUOUS
 62
    30
 10
-145.0
 20
-64.0
 30
0.0
 11
-145.0
 21
413.25639299999989
 31
0.0
  0
LINE
  5
DA
  8
SIZE
  6
CONTINUOUS
 62
    30
 10
145.0
 20
383.256393
 30
0.0
 11
-145.0
 21
383.256393
 31
0.0
  0
TEXT
  5
DB
  8
SIZE
  6
CONTINUOUS
 62
    30
 10
-74.05714285714285
 20
402.41174899999999
 30
0.0
 40
64.0
  1
290
 41
0.9
 72
     1
 11
0.0
 21
402.41174899999999
 31
0.0
  0
CIRCLE
  5
DC
  8
SIZE
  6
CONTINUOUS
 62
    30
 10
145.0
 20
383.256393
 30
0.0
 40
6.0
  0
CIRCLE
  5
DD
  8
SIZE
  6
CONTINUOUS
 62
    30
 10
-145.0
 20
383.256393
 30
0.0
 40
6.0
  0
LINE
  5
E1
  8
SIZE
  6
CONTINUOUS
 62
    30
 10
546.879684
 20
-78.0
 30
0.0
 11
546.879684
 21
-253.54188599999989
 31
0.0
  0
LINE
  5
E2
  8
SIZE
  6
CONTINUOUS
 62
    30
 10
406.18949199999992
 20
6.0
 30
0.0
 11
406.18949199999992
 21
-253.54188599999989
 31
0.0
  0
LINE
  5
E3
  8
SIZE
  6
CONTINUOUS
 62
    30
 10
271.50388500000003
 20
6.0
 30
0.0
 11
271.50388500000003
 21
-250.58000699999991
 31
0.0
  0
LINE
  5
E4
  8
SIZE
  6
CONTINUOUS
 62
    30
 10
-20.0
 20
117.0
 30
0.0
 11
-295.82804099999998
 21
117.0
 31
0.0
  0
LINE
  5
E5
  8
SIZE
  6
CONTINUOUS
 62
    30
 10
-175.0
 20
-150.0
 30
0.0
 11
-295.82804099999998
 21
-150.0
 31
0.0
  0
LINE
  5
E6
  8
SIZE
  6
CONTINUOUS
 62
    30
 10
-265.82804099999998
 20
127.0
 30
0.0
 11
-265.82804099999998
 21
-150.0
 31
0.0
  0
TEXT
  5
E7
  8
SIZE
  6
CONTINUOUS
 62
    30
 10
-286.30768899999998
 20
-90.557142857142864
 30
0.0
 40
64.0
  1
267
 50
90.0
 41
0.9
 72
     1
 11
-286.30768899999998
 21
-16.5
 31
0.0
  0
CIRCLE
  5
E8
  8
SIZE
  6
CONTINUOUS
 62
    30
 10
-265.82804099999998
 20
117.0
 30
0.0
 40
6.0
  0
CIRCLE
  5
E9
  8
SIZE
  6
CONTINUOUS
 62
    30
 10
-265.82804099999998
 20
-150.0
 30
0.0
 40
6.0
  0
TEXT
  5
1D3
  8
ETC
  6
CONTINUOUS
 62
    61
 10
640.32068223265526
 20
482.54441927467821
 30
0.0
 40
50.0
  1
システム部材
 41
0.9
  0
TEXT
  5
1D4
  8
ETC
  6
CONTINUOUS
 62
    61
 10
649.00645605329976
 20
559.30783564863407
 30
0.0
 40
50.0
  1
PZ-20VSD4_2
 41
0.9
  0
TEXT
  5
1D5
  8
ETC
  6
CONTINUOUS
 62
    61
 10
750.84246218985118
 20
418.7689942828045
 30
0.0
 40
40.0
  1
PZ-20VSD4
 41
0.9
  0
ENDSEC
  0
EOF
