  0
SECTION
  2
HEADER
  9
$ACADVER
  1
AC1009
  9
$INSBASE
 10
0.0
 20
0.0
 30
0.0
  9
$EXTMIN
 10
-844.997883
 20
-500.5862469999999
 30
0.0
  9
$EXTMAX
 10
1105.485353714286
 20
744.75938694550939
 30
50.0
  9
$LIMMIN
 10
-2970.0
 20
-2100.0
  9
$LIMMAX
 10
2970.0
 20
2100.0
  9
$ORTHOMODE
 70
     1
  9
$REGENMODE
 70
     0
  9
$FILLMODE
 70
     1
  9
$QTEXTMODE
 70
     0
  9
$MIRRTEXT
 70
     0
  9
$DRAGMODE
 70
     2
  9
$LTSCALE
 40
20.0
  9
$OSMODE
 70
    55
  9
$ATTMODE
 70
     1
  9
$TEXTSIZE
 40
42.0
  9
$TRACEWID
 40
0.05
  9
$TEXTSTYLE
  7
STANDARD
  9
$CLAYER
  8
SIZE
  9
$CELTYPE
  6
CONTINUOUS
  9
$CECOLOR
 62
    61
  9
$DIMSCALE
 40
1.0
  9
$DIMASZ
 40
12.0
  9
$DIMEXO
 40
20.0
  9
$DIMDLI
 40
200.0
  9
$DIMRND
 40
0.0
  9
$DIMDLE
 40
0.0
  9
$DIMEXE
 40
20.0
  9
$DIMTP
 40
0.0
  9
$DIMTM
 40
0.0
  9
$DIMTXT
 40
64.0
  9
$DIMCEN
 40
0.09
  9
$DIMTSZ
 40
0.0
  9
$DIMTOL
 70
     0
  9
$DIMLIM
 70
     0
  9
$DIMTIH
 70
     0
  9
$DIMTOH
 70
     0
  9
$DIMSE1
 70
     0
  9
$DIMSE2
 70
     0
  9
$DIMTAD
 70
     1
  9
$DIMZIN
 70
     8
  9
$DIMBLK
  1
DOT1
  9
$DIMASO
 70
     1
  9
$DIMSHO
 70
     0
  9
$DIMPOST
  1

  9
$DIMAPOST
  1

  9
$DIMALT
 70
     0
  9
$DIMALTD
 70
     2
  9
$DIMALTF
 40
25.399999999999999
  9
$DIMLFAC
 40
1.0
  9
$DIMTOFL
 70
     1
  9
$DIMTVP
 40
0.0
  9
$DIMTIX
 70
     1
  9
$DIMSOXD
 70
     0
  9
$DIMSAH
 70
     1
  9
$DIMBLK1
  1
ORIGIN
  9
$DIMBLK2
  1
ORIGIN
  9
$DIMSTYLE
  2
STANDARD
  9
$DIMCLRD
 70
     0
  9
$DIMCLRE
 70
     0
  9
$DIMCLRT
 70
     0
  9
$DIMTFAC
 40
1.0
  9
$DIMGAP
 40
0.09
  9
$LUNITS
 70
     2
  9
$LUPREC
 70
     4
  9
$SKETCHINC
 40
0.1
  9
$FILLETRAD
 40
7.5
  9
$AUNITS
 70
     1
  9
$AUPREC
 70
     3
  9
$MENU
  1
ACAD
  9
$ELEVATION
 40
0.0
  9
$PELEVATION
 40
0.0
  9
$THICKNESS
 40
50.0
  9
$LIMCHECK
 70
     0
  9
$BLIPMODE
 70
     0
  9
$CHAMFERA
 40
0.0
  9
$CHAMFERB
 40
0.0
  9
$SKPOLY
 70
     0
  9
$TDCREATE
 40
2452321.3961996529
  9
$TDUPDATE
 40
2456321.6655416791
  9
$TDINDWG
 40
0.3114119213
  9
$TDUSRTIMER
 40
0.3114117361
  9
$USRTIMER
 70
     1
  9
$ANGBASE
 50
0.0
  9
$ANGDIR
 70
     0
  9
$PDMODE
 70
     3
  9
$PDSIZE
 40
-2.0
  9
$PLINEWID
 40
0.0
  9
$COORDS
 70
     1
  9
$SPLFRAME
 70
     0
  9
$SPLINETYPE
 70
     6
  9
$SPLINESEGS
 70
     8
  9
$ATTDIA
 70
     0
  9
$ATTREQ
 70
     1
  9
$HANDLING
 70
     1
  9
$HANDSEED
  5
1ED
  9
$SURFTAB1
 70
     6
  9
$SURFTAB2
 70
     6
  9
$SURFTYPE
 70
     6
  9
$SURFU
 70
     6
  9
$SURFV
 70
     6
  9
$UCSNAME
  2

  9
$UCSORG
 10
0.0
 20
0.0
 30
0.0
  9
$UCSXDIR
 10
1.0
 20
0.0
 30
0.0
  9
$UCSYDIR
 10
0.0
 20
1.0
 30
0.0
  9
$PUCSNAME
  2

  9
$PUCSORG
 10
0.0
 20
0.0
 30
0.0
  9
$PUCSXDIR
 10
1.0
 20
0.0
 30
0.0
  9
$PUCSYDIR
 10
0.0
 20
1.0
 30
0.0
  9
$USERI1
 70
     0
  9
$USERI2
 70
     0
  9
$USERI3
 70
     0
  9
$USERI4
 70
     0
  9
$USERI5
 70
     0
  9
$USERR1
 40
20.0
  9
$USERR2
 40
0.0
  9
$USERR3
 40
0.0
  9
$USERR4
 40
0.0
  9
$USERR5
 40
0.0
  9
$WORLDVIEW
 70
     1
  9
$SHADEDGE
 70
     3
  9
$SHADEDIF
 70
    70
  9
$TILEMODE
 70
     1
  9
$MAXACTVP
 70
    64
  9
$PLIMCHECK
 70
     0
  9
$PEXTMIN
 10
1.0000000000000000E+020
 20
1.0000000000000000E+020
 30
1.0000000000000000E+020
  9
$PEXTMAX
 10
-1.0000000000000000E+020
 20
-1.0000000000000000E+020
 30
-1.0000000000000000E+020
  9
$PLIMMIN
 10
0.0
 20
0.0
  9
$PLIMMAX
 10
12.0
 20
9.0
  9
$UNITMODE
 70
     0
  9
$VISRETAIN
 70
     1
  9
$PLINEGEN
 70
     0
  9
$PSLTSCALE
 70
     1
  0
ENDSEC
  0
SECTION
  2
TABLES
  0
TABLE
  2
VPORT
 70
     1
  0
VPORT
  2
*ACTIVE
 70
     0
 10
0.0
 20
0.0
 11
1.0
 21
1.0
 12
702.0646298042775
 22
138.2060255562248
 13
0.0
 23
0.0
 14
1.0
 24
1.0
 15
0.0
 25
0.0
 16
0.0
 26
0.0
 36
1.0
 17
0.0
 27
0.0
 37
0.0
 40
2127.5358022471132
 41
1.693029490616621
 42
50.0
 43
0.0
 44
0.0
 50
0.0
 51
0.0
 71
     0
 72
   100
 73
     1
 74
     0
 75
     0
 76
     0
 77
     0
 78
     0
  0
ENDTAB
  0
TABLE
  2
LTYPE
 70
     3
  0
LTYPE
  2
CONTINUOUS
 70
     0
  3
実線
 72
    65
 73
     0
 40
0.0
  0
LTYPE
  2
DASHDOT
 70
     0
  3
____ _ ____ _ ____ _ ____ _ ____ _ ____ _ ____
 72
    65
 73
     4
 40
5.5
 49
4.0
 49
-0.6
 49
0.3
 49
-0.6
  0
ENDTAB
  0
TABLE
  2
LAYER
 70
    12
  0
LAYER
  2
0
 70
     0
 62
     7
  6
CONTINUOUS
  0
LAYER
  2
SIZE
 70
     0
 62
    30
  6
CONTINUOUS
  0
LAYER
  2
BASIS
 70
     0
 62
     6
  6
DASHDOT
  0
LAYER
  2
OUTLINE
 70
     0
 62
     3
  6
CONTINUOUS
  0
LAYER
  2
DETAIL
 70
     0
 62
     5
  6
CONTINUOUS
  0
LAYER
  2
ARRANGE
 70
     0
 62
     1
  6
CONTINUOUS
  0
LAYER
  2
DEFPOINTS
 70
     0
 62
     7
  6
CONTINUOUS
  0
LAYER
  2
ETC
 70
     0
 62
    61
  6
CONTINUOUS
  0
LAYER
  2
FIX
 70
     0
 62
    11
  6
CONTINUOUS
  0
LAYER
  2
NOTE
 70
     0
 62
     4
  6
CONTINUOUS
  0
LAYER
  2
SERVICESPACE
 70
     0
 62
     2
  6
DASHDOT
  0
LAYER
  2
SYMBOLLINE
 70
     0
 62
    15
  6
CONTINUOUS
  0
ENDTAB
  0
TABLE
  2
STYLE
 70
     2
  0
STYLE
  2
STANDARD
 70
     0
 40
42.0
 41
0.9
 50
0.0
 71
     0
 42
42.0
  3
SIMPLEX.shx
  4
BIGFONT.shx
  0
STYLE
  2
ANNOTATIVE
 70
     0
 40
0.0
 41
1.0
 50
0.0
 71
     0
 42
0.2
  3
txt
  4

  0
ENDTAB
  0
TABLE
  2
VIEW
 70
     1
  0
VIEW
  2
ALL
 70
     0
 40
4282.6198079999986
 10
0.0
 20
41.309903999999989
 41
5940.0
 11
0.0
 21
0.0
 31
1.0
 12
0.0
 22
0.0
 32
0.0
 42
50.0
 43
0.0
 44
0.0
 50
0.0
 71
     0
  0
ENDTAB
  0
TABLE
  2
UCS
 70
     0
  0
ENDTAB
  0
TABLE
  2
APPID
 70
     6
  0
APPID
  2
ACAD
 70
     0
  0
APPID
  2
ACADANNOTATIVE
 70
     0
  0
APPID
  2
ACAD_NAV_VCDISPLAY
 70
     0
  0
APPID
  2
ACAD_EXEMPT_FROM_CAD_STANDARDS
 70
     0
  0
APPID
  2
ACADANNOPO
 70
     0
  0
APPID
  2
ACAD_MLEADERVER
 70
     0
  0
ENDTAB
  0
TABLE
  2
DIMSTYLE
 70
     2
  0
DIMSTYLE
  2
STANDARD
 70
     0
  3

  4

  5

  6

  7

 40
1.0
 41
0.18
 42
0.0625
 43
0.38
 44
0.18
 45
0.0
 46
0.0
 47
0.0
 48
0.0
140
0.18
141
0.09
142
0.0
143
25.399999999999999
144
1.0
145
0.0
146
1.0
147
0.09
 71
     0
 72
     0
 73
     1
 74
     1
 75
     0
 76
     0
 77
     0
 78
     0
170
     0
171
     2
172
     0
173
     0
174
     0
175
     0
176
     0
177
     0
178
     0
  0
DIMSTYLE
  2
ANNOTATIVE
 70
     0
  3

  4

  5

  6

  7

 40
1.0
 41
0.18
 42
0.0625
 43
0.38
 44
0.18
 45
0.0
 46
0.0
 47
0.0
 48
0.0
140
0.18
141
0.09
142
0.0
143
25.399999999999999
144
1.0
145
0.0
146
1.0
147
0.09
 71
     0
 72
     0
 73
     1
 74
     1
 75
     0
 76
     0
 77
     0
 78
     0
170
     0
171
     2
172
     0
173
     0
174
     0
175
     0
176
     0
177
     0
178
     0
  0
ENDTAB
  0
ENDSEC
  0
SECTION
  2
BLOCKS
  0
BLOCK
  8
0
  2
$MODEL_SPACE
 70
     0
 10
0.0
 20
0.0
 30
0.0
  3
$MODEL_SPACE
  1

  0
ENDBLK
  5
6D
  8
0
  0
BLOCK
 67
     1
  8
0
  2
$PAPER_SPACE
 70
     0
 10
0.0
 20
0.0
 30
0.0
  3
$PAPER_SPACE
  1

  0
ENDBLK
  5
69
 67
     1
  8
0
  0
BLOCK
  8
0
  2
DOT1
 70
     0
 10
0.0
 20
0.0
 30
0.0
  3
DOT1
  1

  0
CIRCLE
  5
82
  8
SIZE
  6
CONTINUOUS
 62
     7
 10
0.0
 20
0.0
 30
0.0
 40
3.0
  0
ENDBLK
  5
83
  8
0
  0
BLOCK
  8
0
  2
_ORIGIN
 70
     0
 10
0.0
 20
0.0
 30
0.0
  3
_ORIGIN
  1

  0
CIRCLE
  5
86
  8
0
  6
CONTINUOUS
 62
     7
 10
0.0
 20
0.0
 30
0.0
 40
0.5
  0
LINE
  5
87
  8
0
  6
CONTINUOUS
 62
     7
 10
0.0
 20
0.0
 30
0.0
 11
-1.0
 21
0.0
 31
0.0
  0
ENDBLK
  5
88
  8
0
  0
ENDSEC
  0
SECTION
  2
ENTITIES
  0
TEXT
  5
89
  8
ETC
  6
CONTINUOUS
 62
    61
 10
438.97106799999989
 20
680.75938694550916
 30
0.0
 40
64.0
  1
PZ-N10FGZP2_5
 41
0.9
  0
TEXT
  5
8A
  8
ETC
  6
CONTINUOUS
 62
    61
 10
425.35602537324928
 20
583.98229636990891
 30
0.0
 40
64.0
  1
システム部材
 41
0.9
  0
LINE
  5
8B
  8
BASIS
  6
DASHDOT
 62
     6
 39
50.0
 10
0.0
 20
-79.107720999999984
 30
0.0
 11
0.0
 21
293.615746
 31
0.0
  0
CIRCLE
  5
8C
  8
ARRANGE
  6
CONTINUOUS
 62
     1
 39
50.0
 10
0.0
 20
0.0
 30
0.0
 40
40.0
  0
POINT
  5
8D
  8
ARRANGE
  6
CONTINUOUS
 62
     1
 10
0.0
 20
0.0
 30
0.0
 39
50.0
  0
ARC
  5
8E
  8
DETAIL
  6
CONTINUOUS
 62
     5
 10
101.99946199999999
 20
250.73295400000001
 30
0.0
 40
0.5
 50
0.0
 51
89.412847999999997
  0
LINE
  5
8F
  8
DETAIL
  6
CONTINUOUS
 62
     5
 10
102.49946199999999
 20
250.73295400000001
 30
0.0
 11
102.49946199999999
 21
248.76909800000001
 31
0.0
  0
LINE
  5
90
  8
DETAIL
  6
CONTINUOUS
 62
     5
 10
102.00458500000001
 20
251.23292699999999
 30
0.0
 11
80.499461999999994
 21
251.45331400000001
 31
0.0
  0
LINE
  5
91
  8
DETAIL
  6
CONTINUOUS
 62
     5
 10
80.499461999999994
 20
251.45331400000001
 30
0.0
 11
80.499461999999994
 21
248.952933
 31
0.0
  0
LINE
  5
92
  8
DETAIL
  6
CONTINUOUS
 62
     5
 10
102.49946199999999
 20
248.76909800000001
 30
0.0
 11
80.499461999999994
 21
248.952933
 31
0.0
  0
LINE
  5
93
  8
BASIS
  6
DASHDOT
 62
     6
 39
50.0
 10
107.227284
 20
147.0
 30
0.0
 11
270.14453700000001
 21
147.0
 31
0.0
  0
LINE
  5
94
  8
DETAIL
  6
CONTINUOUS
 62
     5
 10
233.5
 20
196.0
 30
0.0
 11
233.5
 21
98.0
 31
0.0
  0
LINE
  5
95
  8
DETAIL
  6
CONTINUOUS
 62
     5
 10
233.5
 20
98.0
 30
0.0
 11
203.5
 21
97.476348000000002
 31
0.0
  0
LINE
  5
96
  8
DETAIL
  6
CONTINUOUS
 62
     5
 10
144.56249500000001
 20
86.550954999999988
 30
0.0
 11
157.976328
 21
89.089310999999995
 31
0.0
  0
LINE
  5
97
  8
DETAIL
  6
CONTINUOUS
 62
     5
 10
179.53490500000001
 20
89.465618000000006
 30
0.0
 11
157.976328
 21
89.089310999999995
 31
0.0
  0
ARC
  5
98
  8
DETAIL
  6
CONTINUOUS
 62
     5
 10
179.5
 20
91.465312999999995
 30
0.0
 40
2.0
 50
271.0
 51
0.0
  0
LINE
  5
99
  8
DETAIL
  6
CONTINUOUS
 62
     5
 10
181.5
 20
93.499999999999986
 30
0.0
 11
181.5
 21
91.465312999999995
 31
0.0
  0
ARC
  5
9A
  8
DETAIL
  6
CONTINUOUS
 62
     5
 10
196.23580000000001
 20
94.500000000000014
 30
0.0
 40
1.0
 50
270.0
 51
299.59872899999999
  0
LINE
  5
9B
  8
DETAIL
  6
CONTINUOUS
 62
     5
 10
181.5
 20
93.499999999999986
 30
0.0
 11
196.23580000000001
 21
93.499999999999986
 31
0.0
  0
LINE
  5
9C
  8
DETAIL
  6
CONTINUOUS
 62
     5
 10
196.72972300000001
 20
93.630493999999985
 30
0.0
 11
203.5
 21
97.476348000000002
 31
0.0
  0
LINE
  5
9D
  8
DETAIL
  6
CONTINUOUS
 62
     5
 10
233.5
 20
196.0
 30
0.0
 11
203.5
 21
196.523652
 31
0.0
  0
LINE
  5
9E
  8
DETAIL
  6
CONTINUOUS
 62
     5
 10
138.215148
 20
208.66554099999999
 30
0.0
 11
157.976328
 21
204.91068899999999
 31
0.0
  0
ARC
  5
9F
  8
DETAIL
  6
CONTINUOUS
 62
     5
 10
196.23580000000001
 20
199.5
 30
0.0
 40
1.0
 50
60.401270999999987
 51
90.0
  0
LINE
  5
A0
  8
DETAIL
  6
CONTINUOUS
 62
     5
 10
181.5
 20
200.5
 30
0.0
 11
196.23580000000001
 21
200.5
 31
0.0
  0
LINE
  5
A1
  8
DETAIL
  6
CONTINUOUS
 62
     5
 10
196.72972300000001
 20
200.369506
 30
0.0
 11
203.5
 21
196.523652
 31
0.0
  0
LINE
  5
A2
  8
DETAIL
  6
CONTINUOUS
 62
     5
 10
179.53490500000001
 20
204.53438199999999
 30
0.0
 11
157.976328
 21
204.91068899999999
 31
0.0
  0
ARC
  5
A3
  8
DETAIL
  6
CONTINUOUS
 62
     5
 10
179.5
 20
202.53468699999999
 30
0.0
 40
2.0
 50
0.0
 51
89.0
  0
LINE
  5
A4
  8
DETAIL
  6
CONTINUOUS
 62
     5
 10
181.5
 20
200.5
 30
0.0
 11
181.5
 21
202.53468699999999
 31
0.0
  0
LINE
  5
A5
  8
DETAIL
  6
CONTINUOUS
 62
     5
 10
195.97160099999999
 20
200.5
 30
0.0
 11
195.97160099999999
 21
93.499999999999986
 31
0.0
  0
LINE
  5
A6
  8
DETAIL
  6
CONTINUOUS
 62
     5
 10
179.5
 20
89.465008999999995
 30
0.0
 11
179.5
 21
204.53499099999999
 31
0.0
  0
LINE
  5
A7
  8
DETAIL
  6
CONTINUOUS
 62
     5
 10
29.5
 20
146.0
 30
0.0
 11
29.5
 21
144.40000000000001
 31
0.0
  0
LINE
  5
A8
  8
DETAIL
  6
CONTINUOUS
 62
     5
 10
-29.5
 20
146.0
 30
0.0
 11
-29.5
 21
144.40000000000001
 31
0.0
  0
LINE
  5
A9
  8
DETAIL
  6
CONTINUOUS
 62
     5
 10
-32.5
 20
96.53380300000002
 30
0.0
 11
-32.5
 21
146.0
 31
0.0
  0
LINE
  5
AA
  8
DETAIL
  6
CONTINUOUS
 62
     5
 10
32.5
 20
96.53380300000002
 30
0.0
 11
32.5
 21
146.0
 31
0.0
  0
LINE
  5
AB
  8
DETAIL
  6
CONTINUOUS
 62
     5
 10
32.5
 20
146.0
 30
0.0
 11
-32.5
 21
146.0
 31
0.0
  0
LINE
  5
AC
  8
DETAIL
  6
CONTINUOUS
 62
     5
 10
32.5
 20
144.40000000000001
 30
0.0
 11
-32.5
 21
144.40000000000001
 31
0.0
  0
LINE
  5
AD
  8
DETAIL
  6
CONTINUOUS
 62
     5
 10
-129.010278
 20
248.0
 30
0.0
 11
129.010278
 21
248.0
 31
0.0
  0
ARC
  5
AE
  8
DETAIL
  6
CONTINUOUS
 62
     5
 10
90.746773000000005
 20
256.0
 30
0.0
 40
2.0
 50
90.0
 51
172.87498400000001
  0
LINE
  5
AF
  8
DETAIL
  6
CONTINUOUS
 62
     5
 10
90.746773000000005
 20
258.0
 30
0.0
 11
97.215643999999998
 21
258.0
 31
0.0
  0
ARC
  5
B0
  8
DETAIL
  6
CONTINUOUS
 62
     5
 10
97.215643999999998
 20
256.0
 30
0.0
 40
2.0
 50
7.1250159999999987
 51
90.0
  0
LINE
  5
B1
  8
DETAIL
  6
CONTINUOUS
 62
     5
 10
88.153068000000005
 20
251.37487899999999
 30
0.0
 11
88.762217000000007
 21
256.24806899999999
 31
0.0
  0
LINE
  5
B2
  8
DETAIL
  6
CONTINUOUS
 62
     5
 10
99.981207999999995
 20
248.0
 30
0.0
 11
99.981207999999995
 21
248.79014100000001
 31
0.0
  0
LINE
  5
B3
  8
DETAIL
  6
CONTINUOUS
 62
     5
 10
99.200199999999995
 20
256.24806899999999
 30
0.0
 11
99.824298999999996
 21
251.25527099999999
 31
0.0
  0
LINE
  5
B4
  8
DETAIL
  6
CONTINUOUS
 62
     5
 10
87.981207999999995
 20
248.0
 30
0.0
 11
87.981207999999995
 21
248.89041499999999
 31
0.0
  0
LINE
  5
B5
  8
DETAIL
  6
CONTINUOUS
 62
     5
 10
-149.12464199999999
 20
0.0
 30
0.0
 11
-136.5
 21
240.89251999999999
 31
0.0
  0
CIRCLE
  5
B6
  8
FIX
  6
CONTINUOUS
 62
    11
 10
160.0
 20
0.0
 30
0.0
 40
4.5
  0
ARC
  5
B7
  8
DETAIL
  6
CONTINUOUS
 62
     5
 10
82.838532000000015
 20
486.46880599999992
 30
0.0
 40
500.0
 50
278.53028
 51
280.92125399999998
  0
LINE
  5
B8
  8
DETAIL
  6
CONTINUOUS
 62
     5
 10
-180.0
 20
0.0
 30
0.0
 11
180.0
 21
0.0
 31
0.0
  0
LINE
  5
B9
  8
DETAIL
  6
CONTINUOUS
 62
     5
 10
180.0
 20
-1.5297780000000001
 30
0.0
 11
180.0
 21
0.0
 31
0.0
  0
ARC
  5
BA
  8
DETAIL
  6
CONTINUOUS
 62
     5
 10
177.0
 20
-1.5297780000000001
 30
0.0
 40
3.0
 50
280.92125399999998
 51
0.0
  0
LINE
  5
BB
  8
DETAIL
  6
CONTINUOUS
 62
     5
 10
-157.00456500000001
 20
-8.0
 30
0.0
 11
157.00456500000001
 21
-8.0
 31
0.0
  0
CIRCLE
  5
BC
  8
FIX
  6
CONTINUOUS
 62
    11
 10
85.0
 20
0.0
 30
0.0
 40
4.5
  0
CIRCLE
  5
BD
  8
FIX
  6
CONTINUOUS
 62
    11
 10
-85.0
 20
0.0
 30
0.0
 40
4.5
  0
ARC
  5
BE
  8
DETAIL
  6
CONTINUOUS
 62
     5
 10
-177.0
 20
-1.5297780000000001
 30
0.0
 40
3.0
 50
180.0
 51
259.07874600000002
  0
LINE
  5
BF
  8
DETAIL
  6
CONTINUOUS
 62
     5
 10
-180.0
 20
-1.5297780000000001
 30
0.0
 11
-180.0
 21
0.0
 31
0.0
  0
CIRCLE
  5
C0
  8
FIX
  6
CONTINUOUS
 62
    11
 10
-160.0
 20
0.0
 30
0.0
 40
4.5
  0
ARC
  5
C1
  8
DETAIL
  6
CONTINUOUS
 62
     5
 10
-82.838532000000015
 20
486.46880599999992
 30
0.0
 40
500.0
 50
259.07874600000002
 51
261.46972
  0
LINE
  5
C2
  8
NOTE
  6
CONTINUOUS
 62
     4
 10
-160.0
 20
20.0
 30
0.0
 11
-160.0
 21
-20.0
 31
0.0
  0
LINE
  5
C3
  8
NOTE
  6
CONTINUOUS
 62
     4
 10
-140.0
 20
0.0
 30
0.0
 11
-180.0
 21
0.0
 31
0.0
  0
LINE
  5
C4
  8
NOTE
  6
CONTINUOUS
 62
     4
 10
-85.0
 20
20.0
 30
0.0
 11
-85.0
 21
-20.0
 31
0.0
  0
LINE
  5
C5
  8
NOTE
  6
CONTINUOUS
 62
     4
 10
-65.0
 20
0.0
 30
0.0
 11
-105.0
 21
0.0
 31
0.0
  0
LINE
  5
C6
  8
NOTE
  6
CONTINUOUS
 62
     4
 10
85.0
 20
20.0
 30
0.0
 11
85.0
 21
-20.0
 31
0.0
  0
LINE
  5
C7
  8
NOTE
  6
CONTINUOUS
 62
     4
 10
65.0
 20
0.0
 30
0.0
 11
105.0
 21
0.0
 31
0.0
  0
LINE
  5
C8
  8
NOTE
  6
CONTINUOUS
 62
     4
 10
160.0
 20
20.0
 30
0.0
 11
160.0
 21
-20.0
 31
0.0
  0
LINE
  5
C9
  8
NOTE
  6
CONTINUOUS
 62
     4
 10
140.0
 20
0.0
 30
0.0
 11
180.0
 21
0.0
 31
0.0
  0
LINE
  5
CA
  8
SIZE
  6
CONTINUOUS
 62
    30
 10
200.0
 20
0.0
 30
0.0
 11
568.56078500000001
 21
0.0
 31
0.0
  0
LINE
  5
CB
  8
SIZE
  6
CONTINUOUS
 62
    30
 10
177.00456500000001
 20
-8.0
 30
0.0
 11
568.56078500000001
 21
-8.0
 31
0.0
  0
LINE
  5
CC
  8
SIZE
  6
CONTINUOUS
 62
    30
 10
548.56078500000001
 20
12.0
 30
0.0
 11
548.56078500000001
 21
24.0
 31
0.0
  0
LINE
  5
CD
  8
SIZE
  6
CONTINUOUS
 62
    30
 10
548.56078500000001
 20
-20.0
 30
0.0
 11
548.56078500000001
 21
-32.0
 31
0.0
  0
LINE
  5
CE
  8
SIZE
  6
CONTINUOUS
 62
    30
 10
548.56078500000001
 20
-126.085791
 30
0.0
 11
548.56078500000001
 21
-8.0
 31
0.0
  0
TEXT
  5
CF
  8
SIZE
  6
CONTINUOUS
 62
    30
 10
523.56078500000001
 20
-101.085791
 30
0.0
 40
64.0
  1
8
 50
90.0
 41
0.9
 72
     1
 11
523.56078500000001
 21
-81.885790999999998
 31
0.0
  0
LINE
  5
D0
  8
SIZE
  6
CONTINUOUS
 62
    30
 10
548.56078500000001
 20
0.0
 30
0.0
 11
548.56078500000001
 21
-8.0
 31
0.0
  0
LINE
  5
D1
  8
SIZE
  6
CONTINUOUS
 62
    30
 10
548.56078500000001
 20
0.0
 30
0.0
 11
548.56078500000001
 21
-8.0
 31
0.0
  0
CIRCLE
  5
D2
  8
SIZE
  6
CONTINUOUS
 62
    30
 10
548.56078500000001
 20
0.0
 30
0.0
 40
6.0
  0
LINE
  5
D3
  8
SIZE
  6
CONTINUOUS
 62
    30
 10
548.56078500000001
 20
0.0
 30
0.0
 11
548.56078500000001
 21
12.0
 31
0.0
  0
CIRCLE
  5
D4
  8
SIZE
  6
CONTINUOUS
 62
    30
 10
548.56078500000001
 20
-8.0
 30
0.0
 40
6.0
  0
LINE
  5
D5
  8
SIZE
  6
CONTINUOUS
 62
    30
 10
548.56078500000001
 20
-8.0
 30
0.0
 11
548.56078500000001
 21
-20.0
 31
0.0
  0
POINT
  5
D6
  8
DEFPOINTS
  6
CONTINUOUS
 62
    30
 10
180.0
 20
0.0
 30
0.0
  0
POINT
  5
D7
  8
DEFPOINTS
  6
CONTINUOUS
 62
    30
 10
157.00456500000001
 20
-8.0
 30
0.0
  0
POINT
  5
D8
  8
DEFPOINTS
  6
CONTINUOUS
 62
    30
 10
548.56078500000001
 20
-8.0
 30
0.0
  0
LINE
  5
D9
  8
SIZE
  6
CONTINUOUS
 62
    30
 10
200.0
 20
0.0
 30
0.0
 11
705.54319899999996
 21
0.0
 31
0.0
  0
LINE
  5
DA
  8
SIZE
  6
CONTINUOUS
 62
    30
 10
136.0
 20
-10.0
 30
0.0
 11
705.54319899999996
 21
-10.0
 31
0.0
  0
LINE
  5
DB
  8
SIZE
  6
CONTINUOUS
 62
    30
 10
685.54319899999996
 20
12.0
 30
0.0
 11
685.54319899999996
 21
24.0
 31
0.0
  0
LINE
  5
DC
  8
SIZE
  6
CONTINUOUS
 62
    30
 10
685.54319899999996
 20
-22.0
 30
0.0
 11
685.54319899999996
 21
-34.0
 31
0.0
  0
LINE
  5
DD
  8
SIZE
  6
CONTINUOUS
 62
    30
 10
685.54319899999996
 20
-173.674218
 30
0.0
 11
685.54319899999996
 21
-10.0
 31
0.0
  0
TEXT
  5
DE
  8
SIZE
  6
CONTINUOUS
 62
    30
 10
660.54319899999996
 20
-148.67421814285709
 30
0.0
 40
64.0
  1
10
 50
90.0
 41
0.9
 72
     1
 11
660.54319899999996
 21
-107.531361
 31
0.0
  0
LINE
  5
DF
  8
SIZE
  6
CONTINUOUS
 62
    30
 10
685.54319899999996
 20
0.0
 30
0.0
 11
685.54319899999996
 21
-10.0
 31
0.0
  0
LINE
  5
E0
  8
SIZE
  6
CONTINUOUS
 62
    30
 10
685.54319899999996
 20
0.0
 30
0.0
 11
685.54319899999996
 21
-10.0
 31
0.0
  0
CIRCLE
  5
E1
  8
SIZE
  6
CONTINUOUS
 62
    30
 10
685.54319899999996
 20
0.0
 30
0.0
 40
6.0
  0
LINE
  5
E2
  8
SIZE
  6
CONTINUOUS
 62
    30
 10
685.54319899999996
 20
0.0
 30
0.0
 11
685.54319899999996
 21
12.0
 31
0.0
  0
CIRCLE
  5
E3
  8
SIZE
  6
CONTINUOUS
 62
    30
 10
685.54319899999996
 20
-10.0
 30
0.0
 40
6.0
  0
LINE
  5
E4
  8
SIZE
  6
CONTINUOUS
 62
    30
 10
685.54319899999996
 20
-10.0
 30
0.0
 11
685.54319899999996
 21
-22.0
 31
0.0
  0
POINT
  5
E5
  8
DEFPOINTS
  6
CONTINUOUS
 62
    30
 10
180.0
 20
0.0
 30
0.0
  0
POINT
  5
E6
  8
DEFPOINTS
  6
CONTINUOUS
 62
    30
 10
116.0
 20
-10.0
 30
0.0
  0
POINT
  5
E7
  8
DEFPOINTS
  6
CONTINUOUS
 62
    30
 10
685.54319899999996
 20
-10.0
 30
0.0
  0
LINE
  5
E8
  8
SIZE
  6
CONTINUOUS
 62
    30
 10
-160.0
 20
-40.0
 30
0.0
 11
-160.0
 21
-379.69314300000002
 31
0.0
  0
LINE
  5
E9
  8
SIZE
  6
CONTINUOUS
 62
    30
 10
160.0
 20
-40.0
 30
0.0
 11
160.0
 21
-379.69314300000002
 31
0.0
  0
LINE
  5
EA
  8
SIZE
  6
CONTINUOUS
 62
    30
 10
-148.0
 20
-359.69314300000002
 30
0.0
 11
148.0
 21
-359.69314300000002
 31
0.0
  0
CIRCLE
  5
EB
  8
SIZE
  6
CONTINUOUS
 62
    30
 10
-160.0
 20
-359.69314300000002
 30
0.0
 40
6.0
  0
LINE
  5
EC
  8
SIZE
  6
CONTINUOUS
 62
    30
 10
-160.0
 20
-359.69314300000002
 30
0.0
 11
-148.0
 21
-359.69314300000002
 31
0.0
  0
CIRCLE
  5
ED
  8
SIZE
  6
CONTINUOUS
 62
    30
 10
160.0
 20
-359.69314300000002
 30
0.0
 40
6.0
  0
LINE
  5
EE
  8
SIZE
  6
CONTINUOUS
 62
    30
 10
160.0
 20
-359.69314300000002
 30
0.0
 11
148.0
 21
-359.69314300000002
 31
0.0
  0
TEXT
  5
EF
  8
SIZE
  6
CONTINUOUS
 62
    30
 10
-74.05714285714285
 20
-334.69314300000002
 30
0.0
 40
64.0
  1
320
 41
0.9
 72
     1
 11
0.0
 21
-334.69314300000002
 31
0.0
  0
POINT
  5
F0
  8
DEFPOINTS
  6
CONTINUOUS
 62
    30
 10
-160.0
 20
-20.0
 30
0.0
  0
POINT
  5
F1
  8
DEFPOINTS
  6
CONTINUOUS
 62
    30
 10
160.0
 20
-20.0
 30
0.0
  0
POINT
  5
F2
  8
DEFPOINTS
  6
CONTINUOUS
 62
    30
 10
160.0
 20
-359.69314300000002
 30
0.0
  0
LINE
  5
F3
  8
SIZE
  6
CONTINUOUS
 62
    30
 10
-180.0
 20
-20.0
 30
0.0
 11
-180.0
 21
-500.5862469999999
 31
0.0
  0
LINE
  5
F4
  8
SIZE
  6
CONTINUOUS
 62
    30
 10
180.0
 20
-20.0
 30
0.0
 11
180.0
 21
-500.5862469999999
 31
0.0
  0
LINE
  5
F5
  8
SIZE
  6
CONTINUOUS
 62
    30
 10
-168.0
 20
-480.58624700000001
 30
0.0
 11
168.0
 21
-480.58624700000001
 31
0.0
  0
CIRCLE
  5
F6
  8
SIZE
  6
CONTINUOUS
 62
    30
 10
-180.0
 20
-480.58624700000001
 30
0.0
 40
6.0
  0
LINE
  5
F7
  8
SIZE
  6
CONTINUOUS
 62
    30
 10
-180.0
 20
-480.58624700000001
 30
0.0
 11
-168.0
 21
-480.58624700000001
 31
0.0
  0
CIRCLE
  5
F8
  8
SIZE
  6
CONTINUOUS
 62
    30
 10
180.0
 20
-480.58624700000001
 30
0.0
 40
6.0
  0
LINE
  5
F9
  8
SIZE
  6
CONTINUOUS
 62
    30
 10
180.0
 20
-480.58624700000001
 30
0.0
 11
168.0
 21
-480.58624700000001
 31
0.0
  0
TEXT
  5
FA
  8
SIZE
  6
CONTINUOUS
 62
    30
 10
-74.05714285714285
 20
-455.58624700000001
 30
0.0
 40
64.0
  1
360
 41
0.9
 72
     1
 11
0.0
 21
-455.58624700000001
 31
0.0
  0
POINT
  5
FB
  8
DEFPOINTS
  6
CONTINUOUS
 62
    30
 10
-180.0
 20
0.0
 30
0.0
  0
POINT
  5
FC
  8
DEFPOINTS
  6
CONTINUOUS
 62
    30
 10
180.0
 20
0.0
 30
0.0
  0
POINT
  5
FD
  8
DEFPOINTS
  6
CONTINUOUS
 62
    30
 10
180.0
 20
-480.58624700000001
 30
0.0
  0
LINE
  5
FE
  8
SIZE
  6
CONTINUOUS
 62
    30
 10
-85.0
 20
-40.0
 30
0.0
 11
-85.0
 21
-254.09152900000001
 31
0.0
  0
LINE
  5
FF
  8
SIZE
  6
CONTINUOUS
 62
    30
 10
85.0
 20
-40.0
 30
0.0
 11
85.0
 21
-254.09152900000001
 31
0.0
  0
LINE
  5
100
  8
SIZE
  6
CONTINUOUS
 62
    30
 10
-97.0
 20
-234.09152900000001
 30
0.0
 11
-109.0
 21
-234.09152900000001
 31
0.0
  0
LINE
  5
101
  8
SIZE
  6
CONTINUOUS
 62
    30
 10
97.0
 20
-234.09152900000001
 30
0.0
 11
109.0
 21
-234.09152900000001
 31
0.0
  0
LINE
  5
102
  8
SIZE
  6
CONTINUOUS
 62
    30
 10
-85.0
 20
-234.09152900000001
 30
0.0
 11
85.0
 21
-234.09152900000001
 31
0.0
  0
CIRCLE
  5
103
  8
SIZE
  6
CONTINUOUS
 62
    30
 10
-85.0
 20
-234.09152900000001
 30
0.0
 40
6.0
  0
LINE
  5
104
  8
SIZE
  6
CONTINUOUS
 62
    30
 10
-85.0
 20
-234.09152900000001
 30
0.0
 11
-97.0
 21
-234.09152900000001
 31
0.0
  0
CIRCLE
  5
105
  8
SIZE
  6
CONTINUOUS
 62
    30
 10
85.0
 20
-234.09152900000001
 30
0.0
 40
6.0
  0
LINE
  5
106
  8
SIZE
  6
CONTINUOUS
 62
    30
 10
85.0
 20
-234.09152900000001
 30
0.0
 11
97.0
 21
-234.09152900000001
 31
0.0
  0
TEXT
  5
107
  8
SIZE
  6
CONTINUOUS
 62
    30
 10
-68.571428571428569
 20
-209.09152900000001
 30
0.0
 40
64.0
  1
170
 41
0.9
 72
     1
 11
0.0
 21
-209.09152900000001
 31
0.0
  0
POINT
  5
108
  8
DEFPOINTS
  6
CONTINUOUS
 62
    30
 10
-85.0
 20
-20.0
 30
0.0
  0
POINT
  5
109
  8
DEFPOINTS
  6
CONTINUOUS
 62
    30
 10
85.0
 20
-20.0
 30
0.0
  0
POINT
  5
10A
  8
DEFPOINTS
  6
CONTINUOUS
 62
    30
 10
85.0
 20
-234.09152900000001
 30
0.0
  0
LINE
  5
10B
  8
DETAIL
  6
CONTINUOUS
 62
     5
 10
32.5
 20
96.53380300000002
 30
0.0
 11
-32.5
 21
96.53380300000002
 31
0.0
  0
CIRCLE
  5
10C
  8
FIX
  6
CONTINUOUS
 62
    11
 39
50.0
 10
0.0
 20
146.0
 30
0.0
 40
6.0
  0
LINE
  5
10D
  8
NOTE
  6
CONTINUOUS
 62
     4
 10
0.0
 20
166.0
 30
0.0
 11
0.0
 21
126.0
 31
0.0
  0
LINE
  5
10E
  8
NOTE
  6
CONTINUOUS
 62
     4
 10
20.0
 20
146.0
 30
0.0
 11
-20.0
 21
146.0
 31
0.0
  0
ARC
  5
10F
  8
DETAIL
  6
CONTINUOUS
 62
     5
 10
-129.010278
 20
240.5
 30
0.0
 40
7.5
 50
90.0
 51
177.0
  0
ARC
  5
110
  8
DETAIL
  6
CONTINUOUS
 62
     5
 10
129.010278
 20
240.5
 30
0.0
 40
7.5
 50
3.0
 51
90.0
  0
LINE
  5
111
  8
DETAIL
  6
CONTINUOUS
 62
     5
 10
149.12464199999999
 20
0.0
 30
0.0
 11
136.5
 21
240.89251999999999
 31
0.0
  0
LINE
  5
112
  8
SIZE
  6
CONTINUOUS
 62
    30
 10
-200.0
 20
0.0
 30
0.0
 11
-442.14929100000001
 21
0.0
 31
0.0
  0
LINE
  5
113
  8
SIZE
  6
CONTINUOUS
 62
    30
 10
-149.010278
 20
248.0
 30
0.0
 11
-442.14929100000001
 21
248.0
 31
0.0
  0
LINE
  5
114
  8
SIZE
  6
CONTINUOUS
 62
    30
 10
-422.14929100000001
 20
12.0
 30
0.0
 11
-422.14929100000001
 21
236.0
 31
0.0
  0
CIRCLE
  5
115
  8
SIZE
  6
CONTINUOUS
 62
    30
 10
-422.14929100000001
 20
0.0
 30
0.0
 40
6.0
  0
LINE
  5
116
  8
SIZE
  6
CONTINUOUS
 62
    30
 10
-422.14929100000001
 20
0.0
 30
0.0
 11
-422.14929100000001
 21
12.0
 31
0.0
  0
CIRCLE
  5
117
  8
SIZE
  6
CONTINUOUS
 62
    30
 10
-422.14929100000001
 20
248.0
 30
0.0
 40
6.0
  0
LINE
  5
118
  8
SIZE
  6
CONTINUOUS
 62
    30
 10
-422.14929100000001
 20
248.0
 30
0.0
 11
-422.14929100000001
 21
236.0
 31
0.0
  0
TEXT
  5
119
  8
SIZE
  6
CONTINUOUS
 62
    30
 10
-447.14929100000001
 20
49.94285714285715
 30
0.0
 40
64.0
  1
248
 50
90.0
 41
0.9
 72
     1
 11
-447.14929100000001
 21
124.0
 31
0.0
  0
POINT
  5
11A
  8
DEFPOINTS
  6
CONTINUOUS
 62
    30
 10
-180.0
 20
0.0
 30
0.0
  0
POINT
  5
11B
  8
DEFPOINTS
  6
CONTINUOUS
 62
    30
 10
-129.010278
 20
248.0
 30
0.0
  0
POINT
  5
11C
  8
DEFPOINTS
  6
CONTINUOUS
 62
    30
 10
-422.14929100000001
 20
248.0
 30
0.0
  0
LINE
  5
11D
  8
SIZE
  6
CONTINUOUS
 62
    30
 10
-200.0
 20
0.0
 30
0.0
 11
-312.81624399999998
 21
0.0
 31
0.0
  0
LINE
  5
11E
  8
SIZE
  6
CONTINUOUS
 62
    30
 10
-52.5
 20
146.0
 30
0.0
 11
-312.81624399999998
 21
146.0
 31
0.0
  0
LINE
  5
11F
  8
SIZE
  6
CONTINUOUS
 62
    30
 10
-292.81624399999998
 20
-12.0
 30
0.0
 11
-292.81624399999998
 21
-24.0
 31
0.0
  0
LINE
  5
120
  8
SIZE
  6
CONTINUOUS
 62
    30
 10
-292.81624399999998
 20
158.0
 30
0.0
 11
-292.81624399999998
 21
170.0
 31
0.0
  0
LINE
  5
121
  8
SIZE
  6
CONTINUOUS
 62
    30
 10
-292.81624399999998
 20
0.0
 30
0.0
 11
-292.81624399999998
 21
146.0
 31
0.0
  0
CIRCLE
  5
122
  8
SIZE
  6
CONTINUOUS
 62
    30
 10
-292.81624399999998
 20
0.0
 30
0.0
 40
6.0
  0
LINE
  5
123
  8
SIZE
  6
CONTINUOUS
 62
    30
 10
-292.81624399999998
 20
0.0
 30
0.0
 11
-292.81624399999998
 21
-12.0
 31
0.0
  0
CIRCLE
  5
124
  8
SIZE
  6
CONTINUOUS
 62
    30
 10
-292.81624399999998
 20
146.0
 30
0.0
 40
6.0
  0
LINE
  5
125
  8
SIZE
  6
CONTINUOUS
 62
    30
 10
-292.81624399999998
 20
146.0
 30
0.0
 11
-292.81624399999998
 21
158.0
 31
0.0
  0
TEXT
  5
126
  8
SIZE
  6
CONTINUOUS
 62
    30
 10
-317.81624399999998
 20
5.7999999999999972
 30
0.0
 40
64.0
  1
146
 50
90.0
 41
0.9
 72
     1
 11
-317.81624399999998
 21
73.0
 31
0.0
  0
POINT
  5
127
  8
DEFPOINTS
  6
CONTINUOUS
 62
    30
 10
-180.0
 20
0.0
 30
0.0
  0
POINT
  5
128
  8
DEFPOINTS
  6
CONTINUOUS
 62
    30
 10
-32.5
 20
146.0
 30
0.0
  0
POINT
  5
129
  8
DEFPOINTS
  6
CONTINUOUS
 62
    30
 10
-292.81624399999998
 20
146.0
 30
0.0
  0
LINE
  5
12A
  8
SIZE
  6
CONTINUOUS
 62
    30
 10
200.0
 20
0.0
 30
0.0
 11
705.54319899999996
 21
0.0
 31
0.0
  0
LINE
  5
12B
  8
SIZE
  6
CONTINUOUS
 62
    30
 10
290.14453700000001
 20
147.0
 30
0.0
 11
705.54319899999996
 21
147.0
 31
0.0
  0
LINE
  5
12C
  8
SIZE
  6
CONTINUOUS
 62
    30
 10
685.54319899999996
 20
-12.0
 30
0.0
 11
685.54319899999996
 21
-24.0
 31
0.0
  0
LINE
  5
12D
  8
SIZE
  6
CONTINUOUS
 62
    30
 10
685.54319899999996
 20
159.0
 30
0.0
 11
685.54319899999996
 21
171.0
 31
0.0
  0
LINE
  5
12E
  8
SIZE
  6
CONTINUOUS
 62
    30
 10
685.54319899999996
 20
0.0
 30
0.0
 11
685.54319899999996
 21
147.0
 31
0.0
  0
CIRCLE
  5
12F
  8
SIZE
  6
CONTINUOUS
 62
    30
 10
685.54319899999996
 20
0.0
 30
0.0
 40
6.0
  0
LINE
  5
130
  8
SIZE
  6
CONTINUOUS
 62
    30
 10
685.54319899999996
 20
0.0
 30
0.0
 11
685.54319899999996
 21
-12.0
 31
0.0
  0
CIRCLE
  5
131
  8
SIZE
  6
CONTINUOUS
 62
    30
 10
685.54319899999996
 20
147.0
 30
0.0
 40
6.0
  0
LINE
  5
132
  8
SIZE
  6
CONTINUOUS
 62
    30
 10
685.54319899999996
 20
147.0
 30
0.0
 11
685.54319899999996
 21
159.0
 31
0.0
  0
TEXT
  5
133
  8
SIZE
  6
CONTINUOUS
 62
    30
 10
660.54319899999996
 20
4.9285714285714297
 30
0.0
 40
64.0
  1
147
 50
90.0
 41
0.9
 72
     1
 11
660.54319899999996
 21
73.5
 31
0.0
  0
POINT
  5
134
  8
DEFPOINTS
  6
CONTINUOUS
 62
    30
 10
180.0
 20
0.0
 30
0.0
  0
POINT
  5
135
  8
DEFPOINTS
  6
CONTINUOUS
 62
    30
 10
270.14453700000001
 20
147.0
 30
0.0
  0
POINT
  5
136
  8
DEFPOINTS
  6
CONTINUOUS
 62
    30
 10
685.54319899999996
 20
147.0
 30
0.0
  0
LINE
  5
137
  8
SIZE
  6
CONTINUOUS
 62
    30
 10
253.5
 20
196.0
 30
0.0
 11
571.62534699999981
 21
196.0
 31
0.0
  0
LINE
  5
138
  8
SIZE
  6
CONTINUOUS
 62
    30
 10
253.5
 20
98.0
 30
0.0
 11
571.62534699999981
 21
98.0
 31
0.0
  0
LINE
  5
139
  8
SIZE
  6
CONTINUOUS
 62
    30
 10
551.62534699999992
 20
184.0
 30
0.0
 11
551.62534699999992
 21
110.0
 31
0.0
  0
LINE
  5
13A
  8
SIZE
  6
CONTINUOUS
 62
    30
 10
551.62534699999992
 20
410.90194799999989
 30
0.0
 11
551.62534699999992
 21
196.0
 31
0.0
  0
TEXT
  5
13B
  8
SIZE
  6
CONTINUOUS
 62
    30
 10
526.62534699999992
 20
226.26766257142859
 30
0.0
 40
64.0
  1
\U+03C698
 50
90.0
 41
0.9
 72
     1
 11
526.62534699999992
 21
313.21623399999999
 31
0.0
  0
CIRCLE
  5
13C
  8
SIZE
  6
CONTINUOUS
 62
    30
 10
551.62534699999992
 20
196.0
 30
0.0
 40
6.0
  0
LINE
  5
13D
  8
SIZE
  6
CONTINUOUS
 62
    30
 10
551.62534699999992
 20
196.0
 30
0.0
 11
551.62534699999992
 21
184.0
 31
0.0
  0
CIRCLE
  5
13E
  8
SIZE
  6
CONTINUOUS
 62
    30
 10
551.62534699999992
 20
98.0
 30
0.0
 40
6.0
  0
LINE
  5
13F
  8
SIZE
  6
CONTINUOUS
 62
    30
 10
551.62534699999992
 20
98.0
 30
0.0
 11
551.62534699999992
 21
110.0
 31
0.0
  0
POINT
  5
140
  8
DEFPOINTS
  6
CONTINUOUS
 62
    30
 10
233.5
 20
196.0
 30
0.0
  0
POINT
  5
141
  8
DEFPOINTS
  6
CONTINUOUS
 62
    30
 10
233.5
 20
98.0
 30
0.0
  0
POINT
  5
142
  8
DEFPOINTS
  6
CONTINUOUS
 62
    30
 10
551.62534699999992
 20
98.0
 30
0.0
  0
LINE
  5
143
  8
SIZE
  6
CONTINUOUS
 62
    30
 10
-136.5
 20
260.89251999999999
 30
0.0
 11
-136.5
 21
476.28536999999989
 31
0.0
  0
LINE
  5
144
  8
SIZE
  6
CONTINUOUS
 62
    30
 10
136.5
 20
260.89251999999999
 30
0.0
 11
136.5
 21
476.28536999999989
 31
0.0
  0
LINE
  5
145
  8
SIZE
  6
CONTINUOUS
 62
    30
 10
-124.5
 20
456.28536999999989
 30
0.0
 11
124.5
 21
456.28536999999989
 31
0.0
  0
CIRCLE
  5
146
  8
SIZE
  6
CONTINUOUS
 62
    30
 10
-136.5
 20
456.28536999999989
 30
0.0
 40
6.0
  0
LINE
  5
147
  8
SIZE
  6
CONTINUOUS
 62
    30
 10
-136.5
 20
456.28536999999989
 30
0.0
 11
-124.5
 21
456.28536999999989
 31
0.0
  0
CIRCLE
  5
148
  8
SIZE
  6
CONTINUOUS
 62
    30
 10
136.5
 20
456.28536999999989
 30
0.0
 40
6.0
  0
LINE
  5
149
  8
SIZE
  6
CONTINUOUS
 62
    30
 10
136.5
 20
456.28536999999989
 30
0.0
 11
124.5
 21
456.28536999999989
 31
0.0
  0
TEXT
  5
14A
  8
SIZE
  6
CONTINUOUS
 62
    30
 10
-74.057142857142836
 20
481.28536999999989
 30
0.0
 40
64.0
  1
273
 41
0.9
 72
     1
 11
0.0
 21
481.28536999999989
 31
0.0
  0
POINT
  5
14B
  8
DEFPOINTS
  6
CONTINUOUS
 62
    30
 10
-136.5
 20
240.89251999999999
 30
0.0
  0
POINT
  5
14C
  8
DEFPOINTS
  6
CONTINUOUS
 62
    30
 10
136.5
 20
240.89251999999999
 30
0.0
  0
POINT
  5
14D
  8
DEFPOINTS
  6
CONTINUOUS
 62
    30
 10
136.5
 20
456.28536999999989
 30
0.0
  0
LINE
  5
14E
  8
SIZE
  6
CONTINUOUS
 62
    30
 10
136.5
 20
260.89251999999999
 30
0.0
 11
136.5
 21
476.28536999999989
 31
0.0
  0
LINE
  5
14F
  8
SIZE
  6
CONTINUOUS
 62
    30
 10
233.5
 20
216.0
 30
0.0
 11
233.5
 21
476.28536999999989
 31
0.0
  0
LINE
  5
150
  8
SIZE
  6
CONTINUOUS
 62
    30
 10
124.5
 20
456.28536999999989
 30
0.0
 11
112.5
 21
456.28536999999989
 31
0.0
  0
LINE
  5
151
  8
SIZE
  6
CONTINUOUS
 62
    30
 10
245.5
 20
456.28536999999989
 30
0.0
 11
257.5
 21
456.28536999999989
 31
0.0
  0
LINE
  5
152
  8
SIZE
  6
CONTINUOUS
 62
    30
 10
136.5
 20
456.28536999999989
 30
0.0
 11
233.5
 21
456.28536999999989
 31
0.0
  0
CIRCLE
  5
153
  8
SIZE
  6
CONTINUOUS
 62
    30
 10
136.5
 20
456.28536999999989
 30
0.0
 40
6.0
  0
LINE
  5
154
  8
SIZE
  6
CONTINUOUS
 62
    30
 10
136.5
 20
456.28536999999989
 30
0.0
 11
124.5
 21
456.28536999999989
 31
0.0
  0
CIRCLE
  5
155
  8
SIZE
  6
CONTINUOUS
 62
    30
 10
233.5
 20
456.28536999999989
 30
0.0
 40
6.0
  0
LINE
  5
156
  8
SIZE
  6
CONTINUOUS
 62
    30
 10
233.5
 20
456.28536999999989
 30
0.0
 11
245.5
 21
456.28536999999989
 31
0.0
  0
TEXT
  5
157
  8
SIZE
  6
CONTINUOUS
 62
    30
 10
138.37142857142851
 20
481.28536999999989
 30
0.0
 40
64.0
  1
97
 41
0.9
 72
     1
 11
185.0
 21
481.28536999999989
 31
0.0
  0
POINT
  5
158
  8
DEFPOINTS
  6
CONTINUOUS
 62
    30
 10
136.5
 20
240.89251999999999
 30
0.0
  0
POINT
  5
159
  8
DEFPOINTS
  6
CONTINUOUS
 62
    30
 10
233.5
 20
196.0
 30
0.0
  0
POINT
  5
15A
  8
DEFPOINTS
  6
CONTINUOUS
 62
    30
 10
233.5
 20
456.28536999999989
 30
0.0
  0
LINE
  5
15B
  8
SIZE
  6
CONTINUOUS
 62
    30
 10
32.5
 20
166.0
 30
0.0
 11
32.5
 21
362.07646999999997
 31
0.0
  0
LINE
  5
15C
  8
SIZE
  6
CONTINUOUS
 62
    30
 10
-32.5
 20
164.40000000000001
 30
0.0
 11
-32.5
 21
362.07646999999997
 31
0.0
  0
LINE
  5
15D
  8
SIZE
  6
CONTINUOUS
 62
    30
 10
44.5
 20
342.07646999999997
 30
0.0
 11
56.5
 21
342.07646999999997
 31
0.0
  0
LINE
  5
15E
  8
SIZE
  6
CONTINUOUS
 62
    30
 10
-44.5
 20
342.07646999999997
 30
0.0
 11
-56.5
 21
342.07646999999997
 31
0.0
  0
LINE
  5
15F
  8
SIZE
  6
CONTINUOUS
 62
    30
 10
32.5
 20
342.07646999999997
 30
0.0
 11
-32.5
 21
342.07646999999997
 31
0.0
  0
CIRCLE
  5
160
  8
SIZE
  6
CONTINUOUS
 62
    30
 10
32.5
 20
342.07646999999997
 30
0.0
 40
6.0
  0
LINE
  5
161
  8
SIZE
  6
CONTINUOUS
 62
    30
 10
32.5
 20
342.07646999999997
 30
0.0
 11
44.5
 21
342.07646999999997
 31
0.0
  0
CIRCLE
  5
162
  8
SIZE
  6
CONTINUOUS
 62
    30
 10
-32.5
 20
342.07646999999997
 30
0.0
 40
6.0
  0
LINE
  5
163
  8
SIZE
  6
CONTINUOUS
 62
    30
 10
-32.5
 20
342.07646999999997
 30
0.0
 11
-44.5
 21
342.07646999999997
 31
0.0
  0
TEXT
  5
164
  8
SIZE
  6
CONTINUOUS
 62
    30
 10
-46.628571428571412
 20
367.07646999999997
 30
0.0
 40
64.0
  1
65
 41
0.9
 72
     1
 11
0.0
 21
367.07646999999997
 31
0.0
  0
POINT
  5
165
  8
DEFPOINTS
  6
CONTINUOUS
 62
    30
 10
32.5
 20
146.0
 30
0.0
  0
POINT
  5
166
  8
DEFPOINTS
  6
CONTINUOUS
 62
    30
 10
-32.5
 20
144.40000000000001
 30
0.0
  0
POINT
  5
167
  8
DEFPOINTS
  6
CONTINUOUS
 62
    30
 10
-32.5
 20
342.07646999999997
 30
0.0
  0
LINE
  5
168
  8
NOTE
  6
CONTINUOUS
 62
     4
 39
50.0
 10
-844.997883
 20
333.29697399999998
 30
0.0
 11
-202.680668
 21
333.29697399999998
 31
0.0
  0
LINE
  5
169
  8
NOTE
  6
CONTINUOUS
 62
     4
 39
50.0
 10
-202.680668
 20
333.29697399999998
 30
0.0
 11
0.0
 21
146.0
 31
0.0
  0
TEXT
  5
16A
  8
NOTE
  6
CONTINUOUS
 62
     4
 10
-827.05381299999999
 20
364.265761
 30
0.0
 40
64.0
  1
AH 2-\U+03C612\U+00D725
 41
0.9
  0
LINE
  5
16B
  8
NOTE
  6
CONTINUOUS
 62
     4
 10
-35.210594999999998
 20
164.97930400000001
 30
0.0
 11
0.0
 21
146.0
 31
0.0
  0
LINE
  5
16C
  8
NOTE
  6
CONTINUOUS
 62
     4
 10
0.0
 20
146.0
 30
0.0
 11
-21.003617999999999
 21
180.04185699999999
 31
0.0
  0
LINE
  5
16D
  8
OUTLINE
  6
CONTINUOUS
 62
     3
 10
-129.010278
 20
248.0
 30
0.0
 11
129.010278
 21
248.0
 31
0.0
  0
LINE
  5
16E
  8
OUTLINE
  6
CONTINUOUS
 62
     3
 10
-180.0
 20
0.0
 30
0.0
 11
180.0
 21
0.0
 31
0.0
  0
LINE
  5
16F
  8
OUTLINE
  6
CONTINUOUS
 62
     3
 10
149.12464199999999
 20
0.0
 30
0.0
 11
136.5
 21
240.89251999999999
 31
0.0
  0
ARC
  5
170
  8
OUTLINE
  6
CONTINUOUS
 62
     3
 10
129.010278
 20
240.5
 30
0.0
 40
7.5
 50
3.0
 51
90.0
  0
LINE
  5
171
  8
OUTLINE
  6
CONTINUOUS
 62
     3
 10
-149.12464199999999
 20
0.0
 30
0.0
 11
-136.5
 21
240.89251999999999
 31
0.0
  0
ARC
  5
172
  8
OUTLINE
  6
CONTINUOUS
 62
     3
 10
-129.010278
 20
240.5
 30
0.0
 40
7.5
 50
90.0
 51
177.0
  0
LINE
  5
173
  8
DETAIL
  6
CONTINUOUS
 62
     5
 10
203.5
 20
196.523652
 30
0.0
 11
203.5
 21
97.476348000000002
 31
0.0
  0
LINE
  5
174
  8
SIZE
  6
CONTINUOUS
 62
    30
 10
203.5
 20
216.523652
 30
0.0
 11
203.5
 21
362.36653699999999
 31
0.0
  0
LINE
  5
175
  8
SIZE
  6
CONTINUOUS
 62
    30
 10
233.5
 20
216.0
 30
0.0
 11
233.5
 21
362.36653699999999
 31
0.0
  0
LINE
  5
176
  8
SIZE
  6
CONTINUOUS
 62
    30
 10
191.5
 20
342.36653699999999
 30
0.0
 11
179.5
 21
342.36653699999999
 31
0.0
  0
LINE
  5
177
  8
SIZE
  6
CONTINUOUS
 62
    30
 10
245.5
 20
342.36653699999999
 30
0.0
 11
257.5
 21
342.36653699999999
 31
0.0
  0
LINE
  5
178
  8
SIZE
  6
CONTINUOUS
 62
    30
 10
404.81286799999998
 20
342.36653699999999
 30
0.0
 11
233.5
 21
342.36653699999999
 31
0.0
  0
TEXT
  5
179
  8
SIZE
  6
CONTINUOUS
 62
    30
 10
286.55572457142858
 20
367.36653699999999
 30
0.0
 40
64.0
  1
30
 41
0.9
 72
     1
 11
333.18429600000002
 21
367.36653699999999
 31
0.0
  0
LINE
  5
17A
  8
SIZE
  6
CONTINUOUS
 62
    30
 10
203.5
 20
342.36653699999999
 30
0.0
 11
233.5
 21
342.36653699999999
 31
0.0
  0
LINE
  5
17B
  8
SIZE
  6
CONTINUOUS
 62
    30
 10
203.5
 20
342.36653699999999
 30
0.0
 11
233.5
 21
342.36653699999999
 31
0.0
  0
CIRCLE
  5
17C
  8
SIZE
  6
CONTINUOUS
 62
    30
 10
203.5
 20
342.36653699999999
 30
0.0
 40
6.0
  0
LINE
  5
17D
  8
SIZE
  6
CONTINUOUS
 62
    30
 10
203.5
 20
342.36653699999999
 30
0.0
 11
191.5
 21
342.36653699999999
 31
0.0
  0
CIRCLE
  5
17E
  8
SIZE
  6
CONTINUOUS
 62
    30
 10
233.5
 20
342.36653699999999
 30
0.0
 40
6.0
  0
LINE
  5
17F
  8
SIZE
  6
CONTINUOUS
 62
    30
 10
233.5
 20
342.36653699999999
 30
0.0
 11
245.5
 21
342.36653699999999
 31
0.0
  0
POINT
  5
180
  8
DEFPOINTS
  6
CONTINUOUS
 62
    30
 10
203.5
 20
196.523652
 30
0.0
  0
POINT
  5
181
  8
DEFPOINTS
  6
CONTINUOUS
 62
    30
 10
233.5
 20
196.0
 30
0.0
  0
POINT
  5
182
  8
DEFPOINTS
  6
CONTINUOUS
 62
    30
 10
233.5
 20
342.36653699999999
 30
0.0
  0
LINE
  5
183
  8
DETAIL
  6
CONTINUOUS
 62
     5
 10
-116.0
 20
-10.0
 30
0.0
 11
116.0
 21
-10.0
 31
0.0
  0
LINE
  5
184
  8
DETAIL
  6
CONTINUOUS
 62
     5
 10
117.0
 20
-8.0
 30
0.0
 11
117.0
 21
-9.0
 31
0.0
  0
ARC
  5
185
  8
DETAIL
  6
CONTINUOUS
 62
     5
 10
116.0
 20
-9.0
 30
0.0
 40
1.0
 50
270.0
 51
0.0
  0
LINE
  5
186
  8
DETAIL
  6
CONTINUOUS
 62
     5
 10
-117.0
 20
-8.0
 30
0.0
 11
-117.0
 21
-9.0
 31
0.0
  0
ARC
  5
187
  8
DETAIL
  6
CONTINUOUS
 62
     5
 10
-116.0
 20
-9.0
 30
0.0
 40
1.0
 50
180.0
 51
270.0
  0
TEXT
  5
18D
  8
SIZE
  6
CONTINUOUS
 62
    61
 10
498.31333839094532
 20
482.82695298065801
 30
0.0
 40
42.0
  1
PZ-N10FGZP2
 41
0.9
  0
ENDSEC
  0
EOF
