  0
SECTION
  2
HEADER
  9
$ACADVER
  1
AC1018
  9
$ACADMAINTVER
 70
   104
  9
$DWGCODEPAGE
  3
ANSI_932
  9
$LASTSAVEDBY
  1
a080061
  9
$CUSTOMPROPERTYTAG
  1
AmdtFileType
  9
$CUSTOMPROPERTY
  1
84
  9
$INSBASE
 10
0.0
 20
0.0
 30
0.0
  9
$EXTMIN
 10
954.4098084378164
 20
441.5588506282747
 30
-0.0007624039136971
  9
$EXTMAX
 10
2646.606458766161
 20
1505.722054985494
 30
50.00076310244821
  9
$LIMMIN
 10
-2970.0
 20
-2100.0
  9
$LIMMAX
 10
2970.0
 20
2100.0
  9
$ORTHOMODE
 70
     1
  9
$REGENMODE
 70
     0
  9
$FILLMODE
 70
     1
  9
$QTEXTMODE
 70
     0
  9
$MIRRTEXT
 70
     0
  9
$LTSCALE
 40
20.0
  9
$ATTMODE
 70
     1
  9
$TEXTSIZE
 40
64.0
  9
$TRACEWID
 40
0.05
  9
$TEXTSTYLE
  7
STANDARD
  9
$CLAYER
  8
0
  9
$CELTYPE
  6
ByLayer
  9
$CECOLOR
 62
   256
  9
$CELTSCALE
 40
1.0
  9
$DISPSILH
 70
     0
  9
$DIMSCALE
 40
1.0
  9
$DIMASZ
 40
0.12
  9
$DIMEXO
 40
0.05
  9
$DIMDLI
 40
0.5
  9
$DIMRND
 40
0.0
  9
$DIMDLE
 40
0.0
  9
$DIMEXE
 40
0.1
  9
$DIMTP
 40
0.1
  9
$DIMTM
 40
0.1
  9
$DIMTXT
 40
0.12
  9
$DIMCEN
 40
0.0
  9
$DIMTSZ
 40
0.0
  9
$DIMTOL
 70
     0
  9
$DIMLIM
 70
     0
  9
$DIMTIH
 70
     1
  9
$DIMTOH
 70
     1
  9
$DIMSE1
 70
     0
  9
$DIMSE2
 70
     0
  9
$DIMTAD
 70
     0
  9
$DIMZIN
 70
     7
  9
$DIMBLK
  1

  9
$DIMASO
 70
     1
  9
$DIMSHO
 70
     0
  9
$DIMPOST
  1

  9
$DIMAPOST
  1
mm
  9
$DIMALT
 70
     0
  9
$DIMALTD
 70
     2
  9
$DIMALTF
 40
25.4
  9
$DIMLFAC
 40
1.0
  9
$DIMTOFL
 70
     0
  9
$DIMTVP
 40
0.0
  9
$DIMTIX
 70
     0
  9
$DIMSOXD
 70
     0
  9
$DIMSAH
 70
     0
  9
$DIMBLK1
  1

  9
$DIMBLK2
  1

  9
$DIMSTYLE
  2
AM_ANSI
  9
$DIMCLRD
 70
   256
  9
$DIMCLRE
 70
   256
  9
$DIMCLRT
 70
     2
  9
$DIMTFAC
 40
0.71
  9
$DIMGAP
 40
0.06
  9
$DIMJUST
 70
     0
  9
$DIMSD1
 70
     0
  9
$DIMSD2
 70
     0
  9
$DIMTOLJ
 70
     1
  9
$DIMTZIN
 70
     7
  9
$DIMALTZ
 70
     0
  9
$DIMALTTZ
 70
     0
  9
$DIMUPT
 70
     0
  9
$DIMDEC
 70
     4
  9
$DIMTDEC
 70
     4
  9
$DIMALTU
 70
     2
  9
$DIMALTTD
 70
     4
  9
$DIMTXSTY
  7
STANDARD
  9
$DIMAUNIT
 70
     0
  9
$DIMADEC
 70
     0
  9
$DIMALTRND
 40
0.0
  9
$DIMAZIN
 70
     2
  9
$DIMDSEP
 70
    46
  9
$DIMATFIT
 70
     3
  9
$DIMFRAC
 70
     0
  9
$DIMLDRBLK
  1

  9
$DIMLUNIT
 70
     2
  9
$DIMLWD
 70
    -1
  9
$DIMLWE
 70
    -1
  9
$DIMTMOVE
 70
     0
  9
$LUNITS
 70
     2
  9
$LUPREC
 70
     4
  9
$SKETCHINC
 40
0.1
  9
$FILLETRAD
 40
4.0
  9
$AUNITS
 70
     1
  9
$AUPREC
 70
     3
  9
$MENU
  1
ACAD
  9
$ELEVATION
 40
0.0
  9
$PELEVATION
 40
0.0
  9
$THICKNESS
 40
50.0
  9
$LIMCHECK
 70
     0
  9
$CHAMFERA
 40
0.0
  9
$CHAMFERB
 40
0.0
  9
$CHAMFERC
 40
0.0
  9
$CHAMFERD
 40
0.0
  9
$SKPOLY
 70
     0
  9
$TDCREATE
 40
2452321.396199653
  9
$TDUCREATE
 40
2452321.021199653
  9
$TDUPDATE
 40
2457491.586902627
  9
$TDUUPDATE
 40
2457491.211902627
  9
$TDINDWG
 40
1.0533475926
  9
$TDUSRTIMER
 40
1.0533410880
  9
$USRTIMER
 70
     1
  9
$ANGBASE
 50
0.0
  9
$ANGDIR
 70
     0
  9
$PDMODE
 70
     3
  9
$PDSIZE
 40
-2.0
  9
$PLINEWID
 40
0.0
  9
$SPLFRAME
 70
     0
  9
$SPLINETYPE
 70
     6
  9
$SPLINESEGS
 70
     8
  9
$HANDSEED
  5
2FC7
  9
$SURFTAB1
 70
     6
  9
$SURFTAB2
 70
     6
  9
$SURFTYPE
 70
     6
  9
$SURFU
 70
     6
  9
$SURFV
 70
     6
  9
$UCSBASE
  2

  9
$UCSNAME
  2

  9
$UCSORG
 10
0.0
 20
0.0
 30
0.0
  9
$UCSXDIR
 10
1.0
 20
0.0
 30
0.0
  9
$UCSYDIR
 10
0.0
 20
1.0
 30
0.0
  9
$UCSORTHOREF
  2

  9
$UCSORTHOVIEW
 70
     0
  9
$UCSORGTOP
 10
0.0
 20
0.0
 30
0.0
  9
$UCSORGBOTTOM
 10
0.0
 20
0.0
 30
0.0
  9
$UCSORGLEFT
 10
0.0
 20
0.0
 30
0.0
  9
$UCSORGRIGHT
 10
0.0
 20
0.0
 30
0.0
  9
$UCSORGFRONT
 10
0.0
 20
0.0
 30
0.0
  9
$UCSORGBACK
 10
0.0
 20
0.0
 30
0.0
  9
$PUCSBASE
  2

  9
$PUCSNAME
  2

  9
$PUCSORG
 10
0.0
 20
0.0
 30
0.0
  9
$PUCSXDIR
 10
1.0
 20
0.0
 30
0.0
  9
$PUCSYDIR
 10
0.0
 20
1.0
 30
0.0
  9
$PUCSORTHOREF
  2

  9
$PUCSORTHOVIEW
 70
     0
  9
$PUCSORGTOP
 10
0.0
 20
0.0
 30
0.0
  9
$PUCSORGBOTTOM
 10
0.0
 20
0.0
 30
0.0
  9
$PUCSORGLEFT
 10
0.0
 20
0.0
 30
0.0
  9
$PUCSORGRIGHT
 10
0.0
 20
0.0
 30
0.0
  9
$PUCSORGFRONT
 10
0.0
 20
0.0
 30
0.0
  9
$PUCSORGBACK
 10
0.0
 20
0.0
 30
0.0
  9
$USERI1
 70
     0
  9
$USERI2
 70
     0
  9
$USERI3
 70
     0
  9
$USERI4
 70
     0
  9
$USERI5
 70
     0
  9
$USERR1
 40
20.0
  9
$USERR2
 40
0.0
  9
$USERR3
 40
0.0
  9
$USERR4
 40
0.0
  9
$USERR5
 40
0.0
  9
$WORLDVIEW
 70
     1
  9
$SHADEDGE
 70
     3
  9
$SHADEDIF
 70
    70
  9
$TILEMODE
 70
     1
  9
$MAXACTVP
 70
    64
  9
$PINSBASE
 10
0.0
 20
0.0
 30
0.0
  9
$PLIMCHECK
 70
     0
  9
$PEXTMIN
 10
1.000000000000000E+20
 20
1.000000000000000E+20
 30
1.000000000000000E+20
  9
$PEXTMAX
 10
-1.000000000000000E+20
 20
-1.000000000000000E+20
 30
-1.000000000000000E+20
  9
$PLIMMIN
 10
0.0
 20
0.0
  9
$PLIMMAX
 10
12.0
 20
9.0
  9
$UNITMODE
 70
     0
  9
$VISRETAIN
 70
     1
  9
$PLINEGEN
 70
     0
  9
$PSLTSCALE
 70
     1
  9
$TREEDEPTH
 70
  3020
  9
$CMLSTYLE
  2
Standard
  9
$CMLJUST
 70
     0
  9
$CMLSCALE
 40
1.0
  9
$PROXYGRAPHICS
 70
     1
  9
$MEASUREMENT
 70
     0
  9
$CELWEIGHT
370
    -1
  9
$ENDCAPS
280
     0
  9
$JOINSTYLE
280
     0
  9
$LWDISPLAY
290
     0
  9
$INSUNITS
 70
     0
  9
$HYPERLINKBASE
  1

  9
$STYLESHEET
  1

  9
$XEDIT
290
     1
  9
$CEPSNTYPE
380
     0
  9
$PSTYLEMODE
290
     1
  9
$FINGERPRINTGUID
  2
{BDE9151A-2239-48DD-A2F4-87C0F4BD29CC}
  9
$VERSIONGUID
  2
{C6FD2A84-6895-4D2F-B7AB-E2BD05D7357B}
  9
$EXTNAMES
290
     1
  9
$PSVPSCALE
 40
0.0
  9
$OLESTARTUP
290
     0
  9
$SORTENTS
280
   127
  9
$INDEXCTL
280
     1
  9
$HIDETEXT
280
     0
  9
$XCLIPFRAME
290
     0
  9
$HALOGAP
280
     0
  9
$OBSCOLOR
 70
   257
  9
$OBSLTYPE
280
     0
  9
$INTERSECTIONDISPLAY
280
     0
  9
$INTERSECTIONCOLOR
 70
   257
  9
$DIMASSOC
280
     1
  9
$PROJECTNAME
  1

  0
ENDSEC
  0
SECTION
  2
CLASSES
  0
CLASS
  1
ACDBDICTIONARYWDFLT
  2
AcDbDictionaryWithDefault
  3
ObjectDBX Classes
 90
        0
 91
        1
280
     0
281
     0
  0
CLASS
  1
MATERIAL
  2
AcDbMaterial
  3
ObjectDBX Classes
 90
     1153
 91
        3
280
     0
281
     0
  0
CLASS
  1
VISUALSTYLE
  2
AcDbVisualStyle
  3
ObjectDBX Classes
 90
     4095
 91
       16
280
     0
281
     0
  0
CLASS
  1
SCALE
  2
AcDbScale
  3
ObjectDBX Classes
 90
     1153
 91
       33
280
     0
281
     0
  0
CLASS
  1
TABLESTYLE
  2
AcDbTableStyle
  3
ObjectDBX Classes
 90
     4095
 91
        1
280
     0
281
     0
  0
CLASS
  1
MLEADERSTYLE
  2
AcDbMLeaderStyle
  3
ACDB_MLEADERSTYLE_CLASS
 90
     4095
 91
        1
280
     0
281
     0
  0
CLASS
  1
AMGSETTINGSOBJ
  2
AmgSettingsObj
  3
"AcadM|Product Description: AutoCAD Mechanical|Company: Autodesk, Inc."
 90
     1024
 91
        2
280
     0
281
     0
  0
CLASS
  1
ACME_DOCUMENT
  2
AcMeDbDoc
  3
AcMeServices
 90
     1024
 91
        1
280
     0
281
     0
  0
CLASS
  1
ACMESCOPE
  2
AcMeScope
  3
AcMeServices
 90
     1024
 91
        1
280
     0
281
     0
  0
CLASS
  1
ACMECOMMANDHISTORY
  2
AcMeCommandHistory
  3
AcMeServices
 90
     1024
 91
        1
280
     0
281
     0
  0
CLASS
  1
ACIMSYSVARMAN
  2
AcImSysVarManager
  3
AcMeServices
 90
     1024
 91
        6
280
     0
281
     0
  0
CLASS
  1
ACIMREALSYSVAR
  2
AcImRealSysVar
  3
AcMeServices
 90
     1024
 91
       16
280
     0
281
     0
  0
CLASS
  1
ACIMINTSYSVAR
  2
AcImIntSysVar
  3
AcMeServices
 90
     1024
 91
       45
280
     0
281
     0
  0
CLASS
  1
ACMEDRAWINGMAN
  2
AcMeDrawingMan
  3
AcMeServices
 90
     1024
 91
        1
280
     0
281
     0
  0
CLASS
  1
ACMEVIEW
  2
AcMeView
  3
AcMeServices
 90
     1024
 91
        1
280
     0
281
     0
  0
CLASS
  1
ACDBENTITYCACHE
  2
AcMeEntityCache
  3
AcMeServices
 90
     1024
 91
        1
280
     0
281
     0
  0
CLASS
  1
GSMANAGER
  2
AcMeGSManager
  3
AcMeServices
 90
     1024
 91
        1
280
     0
281
     0
  0
CLASS
  1
AMDTINTERNALREACTOR
  2
AmdtInternalReactor
  3
AcMeServices
 90
     1024
 91
        2
280
     0
281
     0
  0
CLASS
  1
ACMESTATEMGR
  2
AcMeStateMgr
  3
AcMeServices
 90
     1024
 91
        1
280
     0
281
     0
  0
CLASS
  1
ACGREFMASTER
  2
AcGrefMaster
  3
AcAttribServices
 90
     1024
 91
        1
280
     0
281
     0
  0
CLASS
  1
AM_DRAWING_MGR
  2
AcDmDwgMgr
  3
AcMechDwgViewMgmt
 90
     1024
 91
        1
280
     0
281
     0
  0
CLASS
  1
AM_DWG_DOCUMENT
  2
AcDmDwgDocument
  3
AcMechDwgViewMgmt
 90
     1024
 91
        1
280
     0
281
     0
  0
CLASS
  1
AM_DWG_SHEET
  2
AcDmSheet
  3
AcMechDwgViewMgmt
 90
     1024
 91
        1
280
     0
281
     0
  0
CLASS
  1
AM_VIEWDIMPARMAP
  2
AcDmViewDimParMap
  3
AcMechDwgViewMgmt
 90
     1024
 91
        1
280
     0
281
     0
  0
CLASS
  1
AM_DWGMGR_NAME
  2
AcDmDwgMgrName
  3
AcMechDwgViewMgmt
 90
     1024
 91
        1
280
     0
281
     0
  0
CLASS
  1
ACME_DATABASE
  2
AcMeDbDatabase
  3
AcMeServices
 90
     1024
 91
        1
280
     0
281
     0
  0
CLASS
  1
ACRFINSADJUSTERMGR
  2
AcRfInsAdjusterMgr
  3
AcMeServices
 90
     1024
 91
        1
280
     0
281
     0
  0
CLASS
  1
ACGREFACADMASTER
  2
AcGrefacadMaster
  3
AcGrefServices
 90
     1024
 91
        1
280
     0
281
     0
  0
CLASS
  1
AMDTMENUSTATEMGR
  2
AmdtMenuStateMgr
  3
McadcomServices
 90
     1024
 91
        1
280
     0
281
     0
  0
CLASS
  1
AMDTMCOMMENUSTATE
  2
AmdtMcomMenuState
  3
McadcomServices
 90
     1024
 91
        1
280
     0
281
     0
  0
CLASS
  1
AMIMASTER
  2
AmiMaster
  3
AmiServices
 90
     1024
 91
        1
280
     0
281
     0
  0
CLASS
  1
ASAPP
  2
AcAsAppObject
  3
AutoSurfServices
 90
     1024
 91
        1
280
     0
281
     0
  0
CLASS
  1
IM_STATIC_MAN
  2
AcImStaticVarManager
  3
AcMeServices
 90
     1024
 91
        1
280
     0
281
     0
  0
CLASS
  1
ACIMSTRSYSVAR
  2
AcImStrSysVar
  3
AcMeServices
 90
     1024
 91
       11
280
     0
281
     0
  0
CLASS
  1
ACIMDBLSTATICVAR
  2
AcImDblStaticVar
  3
AcMeServices
 90
     1024
 91
       20
280
     0
281
     0
  0
CLASS
  1
ACIMSTRSTATICVAR
  2
AcImStrStaticVar
  3
AcMeServices
 90
     1024
 91
       12
280
     0
281
     0
  0
CLASS
  1
ACIMINTSTATICVAR
  2
AcImIntStaticVar
  3
AcMeServices
 90
     1024
 91
       17
280
     0
281
     0
  0
CLASS
  1
ACASGREFMASTER
  2
AcAsGrefMaster
  3
AutoSurfResolverServices
 90
     1024
 91
        1
280
     0
281
     0
  0
CLASS
  1
ACADGREFMODULE
  2
AcAdGrefModule
  3
AdGrefServices
 90
     1024
 91
        1
280
     0
281
     0
  0
CLASS
  1
AMDTMAPISURFMOUDULE
  2
AmdtMApiSurfModule
  3
MApiSurfServices
 90
     1024
 91
        0
280
     0
281
     0
  0
CLASS
  1
MAPIAMMOUDLE
  2
MApiAmModule
  3
MApiAmServices
 90
     1024
 91
        1
280
     0
281
     0
  0
CLASS
  1
AMDTADMENUSTATE
  2
AmdtAdMenuState
  3
DesignerServices
 90
     1024
 91
        1
280
     0
281
     0
  0
CLASS
  1
ADAPPL
  2
AcAdAppl
  3
DesignerServices
 90
     1024
 91
        1
280
     0
281
     0
  0
CLASS
  1
DEPMGR
  2
AcAdDepMgr
  3
DesignerServices
 90
     1024
 91
        1
280
     0
281
     0
  0
CLASS
  1
PARAMMGR
  2
AcAdParamMgr
  3
DesignerServices
 90
     1024
 91
        1
280
     0
281
     0
  0
CLASS
  1
PARAMSCOPE
  2
AcAdParamScope
  3
DesignerServices
 90
     1024
 91
        1
280
     0
281
     0
  0
CLASS
  1
NAMEDAPPL
  2
AcAdNamedAppl
  3
DesignerServices
 90
     1024
 91
        1
280
     0
281
     0
  0
CLASS
  1
AMDTDMMENUSTATE
  2
AmdtDmMenuState
  3
AcMechDwgViewMgmt
 90
     1024
 91
        1
280
     0
281
     0
  0
CLASS
  1
MAPIADMODULE
  2
MApiAdModule
  3
MApiAdServices
 90
     1024
 91
        1
280
     0
281
     0
  0
CLASS
  1
AMDTAMMENUSTATE
  2
AmdtAmMenuState
  3
DesignerAssemblies
 90
     1024
 91
        1
280
     0
281
     0
  0
CLASS
  1
ACAMPROJECT
  2
AcAmProject
  3
DesignerAssemblies
 90
     1024
 91
        1
280
     0
281
     0
  0
CLASS
  1
ACAMGRCOMPDEF
  2
AcAmGrCompDef
  3
DesignerAssemblies
 90
     1024
 91
        1
280
     0
281
     0
  0
CLASS
  1
ACCMCONTEXT
  2
AcCmContext
  3
DesignerAssemblies
 90
     1024
 91
        1
280
     0
281
     0
  0
CLASS
  1
ACAMCOMPDEF
  2
AcAmCompDef
  3
DesignerAssemblies
 90
     1024
 91
        1
280
     0
281
     0
  0
CLASS
  1
ACAMCOMPDEFMGR
  2
AcAmCompDefMgr
  3
DesignerAssemblies
 90
     1024
 91
        1
280
     0
281
     0
  0
CLASS
  1
AMCONTEXTMGR
  2
AcAmContextMgr
  3
DesignerAssemblies
 90
     1024
 91
        1
280
     0
281
     0
  0
CLASS
  1
ACAMCONTEXTMODELER
  2
AcAmContextModeler
  3
DesignerAssemblies
 90
     1024
 91
        1
280
     0
281
     0
  0
CLASS
  1
ACMDATADICTIONARY
  2
AcmDataDictionary
  3
"AcmSymBB|Product Description: AutoCAD Mechanical|Company: Autodesk, Inc."
 90
     1024
 91
        1
280
     0
281
     0
  0
CLASS
  1
ACMDATAENTRYBLOCK
  2
AcmDataEntryBlock
  3
AcmSymBB|Product Description: AutoCAD Mechanical|Company: Autodesk, Inc.
 90
     1024
 91
        1
280
     0
281
     0
  0
CLASS
  1
ACRFATTGENMGR
  2
AcRfAttGeneralMgr
  3
AcAttribServices
 90
     1024
 91
        1
280
     0
281
     0
  0
CLASS
  1
ACRFOBJATTMGR
  2
AcRfObjAttGroupMgr
  3
AcAttribServices
 90
     1024
 91
        1
280
     0
281
     0
  0
CLASS
  1
ACRFMCADAPIATTHOLDER
  2
AcRfMCADAPIAttHolder
  3
AcAttribServices
 90
     1024
 91
        1
280
     0
281
     0
  0
CLASS
  1
AMDTSYSATTR
  2
AmdtSystemAttribute
  3
AcAttribServices
 90
     1024
 91
        1
280
     0
281
     0
  0
CLASS
  1
CATALOGSTATE
  2
AcAmCatalogState
  3
DesignerAssemblies
 90
     1024
 91
        1
280
     0
281
     0
  0
CLASS
  1
ACAMGRCOMPDEFSET
  2
AcAmGrCompDefSet
  3
DesignerAssemblies
 90
     1024
 91
        1
280
     0
281
     0
  0
CLASS
  1
AMDTBROWSERDBTAB
  2
AmdtBrowserDbTab
  3
McadcomServices
 90
     1024
 91
        1
280
     0
281
     0
  0
CLASS
  1
CBROWSERAPPOBJECT
  2
CBrowserAppObject
  3
McadcomServices
 90
     1024
 91
        3
280
     0
281
     0
  0
CLASS
  1
DM_PLACEHOLDER
  2
AcDmSelsetPlaceholder
  3
AcMechDwgViewMgmt
 90
     1024
 91
        1
280
     0
281
     0
  0
CLASS
  1
ACMSTANDARDANSI
  2
AcmStandardANSI
  3
"Amdt_StdImp|Product Description: AutoCAD Mechanical|Company: Autodesk, Inc."
 90
     1024
 91
        1
280
     0
281
     0
  0
CLASS
  1
ACMSURFSTANDARDANSI
  2
AcmSurfTextStdANSI
  3
"Amdt_StdImp|Product Description: AutoCAD Mechanical|Company: Autodesk, Inc."
 90
     1024
 91
        1
280
     0
281
     0
  0
CLASS
  1
ACMFCFSTANDARDANSI
  2
AcmFCFStdANSI
  3
"Amdt_StdImp|Product Description: AutoCAD Mechanical|Company: Autodesk, Inc."
 90
     1024
 91
        1
280
     0
281
     0
  0
CLASS
  1
ACMWELDSTANDARDANSI
  2
AcmWeldingStdANSI
  3
"Amdt_StdImp|Product Description: AutoCAD Mechanical|Company: Autodesk, Inc."
 90
     1024
 91
        1
280
     0
281
     0
  0
CLASS
  1
ACMIDSTANDARDANSI
  2
AcmIdStdANSI
  3
"Amdt_StdImp|Product Description: AutoCAD Mechanical|Company: Autodesk, Inc."
 90
     1024
 91
        1
280
     0
281
     0
  0
CLASS
  1
ACMDATUMSTANDARDANSI
  2
AcmDatumStdANSI
  3
"Amdt_StdImp|Product Description: AutoCAD Mechanical|Company: Autodesk, Inc."
 90
     1024
 91
        1
280
     0
281
     0
  0
CLASS
  1
ACMBOMSTANDARDANSI
  2
AcmBOMStdANSI
  3
"Amdt_StdImp|Product Description: AutoCAD Mechanical|Company: Autodesk, Inc."
 90
     1024
 91
        1
280
     0
281
     0
  0
CLASS
  1
ACMDETAILSTANDARDANSI
  2
AmdtDetailSymStdANSI
  3
"Amdt_StdImp|Product Description: AutoCAD Mechanical|Company: Autodesk, Inc."
 90
     1024
 91
        1
280
     0
281
     0
  0
CLASS
  1
ACMSECTIONSTANDARDANSI
  2
AmdtSectionSymStdANSI
  3
"Amdt_StdImp|Product Description: AutoCAD Mechanical|Company: Autodesk, Inc."
 90
     1024
 91
        1
280
     0
281
     0
  0
CLASS
  1
ACMCENTERLINESTANDARDANSI
  2
AmdtCenterLineStdANSI
  3
"Amdt_StdImp|Product Description: AutoCAD Mechanical|Company: Autodesk, Inc."
 90
     1024
 91
        1
280
     0
281
     0
  0
CLASS
  1
ACMTHREADLINESTANDARDANSI
  2
AmdtThreadLineStdANSI
  3
"Amdt_StdImp|Product Description: AutoCAD Mechanical|Company: Autodesk, Inc."
 90
     1024
 91
        1
280
     0
281
     0
  0
CLASS
  1
ACMNOTESTANDARDANSI
  2
AmdtNoteStdANSI
  3
"Amdt_StdImp|Product Description: AutoCAD Mechanical|Company: Autodesk, Inc."
 90
     1024
 91
        1
280
     0
281
     0
  0
CLASS
  1
ACMTAPERSTANDARDANSI
  2
AcmTaperStdANSI
  3
"Amdt_StdImp|Product Description: AutoCAD Mechanical|Company: Autodesk, Inc."
 90
     1024
 91
        1
280
     0
281
     0
  0
CLASS
  1
ACMANOOTATIONVIEWSTANDARDANSI
  2
AmdtAnViewStdANSI
  3
"Amdt_StdImp|Product Description: AutoCAD Mechanical|Company: Autodesk, Inc."
 90
     1024
 91
        1
280
     0
281
     0
  0
CLASS
  1
ACAMGLAYSTD
  2
AcAmgLayStd
  3
"AmgLay|Product Description: AutoCAD Mechanical|Company: Autodesk, Inc."
 90
     1024
 91
        1
280
     0
281
     0
  0
CLASS
  1
ACAMGDIMSTD
  2
AcAmgDimStd
  3
"AmgDim|Product Description: AutoCAD Mechanical|Company: Autodesk, Inc."
 90
     1024
 91
        1
280
     0
281
     0
  0
CLASS
  1
ACAMGHOLECHARTSTDANSI
  2
AcAmgHoleChartStdANSI
  3
AmgDim|Product Description: AutoCAD Mechanical|Company: Autodesk, Inc.
 90
     1024
 91
        1
280
     0
281
     0
  0
CLASS
  1
AMGOBJPROPCFG
  2
AmgObjPropCfg
  3
"AmgLay|Product Description: AutoCAD Mechanical|Company: Autodesk, Inc."
 90
     1025
 91
        1
280
     0
281
     0
  0
CLASS
  1
ACAMGTITLESTD
  2
AcAmgTitleStd
  3
"AmgTitle|Product Description: AutoCAD Mechanical|Company: Autodesk, Inc."
 90
     4095
 91
        1
280
     0
281
     0
  0
CLASS
  1
AMDTNOTETEMPLATEDB
  2
AmdtNoteTemplateDB
  3
AcmSymBB|Product Description: AutoCAD Mechanical|Company: Autodesk, Inc.
 90
     1024
 91
        6
280
     0
281
     0
  0
CLASS
  1
LAYER_INDEX
  2
AcDbLayerIndex
  3
ObjectDBX Classes
 90
        0
 91
        1
280
     0
281
     0
  0
CLASS
  1
IDBUFFER
  2
AcDbIdBuffer
  3
ObjectDBX Classes
 90
        0
 91
       12
280
     0
281
     0
  0
CLASS
  1
DICTIONARYVAR
  2
AcDbDictionaryVar
  3
ObjectDBX Classes
 90
        0
 91
       13
280
     0
281
     0
  0
CLASS
  1
CELLSTYLEMAP
  2
AcDbCellStyleMap
  3
ObjectDBX Classes
 90
     1152
 91
        2
280
     0
281
     0
  0
CLASS
  1
ACAMGFILTERDAT
  2
AcAmgFilterDat
  3
"AcadM|Product Description: AutoCAD Mechanical|Company: Autodesk, Inc."
 90
     1024
 91
        6
280
     0
281
     0
  0
CLASS
  1
SORTENTSTABLE
  2
AcDbSortentsTable
  3
ObjectDBX Classes
 90
        0
 91
        0
280
     0
281
     0
  0
ENDSEC
  0
SECTION
  2
TABLES
  0
TABLE
  2
VPORT
  5
26E9
330
0
100
AcDbSymbolTable
 70
     1
  0
VPORT
  5
2759
330
26E9
100
AcDbSymbolTableRecord
100
AcDbViewportTableRecord
  2
*ACTIVE
 70
     0
 10
0.0
 20
0.0
 11
1.0
 21
1.0
 12
-1872.608918499579
 22
0.0
 13
0.0
 23
0.0
 14
1.0
 24
1.0
 15
0.0
 25
0.0
 16
0.0
 26
0.0
 36
1.0
 17
3673.117052101568
 27
973.6404528068842
 37
0.0
 40
1258.556211380156
 41
1.352859135285913
 42
50.0
 43
0.0
 44
0.0
 50
0.0
 51
0.0
 71
     0
 72
   100
 73
     1
 74
     0
 75
     0
 76
     0
 77
     0
 78
     0
281
     0
 65
     0
110
0.0
120
0.0
130
0.0
111
1.0
121
0.0
131
0.0
112
0.0
122
1.0
132
0.0
 79
     0
146
0.0
  0
ENDTAB
  0
TABLE
  2
LTYPE
  5
26E6
330
0
100
AcDbSymbolTable
 70
    19
  0
LTYPE
  5
2743
330
26E6
100
AcDbSymbolTableRecord
100
AcDbLinetypeTableRecord
  2
ByBlock
 70
     0
  3

 72
    65
 73
     0
 40
0.0
  0
LTYPE
  5
2744
330
26E6
100
AcDbSymbolTableRecord
100
AcDbLinetypeTableRecord
  2
ByLayer
 70
     0
  3

 72
    65
 73
     0
 40
0.0
  0
LTYPE
  5
2745
330
26E6
100
AcDbSymbolTableRecord
100
AcDbLinetypeTableRecord
  2
CONTINUOUS
 70
     0
  3
実線
 72
    65
 73
     0
 40
0.0
  0
LTYPE
  5
275A
330
26E6
100
AcDbSymbolTableRecord
100
AcDbLinetypeTableRecord
  2
DASHDOT
 70
     0
  3
____ _ ____ _ ____ _ ____ _ ____ _ ____ _ ____
 72
    65
 73
     4
 40
5.5
 49
4.0
 74
     0
 49
-0.6
 74
     0
 49
0.3
 74
     0
 49
-0.6
 74
     0
  0
LTYPE
  5
275B
330
26E6
100
AcDbSymbolTableRecord
100
AcDbLinetypeTableRecord
  2
HIDDEN
 70
     0
  3
Hidden __ __ __ __ __ __ __ __ __ __ __ __ __ _
 72
    65
 73
     2
 40
0.375
 49
0.25
 74
     0
 49
-0.125
 74
     0
  0
LTYPE
  5
275C
330
26E6
100
AcDbSymbolTableRecord
100
AcDbLinetypeTableRecord
  2
PHANTOM2
 70
     0
  3
Phantom (.5x) ___ _ _ ___ _ _ ___ _ _ ___ _ _
 72
    65
 73
     6
 40
1.25
 49
0.625
 74
     0
 49
-0.125
 74
     0
 49
0.125
 74
     0
 49
-0.125
 74
     0
 49
0.125
 74
     0
 49
-0.125
 74
     0
  0
LTYPE
  5
275D
330
26E6
100
AcDbSymbolTableRecord
100
AcDbLinetypeTableRecord
  2
CENTER
 70
     0
  3
Center ____ _ ____ _ ____ _ ____ _ ____ _ ____
 72
    65
 73
     4
 40
2.0
 49
1.25
 74
     0
 49
-0.25
 74
     0
 49
0.25
 74
     0
 49
-0.25
 74
     0
  0
LTYPE
  5
275E
330
26E6
100
AcDbSymbolTableRecord
100
AcDbLinetypeTableRecord
  2
ASULTYPE
 70
     0
  3
実線
 72
    65
 73
     2
 40
3.0
 49
2.5
 74
     0
 49
0.5
 74
     0
  0
LTYPE
  5
275F
330
26E6
100
AcDbSymbolTableRecord
100
AcDbLinetypeTableRecord
  2
ASVLTYPE
 70
     0
  3
__ __ __ __ __ __ __ __ __ __ __ __ __ __ __ __ __ __ __ __ __
 72
    65
 73
     2
 40
0.75
 49
0.5
 74
     0
 49
-0.25
 74
     0
  0
LTYPE
  5
2760
330
26E6
100
AcDbSymbolTableRecord
100
AcDbLinetypeTableRecord
  2
AM_ISO02W050
 70
     0
  3
__ __ __ __ __ __ __ __ __ __ __ __ __ __ __
 72
    65
 73
     2
 40
7.5
 49
6.0
 74
     0
 49
-1.5
 74
     0
  0
LTYPE
  5
2761
330
26E6
100
AcDbSymbolTableRecord
100
AcDbLinetypeTableRecord
  2
AM_ISO08W050
 70
     0
  3
____ . ____ . ____ . ____ . ____ . ____ . ____
 72
    65
 73
     4
 40
18.0
 49
12.0
 74
     0
 49
-1.5
 74
     0
 49
3.0
 74
     0
 49
-1.5
 74
     0
  0
LTYPE
  5
2762
330
26E6
100
AcDbSymbolTableRecord
100
AcDbLinetypeTableRecord
  2
AM_ISO09W050
 70
     0
  3
_____ . . _____ . . _____ . . ____ .. ____
 72
    65
 73
     6
 40
22.5
 49
12.0
 74
     0
 49
-1.5
 74
     0
 49
3.0
 74
     0
 49
-1.5
 74
     0
 49
3.0
 74
     0
 49
-1.5
 74
     0
  0
LTYPE
  5
2763
330
26E6
100
AcDbSymbolTableRecord
100
AcDbLinetypeTableRecord
  2
AMCONSTR
 70
     0
  3
_______________________
 72
    65
 73
     2
 40
9999.0
 49
9999.0
 74
     0
 49
0.0
 74
     0
  0
LTYPE
  5
2764
330
26E6
100
AcDbSymbolTableRecord
100
AcDbLinetypeTableRecord
  2
AM_ISO08W050X2
 70
     0
  3
__ . __ . __ . __ . __ . __
 72
    65
 73
     4
 40
9.0
 49
6.0
 74
     0
 49
-0.75
 74
     0
 49
1.5
 74
     0
 49
-0.75
 74
     0
  0
LTYPE
  5
2765
330
26E6
100
AcDbSymbolTableRecord
100
AcDbLinetypeTableRecord
  2
AM_ISO02W050X2
 70
     0
  3
 _ _ _ _ _ _ _ _ _ _ _ _
 72
    65
 73
     2
 40
3.75
 49
3.0
 74
     0
 49
-0.75
 74
     0
  0
LTYPE
  5
2766
330
26E6
100
AcDbSymbolTableRecord
100
AcDbLinetypeTableRecord
  2
AMZIGZAG
 70
     0
  3
/\/-/\/-/\/-/\/-/\/-/\/
 72
    65
 73
     2
 40
11.0001
 49
0.0001
 74
     0
 49
-11.0
 74
     0
  0
LTYPE
  5
2767
330
26E6
100
AcDbSymbolTableRecord
100
AcDbLinetypeTableRecord
  2
CENTER2
 70
     0
  3
Center (.5x) ___ _ ___ _ ___ _ ___ _ ___ _ ___
 72
    65
 73
     4
 40
1.125
 49
0.75
 74
     0
 49
-0.125
 74
     0
 49
0.125
 74
     0
 49
-0.125
 74
     0
  0
LTYPE
  5
2768
330
26E6
100
AcDbSymbolTableRecord
100
AcDbLinetypeTableRecord
  2
HIDDEN2
 70
     0
  3
Hidden (.5x) _ _ _ _ _ _ _ _ _ _ _ _ _ _ _ _ _
 72
    65
 73
     2
 40
0.1875
 49
0.125
 74
     0
 49
-0.0625
 74
     0
  0
LTYPE
  5
2769
330
26E6
100
AcDbSymbolTableRecord
100
AcDbLinetypeTableRecord
  2
AMZIGZAG2
 70
     0
  3
/\/-/\/-/\/-/\/-/\/-/\/
 72
    65
 73
     2
 40
0.4401
 49
0.0001
 74
     0
 49
-0.4400000000000003
 74
     0
  0
LTYPE
  5
276A
330
26E6
100
AcDbSymbolTableRecord
100
AcDbLinetypeTableRecord
  2
ACANSTGB
 70
     0
  3
__ . . __ . .
 72
    65
 73
     6
 40
0.35433070866
 49
0.15748031496
 74
     0
 49
-0.03937007874
 74
     0
 49
0.03937007874
 74
     0
 49
-0.03937007874
 74
     0
 49
0.03937007874
 74
     0
 49
-0.03937007874
 74
     0
  0
LTYPE
  5
276B
330
26E6
100
AcDbSymbolTableRecord
100
AcDbLinetypeTableRecord
  2
ACANSTGL
 70
     0
  3
_ _ _ _ _
 72
    65
 73
     2
 40
0.11811023622
 49
0.07874015748
 74
     0
 49
-0.03937007874
 74
     0
  0
ENDTAB
  0
TABLE
  2
LAYER
  5
26E3
102
{ACAD_XDICTIONARY
360
2A3B
102
}
330
0
100
AcDbSymbolTable
 70
    12
  0
LAYER
  5
273D
102
{ACAD_XDICTIONARY
360
2913
102
}
330
26E3
100
AcDbSymbolTableRecord
100
AcDbLayerTableRecord
  2
0
 70
     0
 62
     7
  6
CONTINUOUS
370
    -3
390
26F0
  0
LAYER
  5
276C
102
{ACAD_XDICTIONARY
360
2915
102
}
330
26E3
100
AcDbSymbolTableRecord
100
AcDbLayerTableRecord
  2
OUTLINE
 70
     0
 62
     3
  6
CONTINUOUS
370
    -3
390
26F0
  0
LAYER
  5
276D
102
{ACAD_XDICTIONARY
360
2917
102
}
330
26E3
100
AcDbSymbolTableRecord
100
AcDbLayerTableRecord
  2
SIZE
 70
     0
 62
    30
  6
CONTINUOUS
370
    -3
390
26F0
  0
LAYER
  5
276E
102
{ACAD_XDICTIONARY
360
2919
102
}
330
26E3
100
AcDbSymbolTableRecord
100
AcDbLayerTableRecord
  2
BASIS
 70
     0
 62
     6
  6
DASHDOT
370
    -3
390
26F0
  0
LAYER
  5
276F
102
{ACAD_XDICTIONARY
360
291B
102
}
330
26E3
100
AcDbSymbolTableRecord
100
AcDbLayerTableRecord
  2
DETAIL
 70
     0
 62
     5
  6
CONTINUOUS
370
    -3
390
26F0
  0
LAYER
  5
2770
102
{ACAD_XDICTIONARY
360
291D
102
}
330
26E3
100
AcDbSymbolTableRecord
100
AcDbLayerTableRecord
  2
ARRANGE
 70
     0
 62
     1
  6
CONTINUOUS
370
    -3
390
26F0
  0
LAYER
  5
2771
330
26E3
100
AcDbSymbolTableRecord
100
AcDbLayerTableRecord
  2
DEFPOINTS
 70
     0
 62
     7
  6
CONTINUOUS
290
     0
370
    -3
390
26F0
  0
LAYER
  5
2772
102
{ACAD_XDICTIONARY
360
291F
102
}
330
26E3
100
AcDbSymbolTableRecord
100
AcDbLayerTableRecord
  2
ETC
 70
     0
 62
    61
  6
CONTINUOUS
370
    -3
390
26F0
  0
LAYER
  5
2773
102
{ACAD_XDICTIONARY
360
2921
102
}
330
26E3
100
AcDbSymbolTableRecord
100
AcDbLayerTableRecord
  2
FIX
 70
     0
 62
    11
  6
CONTINUOUS
370
    -3
390
26F0
  0
LAYER
  5
2774
102
{ACAD_XDICTIONARY
360
2923
102
}
330
26E3
100
AcDbSymbolTableRecord
100
AcDbLayerTableRecord
  2
NOTE
 70
     0
 62
     4
  6
CONTINUOUS
370
    -3
390
26F0
  0
LAYER
  5
2775
102
{ACAD_XDICTIONARY
360
2925
102
}
330
26E3
100
AcDbSymbolTableRecord
100
AcDbLayerTableRecord
  2
SERVICESPACE
 70
     0
 62
     2
  6
DASHDOT
370
    -3
390
26F0
  0
LAYER
  5
2776
102
{ACAD_XDICTIONARY
360
2927
102
}
330
26E3
100
AcDbSymbolTableRecord
100
AcDbLayerTableRecord
  2
SYMBOLLINE
 70
     0
 62
    15
  6
CONTINUOUS
370
    -3
390
26F0
  0
ENDTAB
  0
TABLE
  2
STYLE
  5
26E4
330
0
100
AcDbSymbolTable
 70
     5
  0
STYLE
  5
273E
330
26E4
100
AcDbSymbolTableRecord
100
AcDbTextStyleTableRecord
  2
STANDARD
 70
     0
 40
64.0
 41
0.9
 50
0.0
 71
     0
 42
64.0
  3
SIMPLEX.shx
  4
BIGFONT.shx
  0
STYLE
  5
2742
330
26E4
100
AcDbSymbolTableRecord
100
AcDbTextStyleTableRecord
  2
ANNOTATIVE
 70
     0
 40
0.0
 41
1.0
 50
0.0
 71
     0
 42
0.2
  3
txt
  4

1001
ACADANNOTATIVE
1000
AnnotativeData
1002
{
1070
     1
1070
     1
1002
}
  0
STYLE
  5
2777
330
26E4
100
AcDbSymbolTableRecord
100
AcDbTextStyleTableRecord
  2

 70
     1
 40
0.0
 41
1.0
 50
0.0
 71
     0
 42
64.0
  3
genltshp.shx
  4

  0
STYLE
  5
2778
330
26E4
100
AcDbSymbolTableRecord
100
AcDbTextStyleTableRecord
  2
ACANSTS
 70
     0
 40
1.0
 41
1.0
 50
0.0
 71
     0
 42
64.0
  3
romans.shx
  4
extfont.shx
  0
STYLE
  5
2779
330
26E4
100
AcDbSymbolTableRecord
100
AcDbTextStyleTableRecord
  2
ACANSGDT
 70
     0
 40
0.0
 41
1.0
 50
0.0
 71
     0
 42
64.0
  3
amgdt.shx
  4

  0
ENDTAB
  0
TABLE
  2
VIEW
  5
26E7
330
0
100
AcDbSymbolTable
 70
     1
  0
VIEW
  5
277A
330
26E7
100
AcDbSymbolTableRecord
100
AcDbViewTableRecord
  2
ALL
 70
     0
 40
4282.619807999997
 10
0.0
 20
41.30990399999999
 41
5940.0
 11
0.0
 21
0.0
 31
1.0
 12
0.0
 22
0.0
 32
0.0
 42
50.0
 43
0.0
 44
0.0
 50
0.0
 71
     0
281
     0
 72
     1
110
0.0
120
0.0
130
0.0
111
1.0
121
0.0
131
0.0
112
0.0
122
1.0
132
0.0
 79
     0
146
0.0
  0
ENDTAB
  0
TABLE
  2
UCS
  5
26E8
330
0
100
AcDbSymbolTable
 70
     0
  0
ENDTAB
  0
TABLE
  2
APPID
  5
26EA
330
0
100
AcDbSymbolTable
 70
    27
  0
APPID
  5
273F
330
26EA
100
AcDbSymbolTableRecord
100
AcDbRegAppTableRecord
  2
ACAD
 70
     0
  0
APPID
  5
2746
330
26EA
100
AcDbSymbolTableRecord
100
AcDbRegAppTableRecord
  2
ACADANNOTATIVE
 70
     0
  0
APPID
  5
2750
330
26EA
100
AcDbSymbolTableRecord
100
AcDbRegAppTableRecord
  2
ACAD_MLEADERVER
 70
     0
  0
APPID
  5
277B
330
26EA
100
AcDbSymbolTableRecord
100
AcDbRegAppTableRecord
  2
GENIUS_GENDIM_13
 70
     0
  0
APPID
  5
277C
330
26EA
100
AcDbSymbolTableRecord
100
AcDbRegAppTableRecord
  2
GENIUS_GENDTOL_13
 70
     0
  0
APPID
  5
277D
330
26EA
100
AcDbSymbolTableRecord
100
AcDbRegAppTableRecord
  2
GENIUS_GE3DTOL_13
 70
     0
  0
APPID
  5
277E
330
26EA
100
AcDbSymbolTableRecord
100
AcDbRegAppTableRecord
  2
MCAD_NO_VIS
 70
     0
  0
APPID
  5
277F
330
26EA
100
AcDbSymbolTableRecord
100
AcDbRegAppTableRecord
  2
ACAD_TEMP_GRAPHIC
 70
     0
  0
APPID
  5
2780
330
26EA
100
AcDbSymbolTableRecord
100
AcDbRegAppTableRecord
  2
AD_DRAW
 70
     0
  0
APPID
  5
2781
330
26EA
100
AcDbSymbolTableRecord
100
AcDbRegAppTableRecord
  2
ACATTRIBSERVICES
 70
     0
  0
APPID
  5
2782
330
26EA
100
AcDbSymbolTableRecord
100
AcDbRegAppTableRecord
  2
ASURF_PCURVE_APPNAME
 70
     0
  0
APPID
  5
2783
330
26EA
100
AcDbSymbolTableRecord
100
AcDbRegAppTableRecord
  2
AMG_3D2D_5_0
 70
     0
  0
APPID
  5
2784
330
26EA
100
AcDbSymbolTableRecord
100
AcDbRegAppTableRecord
  2
DESIGNERASSEMBLIES
 70
     0
  0
APPID
  5
2785
330
26EA
100
AcDbSymbolTableRecord
100
AcDbRegAppTableRecord
  2
ACADM_DIM_EDIT
 70
     0
  0
APPID
  5
2786
330
26EA
100
AcDbSymbolTableRecord
100
AcDbRegAppTableRecord
  2
AMDT_DM_ADJ
 70
     0
  0
APPID
  5
2787
330
26EA
100
AcDbSymbolTableRecord
100
AcDbRegAppTableRecord
  2
ACAD_DSTYLE_DIMARC_LENGTH_
 70
     0
  0
APPID
  5
2788
330
26EA
100
AcDbSymbolTableRecord
100
AcDbRegAppTableRecord
  2
ACAD_DSTYLE_DIMJOGGED_JOGA
 70
     0
  0
APPID
  5
2789
330
26EA
100
AcDbSymbolTableRecord
100
AcDbRegAppTableRecord
  2
ACAD_PSEXT
 70
     0
  0
APPID
  5
278A
330
26EA
100
AcDbSymbolTableRecord
100
AcDbRegAppTableRecord
  2
ACAD_EXEMPT_FROM_CAD_STANDARDS
 70
     0
  0
APPID
  5
278B
330
26EA
100
AcDbSymbolTableRecord
100
AcDbRegAppTableRecord
  2
ACAD_DSTYLE_DIMJAG
 70
     0
  0
APPID
  5
278C
330
26EA
100
AcDbSymbolTableRecord
100
AcDbRegAppTableRecord
  2
ACAD_DSTYLE_DIMTALN
 70
     0
  0
APPID
  5
28BA
330
26EA
100
AcDbSymbolTableRecord
100
AcDbRegAppTableRecord
  2
AMG_3D2D_5.0
 70
     0
  0
APPID
  5
2950
330
26EA
100
AcDbSymbolTableRecord
100
AcDbRegAppTableRecord
  2
ACAD_DSTYLE_DIMARC_LENGTH_SYMBOL
 70
     0
  0
APPID
  5
2951
330
26EA
100
AcDbSymbolTableRecord
100
AcDbRegAppTableRecord
  2
ACAD_DSTYLE_DIM_LINETYPE
 70
     0
  0
APPID
  5
2952
330
26EA
100
AcDbSymbolTableRecord
100
AcDbRegAppTableRecord
  2
ACAD_DSTYLE_DIM_EXT1_LINETYPE
 70
     0
  0
APPID
  5
2953
330
26EA
100
AcDbSymbolTableRecord
100
AcDbRegAppTableRecord
  2
ACAD_DSTYLE_DIM_EXT2_LINETYPE
 70
     0
  0
APPID
  5
2A3A
330
26EA
100
AcDbSymbolTableRecord
100
AcDbRegAppTableRecord
  2
ACAD_DSTYLE_DIMJOGGED_JOGANGLE_SYMBOL
 70
     0
  0
ENDTAB
  0
TABLE
  2
DIMSTYLE
  5
26EB
330
0
100
AcDbSymbolTable
 70
    10
100
AcDbDimStyleTable
 71
     1
340
278D
  0
DIMSTYLE
105
2740
330
26EB
100
AcDbSymbolTableRecord
100
AcDbDimStyleTableRecord
  2
STANDARD
 70
     0
 41
12.0
 42
20.0
 44
20.0
 77
     1
 78
     8
140
64.0
141
0.0
147
10.0
275
     1
279
     2
284
     7
285
     7
286
     7
340
273E
  0
DIMSTYLE
105
2741
330
26EB
100
AcDbSymbolTableRecord
100
AcDbDimStyleTableRecord
  2
ANNOTATIVE
 70
     0
275
     1
279
     2
284
     7
285
     7
286
     7
340
273E
1001
ACADANNOTATIVE
1000
AnnotativeData
1002
{
1070
     1
1070
     1
1002
}
  0
DIMSTYLE
105
278D
330
26EB
100
AcDbSymbolTableRecord
100
AcDbDimStyleTableRecord
  2
AM_ANSI
 70
     0
  4
mm
 41
0.12
 42
0.05
 43
0.5
 44
0.1
 47
0.1
 48
0.1
 78
     7
 79
     2
140
0.12
141
0.0
146
0.71
147
0.06
176
   256
177
   256
178
     2
274
     4
284
     7
340
273E
371
    -1
372
    -1
1001
ACAD_DSTYLE_DIMARC_LENGTH_SYMBOL
1070
   379
1070
     1
1001
ACAD_DSTYLE_DIM_LINETYPE
1070
   380
1005
2743
1001
ACAD_DSTYLE_DIM_EXT1_LINETYPE
1070
   381
1005
2743
1001
ACAD_DSTYLE_DIM_EXT2_LINETYPE
1070
   382
1005
2743
  0
DIMSTYLE
105
278E
330
26EB
100
AcDbSymbolTableRecord
100
AcDbDimStyleTableRecord
  2
AM_ANSI$3
 70
     0
  4
mm
 41
0.12
 42
0.05
 43
0.5
 44
0.1
 47
0.1
 48
0.1
 78
     7
 79
     2
140
0.12
141
0.0
146
0.71
147
0.06
176
   256
177
   256
178
     2
274
     4
284
     7
288
     1
289
     0
340
273E
371
    -1
372
    -1
1001
ACAD_DSTYLE_DIMARC_LENGTH_SYMBOL
1070
   379
1070
     1
1001
ACAD_DSTYLE_DIM_LINETYPE
1070
   380
1005
2743
1001
ACAD_DSTYLE_DIM_EXT1_LINETYPE
1070
   381
1005
2743
1001
ACAD_DSTYLE_DIM_EXT2_LINETYPE
1070
   382
1005
2743
  0
DIMSTYLE
105
278F
330
26EB
100
AcDbSymbolTableRecord
100
AcDbDimStyleTableRecord
  2
AM_ANSI$4
 70
     0
  4
mm
 41
0.12
 42
0.05
 43
0.5
 44
0.1
 47
0.1
 48
0.1
 78
     7
 79
     2
140
0.12
141
0.0
146
0.71
147
0.06
176
   256
177
   256
178
     2
274
     4
284
     7
340
273E
371
    -1
372
    -1
1001
ACAD_DSTYLE_DIMARC_LENGTH_SYMBOL
1070
   379
1070
     1
1001
ACAD_DSTYLE_DIM_LINETYPE
1070
   380
1005
2743
1001
ACAD_DSTYLE_DIM_EXT1_LINETYPE
1070
   381
1005
2743
1001
ACAD_DSTYLE_DIM_EXT2_LINETYPE
1070
   382
1005
2743
  0
DIMSTYLE
105
2790
330
26EB
100
AcDbSymbolTableRecord
100
AcDbDimStyleTableRecord
  2
AM_ANSI$7
 70
     0
  4
mm
 41
0.12
 42
0.05
 43
0.5
 44
0.1
 47
0.1
 48
0.1
 78
     7
 79
     2
140
0.12
141
0.0
146
0.71
147
0.06
176
   256
177
   256
178
     2
274
     4
284
     7
340
273E
371
    -1
372
    -1
1001
ACAD_DSTYLE_DIMARC_LENGTH_SYMBOL
1070
   379
1070
     1
1001
ACAD_DSTYLE_DIM_LINETYPE
1070
   380
1005
2743
1001
ACAD_DSTYLE_DIM_EXT1_LINETYPE
1070
   381
1005
2743
1001
ACAD_DSTYLE_DIM_EXT2_LINETYPE
1070
   382
1005
2743
  0
DIMSTYLE
105
2791
330
26EB
100
AcDbSymbolTableRecord
100
AcDbDimStyleTableRecord
  2
AM_ANSI$SF
 70
     0
  4
mm
 41
0.12
 42
0.05
 43
0.5
 44
0.1
 47
0.1
 48
0.1
 75
     1
 76
     1
 78
     7
 79
     2
140
0.12
141
0.0
146
0.71
147
0.06
176
   256
177
   256
178
     2
274
     4
284
     7
340
273E
371
    -1
372
    -1
1001
ACAD_DSTYLE_DIMARC_LENGTH_SYMBOL
1070
   379
1070
     1
1001
ACAD_DSTYLE_DIM_LINETYPE
1070
   380
1005
2743
1001
ACAD_DSTYLE_DIM_EXT1_LINETYPE
1070
   381
1005
2743
1001
ACAD_DSTYLE_DIM_EXT2_LINETYPE
1070
   382
1005
2743
  0
DIMSTYLE
105
2792
330
26EB
100
AcDbSymbolTableRecord
100
AcDbDimStyleTableRecord
  2
AM_ANSI$SH
 70
     0
  4
mm
 41
0.12
 42
0.05
 43
0.5
 44
0.1
 47
0.1
 48
0.1
 75
     1
 76
     1
 78
     7
 79
     2
140
0.12
141
0.0
146
0.71
147
0.06
173
     1
176
   256
177
   256
178
     2
274
     4
284
     7
340
273E
343
27B2
371
    -1
372
    -1
1001
ACAD_DSTYLE_DIMARC_LENGTH_SYMBOL
1070
   379
1070
     1
1001
ACAD_DSTYLE_DIM_LINETYPE
1070
   380
1005
2743
1001
ACAD_DSTYLE_DIM_EXT1_LINETYPE
1070
   381
1005
2743
1001
ACAD_DSTYLE_DIM_EXT2_LINETYPE
1070
   382
1005
2743
  0
DIMSTYLE
105
2793
330
26EB
100
AcDbSymbolTableRecord
100
AcDbDimStyleTableRecord
  2
STANDARD1
 70
     0
 40
6.0
 41
2.5
 42
0.625
 43
6.0
 44
1.25
 47
1.0
 48
0.5
 77
     1
 78
     8
140
2.5
141
0.0
146
0.6
147
1.0
173
     1
275
     1
279
     2
284
     7
285
     7
286
     7
340
273E
  0
DIMSTYLE
105
2794
330
26EB
100
AcDbSymbolTableRecord
100
AcDbDimStyleTableRecord
  2
STANDARD$0
 70
     0
 41
12.0
 42
20.0
 44
20.0
 73
     0
 74
     0
 77
     1
 78
     8
140
64.0
141
0.0
147
10.0
275
     1
279
     2
284
     7
285
     7
286
     7
340
273E
  0
ENDTAB
  0
TABLE
  2
BLOCK_RECORD
  5
26E2
330
0
100
AcDbSymbolTable
 70
    81
  0
BLOCK_RECORD
  5
2755
102
{ACAD_XDICTIONARY
360
2929
102
}
330
26E2
100
AcDbSymbolTableRecord
100
AcDbBlockTableRecord
  2
*Model_Space
340
2758
  0
BLOCK_RECORD
  5
2751
330
26E2
100
AcDbSymbolTableRecord
100
AcDbBlockTableRecord
  2
*Paper_Space
340
2754
  0
BLOCK_RECORD
  5
279C
330
26E2
100
AcDbSymbolTableRecord
100
AcDbBlockTableRecord
  2
$MODEL_SPACE
340
0
  0
BLOCK_RECORD
  5
279E
330
26E2
100
AcDbSymbolTableRecord
100
AcDbBlockTableRecord
  2
$PAPER_SPACE
340
0
  0
BLOCK_RECORD
  5
27A0
330
26E2
100
AcDbSymbolTableRecord
100
AcDbBlockTableRecord
  2
_ORIGIN
340
0
  0
BLOCK_RECORD
  5
27A2
330
26E2
100
AcDbSymbolTableRecord
100
AcDbBlockTableRecord
  2
_DOTBLANK
340
0
102
{BLKREFS
331
1299
331
129A
331
11AA
331
11AB
331
E80
331
E81
331
1123
331
1124
331
11C2
331
11C3
331
11EC
331
11ED
331
11F9
331
11FA
331
1287
331
1288
331
1417
331
1418
331
1423
331
1424
331
142F
331
1430
331
143B
331
143C
331
166E
331
166F
331
1677
331
1678
331
1680
331
1681
331
1689
331
168A
331
1696
331
1697
331
16A3
331
16A4
331
16AF
331
16B0
331
16BB
331
16BC
331
16C7
331
16C8
331
16D3
331
16D4
331
1D86
331
1D87
331
1D8F
331
1D90
331
1D98
331
1D99
331
1DA1
331
1DA2
331
1DAB
331
1DAC
331
1DB5
331
1DB6
331
2DAD
331
2DAE
331
2DB3
331
2DB4
331
2DD1
331
2DD2
331
2DDE
331
2DDF
331
2DE6
331
2DE7
331
2DA6
331
2DA7
102
}
  0
BLOCK_RECORD
  5
27A4
330
26E2
100
AcDbSymbolTableRecord
100
AcDbBlockTableRecord
  2
_OPEN30
340
0
102
{BLKREFS
331
2087
331
215B
331
223E
331
2337
331
2468
331
259D
331
2DD4
102
}
  0
BLOCK_RECORD
  5
27A6
330
26E2
100
AcDbSymbolTableRecord
100
AcDbBlockTableRecord
  2
*D5
340
0
  0
BLOCK_RECORD
  5
27A8
330
26E2
100
AcDbSymbolTableRecord
100
AcDbBlockTableRecord
  2
*U6
340
0
102
{BLKREFS
331
129B
102
}
  0
BLOCK_RECORD
  5
27AA
330
26E2
100
AcDbSymbolTableRecord
100
AcDbBlockTableRecord
  2
*D7
340
0
  0
BLOCK_RECORD
  5
27AC
330
26E2
100
AcDbSymbolTableRecord
100
AcDbBlockTableRecord
  2
*U8
340
0
102
{BLKREFS
331
11AC
102
}
  0
BLOCK_RECORD
  5
27AE
330
26E2
100
AcDbSymbolTableRecord
100
AcDbBlockTableRecord
  2
*D9
340
0
  0
BLOCK_RECORD
  5
27B0
330
26E2
100
AcDbSymbolTableRecord
100
AcDbBlockTableRecord
  2
*U10
340
0
102
{BLKREFS
331
E82
102
}
  0
BLOCK_RECORD
  5
27B2
330
26E2
100
AcDbSymbolTableRecord
100
AcDbBlockTableRecord
  2
GENAXEH
340
0
  0
BLOCK_RECORD
  5
27B4
330
26E2
100
AcDbSymbolTableRecord
100
AcDbBlockTableRecord
  2
*D12
340
0
  0
BLOCK_RECORD
  5
27B6
330
26E2
100
AcDbSymbolTableRecord
100
AcDbBlockTableRecord
  2
*U13
340
0
102
{BLKREFS
331
1125
102
}
  0
BLOCK_RECORD
  5
27B8
330
26E2
100
AcDbSymbolTableRecord
100
AcDbBlockTableRecord
  2
*D14
340
0
  0
BLOCK_RECORD
  5
27BA
330
26E2
100
AcDbSymbolTableRecord
100
AcDbBlockTableRecord
  2
*U15
340
0
102
{BLKREFS
331
11C4
102
}
  0
BLOCK_RECORD
  5
27BC
330
26E2
100
AcDbSymbolTableRecord
100
AcDbBlockTableRecord
  2
*D16
340
0
  0
BLOCK_RECORD
  5
27BE
330
26E2
100
AcDbSymbolTableRecord
100
AcDbBlockTableRecord
  2
*U17
340
0
102
{BLKREFS
331
11EE
102
}
  0
BLOCK_RECORD
  5
27C0
330
26E2
100
AcDbSymbolTableRecord
100
AcDbBlockTableRecord
  2
*D18
340
0
  0
BLOCK_RECORD
  5
27C2
330
26E2
100
AcDbSymbolTableRecord
100
AcDbBlockTableRecord
  2
*U19
340
0
102
{BLKREFS
331
11FB
102
}
  0
BLOCK_RECORD
  5
27C4
330
26E2
100
AcDbSymbolTableRecord
100
AcDbBlockTableRecord
  2
*D20
340
0
  0
BLOCK_RECORD
  5
27C6
330
26E2
100
AcDbSymbolTableRecord
100
AcDbBlockTableRecord
  2
*U21
340
0
102
{BLKREFS
331
1289
102
}
  0
BLOCK_RECORD
  5
27C8
330
26E2
100
AcDbSymbolTableRecord
100
AcDbBlockTableRecord
  2
*D22
340
0
  0
BLOCK_RECORD
  5
27CA
330
26E2
100
AcDbSymbolTableRecord
100
AcDbBlockTableRecord
  2
*U23
340
0
102
{BLKREFS
331
1419
102
}
  0
BLOCK_RECORD
  5
27CC
330
26E2
100
AcDbSymbolTableRecord
100
AcDbBlockTableRecord
  2
*D24
340
0
  0
BLOCK_RECORD
  5
27CE
330
26E2
100
AcDbSymbolTableRecord
100
AcDbBlockTableRecord
  2
*U25
340
0
102
{BLKREFS
331
1425
102
}
  0
BLOCK_RECORD
  5
27D0
330
26E2
100
AcDbSymbolTableRecord
100
AcDbBlockTableRecord
  2
*D26
340
0
  0
BLOCK_RECORD
  5
27D2
330
26E2
100
AcDbSymbolTableRecord
100
AcDbBlockTableRecord
  2
*U27
340
0
102
{BLKREFS
331
1431
102
}
  0
BLOCK_RECORD
  5
27D4
330
26E2
100
AcDbSymbolTableRecord
100
AcDbBlockTableRecord
  2
*D28
340
0
  0
BLOCK_RECORD
  5
27D6
330
26E2
100
AcDbSymbolTableRecord
100
AcDbBlockTableRecord
  2
*U29
340
0
102
{BLKREFS
331
143D
102
}
  0
BLOCK_RECORD
  5
27D8
330
26E2
100
AcDbSymbolTableRecord
100
AcDbBlockTableRecord
  2
*D30
340
0
  0
BLOCK_RECORD
  5
27DA
330
26E2
100
AcDbSymbolTableRecord
100
AcDbBlockTableRecord
  2
*U31
340
0
102
{BLKREFS
331
1670
102
}
  0
BLOCK_RECORD
  5
27DC
330
26E2
100
AcDbSymbolTableRecord
100
AcDbBlockTableRecord
  2
*D32
340
0
  0
BLOCK_RECORD
  5
27DE
330
26E2
100
AcDbSymbolTableRecord
100
AcDbBlockTableRecord
  2
*U33
340
0
102
{BLKREFS
331
1679
102
}
  0
BLOCK_RECORD
  5
27E0
330
26E2
100
AcDbSymbolTableRecord
100
AcDbBlockTableRecord
  2
*D34
340
0
  0
BLOCK_RECORD
  5
27E2
330
26E2
100
AcDbSymbolTableRecord
100
AcDbBlockTableRecord
  2
*U35
340
0
102
{BLKREFS
331
1682
102
}
  0
BLOCK_RECORD
  5
27E4
330
26E2
100
AcDbSymbolTableRecord
100
AcDbBlockTableRecord
  2
*D36
340
0
  0
BLOCK_RECORD
  5
27E6
330
26E2
100
AcDbSymbolTableRecord
100
AcDbBlockTableRecord
  2
*U37
340
0
102
{BLKREFS
331
168B
102
}
  0
BLOCK_RECORD
  5
27E8
330
26E2
100
AcDbSymbolTableRecord
100
AcDbBlockTableRecord
  2
*U38
340
0
  0
BLOCK_RECORD
  5
27EA
330
26E2
100
AcDbSymbolTableRecord
100
AcDbBlockTableRecord
  2
*D39
340
0
  0
BLOCK_RECORD
  5
27EC
330
26E2
100
AcDbSymbolTableRecord
100
AcDbBlockTableRecord
  2
*U40
340
0
102
{BLKREFS
331
1698
102
}
  0
BLOCK_RECORD
  5
27EE
330
26E2
100
AcDbSymbolTableRecord
100
AcDbBlockTableRecord
  2
*D41
340
0
  0
BLOCK_RECORD
  5
27F0
330
26E2
100
AcDbSymbolTableRecord
100
AcDbBlockTableRecord
  2
*U42
340
0
102
{BLKREFS
331
16A5
102
}
  0
BLOCK_RECORD
  5
27F2
330
26E2
100
AcDbSymbolTableRecord
100
AcDbBlockTableRecord
  2
*D43
340
0
  0
BLOCK_RECORD
  5
27F4
330
26E2
100
AcDbSymbolTableRecord
100
AcDbBlockTableRecord
  2
*U44
340
0
102
{BLKREFS
331
16B1
102
}
  0
BLOCK_RECORD
  5
27F6
330
26E2
100
AcDbSymbolTableRecord
100
AcDbBlockTableRecord
  2
*D45
340
0
  0
BLOCK_RECORD
  5
27F8
330
26E2
100
AcDbSymbolTableRecord
100
AcDbBlockTableRecord
  2
*U46
340
0
102
{BLKREFS
331
16BD
102
}
  0
BLOCK_RECORD
  5
27FA
330
26E2
100
AcDbSymbolTableRecord
100
AcDbBlockTableRecord
  2
*D47
340
0
  0
BLOCK_RECORD
  5
27FC
330
26E2
100
AcDbSymbolTableRecord
100
AcDbBlockTableRecord
  2
*U48
340
0
102
{BLKREFS
331
16C9
102
}
  0
BLOCK_RECORD
  5
27FE
330
26E2
100
AcDbSymbolTableRecord
100
AcDbBlockTableRecord
  2
*D49
340
0
  0
BLOCK_RECORD
  5
2800
330
26E2
100
AcDbSymbolTableRecord
100
AcDbBlockTableRecord
  2
*U50
340
0
102
{BLKREFS
331
16D5
102
}
  0
BLOCK_RECORD
  5
2802
330
26E2
100
AcDbSymbolTableRecord
100
AcDbBlockTableRecord
  2
*D51
340
0
  0
BLOCK_RECORD
  5
2804
330
26E2
100
AcDbSymbolTableRecord
100
AcDbBlockTableRecord
  2
*U52
340
0
102
{BLKREFS
331
1D88
102
}
  0
BLOCK_RECORD
  5
2806
330
26E2
100
AcDbSymbolTableRecord
100
AcDbBlockTableRecord
  2
*D53
340
0
  0
BLOCK_RECORD
  5
2808
330
26E2
100
AcDbSymbolTableRecord
100
AcDbBlockTableRecord
  2
*U54
340
0
102
{BLKREFS
331
1D91
102
}
  0
BLOCK_RECORD
  5
280A
330
26E2
100
AcDbSymbolTableRecord
100
AcDbBlockTableRecord
  2
*D55
340
0
  0
BLOCK_RECORD
  5
280C
330
26E2
100
AcDbSymbolTableRecord
100
AcDbBlockTableRecord
  2
*U56
340
0
102
{BLKREFS
331
1D9A
102
}
  0
BLOCK_RECORD
  5
280E
330
26E2
100
AcDbSymbolTableRecord
100
AcDbBlockTableRecord
  2
*D57
340
0
  0
BLOCK_RECORD
  5
2810
330
26E2
100
AcDbSymbolTableRecord
100
AcDbBlockTableRecord
  2
*U58
340
0
102
{BLKREFS
331
1DA3
102
}
  0
BLOCK_RECORD
  5
2812
330
26E2
100
AcDbSymbolTableRecord
100
AcDbBlockTableRecord
  2
*D59
340
0
  0
BLOCK_RECORD
  5
2814
330
26E2
100
AcDbSymbolTableRecord
100
AcDbBlockTableRecord
  2
*U60
340
0
102
{BLKREFS
331
1DAD
102
}
  0
BLOCK_RECORD
  5
2816
330
26E2
100
AcDbSymbolTableRecord
100
AcDbBlockTableRecord
  2
*D61
340
0
  0
BLOCK_RECORD
  5
2818
330
26E2
100
AcDbSymbolTableRecord
100
AcDbBlockTableRecord
  2
*U62
340
0
102
{BLKREFS
331
1DB7
102
}
  0
BLOCK_RECORD
  5
281A
330
26E2
100
AcDbSymbolTableRecord
100
AcDbBlockTableRecord
  2
*U63
340
0
  0
BLOCK_RECORD
  5
281C
330
26E2
100
AcDbSymbolTableRecord
100
AcDbBlockTableRecord
  2
*U64
340
0
  0
BLOCK_RECORD
  5
281E
330
26E2
100
AcDbSymbolTableRecord
100
AcDbBlockTableRecord
  2
*U65
340
0
  0
BLOCK_RECORD
  5
2820
330
26E2
100
AcDbSymbolTableRecord
100
AcDbBlockTableRecord
  2
*U66
340
0
  0
BLOCK_RECORD
  5
2822
330
26E2
100
AcDbSymbolTableRecord
100
AcDbBlockTableRecord
  2
*U67
340
0
  0
BLOCK_RECORD
  5
2824
330
26E2
100
AcDbSymbolTableRecord
100
AcDbBlockTableRecord
  2
*U68
340
0
  0
BLOCK_RECORD
  5
2826
330
26E2
100
AcDbSymbolTableRecord
100
AcDbBlockTableRecord
  2
*U69
340
0
  0
BLOCK_RECORD
  5
2828
330
26E2
100
AcDbSymbolTableRecord
100
AcDbBlockTableRecord
  2
*U70
340
0
  0
BLOCK_RECORD
  5
282A
330
26E2
100
AcDbSymbolTableRecord
100
AcDbBlockTableRecord
  2
*U71
340
0
  0
BLOCK_RECORD
  5
282C
330
26E2
100
AcDbSymbolTableRecord
100
AcDbBlockTableRecord
  2
*U72
340
0
  0
BLOCK_RECORD
  5
282E
330
26E2
100
AcDbSymbolTableRecord
100
AcDbBlockTableRecord
  2
*U73
340
0
  0
BLOCK_RECORD
  5
2830
330
26E2
100
AcDbSymbolTableRecord
100
AcDbBlockTableRecord
  2
*U74
340
0
  0
BLOCK_RECORD
  5
2832
330
26E2
100
AcDbSymbolTableRecord
100
AcDbBlockTableRecord
  2
*U75
340
0
  0
BLOCK_RECORD
  5
2834
330
26E2
100
AcDbSymbolTableRecord
100
AcDbBlockTableRecord
  2
*X76
340
0
  0
BLOCK_RECORD
  5
2836
330
26E2
100
AcDbSymbolTableRecord
100
AcDbBlockTableRecord
  2
*X77
340
0
  0
BLOCK_RECORD
  5
2A03
330
26E2
100
AcDbSymbolTableRecord
100
AcDbBlockTableRecord
  2
*U78
340
0
  0
BLOCK_RECORD
  5
2C2B
330
26E2
100
AcDbSymbolTableRecord
100
AcDbBlockTableRecord
  2
*U79
340
0
  0
ENDTAB
  0
ENDSEC
  0
SECTION
  2
BLOCKS
  0
BLOCK
  5
2756
330
2755
100
AcDbEntity
  8
0
100
AcDbBlockBegin
  2
*Model_Space
 70
     0
 10
0.0
 20
0.0
 30
0.0
  3
*Model_Space
  1

  0
ENDBLK
  5
2757
330
2755
100
AcDbEntity
  8
0
100
AcDbBlockEnd
  0
BLOCK
  5
2752
330
2751
100
AcDbEntity
 67
     1
  8
0
100
AcDbBlockBegin
  2
*Paper_Space
 70
     0
 10
0.0
 20
0.0
 30
0.0
  3
*Paper_Space
  1

  0
ENDBLK
  5
2753
330
2751
100
AcDbEntity
 67
     1
  8
0
100
AcDbBlockEnd
  0
BLOCK
  5
279D
330
279C
100
AcDbEntity
  8
0
100
AcDbBlockBegin
  2
$MODEL_SPACE
 70
     0
 10
0.0
 20
0.0
 30
0.0
  3
$MODEL_SPACE
  1

  0
ENDBLK
  5
1FC1
330
279C
100
AcDbEntity
  8
0
100
AcDbBlockEnd
  0
BLOCK
  5
279F
330
279E
100
AcDbEntity
  8
0
100
AcDbBlockBegin
  2
$PAPER_SPACE
 70
     0
 10
0.0
 20
0.0
 30
0.0
  3
$PAPER_SPACE
  1

  0
ENDBLK
  5
1FBD
330
279E
100
AcDbEntity
  8
0
100
AcDbBlockEnd
  0
BLOCK
  5
27A1
330
27A0
100
AcDbEntity
  8
0
100
AcDbBlockBegin
  2
_ORIGIN
 70
     0
 10
0.0
 20
0.0
 30
0.0
  3
_ORIGIN
  1

  0
CIRCLE
  5
880
330
27A0
100
AcDbEntity
  8
0
  6
Continuous
 62
     7
100
AcDbCircle
 10
0.0
 20
0.0
 30
0.0
 40
0.5
  0
LINE
  5
881
330
27A0
100
AcDbEntity
  8
0
  6
Continuous
 62
     7
100
AcDbLine
 10
0.0
 20
0.0
 30
0.0
 11
-1.0
 21
0.0
 31
0.0
  0
ENDBLK
  5
882
330
27A0
100
AcDbEntity
  8
0
100
AcDbBlockEnd
  0
BLOCK
  5
27A3
330
27A2
100
AcDbEntity
  8
0
 62
     1
100
AcDbBlockBegin
  2
_DOTBLANK
 70
     0
 10
0.0
 20
0.0
 30
0.0
  3
_DOTBLANK
  1

  0
CIRCLE
  5
AB3
330
27A2
100
AcDbEntity
  8
0
  6
ByBlock
 62
     0
100
AcDbCircle
 10
0.0
 20
0.0
 30
0.0
 40
0.5
  0
LINE
  5
AB4
330
27A2
100
AcDbEntity
  8
0
  6
ByBlock
 62
     0
100
AcDbLine
 10
-0.5
 20
0.0
 30
0.0
 11
-1.0
 21
0.0
 31
0.0
  0
ENDBLK
  5
AB6
330
27A2
100
AcDbEntity
  8
0
 62
     1
100
AcDbBlockEnd
  0
BLOCK
  5
27A5
330
27A4
100
AcDbEntity
  8
0
 62
     1
100
AcDbBlockBegin
  2
_OPEN30
 70
     0
 10
0.0
 20
0.0
 30
0.0
  3
_OPEN30
  1

  0
LINE
  5
AB8
330
27A4
100
AcDbEntity
  8
0
  6
ByBlock
 62
     0
100
AcDbLine
 10
-1.0
 20
0.26794919
 30
0.0
 11
0.0
 21
0.0
 31
0.0
  0
LINE
  5
AB9
330
27A4
100
AcDbEntity
  8
0
  6
ByBlock
 62
     0
100
AcDbLine
 10
0.0
 20
0.0
 30
0.0
 11
-1.0
 21
-0.26794919
 31
0.0
  0
LINE
  5
ABA
330
27A4
100
AcDbEntity
  8
0
  6
ByBlock
 62
     0
100
AcDbLine
 10
0.0
 20
0.0
 30
0.0
 11
-1.0
 21
0.0
 31
0.0
  0
ENDBLK
  5
ABC
330
27A4
100
AcDbEntity
  8
0
 62
     1
100
AcDbBlockEnd
  0
BLOCK
  5
27A7
330
27A6
100
AcDbEntity
  8
0
100
AcDbBlockBegin
  2
*D5
 70
     1
 10
0.0
 20
0.0
 30
0.0
  3
*D5
  1

  0
LINE
  5
1296
330
27A6
100
AcDbEntity
  8
SIZE
 62
     0
100
AcDbLine
 10
-134.5
 20
-320.0
 30
0.0
 11
-134.5
 21
-468.0173952306001
 31
0.0
  0
LINE
  5
1297
330
27A6
100
AcDbEntity
  8
SIZE
 62
     0
100
AcDbLine
 10
134.5
 20
-320.0
 30
0.0
 11
134.5
 21
-468.0173952306001
 31
0.0
  0
LINE
  5
1298
330
27A6
100
AcDbEntity
  8
SIZE
 62
     0
100
AcDbLine
 10
-122.5
 20
-448.0173952306
 30
0.0
 11
122.5
 21
-448.0173952306
 31
0.0
  0
INSERT
  5
1299
330
27A6
100
AcDbEntity
  8
SIZE
 62
     0
100
AcDbBlockReference
  2
_DOTBLANK
 10
-134.5
 20
-448.0173952306
 30
0.0
 41
12.0
 42
12.0
 43
12.0
 50
180.0
  0
INSERT
  5
129A
330
27A6
100
AcDbEntity
  8
SIZE
 62
     0
100
AcDbBlockReference
  2
_DOTBLANK
 10
134.5
 20
-448.0173952306
 30
0.0
 41
12.0
 42
12.0
 43
12.0
  0
INSERT
  5
129B
330
27A6
100
AcDbEntity
  8
0
100
AcDbBlockReference
  2
*U6
 10
0.0
 20
0.0
 30
0.0
  0
POINT
  5
129C
330
27A6
100
AcDbEntity
  8
DEFPOINTS
 62
     0
100
AcDbPoint
 10
-134.5
 20
-300.0
 30
0.0
  0
POINT
  5
129D
330
27A6
100
AcDbEntity
  8
DEFPOINTS
 62
     0
100
AcDbPoint
 10
134.5
 20
-300.0
 30
0.0
  0
POINT
  5
129E
330
27A6
100
AcDbEntity
  8
DEFPOINTS
 62
     0
100
AcDbPoint
 10
134.5
 20
-448.0173952306
 30
0.0
  0
ENDBLK
  5
D72
330
27A6
100
AcDbEntity
  8
0
100
AcDbBlockEnd
  0
BLOCK
  5
27A9
330
27A8
100
AcDbEntity
  8
0
100
AcDbBlockBegin
  2
*U6
 70
     1
 10
0.0
 20
0.0
 30
0.0
  3
*U6
  1

  0
TEXT
  5
1EF5
330
27A8
100
AcDbEntity
  8
SIZE
 62
     0
100
AcDbText
 10
-72.68571428571426
 20
-438.0173952305999
 30
0.0
 40
64.0
  1
269
 41
0.9
100
AcDbText
  0
ENDBLK
  5
1EF7
330
27A8
100
AcDbEntity
  8
0
100
AcDbBlockEnd
  0
BLOCK
  5
27AB
330
27AA
100
AcDbEntity
  8
0
100
AcDbBlockBegin
  2
*D7
 70
     1
 10
0.0
 20
0.0
 30
0.0
  3
*D7
  1

  0
LINE
  5
11A7
330
27AA
100
AcDbEntity
  8
SIZE
  6
Continuous
 62
     0
100
AcDbLine
 10
143.5
 20
-300.0
 30
0.0
 11
304.6432844803791
 21
-300.0
 31
0.0
  0
LINE
  5
11A8
330
27AA
100
AcDbEntity
  8
SIZE
  6
Continuous
 62
     0
100
AcDbLine
 10
177.5
 20
-0.0000000000000057
 30
0.0
 11
304.6432844803792
 21
-0.0000000000000417
 31
0.0
  0
LINE
  5
11A9
330
27AA
100
AcDbEntity
  8
SIZE
  6
Continuous
 62
     0
100
AcDbLine
 10
284.6432844803791
 20
-288.0000000000001
 30
0.0
 11
284.6432844803792
 21
-12.00000000000003
 31
0.0
  0
INSERT
  5
11AA
330
27AA
100
AcDbEntity
  8
SIZE
  6
Continuous
 62
     0
100
AcDbBlockReference
  2
_DOTBLANK
 10
284.6432844803791
 20
-300.0
 30
0.0
 41
12.0
 42
12.0
 43
12.0
 50
270.0
  0
INSERT
  5
11AB
330
27AA
100
AcDbEntity
  8
SIZE
  6
Continuous
 62
     0
100
AcDbBlockReference
  2
_DOTBLANK
 10
284.6432844803792
 20
-0.000000000000036
 30
0.0
 41
12.0
 42
12.0
 43
12.0
 50
90.0
  0
INSERT
  5
11AC
330
27AA
100
AcDbEntity
  8
0
100
AcDbBlockReference
  2
*U8
 10
0.0
 20
0.0
 30
0.0
  0
POINT
  5
11AD
330
27AA
100
AcDbEntity
  8
DEFPOINTS
  6
Continuous
 62
     0
100
AcDbPoint
 10
123.5
 20
-300.0
 30
0.0
  0
POINT
  5
11AE
330
27AA
100
AcDbEntity
  8
DEFPOINTS
  6
Continuous
 62
     0
100
AcDbPoint
 10
157.5
 20
0.0
 30
0.0
  0
POINT
  5
11AF
330
27AA
100
AcDbEntity
  8
DEFPOINTS
  6
Continuous
 62
     0
100
AcDbPoint
 10
284.6432844803792
 20
-0.000000000000036
 30
0.0
  0
ENDBLK
  5
E11
330
27AA
100
AcDbEntity
  8
0
100
AcDbBlockEnd
  0
BLOCK
  5
27AD
330
27AC
100
AcDbEntity
  8
0
100
AcDbBlockBegin
  2
*U8
 70
     1
 10
0.0
 20
0.0
 30
0.0
  3
*U8
  1

  0
TEXT
  5
1EE1
330
27AC
100
AcDbEntity
  8
SIZE
 62
     0
100
AcDbText
 10
274.6432844803792
 20
-224.0571428571429
 30
0.0
 40
64.0
  1
300
 50
90.0
 41
0.9
100
AcDbText
  0
ENDBLK
  5
1EE3
330
27AC
100
AcDbEntity
  8
0
100
AcDbBlockEnd
  0
BLOCK
  5
27AF
330
27AE
100
AcDbEntity
  8
0
100
AcDbBlockBegin
  2
*D9
 70
     1
 10
0.0
 20
0.0
 30
0.0
  3
*D9
  1

  0
LINE
  5
E7D
330
27AE
100
AcDbEntity
  8
SIZE
 62
     0
100
AcDbLine
 10
-139.9999999999998
 20
32.46448280219375
 30
0.0
 11
-139.9999999999998
 21
136.4516878685508
 31
0.0
  0
LINE
  5
E7E
330
27AE
100
AcDbEntity
  8
SIZE
 62
     0
100
AcDbLine
 10
140.0
 20
32.46448280219375
 30
0.0
 11
140.0
 21
136.4516878685508
 31
0.0
  0
LINE
  5
E7F
330
27AE
100
AcDbEntity
  8
SIZE
 62
     0
100
AcDbLine
 10
-128.0
 20
116.4516878685508
 30
0.0
 11
128.0
 21
116.4516878685508
 31
0.0
  0
INSERT
  5
E80
330
27AE
100
AcDbEntity
  8
SIZE
 62
     0
100
AcDbBlockReference
  2
_DOTBLANK
 10
-139.9999999999998
 20
116.4516878685508
 30
0.0
 41
12.0
 42
12.0
 43
12.0
 50
180.0
  0
INSERT
  5
E81
330
27AE
100
AcDbEntity
  8
SIZE
 62
     0
100
AcDbBlockReference
  2
_DOTBLANK
 10
140.0
 20
116.4516878685508
 30
0.0
 41
12.0
 42
12.0
 43
12.0
  0
INSERT
  5
E82
330
27AE
100
AcDbEntity
  8
0
100
AcDbBlockReference
  2
*U10
 10
0.0
 20
0.0
 30
0.0
  0
POINT
  5
E83
330
27AE
100
AcDbEntity
  8
DEFPOINTS
 62
     0
100
AcDbPoint
 10
-139.9999999999998
 20
12.46448280219374
 30
0.0
  0
POINT
  5
E84
330
27AE
100
AcDbEntity
  8
DEFPOINTS
 62
     0
100
AcDbPoint
 10
140.0
 20
12.46448280219374
 30
0.0
  0
POINT
  5
E85
330
27AE
100
AcDbEntity
  8
DEFPOINTS
 62
     0
100
AcDbPoint
 10
140.0
 20
116.4516878685508
 30
0.0
  0
ENDBLK
  5
E7C
330
27AE
100
AcDbEntity
  8
0
100
AcDbBlockEnd
  0
BLOCK
  5
27B1
330
27B0
100
AcDbEntity
  8
0
100
AcDbBlockBegin
  2
*U10
 70
     1
 10
0.0
 20
0.0
 30
0.0
  3
*U10
  1

  0
TEXT
  5
1ED8
330
27B0
100
AcDbEntity
  8
SIZE
 62
     0
100
AcDbText
 10
-74.05714285714281
 20
126.4516878685508
 30
0.0
 40
64.0
  1
280
 41
0.9
100
AcDbText
  0
ENDBLK
  5
1EDA
330
27B0
100
AcDbEntity
  8
0
100
AcDbBlockEnd
  0
BLOCK
  5
27B3
330
27B2
100
AcDbEntity
  8
0
100
AcDbBlockBegin
  2
GENAXEH
 70
     0
 10
0.0
 20
0.0
 30
0.0
  3
GENAXEH
  1

  0
LINE
  5
FDB
330
27B2
100
AcDbEntity
  8
0
100
AcDbLine
 10
-1.0
 20
0.0
 30
0.0
 11
1.0
 21
0.0
 31
0.0
  0
ENDBLK
  5
FDD
330
27B2
100
AcDbEntity
  8
0
100
AcDbBlockEnd
  0
BLOCK
  5
27B5
330
27B4
100
AcDbEntity
  8
0
100
AcDbBlockBegin
  2
*D12
 70
     1
 10
0.0
 20
0.0
 30
0.0
  3
*D12
  1

  0
LINE
  5
1120
330
27B4
100
AcDbEntity
  8
SIZE
 62
     0
100
AcDbLine
 10
-157.5
 20
20.0
 30
0.0
 11
-157.5
 21
245.5794621189598
 31
0.0
  0
LINE
  5
1121
330
27B4
100
AcDbEntity
  8
SIZE
 62
     0
100
AcDbLine
 10
157.5
 20
20.0
 30
0.0
 11
157.5
 21
245.5794621189598
 31
0.0
  0
LINE
  5
1122
330
27B4
100
AcDbEntity
  8
SIZE
 62
     0
100
AcDbLine
 10
-145.5
 20
225.5794621189598
 30
0.0
 11
145.5
 21
225.5794621189598
 31
0.0
  0
INSERT
  5
1123
330
27B4
100
AcDbEntity
  8
SIZE
 62
     0
100
AcDbBlockReference
  2
_DOTBLANK
 10
-157.5
 20
225.5794621189598
 30
0.0
 41
12.0
 42
12.0
 43
12.0
 50
180.0
  0
INSERT
  5
1124
330
27B4
100
AcDbEntity
  8
SIZE
 62
     0
100
AcDbBlockReference
  2
_DOTBLANK
 10
157.5
 20
225.5794621189598
 30
0.0
 41
12.0
 42
12.0
 43
12.0
  0
INSERT
  5
1125
330
27B4
100
AcDbEntity
  8
0
100
AcDbBlockReference
  2
*U13
 10
0.0
 20
0.0
 30
0.0
  0
POINT
  5
1126
330
27B4
100
AcDbEntity
  8
DEFPOINTS
 62
     0
100
AcDbPoint
 10
-157.5
 20
0.0
 30
0.0
  0
POINT
  5
1127
330
27B4
100
AcDbEntity
  8
DEFPOINTS
 62
     0
100
AcDbPoint
 10
157.5
 20
0.0
 30
0.0
  0
POINT
  5
1128
330
27B4
100
AcDbEntity
  8
DEFPOINTS
 62
     0
100
AcDbPoint
 10
157.5
 20
225.5794621189598
 30
0.0
  0
ENDBLK
  5
111F
330
27B4
100
AcDbEntity
  8
0
100
AcDbBlockEnd
  0
BLOCK
  5
27B7
330
27B6
100
AcDbEntity
  8
0
100
AcDbBlockBegin
  2
*U13
 70
     1
 10
0.0
 20
0.0
 30
0.0
  3
*U13
  1

  0
TEXT
  5
1EDD
330
27B6
100
AcDbEntity
  8
SIZE
 62
     0
100
AcDbText
 10
-68.57142857142857
 20
235.5794621189599
 30
0.0
 40
64.0
  1
315
 41
0.9
100
AcDbText
  0
ENDBLK
  5
1EDF
330
27B6
100
AcDbEntity
  8
0
100
AcDbBlockEnd
  0
BLOCK
  5
27B9
330
27B8
100
AcDbEntity
  8
0
100
AcDbBlockBegin
  2
*D14
 70
     1
 10
0.0
 20
0.0
 30
0.0
  3
*D14
  1

  0
LINE
  5
11BD
330
27B8
100
AcDbEntity
  8
NOTE
 62
     0
100
AcDbLine
 10
-123.4999999999999
 20
-320.0
 30
0.0
 11
-123.4999999999999
 21
-354.9529861856111
 31
0.0
  0
LINE
  5
11BE
330
27B8
100
AcDbEntity
  8
NOTE
 62
     0
100
AcDbLine
 10
-133.4999999999998
 20
-331.2126909923287
 30
0.0
 11
-133.4999999999998
 21
-354.9529861856111
 31
0.0
  0
LINE
  5
11BF
330
27B8
100
AcDbEntity
  8
NOTE
 62
     0
100
AcDbLine
 10
-111.4999999999999
 20
-334.9529861856112
 30
0.0
 11
-99.4999999999999
 21
-334.9529861856112
 31
0.0
  0
LINE
  5
11C0
330
27B8
100
AcDbEntity
  8
NOTE
 62
     0
100
AcDbLine
 10
-145.4999999999998
 20
-334.9529861856112
 30
0.0
 11
-157.4999999999998
 21
-334.9529861856112
 31
0.0
  0
LINE
  5
11C1
330
27B8
100
AcDbEntity
  8
NOTE
 62
     0
100
AcDbLine
 10
-123.4999999999999
 20
-334.9529861856112
 30
0.0
 11
-133.4999999999998
 21
-334.9529861856112
 31
0.0
  0
INSERT
  5
11C2
330
27B8
100
AcDbEntity
  8
NOTE
 62
     0
100
AcDbBlockReference
  2
_DOTBLANK
 10
-123.4999999999999
 20
-334.9529861856112
 30
0.0
 41
12.0
 42
12.0
 43
12.0
 50
180.0
  0
INSERT
  5
11C3
330
27B8
100
AcDbEntity
  8
NOTE
 62
     0
100
AcDbBlockReference
  2
_DOTBLANK
 10
-133.4999999999998
 20
-334.9529861856112
 30
0.0
 41
12.0
 42
12.0
 43
12.0
  0
INSERT
  5
11C4
330
27B8
100
AcDbEntity
  8
0
100
AcDbBlockReference
  2
*U15
 10
0.0
 20
0.0
 30
0.0
  0
POINT
  5
11C5
330
27B8
100
AcDbEntity
  8
DEFPOINTS
 62
     0
100
AcDbPoint
 10
-123.4999999999999
 20
-300.0
 30
0.0
  0
POINT
  5
11C6
330
27B8
100
AcDbEntity
  8
DEFPOINTS
 62
     0
100
AcDbPoint
 10
-133.4999999999998
 20
-311.2126909923287
 30
0.0
  0
POINT
  5
11C7
330
27B8
100
AcDbEntity
  8
DEFPOINTS
 62
     0
100
AcDbPoint
 10
-133.4999999999998
 20
-334.9529861856112
 30
0.0
  0
ENDBLK
  5
11BC
330
27B8
100
AcDbEntity
  8
0
100
AcDbBlockEnd
  0
BLOCK
  5
27BB
330
27BA
100
AcDbEntity
  8
0
100
AcDbBlockBegin
  2
*U15
 70
     1
 10
0.0
 20
0.0
 30
0.0
  3
*U15
  1

  0
TEXT
  5
1EE5
330
27BA
100
AcDbEntity
  8
NOTE
 62
     0
100
AcDbText
 10
-169.642857142857
 20
-324.9529861856112
 30
0.0
 40
64.0
  1
10
 41
0.9
100
AcDbText
  0
ENDBLK
  5
1EE7
330
27BA
100
AcDbEntity
  8
0
100
AcDbBlockEnd
  0
BLOCK
  5
27BD
330
27BC
100
AcDbEntity
  8
0
100
AcDbBlockBegin
  2
*D16
 70
     1
 10
0.0
 20
0.0
 30
0.0
  3
*D16
  1

  0
LINE
  5
11E7
330
27BC
100
AcDbEntity
  8
NOTE
 62
     0
100
AcDbLine
 10
-135.5
 20
-333.2126909923287
 30
0.0
 11
-135.5
 21
-386.2569421441843
 31
0.0
  0
LINE
  5
11E8
330
27BC
100
AcDbEntity
  8
NOTE
 62
     0
100
AcDbLine
 10
-123.4999999999999
 20
-320.0
 30
0.0
 11
-123.4999999999999
 21
-386.2569421441843
 31
0.0
  0
LINE
  5
11E9
330
27BC
100
AcDbEntity
  8
NOTE
 62
     0
100
AcDbLine
 10
-147.5
 20
-366.2569421441844
 30
0.0
 11
-159.5
 21
-366.2569421441844
 31
0.0
  0
LINE
  5
11EA
330
27BC
100
AcDbEntity
  8
NOTE
 62
     0
100
AcDbLine
 10
-111.4999999999999
 20
-366.2569421441844
 30
0.0
 11
-99.4999999999999
 21
-366.2569421441844
 31
0.0
  0
LINE
  5
11EB
330
27BC
100
AcDbEntity
  8
NOTE
 62
     0
100
AcDbLine
 10
-135.5
 20
-366.2569421441844
 30
0.0
 11
-123.4999999999999
 21
-366.2569421441844
 31
0.0
  0
INSERT
  5
11EC
330
27BC
100
AcDbEntity
  8
NOTE
 62
     0
100
AcDbBlockReference
  2
_DOTBLANK
 10
-135.5
 20
-366.2569421441844
 30
0.0
 41
12.0
 42
12.0
 43
12.0
  0
INSERT
  5
11ED
330
27BC
100
AcDbEntity
  8
NOTE
 62
     0
100
AcDbBlockReference
  2
_DOTBLANK
 10
-123.4999999999999
 20
-366.2569421441844
 30
0.0
 41
12.0
 42
12.0
 43
12.0
 50
180.0
  0
INSERT
  5
11EE
330
27BC
100
AcDbEntity
  8
0
100
AcDbBlockReference
  2
*U17
 10
0.0
 20
0.0
 30
0.0
  0
POINT
  5
11EF
330
27BC
100
AcDbEntity
  8
DEFPOINTS
 62
     0
100
AcDbPoint
 10
-135.5
 20
-313.2126909923287
 30
0.0
  0
POINT
  5
11F0
330
27BC
100
AcDbEntity
  8
DEFPOINTS
 62
     0
100
AcDbPoint
 10
-123.4999999999999
 20
-300.0
 30
0.0
  0
POINT
  5
11F1
330
27BC
100
AcDbEntity
  8
DEFPOINTS
 62
     0
100
AcDbPoint
 10
-123.4999999999999
 20
-366.2569421441844
 30
0.0
  0
ENDBLK
  5
11E6
330
27BC
100
AcDbEntity
  8
0
100
AcDbBlockEnd
  0
BLOCK
  5
27BF
330
27BE
100
AcDbEntity
  8
0
100
AcDbBlockBegin
  2
*U17
 70
     1
 10
0.0
 20
0.0
 30
0.0
  3
*U17
  1

  0
TEXT
  5
1EE9
330
27BE
100
AcDbEntity
  8
NOTE
 62
     0
100
AcDbText
 10
-170.642857142857
 20
-356.2569421441843
 30
0.0
 40
64.0
  1
12
 41
0.9
100
AcDbText
  0
ENDBLK
  5
1EEB
330
27BE
100
AcDbEntity
  8
0
100
AcDbBlockEnd
  0
BLOCK
  5
27C1
330
27C0
100
AcDbEntity
  8
0
100
AcDbBlockBegin
  2
*D18
 70
     1
 10
0.0
 20
0.0
 30
0.0
  3
*D18
  1

  0
LINE
  5
11F6
330
27C0
100
AcDbEntity
  8
NOTE
 62
     0
100
AcDbLine
 10
-123.4999999999999
 20
-320.0
 30
0.0
 11
-123.4999999999999
 21
-583.8286022818904
 31
0.0
  0
LINE
  5
11F7
330
27C0
100
AcDbEntity
  8
NOTE
 62
     0
100
AcDbLine
 10
123.5
 20
-320.0
 30
0.0
 11
123.5
 21
-583.8286022818904
 31
0.0
  0
LINE
  5
11F8
330
27C0
100
AcDbEntity
  8
NOTE
 62
     0
100
AcDbLine
 10
-111.4999999999999
 20
-563.8286022818904
 30
0.0
 11
111.5
 21
-563.8286022818904
 31
0.0
  0
INSERT
  5
11F9
330
27C0
100
AcDbEntity
  8
NOTE
 62
     0
100
AcDbBlockReference
  2
_DOTBLANK
 10
-123.4999999999999
 20
-563.8286022818904
 30
0.0
 41
12.0
 42
12.0
 43
12.0
 50
180.0
  0
INSERT
  5
11FA
330
27C0
100
AcDbEntity
  8
NOTE
 62
     0
100
AcDbBlockReference
  2
_DOTBLANK
 10
123.5
 20
-563.8286022818904
 30
0.0
 41
12.0
 42
12.0
 43
12.0
  0
INSERT
  5
11FB
330
27C0
100
AcDbEntity
  8
0
100
AcDbBlockReference
  2
*U19
 10
0.0
 20
0.0
 30
0.0
  0
POINT
  5
11FC
330
27C0
100
AcDbEntity
  8
DEFPOINTS
 62
     0
100
AcDbPoint
 10
-123.4999999999999
 20
-300.0
 30
0.0
  0
POINT
  5
11FD
330
27C0
100
AcDbEntity
  8
DEFPOINTS
 62
     0
100
AcDbPoint
 10
123.5
 20
-300.0
 30
0.0
  0
POINT
  5
11FE
330
27C0
100
AcDbEntity
  8
DEFPOINTS
 62
     0
100
AcDbPoint
 10
123.5
 20
-563.8286022818904
 30
0.0
  0
ENDBLK
  5
11F5
330
27C0
100
AcDbEntity
  8
0
100
AcDbBlockEnd
  0
BLOCK
  5
27C3
330
27C2
100
AcDbEntity
  8
0
100
AcDbBlockBegin
  2
*U19
 70
     1
 10
0.0
 20
0.0
 30
0.0
  3
*U19
  1

  0
TEXT
  5
1EED
330
27C2
100
AcDbEntity
  8
NOTE
 62
     0
100
AcDbText
 10
-74.05714285714281
 20
-553.8286022818904
 30
0.0
 40
64.0
  1
247
 41
0.9
100
AcDbText
  0
ENDBLK
  5
1EEF
330
27C2
100
AcDbEntity
  8
0
100
AcDbBlockEnd
  0
BLOCK
  5
27C5
330
27C4
100
AcDbEntity
  8
0
100
AcDbBlockBegin
  2
*D20
 70
     1
 10
0.0
 20
0.0
 30
0.0
  3
*D20
  1

  0
LINE
  5
1284
330
27C4
100
AcDbEntity
  8
NOTE
 62
     0
100
AcDbLine
 10
-123.5
 20
12.0
 30
0.0
 11
-123.5
 21
71.83630134534229
 31
0.0
  0
LINE
  5
1285
330
27C4
100
AcDbEntity
  8
NOTE
 62
     0
100
AcDbLine
 10
123.5
 20
12.0
 30
0.0
 11
123.5
 21
71.83630134534229
 31
0.0
  0
LINE
  5
1286
330
27C4
100
AcDbEntity
  8
NOTE
 62
     0
100
AcDbLine
 10
-111.5
 20
51.83630134534229
 30
0.0
 11
111.5
 21
51.83630134534229
 31
0.0
  0
INSERT
  5
1287
330
27C4
100
AcDbEntity
  8
NOTE
 62
     0
100
AcDbBlockReference
  2
_DOTBLANK
 10
-123.5
 20
51.83630134534229
 30
0.0
 41
12.0
 42
12.0
 43
12.0
 50
180.0
  0
INSERT
  5
1288
330
27C4
100
AcDbEntity
  8
NOTE
 62
     0
100
AcDbBlockReference
  2
_DOTBLANK
 10
123.5
 20
51.83630134534229
 30
0.0
 41
12.0
 42
12.0
 43
12.0
  0
INSERT
  5
1289
330
27C4
100
AcDbEntity
  8
0
100
AcDbBlockReference
  2
*U21
 10
0.0
 20
0.0
 30
0.0
  0
POINT
  5
128A
330
27C4
100
AcDbEntity
  8
DEFPOINTS
 62
     0
100
AcDbPoint
 10
-123.5
 20
-8.0
 30
0.0
  0
POINT
  5
128B
330
27C4
100
AcDbEntity
  8
DEFPOINTS
 62
     0
100
AcDbPoint
 10
123.5
 20
-8.0
 30
0.0
  0
POINT
  5
128C
330
27C4
100
AcDbEntity
  8
DEFPOINTS
 62
     0
100
AcDbPoint
 10
123.5
 20
51.83630134534229
 30
0.0
  0
ENDBLK
  5
1283
330
27C4
100
AcDbEntity
  8
0
100
AcDbBlockEnd
  0
BLOCK
  5
27C7
330
27C6
100
AcDbEntity
  8
0
100
AcDbBlockBegin
  2
*U21
 70
     1
 10
0.0
 20
0.0
 30
0.0
  3
*U21
  1

  0
TEXT
  5
1EF1
330
27C6
100
AcDbEntity
  8
NOTE
 62
     0
100
AcDbText
 10
-74.05714285714283
 20
61.83630134534229
 30
0.0
 40
64.0
  1
247
 41
0.9
100
AcDbText
  0
ENDBLK
  5
1EF3
330
27C6
100
AcDbEntity
  8
0
100
AcDbBlockEnd
  0
BLOCK
  5
27C9
330
27C8
100
AcDbEntity
  8
0
100
AcDbBlockBegin
  2
*D22
 70
     1
 10
0.0
 20
0.0
 30
0.0
  3
*D22
  1

  0
LINE
  5
1414
330
27C8
100
AcDbEntity
  8
SIZE
 62
     0
100
AcDbLine
 10
-22313.11521613997
 20
7365.702971374808
 30
0.0
 11
-22313.11521613997
 21
7217.685576144207
 31
0.0
  0
LINE
  5
1415
330
27C8
100
AcDbEntity
  8
SIZE
 62
     0
100
AcDbLine
 10
-22044.11521613997
 20
7365.702971374808
 30
0.0
 11
-22044.11521613997
 21
7217.685576144207
 31
0.0
  0
LINE
  5
1416
330
27C8
100
AcDbEntity
  8
SIZE
 62
     0
100
AcDbLine
 10
-22301.11521613997
 20
7237.685576144207
 30
0.0
 11
-22056.11521613997
 21
7237.685576144207
 31
0.0
  0
INSERT
  5
1417
330
27C8
100
AcDbEntity
  8
SIZE
 62
     0
100
AcDbBlockReference
  2
_DOTBLANK
 10
-22313.11521613997
 20
7237.685576144207
 30
0.0
 41
12.0
 42
12.0
 43
12.0
 50
180.0
  0
INSERT
  5
1418
330
27C8
100
AcDbEntity
  8
SIZE
 62
     0
100
AcDbBlockReference
  2
_DOTBLANK
 10
-22044.11521613997
 20
7237.685576144207
 30
0.0
 41
12.0
 42
12.0
 43
12.0
  0
INSERT
  5
1419
330
27C8
100
AcDbEntity
  8
0
100
AcDbBlockReference
  2
*U23
 10
0.0
 20
0.0
 30
0.0
  0
POINT
  5
141A
330
27C8
100
AcDbEntity
  8
DEFPOINTS
 62
     0
100
AcDbPoint
 10
-22313.11521613997
 20
7385.702971374808
 30
0.0
  0
POINT
  5
141B
330
27C8
100
AcDbEntity
  8
DEFPOINTS
 62
     0
100
AcDbPoint
 10
-22044.11521613997
 20
7385.702971374808
 30
0.0
  0
POINT
  5
141C
330
27C8
100
AcDbEntity
  8
DEFPOINTS
 62
     0
100
AcDbPoint
 10
-22044.11521613997
 20
7237.685576144207
 30
0.0
  0
ENDBLK
  5
141D
330
27C8
100
AcDbEntity
  8
0
100
AcDbBlockEnd
  0
BLOCK
  5
27CB
330
27CA
100
AcDbEntity
  8
0
100
AcDbBlockBegin
  2
*U23
 70
     1
 10
0.0
 20
0.0
 30
0.0
  3
*U23
  1

  0
TEXT
  5
1EF9
330
27CA
100
AcDbEntity
  8
SIZE
 62
     0
100
AcDbText
 10
-22251.30093042568
 20
7247.685576144205
 30
0.0
 40
64.0
  1
269
 41
0.9
100
AcDbText
  0
ENDBLK
  5
1EFB
330
27CA
100
AcDbEntity
  8
0
100
AcDbBlockEnd
  0
BLOCK
  5
27CD
330
27CC
100
AcDbEntity
  8
0
100
AcDbBlockBegin
  2
*D24
 70
     1
 10
0.0
 20
0.0
 30
0.0
  3
*D24
  1

  0
LINE
  5
1420
330
27CC
100
AcDbEntity
  8
SIZE
  6
Continuous
 62
     0
100
AcDbLine
 10
-22035.11521613997
 20
7385.702971374808
 30
0.0
 11
-21873.97193165959
 21
7385.702971374808
 31
0.0
  0
LINE
  5
1421
330
27CC
100
AcDbEntity
  8
SIZE
  6
Continuous
 62
     0
100
AcDbLine
 10
-22001.11521613997
 20
7685.702971374808
 30
0.0
 11
-21873.97193165959
 21
7685.702971374808
 31
0.0
  0
LINE
  5
1422
330
27CC
100
AcDbEntity
  8
SIZE
  6
Continuous
 62
     0
100
AcDbLine
 10
-21893.97193165959
 20
7397.702971374808
 30
0.0
 11
-21893.97193165959
 21
7673.702971374808
 31
0.0
  0
INSERT
  5
1423
330
27CC
100
AcDbEntity
  8
SIZE
  6
Continuous
 62
     0
100
AcDbBlockReference
  2
_DOTBLANK
 10
-21893.97193165959
 20
7385.702971374808
 30
0.0
 41
12.0
 42
12.0
 43
12.0
 50
270.0
  0
INSERT
  5
1424
330
27CC
100
AcDbEntity
  8
SIZE
  6
Continuous
 62
     0
100
AcDbBlockReference
  2
_DOTBLANK
 10
-21893.97193165959
 20
7685.702971374808
 30
0.0
 41
12.0
 42
12.0
 43
12.0
 50
90.0
  0
INSERT
  5
1425
330
27CC
100
AcDbEntity
  8
0
100
AcDbBlockReference
  2
*U25
 10
0.0
 20
0.0
 30
0.0
  0
POINT
  5
1426
330
27CC
100
AcDbEntity
  8
DEFPOINTS
  6
Continuous
 62
     0
100
AcDbPoint
 10
-22055.11521613997
 20
7385.702971374808
 30
0.0
  0
POINT
  5
1427
330
27CC
100
AcDbEntity
  8
DEFPOINTS
  6
Continuous
 62
     0
100
AcDbPoint
 10
-22021.11521613997
 20
7685.702971374808
 30
0.0
  0
POINT
  5
1428
330
27CC
100
AcDbEntity
  8
DEFPOINTS
  6
Continuous
 62
     0
100
AcDbPoint
 10
-21893.97193165959
 20
7685.702971374808
 30
0.0
  0
ENDBLK
  5
1429
330
27CC
100
AcDbEntity
  8
0
100
AcDbBlockEnd
  0
BLOCK
  5
27CF
330
27CE
100
AcDbEntity
  8
0
100
AcDbBlockBegin
  2
*U25
 70
     1
 10
0.0
 20
0.0
 30
0.0
  3
*U25
  1

  0
TEXT
  5
1EFD
330
27CE
100
AcDbEntity
  8
SIZE
 62
     0
100
AcDbText
 10
-21903.97193165959
 20
7461.645828517662
 30
0.0
 40
64.0
  1
300
 50
90.0
 41
0.9
100
AcDbText
  0
ENDBLK
  5
1EFF
330
27CE
100
AcDbEntity
  8
0
100
AcDbBlockEnd
  0
BLOCK
  5
27D1
330
27D0
100
AcDbEntity
  8
0
100
AcDbBlockBegin
  2
*D26
 70
     1
 10
0.0
 20
0.0
 30
0.0
  3
*D26
  1

  0
LINE
  5
142C
330
27D0
100
AcDbEntity
  8
SIZE
 62
     0
100
AcDbLine
 10
-22318.61521613997
 20
7718.167454177002
 30
0.0
 11
-22318.61521613997
 21
7822.154659243358
 31
0.0
  0
LINE
  5
142D
330
27D0
100
AcDbEntity
  8
SIZE
 62
     0
100
AcDbLine
 10
-22038.61521613997
 20
7718.167454177002
 30
0.0
 11
-22038.61521613997
 21
7822.154659243358
 31
0.0
  0
LINE
  5
142E
330
27D0
100
AcDbEntity
  8
SIZE
 62
     0
100
AcDbLine
 10
-22306.61521613997
 20
7802.154659243358
 30
0.0
 11
-22050.61521613997
 21
7802.154659243358
 31
0.0
  0
INSERT
  5
142F
330
27D0
100
AcDbEntity
  8
SIZE
 62
     0
100
AcDbBlockReference
  2
_DOTBLANK
 10
-22318.61521613997
 20
7802.154659243358
 30
0.0
 41
12.0
 42
12.0
 43
12.0
 50
180.0
  0
INSERT
  5
1430
330
27D0
100
AcDbEntity
  8
SIZE
 62
     0
100
AcDbBlockReference
  2
_DOTBLANK
 10
-22038.61521613997
 20
7802.154659243358
 30
0.0
 41
12.0
 42
12.0
 43
12.0
  0
INSERT
  5
1431
330
27D0
100
AcDbEntity
  8
0
100
AcDbBlockReference
  2
*U27
 10
0.0
 20
0.0
 30
0.0
  0
POINT
  5
1432
330
27D0
100
AcDbEntity
  8
DEFPOINTS
 62
     0
100
AcDbPoint
 10
-22318.61521613997
 20
7698.167454177002
 30
0.0
  0
POINT
  5
1433
330
27D0
100
AcDbEntity
  8
DEFPOINTS
 62
     0
100
AcDbPoint
 10
-22038.61521613997
 20
7698.167454177002
 30
0.0
  0
POINT
  5
1434
330
27D0
100
AcDbEntity
  8
DEFPOINTS
 62
     0
100
AcDbPoint
 10
-22038.61521613997
 20
7802.154659243358
 30
0.0
  0
ENDBLK
  5
1435
330
27D0
100
AcDbEntity
  8
0
100
AcDbBlockEnd
  0
BLOCK
  5
27D3
330
27D2
100
AcDbEntity
  8
0
100
AcDbBlockBegin
  2
*U27
 70
     1
 10
0.0
 20
0.0
 30
0.0
  3
*U27
  1

  0
TEXT
  5
1F01
330
27D2
100
AcDbEntity
  8
SIZE
 62
     0
100
AcDbText
 10
-22252.6723589971
 20
7812.154659243358
 30
0.0
 40
64.0
  1
280
 41
0.9
100
AcDbText
  0
ENDBLK
  5
1F03
330
27D2
100
AcDbEntity
  8
0
100
AcDbBlockEnd
  0
BLOCK
  5
27D5
330
27D4
100
AcDbEntity
  8
0
100
AcDbBlockBegin
  2
*D28
 70
     1
 10
0.0
 20
0.0
 30
0.0
  3
*D28
  1

  0
LINE
  5
1438
330
27D4
100
AcDbEntity
  8
SIZE
 62
     0
100
AcDbLine
 10
-22336.11521613997
 20
7705.702971374808
 30
0.0
 11
-22336.11521613997
 21
7931.282433493766
 31
0.0
  0
LINE
  5
1439
330
27D4
100
AcDbEntity
  8
SIZE
 62
     0
100
AcDbLine
 10
-22021.11521613997
 20
7705.702971374808
 30
0.0
 11
-22021.11521613997
 21
7931.282433493766
 31
0.0
  0
LINE
  5
143A
330
27D4
100
AcDbEntity
  8
SIZE
 62
     0
100
AcDbLine
 10
-22324.11521613997
 20
7911.282433493766
 30
0.0
 11
-22033.11521613997
 21
7911.282433493766
 31
0.0
  0
INSERT
  5
143B
330
27D4
100
AcDbEntity
  8
SIZE
 62
     0
100
AcDbBlockReference
  2
_DOTBLANK
 10
-22336.11521613997
 20
7911.282433493766
 30
0.0
 41
12.0
 42
12.0
 43
12.0
 50
180.0
  0
INSERT
  5
143C
330
27D4
100
AcDbEntity
  8
SIZE
 62
     0
100
AcDbBlockReference
  2
_DOTBLANK
 10
-22021.11521613997
 20
7911.282433493766
 30
0.0
 41
12.0
 42
12.0
 43
12.0
  0
INSERT
  5
143D
330
27D4
100
AcDbEntity
  8
0
100
AcDbBlockReference
  2
*U29
 10
0.0
 20
0.0
 30
0.0
  0
POINT
  5
143E
330
27D4
100
AcDbEntity
  8
DEFPOINTS
 62
     0
100
AcDbPoint
 10
-22336.11521613997
 20
7685.702971374808
 30
0.0
  0
POINT
  5
143F
330
27D4
100
AcDbEntity
  8
DEFPOINTS
 62
     0
100
AcDbPoint
 10
-22021.11521613997
 20
7685.702971374808
 30
0.0
  0
POINT
  5
1440
330
27D4
100
AcDbEntity
  8
DEFPOINTS
 62
     0
100
AcDbPoint
 10
-22021.11521613997
 20
7911.282433493766
 30
0.0
  0
ENDBLK
  5
1441
330
27D4
100
AcDbEntity
  8
0
100
AcDbBlockEnd
  0
BLOCK
  5
27D7
330
27D6
100
AcDbEntity
  8
0
100
AcDbBlockBegin
  2
*U29
 70
     1
 10
0.0
 20
0.0
 30
0.0
  3
*U29
  1

  0
TEXT
  5
1F05
330
27D6
100
AcDbEntity
  8
SIZE
 62
     0
100
AcDbText
 10
-22247.18664471139
 20
7921.282433493766
 30
0.0
 40
64.0
  1
315
 41
0.9
100
AcDbText
  0
ENDBLK
  5
1F07
330
27D6
100
AcDbEntity
  8
0
100
AcDbBlockEnd
  0
BLOCK
  5
27D9
330
27D8
100
AcDbEntity
  8
0
100
AcDbBlockBegin
  2
*D30
 70
     1
 10
0.0
 20
0.0
 30
0.0
  3
*D30
  1

  0
LINE
  5
166B
330
27D8
100
AcDbEntity
  8
SIZE
 62
     0
100
AcDbLine
 10
-134.5
 20
-320.0
 30
0.0
 11
-134.5
 21
-468.0173952306001
 31
0.0
  0
LINE
  5
166C
330
27D8
100
AcDbEntity
  8
SIZE
 62
     0
100
AcDbLine
 10
134.5
 20
-320.0
 30
0.0
 11
134.5
 21
-468.0173952306001
 31
0.0
  0
LINE
  5
166D
330
27D8
100
AcDbEntity
  8
SIZE
 62
     0
100
AcDbLine
 10
-122.5
 20
-448.0173952306
 30
0.0
 11
122.5
 21
-448.0173952306
 31
0.0
  0
INSERT
  5
166E
330
27D8
100
AcDbEntity
  8
SIZE
 62
     0
100
AcDbBlockReference
  2
_DOTBLANK
 10
-134.5
 20
-448.0173952306
 30
0.0
 41
12.0
 42
12.0
 43
12.0
 50
180.0
  0
INSERT
  5
166F
330
27D8
100
AcDbEntity
  8
SIZE
 62
     0
100
AcDbBlockReference
  2
_DOTBLANK
 10
134.5
 20
-448.0173952306
 30
0.0
 41
12.0
 42
12.0
 43
12.0
  0
INSERT
  5
1670
330
27D8
100
AcDbEntity
  8
0
100
AcDbBlockReference
  2
*U31
 10
0.0
 20
0.0
 30
0.0
  0
POINT
  5
1671
330
27D8
100
AcDbEntity
  8
DEFPOINTS
 62
     0
100
AcDbPoint
 10
-134.5
 20
-300.0
 30
0.0
  0
POINT
  5
1672
330
27D8
100
AcDbEntity
  8
DEFPOINTS
 62
     0
100
AcDbPoint
 10
134.5
 20
-300.0
 30
0.0
  0
POINT
  5
1673
330
27D8
100
AcDbEntity
  8
DEFPOINTS
 62
     0
100
AcDbPoint
 10
134.5
 20
-448.0173952306
 30
0.0
  0
ENDBLK
  5
14A7
330
27D8
100
AcDbEntity
  8
0
100
AcDbBlockEnd
  0
BLOCK
  5
27DB
330
27DA
100
AcDbEntity
  8
0
100
AcDbBlockBegin
  2
*U31
 70
     1
 10
0.0
 20
0.0
 30
0.0
  3
*U31
  1

  0
TEXT
  5
1F09
330
27DA
100
AcDbEntity
  8
SIZE
 62
     0
100
AcDbText
 10
-72.68571428571426
 20
-438.0173952306002
 30
0.0
 40
64.0
  1
269
 41
0.9
100
AcDbText
  0
ENDBLK
  5
1F0B
330
27DA
100
AcDbEntity
  8
0
100
AcDbBlockEnd
  0
BLOCK
  5
27DD
330
27DC
100
AcDbEntity
  8
0
100
AcDbBlockBegin
  2
*D32
 70
     1
 10
0.0
 20
0.0
 30
0.0
  3
*D32
  1

  0
LINE
  5
1674
330
27DC
100
AcDbEntity
  8
SIZE
  6
Continuous
 62
     0
100
AcDbLine
 10
143.5
 20
-300.0
 30
0.0
 11
304.6432844803784
 21
-300.0
 31
0.0
  0
LINE
  5
1675
330
27DC
100
AcDbEntity
  8
SIZE
  6
Continuous
 62
     0
100
AcDbLine
 10
177.5
 20
-0.0000000000000057
 30
0.0
 11
304.6432844803785
 21
-0.0000000000000417
 31
0.0
  0
LINE
  5
1676
330
27DC
100
AcDbEntity
  8
SIZE
  6
Continuous
 62
     0
100
AcDbLine
 10
284.6432844803784
 20
-288.0000000000001
 30
0.0
 11
284.6432844803785
 21
-12.00000000000003
 31
0.0
  0
INSERT
  5
1677
330
27DC
100
AcDbEntity
  8
SIZE
  6
Continuous
 62
     0
100
AcDbBlockReference
  2
_DOTBLANK
 10
284.6432844803784
 20
-300.0
 30
0.0
 41
12.0
 42
12.0
 43
12.0
 50
270.0
  0
INSERT
  5
1678
330
27DC
100
AcDbEntity
  8
SIZE
  6
Continuous
 62
     0
100
AcDbBlockReference
  2
_DOTBLANK
 10
284.6432844803785
 20
-0.000000000000036
 30
0.0
 41
12.0
 42
12.0
 43
12.0
 50
90.0
  0
INSERT
  5
1679
330
27DC
100
AcDbEntity
  8
0
100
AcDbBlockReference
  2
*U33
 10
0.0
 20
0.0
 30
0.0
  0
POINT
  5
167A
330
27DC
100
AcDbEntity
  8
DEFPOINTS
  6
Continuous
 62
     0
100
AcDbPoint
 10
123.5
 20
-300.0
 30
0.0
  0
POINT
  5
167B
330
27DC
100
AcDbEntity
  8
DEFPOINTS
  6
Continuous
 62
     0
100
AcDbPoint
 10
157.5
 20
0.0
 30
0.0
  0
POINT
  5
167C
330
27DC
100
AcDbEntity
  8
DEFPOINTS
  6
Continuous
 62
     0
100
AcDbPoint
 10
284.6432844803785
 20
-0.000000000000036
 30
0.0
  0
ENDBLK
  5
14B3
330
27DC
100
AcDbEntity
  8
0
100
AcDbBlockEnd
  0
BLOCK
  5
27DF
330
27DE
100
AcDbEntity
  8
0
100
AcDbBlockBegin
  2
*U33
 70
     1
 10
0.0
 20
0.0
 30
0.0
  3
*U33
  1

  0
TEXT
  5
1F0D
330
27DE
100
AcDbEntity
  8
SIZE
 62
     0
100
AcDbText
 10
274.6432844803785
 20
-224.0571428571429
 30
0.0
 40
64.0
  1
300
 50
90.0
 41
0.9
100
AcDbText
  0
ENDBLK
  5
1F0F
330
27DE
100
AcDbEntity
  8
0
100
AcDbBlockEnd
  0
BLOCK
  5
27E1
330
27E0
100
AcDbEntity
  8
0
100
AcDbBlockBegin
  2
*D34
 70
     1
 10
0.0
 20
0.0
 30
0.0
  3
*D34
  1

  0
LINE
  5
167D
330
27E0
100
AcDbEntity
  8
SIZE
 62
     0
100
AcDbLine
 10
-140.0
 20
32.46448280219375
 30
0.0
 11
-140.0
 21
136.4516878685507
 31
0.0
  0
LINE
  5
167E
330
27E0
100
AcDbEntity
  8
SIZE
 62
     0
100
AcDbLine
 10
140.0
 20
32.46448280219375
 30
0.0
 11
140.0
 21
136.4516878685507
 31
0.0
  0
LINE
  5
167F
330
27E0
100
AcDbEntity
  8
SIZE
 62
     0
100
AcDbLine
 10
-128.0
 20
116.4516878685508
 30
0.0
 11
128.0
 21
116.4516878685508
 31
0.0
  0
INSERT
  5
1680
330
27E0
100
AcDbEntity
  8
SIZE
 62
     0
100
AcDbBlockReference
  2
_DOTBLANK
 10
-140.0
 20
116.4516878685508
 30
0.0
 41
12.0
 42
12.0
 43
12.0
 50
180.0
  0
INSERT
  5
1681
330
27E0
100
AcDbEntity
  8
SIZE
 62
     0
100
AcDbBlockReference
  2
_DOTBLANK
 10
140.0
 20
116.4516878685508
 30
0.0
 41
12.0
 42
12.0
 43
12.0
  0
INSERT
  5
1682
330
27E0
100
AcDbEntity
  8
0
100
AcDbBlockReference
  2
*U35
 10
0.0
 20
0.0
 30
0.0
  0
POINT
  5
1683
330
27E0
100
AcDbEntity
  8
DEFPOINTS
 62
     0
100
AcDbPoint
 10
-140.0
 20
12.46448280219374
 30
0.0
  0
POINT
  5
1684
330
27E0
100
AcDbEntity
  8
DEFPOINTS
 62
     0
100
AcDbPoint
 10
140.0
 20
12.46448280219374
 30
0.0
  0
POINT
  5
1685
330
27E0
100
AcDbEntity
  8
DEFPOINTS
 62
     0
100
AcDbPoint
 10
140.0
 20
116.4516878685508
 30
0.0
  0
ENDBLK
  5
14BF
330
27E0
100
AcDbEntity
  8
0
100
AcDbBlockEnd
  0
BLOCK
  5
27E3
330
27E2
100
AcDbEntity
  8
0
100
AcDbBlockBegin
  2
*U35
 70
     1
 10
0.0
 20
0.0
 30
0.0
  3
*U35
  1

  0
TEXT
  5
1F11
330
27E2
100
AcDbEntity
  8
SIZE
 62
     0
100
AcDbText
 10
-74.05714285714283
 20
126.4516878685507
 30
0.0
 40
64.0
  1
280
 41
0.9
100
AcDbText
  0
ENDBLK
  5
1F13
330
27E2
100
AcDbEntity
  8
0
100
AcDbBlockEnd
  0
BLOCK
  5
27E5
330
27E4
100
AcDbEntity
  8
0
100
AcDbBlockBegin
  2
*D36
 70
     1
 10
0.0
 20
0.0
 30
0.0
  3
*D36
  1

  0
LINE
  5
1686
330
27E4
100
AcDbEntity
  8
SIZE
 62
     0
100
AcDbLine
 10
-157.5
 20
20.0
 30
0.0
 11
-157.5
 21
245.5794621189598
 31
0.0
  0
LINE
  5
1687
330
27E4
100
AcDbEntity
  8
SIZE
 62
     0
100
AcDbLine
 10
157.5
 20
20.0
 30
0.0
 11
157.5
 21
245.5794621189598
 31
0.0
  0
LINE
  5
1688
330
27E4
100
AcDbEntity
  8
SIZE
 62
     0
100
AcDbLine
 10
-145.5
 20
225.5794621189598
 30
0.0
 11
145.5
 21
225.5794621189598
 31
0.0
  0
INSERT
  5
1689
330
27E4
100
AcDbEntity
  8
SIZE
 62
     0
100
AcDbBlockReference
  2
_DOTBLANK
 10
-157.5
 20
225.5794621189598
 30
0.0
 41
12.0
 42
12.0
 43
12.0
 50
180.0
  0
INSERT
  5
168A
330
27E4
100
AcDbEntity
  8
SIZE
 62
     0
100
AcDbBlockReference
  2
_DOTBLANK
 10
157.5
 20
225.5794621189598
 30
0.0
 41
12.0
 42
12.0
 43
12.0
  0
INSERT
  5
168B
330
27E4
100
AcDbEntity
  8
0
100
AcDbBlockReference
  2
*U37
 10
0.0
 20
0.0
 30
0.0
  0
POINT
  5
168C
330
27E4
100
AcDbEntity
  8
DEFPOINTS
 62
     0
100
AcDbPoint
 10
-157.5
 20
0.0
 30
0.0
  0
POINT
  5
168D
330
27E4
100
AcDbEntity
  8
DEFPOINTS
 62
     0
100
AcDbPoint
 10
157.5
 20
0.0
 30
0.0
  0
POINT
  5
168E
330
27E4
100
AcDbEntity
  8
DEFPOINTS
 62
     0
100
AcDbPoint
 10
157.5
 20
225.5794621189598
 30
0.0
  0
ENDBLK
  5
14CB
330
27E4
100
AcDbEntity
  8
0
100
AcDbBlockEnd
  0
BLOCK
  5
27E7
330
27E6
100
AcDbEntity
  8
0
100
AcDbBlockBegin
  2
*U37
 70
     1
 10
0.0
 20
0.0
 30
0.0
  3
*U37
  1

  0
TEXT
  5
1F15
330
27E6
100
AcDbEntity
  8
SIZE
 62
     0
100
AcDbText
 10
-68.57142857142857
 20
235.5794621189598
 30
0.0
 40
64.0
  1
315
 41
0.9
100
AcDbText
  0
ENDBLK
  5
1F17
330
27E6
100
AcDbEntity
  8
0
100
AcDbBlockEnd
  0
BLOCK
  5
27E9
330
27E8
100
AcDbEntity
  8
0
100
AcDbBlockBegin
  2
*U38
 70
     1
 10
0.0
 20
0.0
 30
0.0
  3
*U38
  1

  0
ENDBLK
  5
15CF
330
27E8
100
AcDbEntity
  8
0
100
AcDbBlockEnd
  0
BLOCK
  5
27EB
330
27EA
100
AcDbEntity
  8
0
100
AcDbBlockBegin
  2
*D39
 70
     1
 10
0.0
 20
0.0
 30
0.0
  3
*D39
  1

  0
LINE
  5
1692
330
27EA
100
AcDbEntity
  8
SIZE
 62
     0
100
AcDbLine
 10
-25844.51823276502
 20
7685.702971374808
 30
0.0
 11
-25981.04465488371
 21
7685.702971374808
 31
0.0
  0
LINE
  5
1693
330
27EA
100
AcDbEntity
  8
SIZE
 62
     0
100
AcDbLine
 10
-25844.51823276502
 20
7677.702971374808
 30
0.0
 11
-25981.04465488371
 21
7677.702971374808
 31
0.0
  0
LINE
  5
1694
330
27EA
100
AcDbEntity
  8
SIZE
 62
     0
100
AcDbLine
 10
-25961.04465488371
 20
7697.702971374808
 30
0.0
 11
-25961.04465488371
 21
7709.702971374809
 31
0.0
  0
LINE
  5
1695
330
27EA
100
AcDbEntity
  8
SIZE
 62
     0
100
AcDbLine
 10
-25961.04465488371
 20
7665.70297137481
 30
0.0
 11
-25961.04465488371
 21
7595.302971374808
 31
0.0
  0
INSERT
  5
1696
330
27EA
100
AcDbEntity
  8
SIZE
 62
     0
100
AcDbBlockReference
  2
_DOTBLANK
 10
-25961.04465488371
 20
7685.702971374808
 30
0.0
 41
12.0
 42
12.0
 43
12.0
 50
270.0
  0
INSERT
  5
1697
330
27EA
100
AcDbEntity
  8
SIZE
 62
     0
100
AcDbBlockReference
  2
_DOTBLANK
 10
-25961.04465488371
 20
7677.702971374808
 30
0.0
 41
12.0
 42
12.0
 43
12.0
 50
90.0
  0
INSERT
  5
1698
330
27EA
100
AcDbEntity
  8
0
100
AcDbBlockReference
  2
*U40
 10
0.0
 20
0.0
 30
0.0
  0
POINT
  5
1699
330
27EA
100
AcDbEntity
  8
DEFPOINTS
 62
     0
100
AcDbPoint
 10
-25824.51823276501
 20
7685.702971374808
 30
0.0
  0
POINT
  5
169A
330
27EA
100
AcDbEntity
  8
DEFPOINTS
 62
     0
100
AcDbPoint
 10
-25824.51823276501
 20
7677.702971374808
 30
0.0
  0
POINT
  5
169B
330
27EA
100
AcDbEntity
  8
DEFPOINTS
 62
     0
100
AcDbPoint
 10
-25961.04465488371
 20
7677.702971374808
 30
0.0
  0
ENDBLK
  5
169C
330
27EA
100
AcDbEntity
  8
0
100
AcDbBlockEnd
  0
BLOCK
  5
27ED
330
27EC
100
AcDbEntity
  8
0
100
AcDbBlockBegin
  2
*U40
 70
     1
 10
0.0
 20
0.0
 30
0.0
  3
*U40
  1

  0
TEXT
  5
1F19
330
27EC
100
AcDbEntity
  8
SIZE
 62
     0
100
AcDbText
 10
-25971.04465488371
 20
7605.302971374804
 30
0.0
 40
64.0
  1
8
 50
90.0
 41
0.9
100
AcDbText
  0
ENDBLK
  5
1F1B
330
27EC
100
AcDbEntity
  8
0
100
AcDbBlockEnd
  0
BLOCK
  5
27EF
330
27EE
100
AcDbEntity
  8
0
100
AcDbBlockBegin
  2
*D41
 70
     1
 10
0.0
 20
0.0
 30
0.0
  3
*D41
  1

  0
LINE
  5
169F
330
27EE
100
AcDbEntity
  8
SIZE
 62
     0
100
AcDbLine
 10
-25512.51823276502
 20
7385.702971374808
 30
0.0
 11
-25362.37494828464
 21
7385.702971374808
 31
0.0
  0
LINE
  5
16A0
330
27EE
100
AcDbEntity
  8
SIZE
 62
     0
100
AcDbLine
 10
-25523.51823276501
 20
7373.702971374808
 30
0.0
 11
-25362.37494828464
 21
7373.702971374808
 31
0.0
  0
LINE
  5
16A1
330
27EE
100
AcDbEntity
  8
SIZE
 62
     0
100
AcDbLine
 10
-25382.37494828464
 20
7397.702971374808
 30
0.0
 11
-25382.37494828464
 21
7409.70297137481
 31
0.0
  0
LINE
  5
16A2
330
27EE
100
AcDbEntity
  8
SIZE
 62
     0
100
AcDbLine
 10
-25382.37494828464
 20
7361.702971374808
 30
0.0
 11
-25382.37494828464
 21
7244.674399946237
 31
0.0
  0
INSERT
  5
16A3
330
27EE
100
AcDbEntity
  8
SIZE
 62
     0
100
AcDbBlockReference
  2
_DOTBLANK
 10
-25382.37494828464
 20
7385.702971374808
 30
0.0
 41
12.0
 42
12.0
 43
12.0
 50
270.0
  0
INSERT
  5
16A4
330
27EE
100
AcDbEntity
  8
SIZE
 62
     0
100
AcDbBlockReference
  2
_DOTBLANK
 10
-25382.37494828464
 20
7373.702971374808
 30
0.0
 41
12.0
 42
12.0
 43
12.0
 50
90.0
  0
INSERT
  5
16A5
330
27EE
100
AcDbEntity
  8
0
100
AcDbBlockReference
  2
*U42
 10
0.0
 20
0.0
 30
0.0
  0
POINT
  5
16A6
330
27EE
100
AcDbEntity
  8
DEFPOINTS
 62
     0
100
AcDbPoint
 10
-25532.51823276502
 20
7385.702971374808
 30
0.0
  0
POINT
  5
16A7
330
27EE
100
AcDbEntity
  8
DEFPOINTS
 62
     0
100
AcDbPoint
 10
-25543.51823276502
 20
7373.702971374808
 30
0.0
  0
POINT
  5
16A8
330
27EE
100
AcDbEntity
  8
DEFPOINTS
 62
     0
100
AcDbPoint
 10
-25382.37494828464
 20
7373.702971374808
 30
0.0
  0
ENDBLK
  5
16A9
330
27EE
100
AcDbEntity
  8
0
100
AcDbBlockEnd
  0
BLOCK
  5
27F1
330
27F0
100
AcDbEntity
  8
0
100
AcDbBlockBegin
  2
*U42
 70
     1
 10
0.0
 20
0.0
 30
0.0
  3
*U42
  1

  0
TEXT
  5
1F1D
330
27F0
100
AcDbEntity
  8
SIZE
 62
     0
100
AcDbText
 10
-25392.37494828464
 20
7256.045828517662
 30
0.0
 40
64.0
  1
12
 50
90.0
 41
0.9
100
AcDbText
  0
ENDBLK
  5
1F1F
330
27F0
100
AcDbEntity
  8
0
100
AcDbBlockEnd
  0
BLOCK
  5
27F3
330
27F2
100
AcDbEntity
  8
0
100
AcDbBlockBegin
  2
*D43
 70
     1
 10
0.0
 20
0.0
 30
0.0
  3
*D43
  1

  0
LINE
  5
16AC
330
27F2
100
AcDbEntity
  8
SIZE
 62
     0
100
AcDbLine
 10
-25801.51823276501
 20
7365.702971374808
 30
0.0
 11
-25801.51823276501
 21
7217.685576144207
 31
0.0
  0
LINE
  5
16AD
330
27F2
100
AcDbEntity
  8
SIZE
 62
     0
100
AcDbLine
 10
-25532.51823276502
 20
7365.702971374808
 30
0.0
 11
-25532.51823276502
 21
7217.685576144207
 31
0.0
  0
LINE
  5
16AE
330
27F2
100
AcDbEntity
  8
SIZE
 62
     0
100
AcDbLine
 10
-25789.51823276502
 20
7237.685576144207
 30
0.0
 11
-25544.51823276501
 21
7237.685576144207
 31
0.0
  0
INSERT
  5
16AF
330
27F2
100
AcDbEntity
  8
SIZE
 62
     0
100
AcDbBlockReference
  2
_DOTBLANK
 10
-25801.51823276501
 20
7237.685576144207
 30
0.0
 41
12.0
 42
12.0
 43
12.0
 50
180.0
  0
INSERT
  5
16B0
330
27F2
100
AcDbEntity
  8
SIZE
 62
     0
100
AcDbBlockReference
  2
_DOTBLANK
 10
-25532.51823276502
 20
7237.685576144207
 30
0.0
 41
12.0
 42
12.0
 43
12.0
  0
INSERT
  5
16B1
330
27F2
100
AcDbEntity
  8
0
100
AcDbBlockReference
  2
*U44
 10
0.0
 20
0.0
 30
0.0
  0
POINT
  5
16B2
330
27F2
100
AcDbEntity
  8
DEFPOINTS
 62
     0
100
AcDbPoint
 10
-25801.51823276501
 20
7385.702971374808
 30
0.0
  0
POINT
  5
16B3
330
27F2
100
AcDbEntity
  8
DEFPOINTS
 62
     0
100
AcDbPoint
 10
-25532.51823276502
 20
7385.702971374808
 30
0.0
  0
POINT
  5
16B4
330
27F2
100
AcDbEntity
  8
DEFPOINTS
 62
     0
100
AcDbPoint
 10
-25532.51823276502
 20
7237.685576144207
 30
0.0
  0
ENDBLK
  5
16B5
330
27F2
100
AcDbEntity
  8
0
100
AcDbBlockEnd
  0
BLOCK
  5
27F5
330
27F4
100
AcDbEntity
  8
0
100
AcDbBlockBegin
  2
*U44
 70
     1
 10
0.0
 20
0.0
 30
0.0
  3
*U44
  1

  0
TEXT
  5
1F21
330
27F4
100
AcDbEntity
  8
SIZE
 62
     0
100
AcDbText
 10
-25739.70394705074
 20
7247.685576144205
 30
0.0
 40
64.0
  1
269
 41
0.9
100
AcDbText
  0
ENDBLK
  5
1F23
330
27F4
100
AcDbEntity
  8
0
100
AcDbBlockEnd
  0
BLOCK
  5
27F7
330
27F6
100
AcDbEntity
  8
0
100
AcDbBlockBegin
  2
*D45
 70
     1
 10
0.0
 20
0.0
 30
0.0
  3
*D45
  1

  0
LINE
  5
16B8
330
27F6
100
AcDbEntity
  8
SIZE
 62
     0
100
AcDbLine
 10
-25512.51823276502
 20
7385.702971374808
 30
0.0
 11
-25362.37494828464
 21
7385.702971374808
 31
0.0
  0
LINE
  5
16B9
330
27F6
100
AcDbEntity
  8
SIZE
 62
     0
100
AcDbLine
 10
-25489.51823276501
 20
7685.702971374808
 30
0.0
 11
-25362.37494828464
 21
7685.702971374808
 31
0.0
  0
LINE
  5
16BA
330
27F6
100
AcDbEntity
  8
SIZE
 62
     0
100
AcDbLine
 10
-25382.37494828464
 20
7397.702971374808
 30
0.0
 11
-25382.37494828464
 21
7673.702971374808
 31
0.0
  0
INSERT
  5
16BB
330
27F6
100
AcDbEntity
  8
SIZE
 62
     0
100
AcDbBlockReference
  2
_DOTBLANK
 10
-25382.37494828464
 20
7385.702971374808
 30
0.0
 41
12.0
 42
12.0
 43
12.0
 50
270.0
  0
INSERT
  5
16BC
330
27F6
100
AcDbEntity
  8
SIZE
 62
     0
100
AcDbBlockReference
  2
_DOTBLANK
 10
-25382.37494828464
 20
7685.702971374808
 30
0.0
 41
12.0
 42
12.0
 43
12.0
 50
90.0
  0
INSERT
  5
16BD
330
27F6
100
AcDbEntity
  8
0
100
AcDbBlockReference
  2
*U46
 10
0.0
 20
0.0
 30
0.0
  0
POINT
  5
16BE
330
27F6
100
AcDbEntity
  8
DEFPOINTS
 62
     0
100
AcDbPoint
 10
-25532.51823276502
 20
7385.702971374808
 30
0.0
  0
POINT
  5
16BF
330
27F6
100
AcDbEntity
  8
DEFPOINTS
 62
     0
100
AcDbPoint
 10
-25509.51823276502
 20
7685.702971374808
 30
0.0
  0
POINT
  5
16C0
330
27F6
100
AcDbEntity
  8
DEFPOINTS
 62
     0
100
AcDbPoint
 10
-25382.37494828464
 20
7685.702971374808
 30
0.0
  0
ENDBLK
  5
16C1
330
27F6
100
AcDbEntity
  8
0
100
AcDbBlockEnd
  0
BLOCK
  5
27F9
330
27F8
100
AcDbEntity
  8
0
100
AcDbBlockBegin
  2
*U46
 70
     1
 10
0.0
 20
0.0
 30
0.0
  3
*U46
  1

  0
TEXT
  5
1F25
330
27F8
100
AcDbEntity
  8
SIZE
 62
     0
100
AcDbText
 10
-25392.37494828464
 20
7461.645828517662
 30
0.0
 40
64.0
  1
300
 50
90.0
 41
0.9
100
AcDbText
  0
ENDBLK
  5
1F27
330
27F8
100
AcDbEntity
  8
0
100
AcDbBlockEnd
  0
BLOCK
  5
27FB
330
27FA
100
AcDbEntity
  8
0
100
AcDbBlockBegin
  2
*D47
 70
     1
 10
0.0
 20
0.0
 30
0.0
  3
*D47
  1

  0
LINE
  5
16C4
330
27FA
100
AcDbEntity
  8
SIZE
 62
     0
100
AcDbLine
 10
-25807.01823276501
 20
7718.167454177002
 30
0.0
 11
-25807.01823276501
 21
7822.154659243358
 31
0.0
  0
LINE
  5
16C5
330
27FA
100
AcDbEntity
  8
SIZE
 62
     0
100
AcDbLine
 10
-25527.01823276501
 20
7718.167454177002
 30
0.0
 11
-25527.01823276501
 21
7822.154659243358
 31
0.0
  0
LINE
  5
16C6
330
27FA
100
AcDbEntity
  8
SIZE
 62
     0
100
AcDbLine
 10
-25795.01823276502
 20
7802.154659243358
 30
0.0
 11
-25539.01823276501
 21
7802.154659243358
 31
0.0
  0
INSERT
  5
16C7
330
27FA
100
AcDbEntity
  8
SIZE
 62
     0
100
AcDbBlockReference
  2
_DOTBLANK
 10
-25807.01823276501
 20
7802.154659243358
 30
0.0
 41
12.0
 42
12.0
 43
12.0
 50
180.0
  0
INSERT
  5
16C8
330
27FA
100
AcDbEntity
  8
SIZE
 62
     0
100
AcDbBlockReference
  2
_DOTBLANK
 10
-25527.01823276501
 20
7802.154659243358
 30
0.0
 41
12.0
 42
12.0
 43
12.0
  0
INSERT
  5
16C9
330
27FA
100
AcDbEntity
  8
0
100
AcDbBlockReference
  2
*U48
 10
0.0
 20
0.0
 30
0.0
  0
POINT
  5
16CA
330
27FA
100
AcDbEntity
  8
DEFPOINTS
 62
     0
100
AcDbPoint
 10
-25807.01823276501
 20
7698.167454177002
 30
0.0
  0
POINT
  5
16CB
330
27FA
100
AcDbEntity
  8
DEFPOINTS
 62
     0
100
AcDbPoint
 10
-25527.01823276501
 20
7698.167454177002
 30
0.0
  0
POINT
  5
16CC
330
27FA
100
AcDbEntity
  8
DEFPOINTS
 62
     0
100
AcDbPoint
 10
-25527.01823276501
 20
7802.154659243358
 30
0.0
  0
ENDBLK
  5
16CD
330
27FA
100
AcDbEntity
  8
0
100
AcDbBlockEnd
  0
BLOCK
  5
27FD
330
27FC
100
AcDbEntity
  8
0
100
AcDbBlockBegin
  2
*U48
 70
     1
 10
0.0
 20
0.0
 30
0.0
  3
*U48
  1

  0
TEXT
  5
1F29
330
27FC
100
AcDbEntity
  8
SIZE
 62
     0
100
AcDbText
 10
-25741.07537562216
 20
7812.154659243358
 30
0.0
 40
64.0
  1
280
 41
0.9
100
AcDbText
  0
ENDBLK
  5
1F2B
330
27FC
100
AcDbEntity
  8
0
100
AcDbBlockEnd
  0
BLOCK
  5
27FF
330
27FE
100
AcDbEntity
  8
0
100
AcDbBlockBegin
  2
*D49
 70
     1
 10
0.0
 20
0.0
 30
0.0
  3
*D49
  1

  0
LINE
  5
16D0
330
27FE
100
AcDbEntity
  8
SIZE
 62
     0
100
AcDbLine
 10
-25824.51823276501
 20
7705.702971374808
 30
0.0
 11
-25824.51823276501
 21
7931.282433493766
 31
0.0
  0
LINE
  5
16D1
330
27FE
100
AcDbEntity
  8
SIZE
 62
     0
100
AcDbLine
 10
-25509.51823276502
 20
7705.702971374808
 30
0.0
 11
-25509.51823276502
 21
7931.282433493766
 31
0.0
  0
LINE
  5
16D2
330
27FE
100
AcDbEntity
  8
SIZE
 62
     0
100
AcDbLine
 10
-25812.51823276502
 20
7911.282433493766
 30
0.0
 11
-25521.51823276501
 21
7911.282433493766
 31
0.0
  0
INSERT
  5
16D3
330
27FE
100
AcDbEntity
  8
SIZE
 62
     0
100
AcDbBlockReference
  2
_DOTBLANK
 10
-25824.51823276501
 20
7911.282433493766
 30
0.0
 41
12.0
 42
12.0
 43
12.0
 50
180.0
  0
INSERT
  5
16D4
330
27FE
100
AcDbEntity
  8
SIZE
 62
     0
100
AcDbBlockReference
  2
_DOTBLANK
 10
-25509.51823276502
 20
7911.282433493766
 30
0.0
 41
12.0
 42
12.0
 43
12.0
  0
INSERT
  5
16D5
330
27FE
100
AcDbEntity
  8
0
100
AcDbBlockReference
  2
*U50
 10
0.0
 20
0.0
 30
0.0
  0
POINT
  5
16D6
330
27FE
100
AcDbEntity
  8
DEFPOINTS
 62
     0
100
AcDbPoint
 10
-25824.51823276501
 20
7685.702971374808
 30
0.0
  0
POINT
  5
16D7
330
27FE
100
AcDbEntity
  8
DEFPOINTS
 62
     0
100
AcDbPoint
 10
-25509.51823276502
 20
7685.702971374808
 30
0.0
  0
POINT
  5
16D8
330
27FE
100
AcDbEntity
  8
DEFPOINTS
 62
     0
100
AcDbPoint
 10
-25509.51823276502
 20
7911.282433493766
 30
0.0
  0
ENDBLK
  5
16D9
330
27FE
100
AcDbEntity
  8
0
100
AcDbBlockEnd
  0
BLOCK
  5
2801
330
2800
100
AcDbEntity
  8
0
100
AcDbBlockBegin
  2
*U50
 70
     1
 10
0.0
 20
0.0
 30
0.0
  3
*U50
  1

  0
TEXT
  5
1F2D
330
2800
100
AcDbEntity
  8
SIZE
 62
     0
100
AcDbText
 10
-25735.58966133645
 20
7921.282433493766
 30
0.0
 40
64.0
  1
315
 41
0.9
100
AcDbText
  0
ENDBLK
  5
1F2F
330
2800
100
AcDbEntity
  8
0
100
AcDbBlockEnd
  0
BLOCK
  5
2803
330
2802
100
AcDbEntity
  8
0
100
AcDbBlockBegin
  2
*D51
 70
     1
 10
0.0
 20
0.0
 30
0.0
  3
*D51
  1

  0
LINE
  5
1D83
330
2802
100
AcDbEntity
  8
SIZE
 62
     0
100
AcDbLine
 10
-134.5
 20
-320.0
 30
0.0
 11
-134.5
 21
-468.0173952306001
 31
0.0
  0
LINE
  5
1D84
330
2802
100
AcDbEntity
  8
SIZE
 62
     0
100
AcDbLine
 10
134.5
 20
-320.0
 30
0.0
 11
134.5
 21
-468.0173952306001
 31
0.0
  0
LINE
  5
1D85
330
2802
100
AcDbEntity
  8
SIZE
 62
     0
100
AcDbLine
 10
-122.5
 20
-448.0173952306
 30
0.0
 11
122.5
 21
-448.0173952306
 31
0.0
  0
INSERT
  5
1D86
330
2802
100
AcDbEntity
  8
SIZE
 62
     0
100
AcDbBlockReference
  2
_DOTBLANK
 10
-134.5
 20
-448.0173952306
 30
0.0
 41
12.0
 42
12.0
 43
12.0
 50
180.0
  0
INSERT
  5
1D87
330
2802
100
AcDbEntity
  8
SIZE
 62
     0
100
AcDbBlockReference
  2
_DOTBLANK
 10
134.5
 20
-448.0173952306
 30
0.0
 41
12.0
 42
12.0
 43
12.0
  0
INSERT
  5
1D88
330
2802
100
AcDbEntity
  8
0
100
AcDbBlockReference
  2
*U52
 10
0.0
 20
0.0
 30
0.0
  0
POINT
  5
1D89
330
2802
100
AcDbEntity
  8
DEFPOINTS
 62
     0
100
AcDbPoint
 10
-134.5
 20
-300.0
 30
0.0
  0
POINT
  5
1D8A
330
2802
100
AcDbEntity
  8
DEFPOINTS
 62
     0
100
AcDbPoint
 10
134.5
 20
-300.0
 30
0.0
  0
POINT
  5
1D8B
330
2802
100
AcDbEntity
  8
DEFPOINTS
 62
     0
100
AcDbPoint
 10
134.5
 20
-448.0173952306
 30
0.0
  0
ENDBLK
  5
173D
330
2802
100
AcDbEntity
  8
0
100
AcDbBlockEnd
  0
BLOCK
  5
2805
330
2804
100
AcDbEntity
  8
0
100
AcDbBlockBegin
  2
*U52
 70
     1
 10
0.0
 20
0.0
 30
0.0
  3
*U52
  1

  0
TEXT
  5
1F31
330
2804
100
AcDbEntity
  8
SIZE
 62
     0
100
AcDbText
 10
-72.68571428571426
 20
-438.0173952306003
 30
0.0
 40
64.0
  1
269
 41
0.9
100
AcDbText
  0
ENDBLK
  5
1F33
330
2804
100
AcDbEntity
  8
0
100
AcDbBlockEnd
  0
BLOCK
  5
2807
330
2806
100
AcDbEntity
  8
0
100
AcDbBlockBegin
  2
*D53
 70
     1
 10
0.0
 20
0.0
 30
0.0
  3
*D53
  1

  0
LINE
  5
1D8C
330
2806
100
AcDbEntity
  8
SIZE
 62
     0
100
AcDbLine
 10
154.5
 20
-300.0
 30
0.0
 11
304.6432844803784
 21
-300.0
 31
0.0
  0
LINE
  5
1D8D
330
2806
100
AcDbEntity
  8
SIZE
 62
     0
100
AcDbLine
 10
177.5
 20
-0.0000000000000057
 30
0.0
 11
304.6432844803785
 21
-0.0000000000000417
 31
0.0
  0
LINE
  5
1D8E
330
2806
100
AcDbEntity
  8
SIZE
 62
     0
100
AcDbLine
 10
284.6432844803784
 20
-288.0
 30
0.0
 11
284.6432844803785
 21
-12.00000000000003
 31
0.0
  0
INSERT
  5
1D8F
330
2806
100
AcDbEntity
  8
SIZE
 62
     0
100
AcDbBlockReference
  2
_DOTBLANK
 10
284.6432844803784
 20
-300.0
 30
0.0
 41
12.0
 42
12.0
 43
12.0
 50
270.0
  0
INSERT
  5
1D90
330
2806
100
AcDbEntity
  8
SIZE
 62
     0
100
AcDbBlockReference
  2
_DOTBLANK
 10
284.6432844803785
 20
-0.000000000000036
 30
0.0
 41
12.0
 42
12.0
 43
12.0
 50
90.0
  0
INSERT
  5
1D91
330
2806
100
AcDbEntity
  8
0
100
AcDbBlockReference
  2
*U54
 10
0.0
 20
0.0
 30
0.0
  0
POINT
  5
1D92
330
2806
100
AcDbEntity
  8
DEFPOINTS
 62
     0
100
AcDbPoint
 10
134.5
 20
-300.0
 30
0.0
  0
POINT
  5
1D93
330
2806
100
AcDbEntity
  8
DEFPOINTS
 62
     0
100
AcDbPoint
 10
157.5
 20
0.0
 30
0.0
  0
POINT
  5
1D94
330
2806
100
AcDbEntity
  8
DEFPOINTS
 62
     0
100
AcDbPoint
 10
284.6432844803785
 20
-0.000000000000036
 30
0.0
  0
ENDBLK
  5
1749
330
2806
100
AcDbEntity
  8
0
100
AcDbBlockEnd
  0
BLOCK
  5
2809
330
2808
100
AcDbEntity
  8
0
100
AcDbBlockBegin
  2
*U54
 70
     1
 10
0.0
 20
0.0
 30
0.0
  3
*U54
  1

  0
TEXT
  5
1F35
330
2808
100
AcDbEntity
  8
SIZE
 62
     0
100
AcDbText
 10
274.6432844803785
 20
-224.0571428571429
 30
0.0
 40
64.0
  1
300
 50
90.0
 41
0.9
100
AcDbText
  0
ENDBLK
  5
1F37
330
2808
100
AcDbEntity
  8
0
100
AcDbBlockEnd
  0
BLOCK
  5
280B
330
280A
100
AcDbEntity
  8
0
100
AcDbBlockBegin
  2
*D55
 70
     1
 10
0.0
 20
0.0
 30
0.0
  3
*D55
  1

  0
LINE
  5
1D95
330
280A
100
AcDbEntity
  8
SIZE
 62
     0
100
AcDbLine
 10
-140.0
 20
32.46448280219375
 30
0.0
 11
-140.0
 21
136.4516878685508
 31
0.0
  0
LINE
  5
1D96
330
280A
100
AcDbEntity
  8
SIZE
 62
     0
100
AcDbLine
 10
140.0
 20
32.46448280219375
 30
0.0
 11
140.0
 21
136.4516878685508
 31
0.0
  0
LINE
  5
1D97
330
280A
100
AcDbEntity
  8
SIZE
 62
     0
100
AcDbLine
 10
-128.0
 20
116.4516878685508
 30
0.0
 11
128.0
 21
116.4516878685508
 31
0.0
  0
INSERT
  5
1D98
330
280A
100
AcDbEntity
  8
SIZE
 62
     0
100
AcDbBlockReference
  2
_DOTBLANK
 10
-140.0
 20
116.4516878685508
 30
0.0
 41
12.0
 42
12.0
 43
12.0
 50
180.0
  0
INSERT
  5
1D99
330
280A
100
AcDbEntity
  8
SIZE
 62
     0
100
AcDbBlockReference
  2
_DOTBLANK
 10
140.0
 20
116.4516878685508
 30
0.0
 41
12.0
 42
12.0
 43
12.0
  0
INSERT
  5
1D9A
330
280A
100
AcDbEntity
  8
0
100
AcDbBlockReference
  2
*U56
 10
0.0
 20
0.0
 30
0.0
  0
POINT
  5
1D9B
330
280A
100
AcDbEntity
  8
DEFPOINTS
 62
     0
100
AcDbPoint
 10
-140.0
 20
12.46448280219374
 30
0.0
  0
POINT
  5
1D9C
330
280A
100
AcDbEntity
  8
DEFPOINTS
 62
     0
100
AcDbPoint
 10
140.0
 20
12.46448280219374
 30
0.0
  0
POINT
  5
1D9D
330
280A
100
AcDbEntity
  8
DEFPOINTS
 62
     0
100
AcDbPoint
 10
140.0
 20
116.4516878685508
 30
0.0
  0
ENDBLK
  5
1755
330
280A
100
AcDbEntity
  8
0
100
AcDbBlockEnd
  0
BLOCK
  5
280D
330
280C
100
AcDbEntity
  8
0
100
AcDbBlockBegin
  2
*U56
 70
     1
 10
0.0
 20
0.0
 30
0.0
  3
*U56
  1

  0
TEXT
  5
1F39
330
280C
100
AcDbEntity
  8
SIZE
 62
     0
100
AcDbText
 10
-74.05714285714283
 20
126.4516878685508
 30
0.0
 40
64.0
  1
280
 41
0.9
100
AcDbText
  0
ENDBLK
  5
1F3B
330
280C
100
AcDbEntity
  8
0
100
AcDbBlockEnd
  0
BLOCK
  5
280F
330
280E
100
AcDbEntity
  8
0
100
AcDbBlockBegin
  2
*D57
 70
     1
 10
0.0
 20
0.0
 30
0.0
  3
*D57
  1

  0
LINE
  5
1D9E
330
280E
100
AcDbEntity
  8
SIZE
 62
     0
100
AcDbLine
 10
-157.5
 20
20.0
 30
0.0
 11
-157.5
 21
245.5794621189598
 31
0.0
  0
LINE
  5
1D9F
330
280E
100
AcDbEntity
  8
SIZE
 62
     0
100
AcDbLine
 10
157.5
 20
20.0
 30
0.0
 11
157.5
 21
245.5794621189598
 31
0.0
  0
LINE
  5
1DA0
330
280E
100
AcDbEntity
  8
SIZE
 62
     0
100
AcDbLine
 10
-145.5
 20
225.5794621189598
 30
0.0
 11
145.5
 21
225.5794621189598
 31
0.0
  0
INSERT
  5
1DA1
330
280E
100
AcDbEntity
  8
SIZE
 62
     0
100
AcDbBlockReference
  2
_DOTBLANK
 10
-157.5
 20
225.5794621189598
 30
0.0
 41
12.0
 42
12.0
 43
12.0
 50
180.0
  0
INSERT
  5
1DA2
330
280E
100
AcDbEntity
  8
SIZE
 62
     0
100
AcDbBlockReference
  2
_DOTBLANK
 10
157.5
 20
225.5794621189598
 30
0.0
 41
12.0
 42
12.0
 43
12.0
  0
INSERT
  5
1DA3
330
280E
100
AcDbEntity
  8
0
100
AcDbBlockReference
  2
*U58
 10
0.0
 20
0.0
 30
0.0
  0
POINT
  5
1DA4
330
280E
100
AcDbEntity
  8
DEFPOINTS
 62
     0
100
AcDbPoint
 10
-157.5
 20
0.0
 30
0.0
  0
POINT
  5
1DA5
330
280E
100
AcDbEntity
  8
DEFPOINTS
 62
     0
100
AcDbPoint
 10
157.5
 20
0.0
 30
0.0
  0
POINT
  5
1DA6
330
280E
100
AcDbEntity
  8
DEFPOINTS
 62
     0
100
AcDbPoint
 10
157.5
 20
225.5794621189598
 30
0.0
  0
ENDBLK
  5
1761
330
280E
100
AcDbEntity
  8
0
100
AcDbBlockEnd
  0
BLOCK
  5
2811
330
2810
100
AcDbEntity
  8
0
100
AcDbBlockBegin
  2
*U58
 70
     1
 10
0.0
 20
0.0
 30
0.0
  3
*U58
  1

  0
TEXT
  5
1F3D
330
2810
100
AcDbEntity
  8
SIZE
 62
     0
100
AcDbText
 10
-68.57142857142857
 20
235.5794621189599
 30
0.0
 40
64.0
  1
315
 41
0.9
100
AcDbText
  0
ENDBLK
  5
1F3F
330
2810
100
AcDbEntity
  8
0
100
AcDbBlockEnd
  0
BLOCK
  5
2813
330
2812
100
AcDbEntity
  8
0
100
AcDbBlockBegin
  2
*D59
 70
     1
 10
0.0
 20
0.0
 30
0.0
  3
*D59
  1

  0
LINE
  5
1DA7
330
2812
100
AcDbEntity
  8
SIZE
 62
     0
100
AcDbLine
 10
-177.5
 20
0.0000000000000057
 30
0.0
 11
-314.0264221186908
 21
0.0000000000000443
 31
0.0
  0
LINE
  5
1DA8
330
2812
100
AcDbEntity
  8
SIZE
 62
     0
100
AcDbLine
 10
-177.5
 20
-7.999999999999995
 30
0.0
 11
-314.0264221186908
 21
-7.999999999999957
 31
0.0
  0
LINE
  5
1DA9
330
2812
100
AcDbEntity
  8
SIZE
 62
     0
100
AcDbLine
 10
-294.0264221186908
 20
12.00000000000003
 30
0.0
 11
-294.0264221186908
 21
24.00000000000004
 31
0.0
  0
LINE
  5
1DAA
330
2812
100
AcDbEntity
  8
SIZE
 62
     0
100
AcDbLine
 10
-294.0264221186908
 20
-19.99999999999996
 30
0.0
 11
-294.0264221186908
 21
-90.39999999999997
 31
0.0
  0
INSERT
  5
1DAB
330
2812
100
AcDbEntity
  8
SIZE
 62
     0
100
AcDbBlockReference
  2
_DOTBLANK
 10
-294.0264221186908
 20
0.0000000000000387
 30
0.0
 41
12.0
 42
12.0
 43
12.0
 50
270.0
  0
INSERT
  5
1DAC
330
2812
100
AcDbEntity
  8
SIZE
 62
     0
100
AcDbBlockReference
  2
_DOTBLANK
 10
-294.0264221186908
 20
-7.999999999999959
 30
0.0
 41
12.0
 42
12.0
 43
12.0
 50
90.0
  0
INSERT
  5
1DAD
330
2812
100
AcDbEntity
  8
0
100
AcDbBlockReference
  2
*U60
 10
0.0
 20
0.0
 30
0.0
  0
POINT
  5
1DAE
330
2812
100
AcDbEntity
  8
DEFPOINTS
 62
     0
100
AcDbPoint
 10
-157.5
 20
0.0
 30
0.0
  0
POINT
  5
1DAF
330
2812
100
AcDbEntity
  8
DEFPOINTS
 62
     0
100
AcDbPoint
 10
-157.5
 20
-8.000000000000001
 30
0.0
  0
POINT
  5
1DB0
330
2812
100
AcDbEntity
  8
DEFPOINTS
 62
     0
100
AcDbPoint
 10
-294.0264221186908
 20
-7.999999999999959
 30
0.0
  0
ENDBLK
  5
176D
330
2812
100
AcDbEntity
  8
0
100
AcDbBlockEnd
  0
BLOCK
  5
2815
330
2814
100
AcDbEntity
  8
0
100
AcDbBlockBegin
  2
*U60
 70
     1
 10
0.0
 20
0.0
 30
0.0
  3
*U60
  1

  0
TEXT
  5
1F41
330
2814
100
AcDbEntity
  8
SIZE
 62
     0
100
AcDbText
 10
-304.0264221186908
 20
-80.4
 30
0.0
 40
64.0
  1
8
 50
90.0
 41
0.9
100
AcDbText
  0
ENDBLK
  5
1F43
330
2814
100
AcDbEntity
  8
0
100
AcDbBlockEnd
  0
BLOCK
  5
2817
330
2816
100
AcDbEntity
  8
0
100
AcDbBlockBegin
  2
*D61
 70
     1
 10
0.0
 20
0.0
 30
0.0
  3
*D61
  1

  0
LINE
  5
1DB1
330
2816
100
AcDbEntity
  8
SIZE
 62
     0
100
AcDbLine
 10
154.5
 20
-300.0
 30
0.0
 11
304.6432844803785
 21
-300.0
 31
0.0
  0
LINE
  5
1DB2
330
2816
100
AcDbEntity
  8
SIZE
 62
     0
100
AcDbLine
 10
143.5
 20
-312.0
 30
0.0
 11
304.6432844803785
 21
-312.0
 31
0.0
  0
LINE
  5
1DB3
330
2816
100
AcDbEntity
  8
SIZE
 62
     0
100
AcDbLine
 10
284.6432844803785
 20
-288.0
 30
0.0
 11
284.6432844803785
 21
-276.0
 31
0.0
  0
LINE
  5
1DB4
330
2816
100
AcDbEntity
  8
SIZE
 62
     0
100
AcDbLine
 10
284.6432844803785
 20
-324.0000000000001
 30
0.0
 11
284.6432844803784
 21
-438.2857142857143
 31
0.0
  0
INSERT
  5
1DB5
330
2816
100
AcDbEntity
  8
SIZE
 62
     0
100
AcDbBlockReference
  2
_DOTBLANK
 10
284.6432844803785
 20
-300.0
 30
0.0
 41
12.0
 42
12.0
 43
12.0
 50
270.0
  0
INSERT
  5
1DB6
330
2816
100
AcDbEntity
  8
SIZE
 62
     0
100
AcDbBlockReference
  2
_DOTBLANK
 10
284.6432844803785
 20
-312.0
 30
0.0
 41
12.0
 42
12.0
 43
12.0
 50
90.0
  0
INSERT
  5
1DB7
330
2816
100
AcDbEntity
  8
0
100
AcDbBlockReference
  2
*U62
 10
0.0
 20
0.0
 30
0.0
  0
POINT
  5
1DB8
330
2816
100
AcDbEntity
  8
DEFPOINTS
 62
     0
100
AcDbPoint
 10
134.5
 20
-300.0
 30
0.0
  0
POINT
  5
1DB9
330
2816
100
AcDbEntity
  8
DEFPOINTS
 62
     0
100
AcDbPoint
 10
123.5
 20
-312.0
 30
0.0
  0
POINT
  5
1DBA
330
2816
100
AcDbEntity
  8
DEFPOINTS
 62
     0
100
AcDbPoint
 10
284.6432844803785
 20
-312.0
 30
0.0
  0
ENDBLK
  5
177B
330
2816
100
AcDbEntity
  8
0
100
AcDbBlockEnd
  0
BLOCK
  5
2819
330
2818
100
AcDbEntity
  8
0
100
AcDbBlockBegin
  2
*U62
 70
     1
 10
0.0
 20
0.0
 30
0.0
  3
*U62
  1

  0
TEXT
  5
1F45
330
2818
100
AcDbEntity
  8
SIZE
 62
     0
100
AcDbText
 10
274.6432844803785
 20
-428.2857142857142
 30
0.0
 40
64.0
  1
12
 50
90.0
 41
0.9
100
AcDbText
  0
ENDBLK
  5
1F47
330
2818
100
AcDbEntity
  8
0
100
AcDbBlockEnd
  0
BLOCK
  5
281B
330
281A
100
AcDbEntity
  8
0
100
AcDbBlockBegin
  2
*U63
 70
     1
 10
0.0
 20
0.0
 30
0.0
  3
*U63
  1

  0
ENDBLK
  5
1D57
330
281A
100
AcDbEntity
  8
0
100
AcDbBlockEnd
  0
BLOCK
  5
281D
330
281C
100
AcDbEntity
  8
0
100
AcDbBlockBegin
  2
*U64
 70
     1
 10
0.0
 20
0.0
 30
0.0
  3
*U64
  1

  0
INSERT
  5
2087
330
281C
100
AcDbEntity
  8
NOTE
100
AcDbBlockReference
  2
_OPEN30
 10
-140.0
 20
0.0
 30
0.0
 41
12.0
 42
12.0
 43
12.0
 50
312.6090116116894
  0
POLYLINE
  5
2088
330
281C
100
AcDbEntity
  8
NOTE
100
AcDb2dPolyline
 66
     1
 10
0.0
 20
0.0
 30
0.0
  0
VERTEX
  5
26B2
330
2088
100
AcDbEntity
  8
NOTE
100
AcDbVertex
100
AcDb2dVertex
 10
-148.1239008361894
 20
8.831887408915473
 30
0.0
  0
VERTEX
  5
26B3
330
2088
100
AcDbEntity
  8
NOTE
100
AcDbVertex
100
AcDb2dVertex
 10
-227.8693999922543
 20
95.52709505801338
 30
0.0
  0
VERTEX
  5
26B4
330
2088
100
AcDbEntity
  8
NOTE
100
AcDbVertex
100
AcDb2dVertex
 10
-773.7093999922541
 20
95.52709505801338
 30
0.0
  0
SEQEND
  5
26B5
330
2088
100
AcDbEntity
  8
NOTE
  0
ENDBLK
  5
2089
330
281C
100
AcDbEntity
  8
0
100
AcDbBlockEnd
  0
BLOCK
  5
281F
330
281E
100
AcDbEntity
  8
0
100
AcDbBlockBegin
  2
*U65
 70
     1
 10
0.0
 20
0.0
 30
0.0
  3
*U65
  1

  0
TEXT
  5
208C
330
281E
100
AcDbEntity
  8
NOTE
100
AcDbText
 10
-773.7093999922541
 20
113.5270950580134
 30
0.0
 40
64.0
  1
4×φ10取付穴
 41
0.9
100
AcDbText
  0
ENDBLK
  5
208D
330
281E
100
AcDbEntity
  8
0
100
AcDbBlockEnd
  0
BLOCK
  5
2821
330
2820
100
AcDbEntity
  8
0
100
AcDbBlockBegin
  2
*U66
 70
     1
 10
0.0
 20
0.0
 30
0.0
  3
*U66
  1

  0
INSERT
  5
215B
330
2820
100
AcDbEntity
  8
NOTE
100
AcDbBlockReference
  2
_OPEN30
 10
140.0
 20
140.0
 30
0.0
 41
12.0
 42
12.0
 43
12.0
 50
230.7091310502217
  0
POLYLINE
  5
215C
330
2820
100
AcDbEntity
  8
NOTE
100
AcDb2dPolyline
 66
     1
 10
0.0
 20
0.0
 30
0.0
  0
VERTEX
  5
26B6
330
215C
100
AcDbEntity
  8
NOTE
100
AcDbVertex
100
AcDb2dVertex
 10
147.599090480922
 20
149.2872936780722
 30
0.0
  0
VERTEX
  5
26B7
330
215C
100
AcDbEntity
  8
NOTE
100
AcDbVertex
100
AcDb2dVertex
 10
203.4345623698609
 20
217.5270950580134
 30
0.0
  0
VERTEX
  5
26B8
330
215C
100
AcDbEntity
  8
NOTE
100
AcDbVertex
100
AcDb2dVertex
 10
749.2745623698612
 20
217.5270950580134
 30
0.0
  0
SEQEND
  5
26B9
330
215C
100
AcDbEntity
  8
NOTE
  0
ENDBLK
  5
215D
330
2820
100
AcDbEntity
  8
0
100
AcDbBlockEnd
  0
BLOCK
  5
2823
330
2822
100
AcDbEntity
  8
0
100
AcDbBlockBegin
  2
*U67
 70
     1
 10
0.0
 20
0.0
 30
0.0
  3
*U67
  1

  0
TEXT
  5
2160
330
2822
100
AcDbEntity
  8
NOTE
100
AcDbText
 10
265.4345623698609
 20
235.5270950580135
 30
0.0
 40
64.0
  1
4×φ10取付穴
 41
0.9
100
AcDbText
  0
ENDBLK
  5
2161
330
2822
100
AcDbEntity
  8
0
100
AcDbBlockEnd
  0
BLOCK
  5
2825
330
2824
100
AcDbEntity
  8
0
100
AcDbBlockBegin
  2
*U68
 70
     1
 10
0.0
 20
0.0
 30
0.0
  3
*U68
  1

  0
INSERT
  5
223E
330
2824
100
AcDbEntity
  8
NOTE
100
AcDbBlockReference
  2
_OPEN30
 10
140.0
 20
140.0
 30
0.0
 41
12.0
 42
12.0
 43
12.0
 50
232.3258907693334
  0
POLYLINE
  5
223F
330
2824
100
AcDbEntity
  8
NOTE
100
AcDb2dPolyline
 66
     1
 10
0.0
 20
0.0
 30
0.0
  0
VERTEX
  5
26C8
330
223F
100
AcDbEntity
  8
NOTE
100
AcDbVertex
100
AcDb2dVertex
 10
147.3340332839448
 20
149.4979974620964
 30
0.0
  0
VERTEX
  5
26C9
330
223F
100
AcDbEntity
  8
NOTE
100
AcDbVertex
100
AcDb2dVertex
 10
213.7628007872081
 20
235.5270950580125
 30
0.0
  0
VERTEX
  5
26CA
330
223F
100
AcDbEntity
  8
NOTE
100
AcDbVertex
100
AcDb2dVertex
 10
759.6028007872081
 20
235.5270950580125
 30
0.0
  0
SEQEND
  5
26CB
330
223F
100
AcDbEntity
  8
NOTE
  0
ENDBLK
  5
2240
330
2824
100
AcDbEntity
  8
0
100
AcDbBlockEnd
  0
BLOCK
  5
2827
330
2826
100
AcDbEntity
  8
0
100
AcDbBlockBegin
  2
*U69
 70
     1
 10
0.0
 20
0.0
 30
0.0
  3
*U69
  1

  0
TEXT
  5
2243
330
2826
100
AcDbEntity
  8
NOTE
100
AcDbText
 10
275.7628007872081
 20
253.5270950580124
 30
0.0
 40
64.0
  1
4×φ10取付穴
 41
0.9
100
AcDbText
  0
ENDBLK
  5
2244
330
2826
100
AcDbEntity
  8
0
100
AcDbBlockEnd
  0
BLOCK
  5
2829
330
2828
100
AcDbEntity
  8
0
100
AcDbBlockBegin
  2
*U70
 70
     1
 10
0.0
 20
0.0
 30
0.0
  3
*U70
  1

  0
INSERT
  5
2337
330
2828
100
AcDbEntity
  8
NOTE
100
AcDbBlockReference
  2
_OPEN30
 10
0.0
 20
140.0
 30
0.0
 41
12.0
 42
12.0
 43
12.0
 50
312.6090116116895
  0
POLYLINE
  5
2338
330
2828
100
AcDbEntity
  8
NOTE
100
AcDb2dPolyline
 66
     1
 10
0.0
 20
0.0
 30
0.0
  0
VERTEX
  5
26D6
330
2338
100
AcDbEntity
  8
NOTE
100
AcDbVertex
100
AcDb2dVertex
 10
-8.123900836189513
 20
148.8318874089154
 30
0.0
  0
VERTEX
  5
26D7
330
2338
100
AcDbEntity
  8
NOTE
100
AcDbVertex
100
AcDb2dVertex
 10
-87.86939999225436
 20
235.527095058013
 30
0.0
  0
VERTEX
  5
26D8
330
2338
100
AcDbEntity
  8
NOTE
100
AcDbVertex
100
AcDb2dVertex
 10
-636.4522571351113
 20
235.527095058013
 30
0.0
  0
SEQEND
  5
26D9
330
2338
100
AcDbEntity
  8
NOTE
  0
ENDBLK
  5
2339
330
2828
100
AcDbEntity
  8
0
100
AcDbBlockEnd
  0
BLOCK
  5
282B
330
282A
100
AcDbEntity
  8
0
100
AcDbBlockBegin
  2
*U71
 70
     1
 10
0.0
 20
0.0
 30
0.0
  3
*U71
  1

  0
TEXT
  5
233C
330
282A
100
AcDbEntity
  8
NOTE
100
AcDbText
 10
-633.7093999922545
 20
253.5270950580129
 30
0.0
 40
64.0
  1
4×φ10取付穴
 41
0.9
100
AcDbText
  0
ENDBLK
  5
233D
330
282A
100
AcDbEntity
  8
0
100
AcDbBlockEnd
  0
BLOCK
  5
282D
330
282C
100
AcDbEntity
  8
0
100
AcDbBlockBegin
  2
*U72
 70
     1
 10
0.0
 20
0.0
 30
0.0
  3
*U72
  1

  0
INSERT
  5
2468
330
282C
100
AcDbEntity
  8
NOTE
100
AcDbBlockReference
  2
_OPEN30
 10
0.0
 20
140.0
 30
0.0
 41
12.0
 42
12.0
 43
12.0
 50
227.3909883883105
  0
POLYLINE
  5
2469
330
282C
100
AcDbEntity
  8
NOTE
100
AcDb2dPolyline
 66
     1
 10
0.0
 20
0.0
 30
0.0
  0
VERTEX
  5
26DA
330
2469
100
AcDbEntity
  8
NOTE
100
AcDbVertex
100
AcDb2dVertex
 10
8.123900836189502
 20
148.8318874089154
 30
0.0
  0
VERTEX
  5
26DB
330
2469
100
AcDbEntity
  8
NOTE
100
AcDbVertex
100
AcDb2dVertex
 10
87.86939999225408
 20
235.527095058013
 30
0.0
  0
VERTEX
  5
26DC
330
2469
100
AcDbEntity
  8
NOTE
100
AcDbVertex
100
AcDb2dVertex
 10
633.7093999922544
 20
235.527095058013
 30
0.0
  0
SEQEND
  5
26DD
330
2469
100
AcDbEntity
  8
NOTE
  0
ENDBLK
  5
246A
330
282C
100
AcDbEntity
  8
0
100
AcDbBlockEnd
  0
BLOCK
  5
282F
330
282E
100
AcDbEntity
  8
0
100
AcDbBlockBegin
  2
*U73
 70
     1
 10
0.0
 20
0.0
 30
0.0
  3
*U73
  1

  0
TEXT
  5
246D
330
282E
100
AcDbEntity
  8
NOTE
100
AcDbText
 10
149.8693999922541
 20
253.5270950580129
 30
0.0
 40
64.0
  1
4×φ10取付穴
 41
0.9
100
AcDbText
  0
ENDBLK
  5
246E
330
282E
100
AcDbEntity
  8
0
100
AcDbBlockEnd
  0
BLOCK
  5
2831
330
2830
100
AcDbEntity
  8
0
100
AcDbBlockBegin
  2
*U74
 70
     1
 10
0.0
 20
0.0
 30
0.0
  3
*U74
  1

  0
INSERT
  5
259D
330
2830
100
AcDbEntity
  8
NOTE
100
AcDbBlockReference
  2
_OPEN30
 10
-140.0
 20
0.0
 30
0.0
 41
12.0
 42
12.0
 43
12.0
 50
312.6090116116894
  0
POLYLINE
  5
259E
330
2830
100
AcDbEntity
  8
NOTE
100
AcDb2dPolyline
 66
     1
 10
0.0
 20
0.0
 30
0.0
  0
VERTEX
  5
26DE
330
259E
100
AcDbEntity
  8
NOTE
100
AcDbVertex
100
AcDb2dVertex
 10
-148.1239008361894
 20
8.831887408915473
 30
0.0
  0
VERTEX
  5
26DF
330
259E
100
AcDbEntity
  8
NOTE
100
AcDbVertex
100
AcDb2dVertex
 10
-227.8693999922543
 20
95.52709505801338
 30
0.0
  0
VERTEX
  5
26E0
330
259E
100
AcDbEntity
  8
NOTE
100
AcDbVertex
100
AcDb2dVertex
 10
-773.7093999922541
 20
95.52709505801338
 30
0.0
  0
SEQEND
  5
26E1
330
259E
100
AcDbEntity
  8
NOTE
  0
ENDBLK
  5
259F
330
2830
100
AcDbEntity
  8
0
100
AcDbBlockEnd
  0
BLOCK
  5
2833
330
2832
100
AcDbEntity
  8
0
100
AcDbBlockBegin
  2
*U75
 70
     1
 10
0.0
 20
0.0
 30
0.0
  3
*U75
  1

  0
TEXT
  5
25A2
330
2832
100
AcDbEntity
  8
NOTE
100
AcDbText
 10
-773.7093999922541
 20
113.5270950580134
 30
0.0
 40
64.0
  1
4×φ10取付穴
 41
0.9
100
AcDbText
  0
ENDBLK
  5
25A3
330
2832
100
AcDbEntity
  8
0
100
AcDbBlockEnd
  0
BLOCK
  5
2835
330
2834
100
AcDbEntity
  8
0
100
AcDbBlockBegin
  2
*X76
 70
     1
 10
0.0
 20
0.0
 30
0.0
  3
*X76
  1

  0
LINE
  5
25A6
330
2834
100
AcDbEntity
  8
0
 62
     0
100
AcDbLine
 10
-107.9000000000069
 20
-286.1876546521817
 30
0.0
 11
-107.4540745344257
 21
-286.4000000000014
 31
0.0
  0
LINE
  5
25A7
330
2834
100
AcDbEntity
  8
0
 62
     0
100
AcDbLine
 10
-107.9000000000069
 20
-276.187702908046
 30
0.0
 11
-86.45416479743472
 21
-286.4000000000014
 31
0.0
  0
LINE
  5
25A8
330
2834
100
AcDbEntity
  8
0
 62
     0
100
AcDbLine
 10
-107.9000000000051
 20
-266.1877511639123
 30
0.0
 11
-65.45425506044376
 21
-286.4000000000014
 31
0.0
  0
LINE
  5
25A9
330
2834
100
AcDbEntity
  8
0
 62
     0
100
AcDbLine
 10
-107.9000000000087
 20
-256.1877994197766
 30
0.0
 11
-44.4543453234528
 21
-286.4000000000014
 31
0.0
  0
LINE
  5
25AA
330
2834
100
AcDbEntity
  8
0
 62
     0
100
AcDbLine
 10
-107.9000000000051
 20
-246.1878476756447
 30
0.0
 11
-23.45443558646184
 21
-286.4000000000032
 31
0.0
  0
LINE
  5
25AB
330
2834
100
AcDbEntity
  8
0
 62
     0
100
AcDbLine
 10
-107.9000000000069
 20
-236.187895931509
 30
0.0
 11
-2.454525849469062
 21
-286.4000000000024
 31
0.0
  0
LINE
  5
25AC
330
2834
100
AcDbEntity
  8
0
 62
     0
100
AcDbLine
 10
-107.9000000000069
 20
-226.1879441873753
 30
0.0
 11
18.54538388751644
 21
-286.4000000000014
 31
0.0
  0
LINE
  5
25AD
330
2834
100
AcDbEntity
  8
0
 62
     0
100
AcDbLine
 10
-107.9000000000069
 20
-216.1879924432406
 30
0.0
 11
39.54529362450922
 21
-286.4000000000014
 31
0.0
  0
LINE
  5
25AE
330
2834
100
AcDbEntity
  8
0
 62
     0
100
AcDbLine
 10
-107.9000000000051
 20
-206.1880406991059
 30
0.0
 11
60.54520336150017
 21
-286.4000000000006
 31
0.0
  0
LINE
  5
25AF
330
2834
100
AcDbEntity
  8
0
 62
     0
100
AcDbLine
 10
-107.9000000000087
 20
-196.1880889549729
 30
0.0
 11
81.54511309848748
 21
-286.4000000000014
 31
0.0
  0
LINE
  5
25B0
330
2834
100
AcDbEntity
  8
0
 62
     0
100
AcDbLine
 10
-107.9000000000069
 20
-186.1881372108373
 30
0.0
 11
102.5450228354784
 21
-286.4000000000006
 31
0.0
  0
LINE
  5
25B1
330
2834
100
AcDbEntity
  8
0
 62
     0
100
AcDbLine
 10
-107.9000000000051
 20
-176.1881854667034
 30
0.0
 11
107.8999999999923
 21
-278.9500360370866
 31
0.0
  0
LINE
  5
25B2
330
2834
100
AcDbEntity
  8
0
 62
     0
100
AcDbLine
 10
-107.9000000000087
 20
-166.1882337225679
 30
0.0
 11
107.8999999999923
 21
-268.9500842929529
 31
0.0
  0
LINE
  5
25B3
330
2834
100
AcDbEntity
  8
0
 62
     0
100
AcDbLine
 10
-107.9000000000069
 20
-156.1882819784341
 30
0.0
 11
107.8999999999923
 21
-258.9501325488182
 31
0.0
  0
LINE
  5
25B4
330
2834
100
AcDbEntity
  8
0
 62
     0
100
AcDbLine
 10
-107.9000000000087
 20
-146.1883302342985
 30
0.0
 11
107.8999999999905
 21
-248.9501808046825
 31
0.0
  0
LINE
  5
25B5
330
2834
100
AcDbEntity
  8
0
 62
     0
100
AcDbLine
 10
-107.9000000000051
 20
-136.1883784901665
 30
0.0
 11
107.8999999999905
 21
-238.9502290605506
 31
0.0
  0
LINE
  5
25B6
330
2834
100
AcDbEntity
  8
0
 62
     0
100
AcDbLine
 10
-107.9000000000051
 20
-126.1884267460309
 30
0.0
 11
107.8999999999923
 21
-228.9502773164149
 31
0.0
  0
LINE
  5
25B7
330
2834
100
AcDbEntity
  8
0
 62
     0
100
AcDbLine
 10
-107.9000000000051
 20
-116.1884750018971
 30
0.0
 11
107.8999999999923
 21
-218.9503255722812
 31
0.0
  0
LINE
  5
25B8
330
2834
100
AcDbEntity
  8
0
 62
     0
100
AcDbLine
 10
-107.9000000000069
 20
-106.1885232577615
 30
0.0
 11
107.8999999999923
 21
-208.9503738281455
 31
0.0
  0
LINE
  5
25B9
330
2834
100
AcDbEntity
  8
0
 62
     0
100
AcDbLine
 10
-107.9000000000087
 20
-96.1885715136259
 30
0.0
 11
107.8999999999942
 21
-198.9504220840117
 31
0.0
  0
LINE
  5
25BA
330
2834
100
AcDbEntity
  8
0
 62
     0
100
AcDbLine
 10
-94.43609441574514
 20
-92.60000000000221
 30
0.0
 11
107.8999999999905
 21
-188.9504703398779
 31
0.0
  0
LINE
  5
25BB
330
2834
100
AcDbEntity
  8
0
 62
     0
100
AcDbLine
 10
-73.43618467875237
 20
-92.60000000000221
 30
0.0
 11
107.8999999999942
 21
-178.9505185957441
 31
0.0
  0
LINE
  5
25BC
330
2834
100
AcDbEntity
  8
0
 62
     0
100
AcDbLine
 10
-52.43627494176144
 20
-92.60000000000221
 30
0.0
 11
107.8999999999923
 21
-168.9505668516085
 31
0.0
  0
LINE
  5
25BD
330
2834
100
AcDbEntity
  8
0
 62
     0
100
AcDbLine
 10
-31.43636520477048
 20
-92.60000000000221
 30
0.0
 11
107.8999999999905
 21
-158.9506151074729
 31
0.0
  0
LINE
  5
25BE
330
2834
100
AcDbEntity
  8
0
 62
     0
100
AcDbLine
 10
-10.43645546777952
 20
-92.60000000000221
 30
0.0
 11
107.8999999999923
 21
-148.9506633633391
 31
0.0
  0
LINE
  5
25BF
330
2834
100
AcDbEntity
  8
0
 62
     0
100
AcDbLine
 10
10.56345426921325
 20
-92.60000000000221
 30
0.0
 11
107.8999999999905
 21
-138.9507116192035
 31
0.0
  0
LINE
  5
25C0
330
2834
100
AcDbEntity
  8
0
 62
     0
100
AcDbLine
 10
31.56336400619875
 20
-92.60000000000221
 30
0.0
 11
107.8999999999923
 21
-128.9507598750715
 31
0.0
  0
LINE
  5
25C1
330
2834
100
AcDbEntity
  8
0
 62
     0
100
AcDbLine
 10
52.56327374319153
 20
-92.60000000000221
 30
0.0
 11
107.8999999999905
 21
-118.9508081309359
 31
0.0
  0
LINE
  5
25C2
330
2834
100
AcDbEntity
  8
0
 62
     0
100
AcDbLine
 10
73.56318348018246
 20
-92.60000000000221
 30
0.0
 11
107.8999999999942
 21
-108.9508563868021
 31
0.0
  0
LINE
  5
25C3
330
2834
100
AcDbEntity
  8
0
 62
     0
100
AcDbLine
 10
94.56309321717162
 20
-92.60000000000221
 30
0.0
 11
107.8999999999905
 21
-98.95090464266651
 31
0.0
  0
ENDBLK
  5
25C4
330
2834
100
AcDbEntity
  8
0
100
AcDbBlockEnd
  0
BLOCK
  5
2837
330
2836
100
AcDbEntity
  8
0
100
AcDbBlockBegin
  2
*X77
 70
     1
 10
0.0
 20
0.0
 30
0.0
  3
*X77
  1

  0
LINE
  5
25C7
330
2836
100
AcDbEntity
  8
0
 62
     0
100
AcDbLine
 10
107.4107424549329
 20
-286.3999999999996
 30
0.0
 11
107.9000000000014
 21
-286.167020339495
 31
0.0
  0
LINE
  5
25C8
330
2836
100
AcDbEntity
  8
0
 62
     0
100
AcDbLine
 10
86.41083271794558
 20
-286.3999999999996
 30
0.0
 11
107.9000000000014
 21
-276.1670685953613
 31
0.0
  0
LINE
  5
25C9
330
2836
100
AcDbEntity
  8
0
 62
     0
100
AcDbLine
 10
65.410922980951
 20
-286.4000000000014
 30
0.0
 11
107.9000000000014
 21
-266.1671168512274
 31
0.0
  0
LINE
  5
25CA
330
2836
100
AcDbEntity
  8
0
 62
     0
100
AcDbLine
 10
44.41101324396004
 20
-286.4000000000014
 30
0.0
 11
107.9000000000014
 21
-256.1671651070938
 31
0.0
  0
LINE
  5
25CB
330
2836
100
AcDbEntity
  8
0
 62
     0
100
AcDbLine
 10
23.41110350696545
 20
-286.4000000000014
 30
0.0
 11
107.9000000000014
 21
-246.1672133629581
 31
0.0
  0
LINE
  5
25CC
330
2836
100
AcDbEntity
  8
0
 62
     0
100
AcDbLine
 10
2.411193769978126
 20
-286.4000000000014
 30
0.0
 11
107.8999999999978
 21
-236.1672616188243
 31
0.0
  0
LINE
  5
25CD
330
2836
100
AcDbEntity
  8
0
 62
     0
100
AcDbLine
 10
-18.58871596701282
 20
-286.4000000000014
 30
0.0
 11
107.9000000000014
 21
-226.1673098746887
 31
0.0
  0
LINE
  5
25CE
330
2836
100
AcDbEntity
  8
0
 62
     0
100
AcDbLine
 10
-39.58862570400743
 20
-286.4000000000032
 30
0.0
 11
107.9000000000014
 21
-216.1673581305568
 31
0.0
  0
LINE
  5
25CF
330
2836
100
AcDbEntity
  8
0
 62
     0
100
AcDbLine
 10
-60.58853544099473
 20
-286.4000000000014
 30
0.0
 11
107.9000000000014
 21
-206.1674063864211
 31
0.0
  0
LINE
  5
25D0
330
2836
100
AcDbEntity
  8
0
 62
     0
100
AcDbLine
 10
-81.58844517798206
 20
-286.4000000000014
 30
0.0
 11
107.9000000000014
 21
-196.1674546422873
 31
0.0
  0
LINE
  5
25D1
330
2836
100
AcDbEntity
  8
0
 62
     0
100
AcDbLine
 10
-102.5883549149766
 20
-286.4000000000014
 30
0.0
 11
107.8999999999978
 21
-186.1675028981517
 31
0.0
  0
LINE
  5
25D2
330
2836
100
AcDbEntity
  8
0
 62
     0
100
AcDbLine
 10
-107.8999999999978
 20
-278.929401724401
 30
0.0
 11
107.9000000000014
 21
-176.1675511540179
 31
0.0
  0
LINE
  5
25D3
330
2836
100
AcDbEntity
  8
0
 62
     0
100
AcDbLine
 10
-107.8999999999978
 20
-268.9294499802691
 30
0.0
 11
107.9000000000014
 21
-166.1675994098859
 31
0.0
  0
LINE
  5
25D4
330
2836
100
AcDbEntity
  8
0
 62
     0
100
AcDbLine
 10
-107.8999999999978
 20
-258.9294982361334
 30
0.0
 11
107.9000000000014
 21
-156.1676476657503
 31
0.0
  0
LINE
  5
25D5
330
2836
100
AcDbEntity
  8
0
 62
     0
100
AcDbLine
 10
-107.8999999999978
 20
-248.9295464919996
 30
0.0
 11
107.9000000000014
 21
-146.1676959216165
 31
0.0
  0
LINE
  5
25D6
330
2836
100
AcDbEntity
  8
0
 62
     0
100
AcDbLine
 10
-107.8999999999942
 20
-238.929594747864
 30
0.0
 11
107.9000000000014
 21
-136.1677441774809
 31
0.0
  0
LINE
  5
25D7
330
2836
100
AcDbEntity
  8
0
 62
     0
100
AcDbLine
 10
-107.8999999999978
 20
-228.9296430037302
 30
0.0
 11
107.9000000000014
 21
-126.1677924333453
 31
0.0
  0
LINE
  5
25D8
330
2836
100
AcDbEntity
  8
0
 62
     0
100
AcDbLine
 10
-107.8999999999978
 20
-218.9296912595946
 30
0.0
 11
107.9000000000014
 21
-116.1678406892115
 31
0.0
  0
LINE
  5
25D9
330
2836
100
AcDbEntity
  8
0
 62
     0
100
AcDbLine
 10
-107.8999999999942
 20
-208.9297395154608
 30
0.0
 11
107.9000000000051
 21
-106.1678889450777
 31
0.0
  0
LINE
  5
25DA
330
2836
100
AcDbEntity
  8
0
 62
     0
100
AcDbLine
 10
-107.8999999999978
 20
-198.929787771327
 30
0.0
 11
107.9000000000014
 21
-96.16793720094392
 31
0.0
  0
LINE
  5
25DB
330
2836
100
AcDbEntity
  8
0
 62
     0
100
AcDbLine
 10
-107.8999999999942
 20
-188.9298360271913
 30
0.0
 11
94.3927623362506
 21
-92.60000000000037
 31
0.0
  0
LINE
  5
25DC
330
2836
100
AcDbEntity
  8
0
 62
     0
100
AcDbLine
 10
-107.8999999999978
 20
-178.9298842830576
 30
0.0
 11
73.39285259925965
 21
-92.60000000000037
 31
0.0
  0
LINE
  5
25DD
330
2836
100
AcDbEntity
  8
0
 62
     0
100
AcDbLine
 10
-107.8999999999978
 20
-168.929932538922
 30
0.0
 11
52.39294286226868
 21
-92.60000000000037
 31
0.0
  0
LINE
  5
25DE
330
2836
100
AcDbEntity
  8
0
 62
     0
100
AcDbLine
 10
-107.8999999999978
 20
-158.9299807947899
 30
0.0
 11
31.39303312527772
 21
-92.60000000000221
 31
0.0
  0
LINE
  5
25DF
330
2836
100
AcDbEntity
  8
0
 62
     0
100
AcDbLine
 10
-107.8999999999978
 20
-148.9300290506544
 30
0.0
 11
10.39312338828312
 21
-92.60000000000221
 31
0.0
  0
LINE
  5
25E0
330
2836
100
AcDbEntity
  8
0
 62
     0
100
AcDbLine
 10
-107.8999999999942
 20
-138.9300773065188
 30
0.0
 11
-10.60678634870419
 21
-92.60000000000221
 31
0.0
  0
LINE
  5
25E1
330
2836
100
AcDbEntity
  8
0
 62
     0
100
AcDbLine
 10
-107.8999999999978
 20
-128.930125562385
 30
0.0
 11
-31.60669608569515
 21
-92.60000000000221
 31
0.0
  0
LINE
  5
25E2
330
2836
100
AcDbEntity
  8
0
 62
     0
100
AcDbLine
 10
-107.8999999999978
 20
-118.9301738182494
 30
0.0
 11
-52.60660582268974
 21
-92.60000000000221
 31
0.0
  0
LINE
  5
25E3
330
2836
100
AcDbEntity
  8
0
 62
     0
100
AcDbLine
 10
-107.8999999999978
 20
-108.9302220741174
 30
0.0
 11
-73.60651555967706
 21
-92.60000000000401
 31
0.0
  0
LINE
  5
25E4
330
2836
100
AcDbEntity
  8
0
 62
     0
100
AcDbLine
 10
-107.8999999999942
 20
-98.93027032998181
 30
0.0
 11
-94.60642529666802
 21
-92.60000000000401
 31
0.0
  0
ENDBLK
  5
25E5
330
2836
100
AcDbEntity
  8
0
100
AcDbBlockEnd
  0
BLOCK
  5
2A04
330
2A03
100
AcDbEntity
  8
0
100
AcDbBlockBegin
  2
*U78
 70
     1
 10
0.0
 20
0.0
 30
0.0
  3
*U78
  1

  0
ENDBLK
  5
2A05
330
2A03
100
AcDbEntity
  8
0
100
AcDbBlockEnd
  0
BLOCK
  5
2C2C
330
2C2B
100
AcDbEntity
  8
0
100
AcDbBlockBegin
  2
*U79
 70
     1
 10
0.0
 20
0.0
 30
0.0
  3
*U79
  1

  0
ENDBLK
  5
2C2D
330
2C2B
100
AcDbEntity
  8
0
100
AcDbBlockEnd
  0
ENDSEC
  0
SECTION
  2
ENTITIES
  0
TEXT
  5
953
330
2755
100
AcDbEntity
  8
OUTLINE
  6
Continuous
 62
     3
100
AcDbText
 10
-418.231467
 20
13.715189
 30
0.0
 40
64.0
  1
 
 41
0.9
100
AcDbText
  0
TEXT
  5
954
330
2755
100
AcDbEntity
  8
OUTLINE
  6
Continuous
 62
     3
100
AcDbText
 10
-418.231467
 20
13.715189
 30
0.0
 40
64.0
  1
 
 41
0.9
100
AcDbText
  0
TEXT
  5
955
330
2755
100
AcDbEntity
  8
OUTLINE
  6
Continuous
 62
     3
100
AcDbText
 10
1341.41903
 20
-706.0588199999997
 30
0.0
 40
64.0
  1
 
 41
0.9
100
AcDbText
  0
TEXT
  5
956
330
2755
100
AcDbEntity
  8
OUTLINE
  6
Continuous
 62
     3
100
AcDbText
 10
1341.41903
 20
-706.0588199999997
 30
0.0
 40
64.0
  1
 
 41
0.9
100
AcDbText
  0
TEXT
  5
957
330
2755
100
AcDbEntity
  8
OUTLINE
  6
Continuous
 62
     3
100
AcDbText
 10
1341.41903
 20
-706.0588199999997
 30
0.0
 40
64.0
  1
 
 41
0.9
100
AcDbText
  0
TEXT
  5
958
330
2755
100
AcDbEntity
  8
OUTLINE
  6
Continuous
 62
     3
100
AcDbText
 10
1341.41903
 20
-706.0588199999997
 30
0.0
 40
64.0
  1
 
 41
0.9
100
AcDbText
  0
TEXT
  5
2DA0
330
2755
100
AcDbEntity
  8
ETC
100
AcDbText
 10
1995.745507616912
 20
1340.669835187694
 30
0.0
 40
64.0
  1
システム部材
 41
0.9
100
AcDbText
  0
TEXT
  5
2DA1
330
2755
100
AcDbEntity
  8
ETC
100
AcDbText
 10
2001.95350561691
 20
1441.553161187694
 30
0.0
 40
64.0
  1
QW-20SDCM_6
 41
0.9
100
AcDbText
  0
TEXT
  5
2DA2
330
2755
100
AcDbEntity
  8
ETC
100
AcDbText
 10
1995.745507616912
 20
1240.669835187694
 30
0.0
 40
64.0
  1
QW-20SDCM
 41
0.9
100
AcDbText
  0
LINE
  5
2DA3
330
2755
100
AcDbEntity
  8
SIZE
100
AcDbLine
 10
1873.998676725261
 20
636.9520332370825
 30
0.0
 11
1873.998676725261
 21
441.6013551100562
 31
0.0
  0
LINE
  5
2DA4
330
2755
100
AcDbEntity
  8
SIZE
100
AcDbLine
 10
1604.998676725261
 20
636.9520332370825
 30
0.0
 11
1604.998676725261
 21
441.6013551100562
 31
0.0
  0
LINE
  5
2DA5
330
2755
100
AcDbEntity
  8
SIZE
100
AcDbLine
 10
1861.998676725261
 20
461.6013551100563
 30
0.0
 11
1616.998676725261
 21
461.6013551100563
 31
0.0
  0
INSERT
  5
2DA6
330
2755
100
AcDbEntity
  8
SIZE
100
AcDbBlockReference
  2
_DOTBLANK
 10
1873.998676725261
 20
461.6013551100563
 30
0.0
 41
12.0
 42
12.0
 43
12.0
  0
INSERT
  5
2DA7
330
2755
100
AcDbEntity
  8
SIZE
100
AcDbBlockReference
  2
_DOTBLANK
 10
1604.998676725261
 20
461.6013551100563
 30
0.0
 41
12.0
 42
12.0
 43
12.0
 50
180.0
  0
MTEXT
  5
2DA8
330
2755
100
AcDbEntity
  8
SIZE
100
AcDbMText
 10
1739.498676725261
 20
503.6013551100563
 30
0.0
 40
64.0
 41
0.0
 71
     5
 72
     1
  1
\A1;269
 73
     1
 44
1.0
  0
CIRCLE
  5
2DA9
330
2755
100
AcDbEntity
  8
ARRANGE
100
AcDbCircle
 10
1739.498676725265
 20
958.9520331384093
 30
0.0
 40
40.0
  0
LINE
  5
2DAA
330
2755
100
AcDbEntity
  8
SIZE
100
AcDbLine
 10
1879.498676725261
 20
991.4520332370823
 30
0.0
 11
1879.498676725261
 21
1137.2841242467
 31
0.0
  0
LINE
  5
2DAB
330
2755
100
AcDbEntity
  8
SIZE
100
AcDbLine
 10
1599.498676725261
 20
991.4520332370823
 30
0.0
 11
1599.498676725261
 21
1137.2841242467
 31
0.0
  0
LINE
  5
2DAC
330
2755
100
AcDbEntity
  8
SIZE
100
AcDbLine
 10
1867.498676725261
 20
1117.284124246699
 30
0.0
 11
1611.498676725261
 21
1117.284124246699
 31
0.0
  0
INSERT
  5
2DAD
330
2755
100
AcDbEntity
  8
SIZE
100
AcDbBlockReference
  2
_DOTBLANK
 10
1879.498676725261
 20
1117.284124246699
 30
0.0
 41
12.0
 42
12.0
 43
12.0
  0
INSERT
  5
2DAE
330
2755
100
AcDbEntity
  8
SIZE
100
AcDbBlockReference
  2
_DOTBLANK
 10
1599.498676725261
 20
1117.284124246699
 30
0.0
 41
12.0
 42
12.0
 43
12.0
 50
180.0
  0
MTEXT
  5
2DAF
330
2755
100
AcDbEntity
  8
SIZE
100
AcDbMText
 10
1738.942799091268
 20
1159.2841242467
 30
0.0
 40
64.0
 41
0.0
 71
     5
 72
     1
  1
\A1;280
 73
     1
 44
1.0
  0
LINE
  5
2DB0
330
2755
100
AcDbEntity
  8
SIZE
100
AcDbLine
 10
1891.998676725261
 20
978.9520332370823
 30
0.0
 11
1891.998676725261
 21
1255.838626173599
 31
0.0
  0
LINE
  5
2DB1
330
2755
100
AcDbEntity
  8
SIZE
100
AcDbLine
 10
1586.998676725261
 20
978.9520332370823
 30
0.0
 11
1586.998676725261
 21
1255.838626173599
 31
0.0
  0
LINE
  5
2DB2
330
2755
100
AcDbEntity
  8
SIZE
100
AcDbLine
 10
1879.998676725261
 20
1235.838626173599
 30
0.0
 11
1598.998676725261
 21
1235.838626173599
 31
0.0
  0
INSERT
  5
2DB3
330
2755
100
AcDbEntity
  8
SIZE
100
AcDbBlockReference
  2
_DOTBLANK
 10
1891.998676725261
 20
1235.838626173599
 30
0.0
 41
12.0
 42
12.0
 43
12.0
  0
INSERT
  5
2DB4
330
2755
100
AcDbEntity
  8
SIZE
100
AcDbBlockReference
  2
_DOTBLANK
 10
1586.998676725261
 20
1235.838626173599
 30
0.0
 41
12.0
 42
12.0
 43
12.0
 50
180.0
  0
MTEXT
  5
2DB5
330
2755
100
AcDbEntity
  8
SIZE
100
AcDbMText
 10
1739.498676725265
 20
1277.838626173599
 30
0.0
 40
64.0
 41
0.0
 71
     5
 72
     1
  1
\A1;305
 73
     1
 44
1.0
  0
LINE
  5
2DB6
330
2755
100
AcDbEntity
  8
NOTE
100
AcDbLine
 10
1879.498676725261
 20
971.4520332370826
 30
0.0
 11
1879.498676725261
 21
946.4520332370826
 31
0.0
  0
LINE
  5
2DB7
330
2755
100
AcDbEntity
  8
DETAIL
100
AcDbLine
 10
1862.998676725261
 20
946.9520332370823
 30
0.0
 11
1862.998676725261
 21
893.9520332370825
 31
0.0
  0
LINE
  5
2DB8
330
2755
100
AcDbEntity
  8
NOTE
100
AcDbLine
 10
1599.498676725261
 20
971.4520332370826
 30
0.0
 11
1599.498676725261
 21
946.4520332370826
 31
0.0
  0
LINE
  5
2DB9
330
2755
100
AcDbEntity
  8
DETAIL
100
AcDbLine
 10
1615.998676725261
 20
946.9520332370823
 30
0.0
 11
1615.998676725261
 21
893.9520332370825
 31
0.0
  0
LINE
  5
2DBA
330
2755
100
AcDbEntity
  8
DETAIL
100
AcDbLine
 10
1891.998676725261
 20
958.9520332370826
 30
0.0
 11
1586.998676725261
 21
958.9520332370826
 31
0.0
  0
LINE
  5
2DBB
330
2755
100
AcDbEntity
  8
DETAIL
100
AcDbLine
 10
1891.998676725261
 20
946.9520332370823
 30
0.0
 11
1586.998676725261
 21
946.9520332370823
 31
0.0
  0
LINE
  5
2DBC
330
2755
100
AcDbEntity
  8
DETAIL
100
AcDbLine
 10
1586.998676725261
 20
958.9520332370826
 30
0.0
 11
1586.998676725261
 21
946.9520332370823
 31
0.0
  0
LINE
  5
2DBD
330
2755
100
AcDbEntity
  8
DETAIL
100
AcDbLine
 10
1891.998676725261
 20
958.9520332370826
 30
0.0
 11
1891.998676725261
 21
946.9520332370823
 31
0.0
  0
LINE
  5
2DBE
330
2755
100
AcDbEntity
  8
DETAIL
100
AcDbLine
 10
1604.998676725261
 20
656.9520332370825
 30
0.0
 11
1873.998676725261
 21
656.9520332370825
 31
0.0
  0
POINT
  5
2DBF
330
2755
100
AcDbEntity
  8
ARRANGE
100
AcDbPoint
 10
1739.498676725261
 20
958.9520332370826
 30
0.0
 39
50.0
  0
LINE
  5
2DC0
330
2755
100
AcDbEntity
  8
DETAIL
100
AcDbLine
 10
1873.998676725261
 20
893.9520332370825
 30
0.0
 11
1873.998676725261
 21
656.9520332370825
 31
0.0
  0
LINE
  5
2DC1
330
2755
100
AcDbEntity
  8
DETAIL
100
AcDbLine
 10
1873.998676725261
 20
893.9520332370825
 30
0.0
 11
1862.398676725263
 21
893.9520332370825
 31
0.0
  0
LINE
  5
2DC2
330
2755
100
AcDbEntity
  8
DETAIL
100
AcDbLine
 10
1604.998676725261
 20
656.9520332370825
 30
0.0
 11
1604.998676725261
 21
893.9520332370825
 31
0.0
  0
LINE
  5
2DC3
330
2755
100
AcDbEntity
  8
DETAIL
100
AcDbLine
 10
1616.598676725263
 20
893.9520332370825
 30
0.0
 11
1604.998676725261
 21
893.9520332370825
 31
0.0
  0
LINE
  5
2DC4
330
2755
100
AcDbEntity
  8
DETAIL
100
AcDbLine
 10
1862.398676725263
 20
893.9520332370825
 30
0.0
 11
1615.398676725262
 21
893.9520332370825
 31
0.0
  0
LINE
  5
2DC5
330
2755
100
AcDbEntity
  8
DETAIL
100
AcDbLine
 10
1615.998676725261
 20
881.9520332370826
 30
0.0
 11
1615.998676725261
 21
644.9520332370825
 31
0.0
  0
LINE
  5
2DC6
330
2755
100
AcDbEntity
  8
DETAIL
100
AcDbLine
 10
1862.998676725261
 20
881.9520332370826
 30
0.0
 11
1862.998676725261
 21
644.9520332370825
 31
0.0
  0
LINE
  5
2DC7
330
2755
100
AcDbEntity
  8
DETAIL
100
AcDbLine
 10
1862.998676725261
 20
881.9520332370826
 30
0.0
 11
1615.998676725261
 21
881.9520332370826
 31
0.0
  0
LINE
  5
2DC8
330
2755
100
AcDbEntity
  8
DETAIL
100
AcDbLine
 10
1631.598676725263
 20
866.3520332370826
 30
0.0
 11
1631.598676725263
 21
672.5520332370829
 31
0.0
  0
LINE
  5
2DC9
330
2755
100
AcDbEntity
  8
DETAIL
100
AcDbLine
 10
1847.398676725262
 20
866.3520332370822
 30
0.0
 11
1847.398676725262
 21
672.5520332370823
 31
0.0
  0
LINE
  5
2DCA
330
2755
100
AcDbEntity
  8
DETAIL
100
AcDbLine
 10
1847.398676725262
 20
866.3520332370822
 30
0.0
 11
1631.598676725263
 21
866.3520332370826
 31
0.0
  0
LINE
  5
2DCB
330
2755
100
AcDbEntity
  8
DETAIL
100
AcDbLine
 10
1631.598676725263
 20
672.5520332370829
 30
0.0
 11
1847.398676725262
 21
672.5520332370823
 31
0.0
  0
LINE
  5
2DCC
330
2755
100
AcDbEntity
  8
BASIS
100
AcDbLine
 10
1739.498676725261
 20
619.9520332370825
 30
0.0
 11
1739.498676725261
 21
983.9520332370826
 31
0.0
  0
LINE
  5
2DCD
330
2755
100
AcDbEntity
  8
DETAIL
100
AcDbLine
 10
1615.998676725261
 20
644.9520332370825
 30
0.0
 11
1862.998676725261
 21
644.9520332370825
 31
0.0
  0
LINE
  5
2DCE
330
2755
100
AcDbEntity
  8
SIZE
100
AcDbLine
 10
1566.998676725261
 20
958.9520332370826
 30
0.0
 11
1395.869213116663
 21
958.9520332370828
 31
0.0
  0
LINE
  5
2DCF
330
2755
100
AcDbEntity
  8
SIZE
100
AcDbLine
 10
1584.998676725261
 20
656.9520332370825
 30
0.0
 11
1395.869213116663
 21
656.9520332370828
 31
0.0
  0
LINE
  5
2DD0
330
2755
100
AcDbEntity
  8
SIZE
100
AcDbLine
 10
1415.869213116662
 20
946.9520332370828
 30
0.0
 11
1415.869213116662
 21
668.9520332370827
 31
0.0
  0
INSERT
  5
2DD1
330
2755
100
AcDbEntity
  8
SIZE
100
AcDbBlockReference
  2
_DOTBLANK
 10
1415.869213116662
 20
958.9520332370828
 30
0.0
 41
12.0
 42
12.0
 43
12.0
 50
90.0
  0
INSERT
  5
2DD2
330
2755
100
AcDbEntity
  8
SIZE
100
AcDbBlockReference
  2
_DOTBLANK
 10
1415.869213116662
 20
656.9520332370828
 30
0.0
 41
12.0
 42
12.0
 43
12.0
 50
270.0
  0
MTEXT
  5
2DD3
330
2755
100
AcDbEntity
  8
SIZE
100
AcDbMText
 10
1373.869213116662
 20
807.9520332370796
 30
0.0
 40
64.0
 41
0.0
 71
     5
 72
     1
  1
\A1;302
 11
0.0000000000000001
 21
1.0
 31
0.0
 73
     1
 44
1.0
  0
INSERT
  5
2DD4
330
2755
100
AcDbEntity
  8
NOTE
100
AcDbBlockReference
  2
_OPEN30
 10
1599.498676725261
 20
958.9520332370826
 30
0.0
 41
11.99999999999906
 42
12.0
 43
12.0
 50
312.6090116116846
1001
ACAD
1000
DSTYLE
1002
{
1070
    41
1040
12.0
1070
    42
1040
20.0
1070
    43
1040
200.0
1070
    44
1040
20.0
1070
    73
1070
     0
1070
    74
1070
     0
1070
    77
1070
     1
1070
    78
1070
     8
1070
   140
1040
64.0
1070
   147
1040
50.0
1070
   172
1070
     1
1070
   174
1070
     1
1070
   275
1070
     0
1070
   284
1070
     0
1070
   285
1070
     0
1070
   286
1070
     0
1070
   341
1005
27A4
1070
   342
1005
27A2
1002
}
  0
LWPOLYLINE
  5
2DD5
330
2755
100
AcDbEntity
  8
NOTE
100
AcDbPolyline
 90
        3
 70
     0
 43
0.0
 10
1591.374775889073
 20
967.7839206459978
 10
1511.629276733007
 20
1054.479128295096
 10
963.0464195901495
 20
1054.479128295096
1001
ACAD
1000
DSTYLE
1002
{
1070
    41
1040
12.0
1070
    42
1040
20.0
1070
    43
1040
200.0
1070
    44
1040
20.0
1070
    73
1070
     0
1070
    74
1070
     0
1070
    77
1070
     1
1070
    78
1070
     8
1070
   140
1040
64.0
1070
   147
1040
50.0
1070
   172
1070
     1
1070
   174
1070
     1
1070
   275
1070
     0
1070
   284
1070
     0
1070
   285
1070
     0
1070
   286
1070
     0
1070
   341
1005
27A4
1070
   342
1005
27A2
1002
}
  0
TEXT
  5
2DD6
330
2755
100
AcDbEntity
  8
NOTE
100
AcDbText
 10
954.8178481615778
 20
1072.479128295096
 30
0.0
 40
64.0
  1
4×φ10取付穴
 41
0.9
100
AcDbText
  0
LINE
  5
2DD7
330
2755
100
AcDbEntity
  8
NOTE
100
AcDbLine
 39
50.0
 10
1586.998676725261
 20
958.9520332370826
 30
0.0
 11
1611.998676725261
 21
958.9520332370826
 31
0.0
  0
LINE
  5
2DD8
330
2755
100
AcDbEntity
  8
NOTE
100
AcDbLine
 39
50.0
 10
1866.998676725261
 20
958.9520332370826
 30
0.0
 11
1891.998676725261
 21
958.9520332370826
 31
0.0
  0
LINE
  5
2DD9
330
2755
100
AcDbEntity
  8
SIZE
100
AcDbLine
 10
1584.998676725261
 20
656.9520332370825
 30
0.0
 11
1395.869213116663
 21
656.9520332370828
 31
0.0
  0
LINE
  5
2DDA
330
2755
100
AcDbEntity
  8
SIZE
100
AcDbLine
 10
1595.998676725261
 20
644.9520332370825
 30
0.0
 11
1395.869213116663
 21
644.9520332370828
 31
0.0
  0
LINE
  5
2DDB
330
2755
100
AcDbEntity
  8
SIZE
100
AcDbLine
 10
1415.869213116662
 20
668.9520332370827
 30
0.0
 11
1415.869213116662
 21
680.9520332370827
 31
0.0
  0
LINE
  5
2DDC
330
2755
100
AcDbEntity
  8
SIZE
100
AcDbLine
 10
1415.869213116662
 20
632.9520332370828
 30
0.0
 11
1415.869213116662
 21
515.9234618085113
 31
0.0
  0
LINE
  5
2DDD
330
2755
100
AcDbEntity
  8
SIZE
100
AcDbLine
 10
1415.869213116662
 20
656.9520332370828
 30
0.0
 11
1415.869213116662
 21
644.9520332370828
 31
0.0
  0
INSERT
  5
2DDE
330
2755
100
AcDbEntity
  8
SIZE
100
AcDbBlockReference
  2
_DOTBLANK
 10
1415.869213116662
 20
656.9520332370828
 30
0.0
 41
12.0
 42
12.0
 43
12.0
 50
270.0
  0
INSERT
  5
2DDF
330
2755
100
AcDbEntity
  8
SIZE
100
AcDbBlockReference
  2
_DOTBLANK
 10
1415.869213116662
 20
644.9520332370828
 30
0.0
 41
12.0
 42
12.0
 43
12.0
 50
90.0
  0
MTEXT
  5
2DE0
330
2755
100
AcDbEntity
  8
SIZE
100
AcDbMText
 10
1373.869213116662
 20
568.4377475227939
 30
0.0
 40
64.0
 41
0.0
 71
     5
 72
     1
  1
\A1;12
 11
0.0000000000000001
 21
1.0
 31
0.0
 73
     1
 44
1.0
  0
LINE
  5
2DE1
330
2755
100
AcDbEntity
  8
SIZE
100
AcDbLine
 10
1911.998676725261
 20
958.9520332370826
 30
0.0
 11
2000.468366102099
 21
958.9520332370826
 31
0.0
  0
LINE
  5
2DE2
330
2755
100
AcDbEntity
  8
SIZE
100
AcDbLine
 10
1911.998676725261
 20
946.9520332370823
 30
0.0
 11
2000.468366102099
 21
946.9520332370823
 31
0.0
  0
LINE
  5
2DE3
330
2755
100
AcDbEntity
  8
SIZE
100
AcDbLine
 10
1980.468366102099
 20
970.9520332370823
 30
0.0
 11
1980.468366102099
 21
982.9520332370826
 31
0.0
  0
LINE
  5
2DE4
330
2755
100
AcDbEntity
  8
SIZE
100
AcDbLine
 10
1980.468366102099
 20
934.9520332370827
 30
0.0
 11
1980.468366102099
 21
817.9234618085112
 31
0.0
  0
LINE
  5
2DE5
330
2755
100
AcDbEntity
  8
SIZE
100
AcDbLine
 10
1980.468366102099
 20
958.9520332370826
 30
0.0
 11
1980.468366102099
 21
946.9520332370823
 31
0.0
  0
INSERT
  5
2DE6
330
2755
100
AcDbEntity
  8
SIZE
100
AcDbBlockReference
  2
_DOTBLANK
 10
1980.468366102099
 20
958.9520332370826
 30
0.0
 41
12.0
 42
12.0
 43
12.0
 50
270.0
  0
INSERT
  5
2DE7
330
2755
100
AcDbEntity
  8
SIZE
100
AcDbBlockReference
  2
_DOTBLANK
 10
1980.468366102099
 20
946.9520332370823
 30
0.0
 41
12.0
 42
12.0
 43
12.0
 50
90.0
  0
MTEXT
  5
2DE8
330
2755
100
AcDbEntity
  8
SIZE
100
AcDbMText
 10
1938.468366102099
 20
870.4377475227939
 30
0.0
 40
64.0
 41
0.0
 71
     5
 72
     1
  1
\A1;12
 11
0.0000000000000001
 21
1.0
 31
0.0
 73
     1
 44
1.0
  0
LINE
  5
2DE9
330
2755
100
AcDbEntity
  8
OUTLINE
100
AcDbLine
 10
1862.998676725261
 20
946.9520332370823
 30
0.0
 11
1862.998676725261
 21
893.9520332370825
 31
0.0
  0
LINE
  5
2DEA
330
2755
100
AcDbEntity
  8
OUTLINE
100
AcDbLine
 10
1615.998676725261
 20
946.9520332370823
 30
0.0
 11
1615.998676725261
 21
893.9520332370825
 31
0.0
  0
LINE
  5
2DEB
330
2755
100
AcDbEntity
  8
OUTLINE
100
AcDbLine
 10
1891.998676725261
 20
946.9520332370823
 30
0.0
 11
1586.998676725261
 21
946.9520332370823
 31
0.0
  0
LINE
  5
2DEC
330
2755
100
AcDbEntity
  8
OUTLINE
100
AcDbLine
 10
1586.998676725261
 20
958.9520332370826
 30
0.0
 11
1586.998676725261
 21
946.9520332370823
 31
0.0
  0
LINE
  5
2DED
330
2755
100
AcDbEntity
  8
OUTLINE
100
AcDbLine
 10
1604.998676725261
 20
656.9520332370825
 30
0.0
 11
1873.998676725261
 21
656.9520332370825
 31
0.0
  0
LINE
  5
2DEE
330
2755
100
AcDbEntity
  8
OUTLINE
100
AcDbLine
 10
1873.998676725261
 20
893.9520332370825
 30
0.0
 11
1873.998676725261
 21
656.9520332370825
 31
0.0
  0
LINE
  5
2DEF
330
2755
100
AcDbEntity
  8
OUTLINE
100
AcDbLine
 10
1873.998676725261
 20
893.9520332370825
 30
0.0
 11
1862.398676725263
 21
893.9520332370825
 31
0.0
  0
LINE
  5
2DF0
330
2755
100
AcDbEntity
  8
OUTLINE
100
AcDbLine
 10
1604.998676725261
 20
656.9520332370825
 30
0.0
 11
1604.998676725261
 21
893.9520332370825
 31
0.0
  0
LINE
  5
2DF1
330
2755
100
AcDbEntity
  8
OUTLINE
100
AcDbLine
 10
1616.598676725263
 20
893.9520332370825
 30
0.0
 11
1604.998676725261
 21
893.9520332370825
 31
0.0
  0
LINE
  5
2DF2
330
2755
100
AcDbEntity
  8
OUTLINE
100
AcDbLine
 10
1862.398676725263
 20
893.9520332370825
 30
0.0
 11
1615.398676725262
 21
893.9520332370825
 31
0.0
  0
LINE
  5
2DF3
330
2755
100
AcDbEntity
  8
OUTLINE
100
AcDbLine
 10
1615.998676725261
 20
881.9520332370826
 30
0.0
 11
1615.998676725261
 21
644.9520332370825
 31
0.0
  0
LINE
  5
2DF4
330
2755
100
AcDbEntity
  8
OUTLINE
100
AcDbLine
 10
1862.998676725261
 20
881.9520332370826
 30
0.0
 11
1862.998676725261
 21
644.9520332370825
 31
0.0
  0
LINE
  5
2DF5
330
2755
100
AcDbEntity
  8
OUTLINE
100
AcDbLine
 10
1862.998676725261
 20
881.9520332370826
 30
0.0
 11
1615.998676725261
 21
881.9520332370826
 31
0.0
  0
LINE
  5
2DF6
330
2755
100
AcDbEntity
  8
OUTLINE
100
AcDbLine
 10
1615.998676725261
 20
644.9520332370825
 30
0.0
 11
1862.998676725261
 21
644.9520332370825
 31
0.0
  0
LINE
  5
2DF7
330
2755
100
AcDbEntity
  8
OUTLINE
100
AcDbLine
 10
1891.998676725261
 20
958.9520332370826
 30
0.0
 11
1891.998676725261
 21
946.9520332370823
 31
0.0
  0
LINE
  5
2DF8
330
2755
100
AcDbEntity
  8
OUTLINE
100
AcDbLine
 39
50.0
 10
1586.998676725261
 20
958.9520332370826
 30
0.0
 11
1891.998676725261
 21
958.9520332370826
 31
0.0
  0
LINE
  5
2DF9
330
2755
100
AcDbEntity
  8
DETAIL
100
AcDbLine
 10
1631.598676725256
 20
863.5595794957669
 30
0.0
 11
1635.787368033152
 21
866.3520332370799
 31
0.0
1001
ACAD
1010
0.0
1020
0.0
1030
0.0
1001
ACADANNOTATIVE
1000
AnnotativeData
1002
{
1070
     1
1070
     1
1002
}
  0
LINE
  5
2DFA
330
2755
100
AcDbEntity
  8
DETAIL
100
AcDbLine
 10
1631.59867672526
 20
860.5596129603519
 30
0.0
 11
1640.287329327033
 21
866.3520332370781
 31
0.0
1001
ACAD
1010
0.0
1020
0.0
1030
0.0
1001
ACADANNOTATIVE
1000
AnnotativeData
1002
{
1070
     1
1070
     1
1002
}
  0
LINE
  5
2DFB
330
2755
100
AcDbEntity
  8
DETAIL
100
AcDbLine
 10
1631.598676725256
 20
857.5596464249347
 30
0.0
 11
1644.787290620925
 21
866.3520332370799
 31
0.0
1001
ACAD
1010
0.0
1020
0.0
1030
0.0
1001
ACADANNOTATIVE
1000
AnnotativeData
1002
{
1070
     1
1070
     1
1002
}
  0
LINE
  5
2DFC
330
2755
100
AcDbEntity
  8
DETAIL
100
AcDbLine
 10
1631.59867672526
 20
854.5596798895175
 30
0.0
 11
1649.287251914806
 21
866.3520332370781
 31
0.0
1001
ACAD
1010
0.0
1020
0.0
1030
0.0
1001
ACADANNOTATIVE
1000
AnnotativeData
1002
{
1070
     1
1070
     1
1002
}
  0
LINE
  5
2DFD
330
2755
100
AcDbEntity
  8
DETAIL
100
AcDbLine
 10
1631.598676725256
 20
851.5597133541023
 30
0.0
 11
1653.787213208694
 21
866.3520332370799
 31
0.0
1001
ACAD
1010
0.0
1020
0.0
1030
0.0
1001
ACADANNOTATIVE
1000
AnnotativeData
1002
{
1070
     1
1070
     1
1002
}
  0
LINE
  5
2DFE
330
2755
100
AcDbEntity
  8
DETAIL
100
AcDbLine
 10
1631.598676725256
 20
848.5597468186851
 30
0.0
 11
1658.287174502579
 21
866.3520332370817
 31
0.0
1001
ACAD
1010
0.0
1020
0.0
1030
0.0
1001
ACADANNOTATIVE
1000
AnnotativeData
1002
{
1070
     1
1070
     1
1002
}
  0
LINE
  5
2DFF
330
2755
100
AcDbEntity
  8
DETAIL
100
AcDbLine
 10
1631.598676725256
 20
845.5597802832697
 30
0.0
 11
1662.787135796467
 21
866.3520332370799
 31
0.0
1001
ACAD
1010
0.0
1020
0.0
1030
0.0
1001
ACADANNOTATIVE
1000
AnnotativeData
1002
{
1070
     1
1070
     1
1002
}
  0
LINE
  5
2E00
330
2755
100
AcDbEntity
  8
DETAIL
100
AcDbLine
 10
1631.598676725256
 20
842.5598137478527
 30
0.0
 11
1667.287097090348
 21
866.3520332370781
 31
0.0
1001
ACAD
1010
0.0
1020
0.0
1030
0.0
1001
ACADANNOTATIVE
1000
AnnotativeData
1002
{
1070
     1
1070
     1
1002
}
  0
LINE
  5
2E01
330
2755
100
AcDbEntity
  8
DETAIL
100
AcDbLine
 10
1631.598676725256
 20
839.5598472124374
 30
0.0
 11
1671.787058384236
 21
866.3520332370799
 31
0.0
1001
ACAD
1010
0.0
1020
0.0
1030
0.0
1001
ACADANNOTATIVE
1000
AnnotativeData
1002
{
1070
     1
1070
     1
1002
}
  0
LINE
  5
2E02
330
2755
100
AcDbEntity
  8
DETAIL
100
AcDbLine
 10
1631.598676725256
 20
836.5598806770222
 30
0.0
 11
1676.28701967812
 21
866.3520332370817
 31
0.0
1001
ACAD
1010
0.0
1020
0.0
1030
0.0
1001
ACADANNOTATIVE
1000
AnnotativeData
1002
{
1070
     1
1070
     1
1002
}
  0
LINE
  5
2E03
330
2755
100
AcDbEntity
  8
DETAIL
100
AcDbLine
 10
1631.598676725256
 20
833.5599141416068
 30
0.0
 11
1680.786980972005
 21
866.3520332370799
 31
0.0
1001
ACAD
1010
0.0
1020
0.0
1030
0.0
1001
ACADANNOTATIVE
1000
AnnotativeData
1002
{
1070
     1
1070
     1
1002
}
  0
LINE
  5
2E04
330
2755
100
AcDbEntity
  8
DETAIL
100
AcDbLine
 10
1631.598676725256
 20
830.559947606188
 30
0.0
 11
1685.286942265889
 21
866.3520332370781
 31
0.0
1001
ACAD
1010
0.0
1020
0.0
1030
0.0
1001
ACADANNOTATIVE
1000
AnnotativeData
1002
{
1070
     1
1070
     1
1002
}
  0
LINE
  5
2E05
330
2755
100
AcDbEntity
  8
DETAIL
100
AcDbLine
 10
1631.598676725256
 20
827.5599810707726
 30
0.0
 11
1689.786903559774
 21
866.3520332370781
 31
0.0
1001
ACAD
1010
0.0
1020
0.0
1030
0.0
1001
ACADANNOTATIVE
1000
AnnotativeData
1002
{
1070
     1
1070
     1
1002
}
  0
LINE
  5
2E06
330
2755
100
AcDbEntity
  8
DETAIL
100
AcDbLine
 10
1631.598676725256
 20
824.5600145353574
 30
0.0
 11
1694.286864853666
 21
866.3520332370817
 31
0.0
1001
ACAD
1010
0.0
1020
0.0
1030
0.0
1001
ACADANNOTATIVE
1000
AnnotativeData
1002
{
1070
     1
1070
     1
1002
}
  0
LINE
  5
2E07
330
2755
100
AcDbEntity
  8
DETAIL
100
AcDbLine
 10
1631.598676725256
 20
821.5600479999402
 30
0.0
 11
1698.786826147547
 21
866.3520332370799
 31
0.0
1001
ACAD
1010
0.0
1020
0.0
1030
0.0
1001
ACADANNOTATIVE
1000
AnnotativeData
1002
{
1070
     1
1070
     1
1002
}
  0
LINE
  5
2E08
330
2755
100
AcDbEntity
  8
DETAIL
100
AcDbLine
 10
1631.598676725256
 20
818.5600814645233
 30
0.0
 11
1703.286787441435
 21
866.3520332370799
 31
0.0
1001
ACAD
1010
0.0
1020
0.0
1030
0.0
1001
ACADANNOTATIVE
1000
AnnotativeData
1002
{
1070
     1
1070
     1
1002
}
  0
LINE
  5
2E09
330
2755
100
AcDbEntity
  8
DETAIL
100
AcDbLine
 10
1631.598676725256
 20
815.560114929106
 30
0.0
 11
1707.786748735319
 21
866.3520332370781
 31
0.0
1001
ACAD
1010
0.0
1020
0.0
1030
0.0
1001
ACADANNOTATIVE
1000
AnnotativeData
1002
{
1070
     1
1070
     1
1002
}
  0
LINE
  5
2E0A
330
2755
100
AcDbEntity
  8
DETAIL
100
AcDbLine
 10
1631.598676725256
 20
812.5601483936923
 30
0.0
 11
1712.286710029208
 21
866.3520332370799
 31
0.0
1001
ACAD
1010
0.0
1020
0.0
1030
0.0
1001
ACADANNOTATIVE
1000
AnnotativeData
1002
{
1070
     1
1070
     1
1002
}
  0
LINE
  5
2E0B
330
2755
100
AcDbEntity
  8
DETAIL
100
AcDbLine
 10
1631.598676725256
 20
809.5601818582753
 30
0.0
 11
1716.786671323089
 21
866.3520332370799
 31
0.0
1001
ACAD
1010
0.0
1020
0.0
1030
0.0
1001
ACADANNOTATIVE
1000
AnnotativeData
1002
{
1070
     1
1070
     1
1002
}
  0
LINE
  5
2E0C
330
2755
100
AcDbEntity
  8
DETAIL
100
AcDbLine
 10
1631.598676725256
 20
806.5602153228601
 30
0.0
 11
1721.286632616977
 21
866.3520332370799
 31
0.0
1001
ACAD
1010
0.0
1020
0.0
1030
0.0
1001
ACADANNOTATIVE
1000
AnnotativeData
1002
{
1070
     1
1070
     1
1002
}
  0
LINE
  5
2E0D
330
2755
100
AcDbEntity
  8
DETAIL
100
AcDbLine
 10
1631.598676725256
 20
803.560248787441
 30
0.0
 11
1725.786593910861
 21
866.3520332370799
 31
0.0
1001
ACAD
1010
0.0
1020
0.0
1030
0.0
1001
ACADANNOTATIVE
1000
AnnotativeData
1002
{
1070
     1
1070
     1
1002
}
  0
LINE
  5
2E0E
330
2755
100
AcDbEntity
  8
DETAIL
100
AcDbLine
 10
1631.598676725256
 20
800.5602822520277
 30
0.0
 11
1730.286555204749
 21
866.3520332370817
 31
0.0
1001
ACAD
1010
0.0
1020
0.0
1030
0.0
1001
ACADANNOTATIVE
1000
AnnotativeData
1002
{
1070
     1
1070
     1
1002
}
  0
LINE
  5
2E0F
330
2755
100
AcDbEntity
  8
DETAIL
100
AcDbLine
 10
1631.598676725256
 20
797.5603157166124
 30
0.0
 11
1734.786516498634
 21
866.3520332370799
 31
0.0
1001
ACAD
1010
0.0
1020
0.0
1030
0.0
1001
ACADANNOTATIVE
1000
AnnotativeData
1002
{
1070
     1
1070
     1
1002
}
  0
LINE
  5
2E10
330
2755
100
AcDbEntity
  8
DETAIL
100
AcDbLine
 10
1631.598676725252
 20
794.5603491811935
 30
0.0
 11
1739.286477792519
 21
866.3520332370799
 31
0.0
1001
ACAD
1010
0.0
1020
0.0
1030
0.0
1001
ACADANNOTATIVE
1000
AnnotativeData
1002
{
1070
     1
1070
     1
1002
}
  0
LINE
  5
2E11
330
2755
100
AcDbEntity
  8
DETAIL
100
AcDbLine
 10
1631.598676725256
 20
791.5603826457782
 30
0.0
 11
1743.786439086403
 21
866.3520332370799
 31
0.0
1001
ACAD
1010
0.0
1020
0.0
1030
0.0
1001
ACADANNOTATIVE
1000
AnnotativeData
1002
{
1070
     1
1070
     1
1002
}
  0
LINE
  5
2E12
330
2755
100
AcDbEntity
  8
DETAIL
100
AcDbLine
 10
1631.598676725252
 20
788.5604161103612
 30
0.0
 11
1748.286400380288
 21
866.3520332370799
 31
0.0
1001
ACAD
1010
0.0
1020
0.0
1030
0.0
1001
ACADANNOTATIVE
1000
AnnotativeData
1002
{
1070
     1
1070
     1
1002
}
  0
LINE
  5
2E13
330
2755
100
AcDbEntity
  8
DETAIL
100
AcDbLine
 10
1631.598676725256
 20
785.5604495749474
 30
0.0
 11
1752.786361674176
 21
866.3520332370799
 31
0.0
1001
ACAD
1010
0.0
1020
0.0
1030
0.0
1001
ACADANNOTATIVE
1000
AnnotativeData
1002
{
1070
     1
1070
     1
1002
}
  0
LINE
  5
2E14
330
2755
100
AcDbEntity
  8
DETAIL
100
AcDbLine
 10
1631.598676725252
 20
782.5604830395303
 30
0.0
 11
1757.286322968061
 21
866.3520332370799
 31
0.0
1001
ACAD
1010
0.0
1020
0.0
1030
0.0
1001
ACADANNOTATIVE
1000
AnnotativeData
1002
{
1070
     1
1070
     1
1002
}
  0
LINE
  5
2E15
330
2755
100
AcDbEntity
  8
DETAIL
100
AcDbLine
 10
1631.59867672526
 20
779.5605165041133
 30
0.0
 11
1761.786284261949
 21
866.3520332370799
 31
0.0
1001
ACAD
1010
0.0
1020
0.0
1030
0.0
1001
ACADANNOTATIVE
1000
AnnotativeData
1002
{
1070
     1
1070
     1
1002
}
  0
LINE
  5
2E16
330
2755
100
AcDbEntity
  8
DETAIL
100
AcDbLine
 10
1631.598676725256
 20
776.5605499686962
 30
0.0
 11
1766.28624555583
 21
866.3520332370781
 31
0.0
1001
ACAD
1010
0.0
1020
0.0
1030
0.0
1001
ACADANNOTATIVE
1000
AnnotativeData
1002
{
1070
     1
1070
     1
1002
}
  0
LINE
  5
2E17
330
2755
100
AcDbEntity
  8
DETAIL
100
AcDbLine
 10
1631.598676725252
 20
773.5605834332791
 30
0.0
 11
1770.786206849718
 21
866.3520332370799
 31
0.0
1001
ACAD
1010
0.0
1020
0.0
1030
0.0
1001
ACADANNOTATIVE
1000
AnnotativeData
1002
{
1070
     1
1070
     1
1002
}
  0
LINE
  5
2E18
330
2755
100
AcDbEntity
  8
DETAIL
100
AcDbLine
 10
1631.598676725256
 20
770.5606168978656
 30
0.0
 11
1775.286168143602
 21
866.3520332370817
 31
0.0
1001
ACAD
1010
0.0
1020
0.0
1030
0.0
1001
ACADANNOTATIVE
1000
AnnotativeData
1002
{
1070
     1
1070
     1
1002
}
  0
LINE
  5
2E19
330
2755
100
AcDbEntity
  8
DETAIL
100
AcDbLine
 10
1631.598676725252
 20
767.5606503624484
 30
0.0
 11
1779.786129437487
 21
866.3520332370799
 31
0.0
1001
ACAD
1010
0.0
1020
0.0
1030
0.0
1001
ACADANNOTATIVE
1000
AnnotativeData
1002
{
1070
     1
1070
     1
1002
}
  0
LINE
  5
2E1A
330
2755
100
AcDbEntity
  8
DETAIL
100
AcDbLine
 10
1631.598676725256
 20
764.5606838270314
 30
0.0
 11
1784.286090731372
 21
866.3520332370781
 31
0.0
1001
ACAD
1010
0.0
1020
0.0
1030
0.0
1001
ACADANNOTATIVE
1000
AnnotativeData
1002
{
1070
     1
1070
     1
1002
}
  0
LINE
  5
2E1B
330
2755
100
AcDbEntity
  8
DETAIL
100
AcDbLine
 10
1631.598676725256
 20
761.560717291616
 30
0.0
 11
1788.78605202526
 21
866.3520332370799
 31
0.0
1001
ACAD
1010
0.0
1020
0.0
1030
0.0
1001
ACADANNOTATIVE
1000
AnnotativeData
1002
{
1070
     1
1070
     1
1002
}
  0
LINE
  5
2E1C
330
2755
100
AcDbEntity
  8
DETAIL
100
AcDbLine
 10
1631.59867672526
 20
758.5607507562007
 30
0.0
 11
1793.286013319148
 21
866.3520332370817
 31
0.0
1001
ACAD
1010
0.0
1020
0.0
1030
0.0
1001
ACADANNOTATIVE
1000
AnnotativeData
1002
{
1070
     1
1070
     1
1002
}
  0
LINE
  5
2E1D
330
2755
100
AcDbEntity
  8
DETAIL
100
AcDbLine
 10
1631.598676725256
 20
755.5607842207836
 30
0.0
 11
1797.785974613029
 21
866.3520332370781
 31
0.0
1001
ACAD
1010
0.0
1020
0.0
1030
0.0
1001
ACADANNOTATIVE
1000
AnnotativeData
1002
{
1070
     1
1070
     1
1002
}
  0
LINE
  5
2E1E
330
2755
100
AcDbEntity
  8
DETAIL
100
AcDbLine
 10
1631.59867672526
 20
752.5608176853682
 30
0.0
 11
1802.285935906917
 21
866.3520332370781
 31
0.0
1001
ACAD
1010
0.0
1020
0.0
1030
0.0
1001
ACADANNOTATIVE
1000
AnnotativeData
1002
{
1070
     1
1070
     1
1002
}
  0
LINE
  5
2E1F
330
2755
100
AcDbEntity
  8
DETAIL
100
AcDbLine
 10
1631.598676725256
 20
749.5608511499512
 30
0.0
 11
1806.785897200802
 21
866.3520332370799
 31
0.0
1001
ACAD
1010
0.0
1020
0.0
1030
0.0
1001
ACADANNOTATIVE
1000
AnnotativeData
1002
{
1070
     1
1070
     1
1002
}
  0
LINE
  5
2E20
330
2755
100
AcDbEntity
  8
DETAIL
100
AcDbLine
 10
1631.59867672526
 20
746.5608846145378
 30
0.0
 11
1811.285858494686
 21
866.3520332370817
 31
0.0
1001
ACAD
1010
0.0
1020
0.0
1030
0.0
1001
ACADANNOTATIVE
1000
AnnotativeData
1002
{
1070
     1
1070
     1
1002
}
  0
LINE
  5
2E21
330
2755
100
AcDbEntity
  8
DETAIL
100
AcDbLine
 10
1631.598676725256
 20
743.5609180791187
 30
0.0
 11
1815.785819788571
 21
866.3520332370799
 31
0.0
1001
ACAD
1010
0.0
1020
0.0
1030
0.0
1001
ACADANNOTATIVE
1000
AnnotativeData
1002
{
1070
     1
1070
     1
1002
}
  0
LINE
  5
2E22
330
2755
100
AcDbEntity
  8
DETAIL
100
AcDbLine
 10
1631.598676725256
 20
740.5609515437017
 30
0.0
 11
1820.285781082459
 21
866.3520332370781
 31
0.0
1001
ACAD
1010
0.0
1020
0.0
1030
0.0
1001
ACADANNOTATIVE
1000
AnnotativeData
1002
{
1070
     1
1070
     1
1002
}
  0
LINE
  5
2E23
330
2755
100
AcDbEntity
  8
DETAIL
100
AcDbLine
 10
1631.598676725256
 20
737.5609850082865
 30
0.0
 11
1824.785742376343
 21
866.3520332370781
 31
0.0
1001
ACAD
1010
0.0
1020
0.0
1030
0.0
1001
ACADANNOTATIVE
1000
AnnotativeData
1002
{
1070
     1
1070
     1
1002
}
  0
LINE
  5
2E24
330
2755
100
AcDbEntity
  8
DETAIL
100
AcDbLine
 10
1631.598676725256
 20
734.5610184728692
 30
0.0
 11
1829.285703670231
 21
866.3520332370799
 31
0.0
1001
ACAD
1010
0.0
1020
0.0
1030
0.0
1001
ACADANNOTATIVE
1000
AnnotativeData
1002
{
1070
     1
1070
     1
1002
}
  0
LINE
  5
2E25
330
2755
100
AcDbEntity
  8
DETAIL
100
AcDbLine
 10
1631.598676725256
 20
731.5610519374557
 30
0.0
 11
1833.785664964116
 21
866.3520332370799
 31
0.0
1001
ACAD
1010
0.0
1020
0.0
1030
0.0
1001
ACADANNOTATIVE
1000
AnnotativeData
1002
{
1070
     1
1070
     1
1002
}
  0
LINE
  5
2E26
330
2755
100
AcDbEntity
  8
DETAIL
100
AcDbLine
 10
1631.598676725256
 20
728.5610854020369
 30
0.0
 11
1838.285626258001
 21
866.3520332370799
 31
0.0
1001
ACAD
1010
0.0
1020
0.0
1030
0.0
1001
ACADANNOTATIVE
1000
AnnotativeData
1002
{
1070
     1
1070
     1
1002
}
  0
LINE
  5
2E27
330
2755
100
AcDbEntity
  8
DETAIL
100
AcDbLine
 10
1631.598676725256
 20
725.5611188666215
 30
0.0
 11
1842.785587551885
 21
866.3520332370799
 31
0.0
1001
ACAD
1010
0.0
1020
0.0
1030
0.0
1001
ACADANNOTATIVE
1000
AnnotativeData
1002
{
1070
     1
1070
     1
1002
}
  0
LINE
  5
2E28
330
2755
100
AcDbEntity
  8
DETAIL
100
AcDbLine
 10
1631.598676725256
 20
722.5611523312062
 30
0.0
 11
1847.285548845773
 21
866.3520332370799
 31
0.0
1001
ACAD
1010
0.0
1020
0.0
1030
0.0
1001
ACADANNOTATIVE
1000
AnnotativeData
1002
{
1070
     1
1070
     1
1002
}
  0
LINE
  5
2E29
330
2755
100
AcDbEntity
  8
DETAIL
100
AcDbLine
 10
1631.598676725256
 20
719.5611857957891
 30
0.0
 11
1847.398676725255
 21
863.4274850954033
 31
0.0
1001
ACAD
1010
0.0
1020
0.0
1030
0.0
1001
ACADANNOTATIVE
1000
AnnotativeData
1002
{
1070
     1
1070
     1
1002
}
  0
LINE
  5
2E2A
330
2755
100
AcDbEntity
  8
DETAIL
100
AcDbLine
 10
1631.598676725256
 20
716.5612192603738
 30
0.0
 11
1847.398676725255
 21
860.4275185599863
 31
0.0
1001
ACAD
1010
0.0
1020
0.0
1030
0.0
1001
ACADANNOTATIVE
1000
AnnotativeData
1002
{
1070
     1
1070
     1
1002
}
  0
LINE
  5
2E2B
330
2755
100
AcDbEntity
  8
DETAIL
100
AcDbLine
 10
1631.598676725252
 20
713.5612527249548
 30
0.0
 11
1847.398676725255
 21
857.427552024569
 31
0.0
1001
ACAD
1010
0.0
1020
0.0
1030
0.0
1001
ACADANNOTATIVE
1000
AnnotativeData
1002
{
1070
     1
1070
     1
1002
}
  0
LINE
  5
2E2C
330
2755
100
AcDbEntity
  8
DETAIL
100
AcDbLine
 10
1631.59867672526
 20
710.5612861895414
 30
0.0
 11
1847.398676725255
 21
854.4275854891557
 31
0.0
1001
ACAD
1010
0.0
1020
0.0
1030
0.0
1001
ACADANNOTATIVE
1000
AnnotativeData
1002
{
1070
     1
1070
     1
1002
}
  0
LINE
  5
2E2D
330
2755
100
AcDbEntity
  8
DETAIL
100
AcDbLine
 10
1631.598676725256
 20
707.5613196541244
 30
0.0
 11
1847.398676725255
 21
851.4276189537385
 31
0.0
1001
ACAD
1010
0.0
1020
0.0
1030
0.0
1001
ACADANNOTATIVE
1000
AnnotativeData
1002
{
1070
     1
1070
     1
1002
}
  0
LINE
  5
2E2E
330
2755
100
AcDbEntity
  8
DETAIL
100
AcDbLine
 10
1631.598676725256
 20
704.5613531187091
 30
0.0
 11
1847.398676725255
 21
848.4276524183231
 31
0.0
1001
ACAD
1010
0.0
1020
0.0
1030
0.0
1001
ACADANNOTATIVE
1000
AnnotativeData
1002
{
1070
     1
1070
     1
1002
}
  0
LINE
  5
2E2F
330
2755
100
AcDbEntity
  8
DETAIL
100
AcDbLine
 10
1631.598676725252
 20
701.5613865832919
 30
0.0
 11
1847.398676725255
 21
845.4276858829043
 31
0.0
1001
ACAD
1010
0.0
1020
0.0
1030
0.0
1001
ACADANNOTATIVE
1000
AnnotativeData
1002
{
1070
     1
1070
     1
1002
}
  0
LINE
  5
2E30
330
2755
100
AcDbEntity
  8
DETAIL
100
AcDbLine
 10
1631.59867672526
 20
698.5614200478749
 30
0.0
 11
1847.398676725255
 21
842.4277193474871
 31
0.0
1001
ACAD
1010
0.0
1020
0.0
1030
0.0
1001
ACADANNOTATIVE
1000
AnnotativeData
1002
{
1070
     1
1070
     1
1002
}
  0
LINE
  5
2E31
330
2755
100
AcDbEntity
  8
DETAIL
100
AcDbLine
 10
1631.598676725256
 20
695.5614535124595
 30
0.0
 11
1847.398676725255
 21
839.4277528120737
 31
0.0
1001
ACAD
1010
0.0
1020
0.0
1030
0.0
1001
ACADANNOTATIVE
1000
AnnotativeData
1002
{
1070
     1
1070
     1
1002
}
  0
LINE
  5
2E32
330
2755
100
AcDbEntity
  8
DETAIL
100
AcDbLine
 10
1631.59867672526
 20
692.561486977046
 30
0.0
 11
1847.398676725255
 21
836.4277862766567
 31
0.0
1001
ACAD
1010
0.0
1020
0.0
1030
0.0
1001
ACADANNOTATIVE
1000
AnnotativeData
1002
{
1070
     1
1070
     1
1002
}
  0
LINE
  5
2E33
330
2755
100
AcDbEntity
  8
DETAIL
100
AcDbLine
 10
1631.598676725256
 20
689.5615204416271
 30
0.0
 11
1847.398676725255
 21
833.4278197412412
 31
0.0
1001
ACAD
1010
0.0
1020
0.0
1030
0.0
1001
ACADANNOTATIVE
1000
AnnotativeData
1002
{
1070
     1
1070
     1
1002
}
  0
LINE
  5
2E34
330
2755
100
AcDbEntity
  8
DETAIL
100
AcDbLine
 10
1631.598676725256
 20
686.5615539062099
 30
0.0
 11
1847.398676725255
 21
830.4278532058225
 31
0.0
1001
ACAD
1010
0.0
1020
0.0
1030
0.0
1001
ACADANNOTATIVE
1000
AnnotativeData
1002
{
1070
     1
1070
     1
1002
}
  0
LINE
  5
2E35
330
2755
100
AcDbEntity
  8
DETAIL
100
AcDbLine
 10
1631.598676725256
 20
683.5615873707947
 30
0.0
 11
1847.398676725255
 21
827.427886670409
 31
0.0
1001
ACAD
1010
0.0
1020
0.0
1030
0.0
1001
ACADANNOTATIVE
1000
AnnotativeData
1002
{
1070
     1
1070
     1
1002
}
  0
LINE
  5
2E36
330
2755
100
AcDbEntity
  8
DETAIL
100
AcDbLine
 10
1631.598676725252
 20
680.5616208353795
 30
0.0
 11
1847.398676725255
 21
824.4279201349936
 31
0.0
1001
ACAD
1010
0.0
1020
0.0
1030
0.0
1001
ACADANNOTATIVE
1000
AnnotativeData
1002
{
1070
     1
1070
     1
1002
}
  0
LINE
  5
2E37
330
2755
100
AcDbEntity
  8
DETAIL
100
AcDbLine
 10
1631.598676725256
 20
677.5616542999622
 30
0.0
 11
1847.398676725252
 21
821.4279535995746
 31
0.0
1001
ACAD
1010
0.0
1020
0.0
1030
0.0
1001
ACADANNOTATIVE
1000
AnnotativeData
1002
{
1070
     1
1070
     1
1002
}
  0
LINE
  5
2E38
330
2755
100
AcDbEntity
  8
DETAIL
100
AcDbLine
 10
1631.598676725256
 20
674.5616877645452
 30
0.0
 11
1847.398676725255
 21
818.4279870641594
 31
0.0
1001
ACAD
1010
0.0
1020
0.0
1030
0.0
1001
ACADANNOTATIVE
1000
AnnotativeData
1002
{
1070
     1
1070
     1
1002
}
  0
LINE
  5
2E39
330
2755
100
AcDbEntity
  8
DETAIL
100
AcDbLine
 10
1633.084148530366
 20
672.5520332370806
 30
0.0
 11
1847.398676725255
 21
815.4280205287422
 31
0.0
1001
ACAD
1010
0.0
1020
0.0
1030
0.0
1001
ACADANNOTATIVE
1000
AnnotativeData
1002
{
1070
     1
1070
     1
1002
}
  0
LINE
  5
2E3A
330
2755
100
AcDbEntity
  8
DETAIL
100
AcDbLine
 10
1637.584109824258
 20
672.5520332370806
 30
0.0
 11
1847.398676725255
 21
812.4280539933288
 31
0.0
1001
ACAD
1010
0.0
1020
0.0
1030
0.0
1001
ACADANNOTATIVE
1000
AnnotativeData
1002
{
1070
     1
1070
     1
1002
}
  0
LINE
  5
2E3B
330
2755
100
AcDbEntity
  8
DETAIL
100
AcDbLine
 10
1642.084071118143
 20
672.5520332370806
 30
0.0
 11
1847.398676725255
 21
809.4280874579117
 31
0.0
1001
ACAD
1010
0.0
1020
0.0
1030
0.0
1001
ACADANNOTATIVE
1000
AnnotativeData
1002
{
1070
     1
1070
     1
1002
}
  0
LINE
  5
2E3C
330
2755
100
AcDbEntity
  8
DETAIL
100
AcDbLine
 10
1646.584032412027
 20
672.5520332370806
 30
0.0
 11
1847.398676725255
 21
806.4281209224947
 31
0.0
1001
ACAD
1010
0.0
1020
0.0
1030
0.0
1001
ACADANNOTATIVE
1000
AnnotativeData
1002
{
1070
     1
1070
     1
1002
}
  0
LINE
  5
2E3D
330
2755
100
AcDbEntity
  8
DETAIL
100
AcDbLine
 10
1651.083993705904
 20
672.552033237077
 30
0.0
 11
1847.398676725255
 21
803.4281543870774
 31
0.0
1001
ACAD
1010
0.0
1020
0.0
1030
0.0
1001
ACADANNOTATIVE
1000
AnnotativeData
1002
{
1070
     1
1070
     1
1002
}
  0
LINE
  5
2E3E
330
2755
100
AcDbEntity
  8
DETAIL
100
AcDbLine
 10
1655.5839549998
 20
672.5520332370823
 30
0.0
 11
1847.398676725255
 21
800.4281878516602
 31
0.0
1001
ACAD
1010
0.0
1020
0.0
1030
0.0
1001
ACADANNOTATIVE
1000
AnnotativeData
1002
{
1070
     1
1070
     1
1002
}
  0
LINE
  5
2E3F
330
2755
100
AcDbEntity
  8
DETAIL
100
AcDbLine
 10
1660.083916293681
 20
672.5520332370788
 30
0.0
 11
1847.398676725255
 21
797.4282213162467
 31
0.0
1001
ACAD
1010
0.0
1020
0.0
1030
0.0
1001
ACADANNOTATIVE
1000
AnnotativeData
1002
{
1070
     1
1070
     1
1002
}
  0
LINE
  5
2E40
330
2755
100
AcDbEntity
  8
DETAIL
100
AcDbLine
 10
1664.583877587565
 20
672.5520332370788
 30
0.0
 11
1847.398676725255
 21
794.4282547808279
 31
0.0
1001
ACAD
1010
0.0
1020
0.0
1030
0.0
1001
ACADANNOTATIVE
1000
AnnotativeData
1002
{
1070
     1
1070
     1
1002
}
  0
LINE
  5
2E41
330
2755
100
AcDbEntity
  8
DETAIL
100
AcDbLine
 10
1669.083838881453
 20
672.5520332370788
 30
0.0
 11
1847.398676725255
 21
791.4282882454125
 31
0.0
1001
ACAD
1010
0.0
1020
0.0
1030
0.0
1001
ACADANNOTATIVE
1000
AnnotativeData
1002
{
1070
     1
1070
     1
1002
}
  0
LINE
  5
2E42
330
2755
100
AcDbEntity
  8
DETAIL
100
AcDbLine
 10
1673.583800175341
 20
672.5520332370806
 30
0.0
 11
1847.398676725255
 21
788.4283217099972
 31
0.0
1001
ACAD
1010
0.0
1020
0.0
1030
0.0
1001
ACADANNOTATIVE
1000
AnnotativeData
1002
{
1070
     1
1070
     1
1002
}
  0
LINE
  5
2E43
330
2755
100
AcDbEntity
  8
DETAIL
100
AcDbLine
 10
1678.083761469226
 20
672.5520332370823
 30
0.0
 11
1847.398676725255
 21
785.4283551745821
 31
0.0
1001
ACAD
1010
0.0
1020
0.0
1030
0.0
1001
ACADANNOTATIVE
1000
AnnotativeData
1002
{
1070
     1
1070
     1
1002
}
  0
LINE
  5
2E44
330
2755
100
AcDbEntity
  8
DETAIL
100
AcDbLine
 10
1682.583722763115
 20
672.5520332370823
 30
0.0
 11
1847.398676725255
 21
782.4283886391648
 31
0.0
1001
ACAD
1010
0.0
1020
0.0
1030
0.0
1001
ACADANNOTATIVE
1000
AnnotativeData
1002
{
1070
     1
1070
     1
1002
}
  0
LINE
  5
2E45
330
2755
100
AcDbEntity
  8
DETAIL
100
AcDbLine
 10
1687.083684056999
 20
672.5520332370806
 30
0.0
 11
1847.398676725255
 21
779.4284221037496
 31
0.0
1001
ACAD
1010
0.0
1020
0.0
1030
0.0
1001
ACADANNOTATIVE
1000
AnnotativeData
1002
{
1070
     1
1070
     1
1002
}
  0
LINE
  5
2E46
330
2755
100
AcDbEntity
  8
DETAIL
100
AcDbLine
 10
1691.58364535088
 20
672.5520332370788
 30
0.0
 11
1847.398676725255
 21
776.4284555683325
 31
0.0
1001
ACAD
1010
0.0
1020
0.0
1030
0.0
1001
ACADANNOTATIVE
1000
AnnotativeData
1002
{
1070
     1
1070
     1
1002
}
  0
LINE
  5
2E47
330
2755
100
AcDbEntity
  8
DETAIL
100
AcDbLine
 10
1696.083606644765
 20
672.5520332370806
 30
0.0
 11
1847.398676725255
 21
773.4284890329171
 31
0.0
1001
ACAD
1010
0.0
1020
0.0
1030
0.0
1001
ACADANNOTATIVE
1000
AnnotativeData
1002
{
1070
     1
1070
     1
1002
}
  0
LINE
  5
2E48
330
2755
100
AcDbEntity
  8
DETAIL
100
AcDbLine
 10
1700.583567938653
 20
672.5520332370806
 30
0.0
 11
1847.398676725255
 21
770.4285224975001
 31
0.0
1001
ACAD
1010
0.0
1020
0.0
1030
0.0
1001
ACADANNOTATIVE
1000
AnnotativeData
1002
{
1070
     1
1070
     1
1002
}
  0
LINE
  5
2E49
330
2755
100
AcDbEntity
  8
DETAIL
100
AcDbLine
 10
1705.083529232537
 20
672.5520332370788
 30
0.0
 11
1847.398676725248
 21
767.4285559620813
 31
0.0
1001
ACAD
1010
0.0
1020
0.0
1030
0.0
1001
ACADANNOTATIVE
1000
AnnotativeData
1002
{
1070
     1
1070
     1
1002
}
  0
LINE
  5
2E4A
330
2755
100
AcDbEntity
  8
DETAIL
100
AcDbLine
 10
1709.583490526425
 20
672.5520332370788
 30
0.0
 11
1847.398676725252
 21
764.4285894266641
 31
0.0
1001
ACAD
1010
0.0
1020
0.0
1030
0.0
1001
ACADANNOTATIVE
1000
AnnotativeData
1002
{
1070
     1
1070
     1
1002
}
  0
LINE
  5
2E4B
330
2755
100
AcDbEntity
  8
DETAIL
100
AcDbLine
 10
1714.08345182031
 20
672.5520332370806
 30
0.0
 11
1847.398676725252
 21
761.4286228912487
 31
0.0
1001
ACAD
1010
0.0
1020
0.0
1030
0.0
1001
ACADANNOTATIVE
1000
AnnotativeData
1002
{
1070
     1
1070
     1
1002
}
  0
LINE
  5
2E4C
330
2755
100
AcDbEntity
  8
DETAIL
100
AcDbLine
 10
1718.583413114191
 20
672.5520332370788
 30
0.0
 11
1847.398676725252
 21
758.4286563558353
 31
0.0
1001
ACAD
1010
0.0
1020
0.0
1030
0.0
1001
ACADANNOTATIVE
1000
AnnotativeData
1002
{
1070
     1
1070
     1
1002
}
  0
LINE
  5
2E4D
330
2755
100
AcDbEntity
  8
DETAIL
100
AcDbLine
 10
1723.083374408083
 20
672.5520332370823
 30
0.0
 11
1847.398676725252
 21
755.4286898204162
 31
0.0
1001
ACAD
1010
0.0
1020
0.0
1030
0.0
1001
ACADANNOTATIVE
1000
AnnotativeData
1002
{
1070
     1
1070
     1
1002
}
  0
LINE
  5
2E4E
330
2755
100
AcDbEntity
  8
DETAIL
100
AcDbLine
 10
1727.583335701964
 20
672.552033237077
 30
0.0
 11
1847.398676725248
 21
752.4287232849992
 31
0.0
1001
ACAD
1010
0.0
1020
0.0
1030
0.0
1001
ACADANNOTATIVE
1000
AnnotativeData
1002
{
1070
     1
1070
     1
1002
}
  0
LINE
  5
2E4F
330
2755
100
AcDbEntity
  8
DETAIL
100
AcDbLine
 10
1732.083296995852
 20
672.5520332370788
 30
0.0
 11
1847.398676725252
 21
749.4287567495838
 31
0.0
1001
ACAD
1010
0.0
1020
0.0
1030
0.0
1001
ACADANNOTATIVE
1000
AnnotativeData
1002
{
1070
     1
1070
     1
1002
}
  0
LINE
  5
2E50
330
2755
100
AcDbEntity
  8
DETAIL
100
AcDbLine
 10
1736.583258289736
 20
672.5520332370806
 30
0.0
 11
1847.398676725252
 21
746.4287902141686
 31
0.0
1001
ACAD
1010
0.0
1020
0.0
1030
0.0
1001
ACADANNOTATIVE
1000
AnnotativeData
1002
{
1070
     1
1070
     1
1002
}
  0
LINE
  5
2E51
330
2755
100
AcDbEntity
  8
DETAIL
100
AcDbLine
 10
1741.083219583624
 20
672.5520332370806
 30
0.0
 11
1847.398676725252
 21
743.4288236787534
 31
0.0
1001
ACAD
1010
0.0
1020
0.0
1030
0.0
1001
ACADANNOTATIVE
1000
AnnotativeData
1002
{
1070
     1
1070
     1
1002
}
  0
LINE
  5
2E52
330
2755
100
AcDbEntity
  8
DETAIL
100
AcDbLine
 10
1745.583180877509
 20
672.5520332370806
 30
0.0
 11
1847.398676725252
 21
740.4288571433343
 31
0.0
1001
ACAD
1010
0.0
1020
0.0
1030
0.0
1001
ACADANNOTATIVE
1000
AnnotativeData
1002
{
1070
     1
1070
     1
1002
}
  0
LINE
  5
2E53
330
2755
100
AcDbEntity
  8
DETAIL
100
AcDbLine
 10
1750.08314217139
 20
672.552033237077
 30
0.0
 11
1847.398676725252
 21
737.4288906079208
 31
0.0
1001
ACAD
1010
0.0
1020
0.0
1030
0.0
1001
ACADANNOTATIVE
1000
AnnotativeData
1002
{
1070
     1
1070
     1
1002
}
  0
LINE
  5
2E54
330
2755
100
AcDbEntity
  8
DETAIL
100
AcDbLine
 10
1754.583103465282
 20
672.5520332370823
 30
0.0
 11
1847.398676725252
 21
734.4289240725038
 31
0.0
1001
ACAD
1010
0.0
1020
0.0
1030
0.0
1001
ACADANNOTATIVE
1000
AnnotativeData
1002
{
1070
     1
1070
     1
1002
}
  0
LINE
  5
2E55
330
2755
100
AcDbEntity
  8
DETAIL
100
AcDbLine
 10
1759.083064759163
 20
672.5520332370788
 30
0.0
 11
1847.398676725252
 21
731.4289575370884
 31
0.0
1001
ACAD
1010
0.0
1020
0.0
1030
0.0
1001
ACADANNOTATIVE
1000
AnnotativeData
1002
{
1070
     1
1070
     1
1002
}
  0
LINE
  5
2E56
330
2755
100
AcDbEntity
  8
DETAIL
100
AcDbLine
 10
1763.583026053047
 20
672.5520332370788
 30
0.0
 11
1847.398676725252
 21
728.4289910016696
 31
0.0
1001
ACAD
1010
0.0
1020
0.0
1030
0.0
1001
ACADANNOTATIVE
1000
AnnotativeData
1002
{
1070
     1
1070
     1
1002
}
  0
LINE
  5
2E57
330
2755
100
AcDbEntity
  8
DETAIL
100
AcDbLine
 10
1768.082987346935
 20
672.5520332370788
 30
0.0
 11
1847.398676725252
 21
725.4290244662542
 31
0.0
1001
ACAD
1010
0.0
1020
0.0
1030
0.0
1001
ACADANNOTATIVE
1000
AnnotativeData
1002
{
1070
     1
1070
     1
1002
}
  0
LINE
  5
2E58
330
2755
100
AcDbEntity
  8
DETAIL
100
AcDbLine
 10
1772.582948640823
 20
672.5520332370788
 30
0.0
 11
1847.398676725252
 21
722.4290579308388
 31
0.0
1001
ACAD
1010
0.0
1020
0.0
1030
0.0
1001
ACADANNOTATIVE
1000
AnnotativeData
1002
{
1070
     1
1070
     1
1002
}
  0
LINE
  5
2E59
330
2755
100
AcDbEntity
  8
DETAIL
100
AcDbLine
 10
1777.082909934708
 20
672.5520332370806
 30
0.0
 11
1847.398676725252
 21
719.4290913954219
 31
0.0
1001
ACAD
1010
0.0
1020
0.0
1030
0.0
1001
ACADANNOTATIVE
1000
AnnotativeData
1002
{
1070
     1
1070
     1
1002
}
  0
LINE
  5
2E5A
330
2755
100
AcDbEntity
  8
DETAIL
100
AcDbLine
 10
1781.582871228593
 20
672.5520332370806
 30
0.0
 11
1847.398676725252
 21
716.4291248600066
 31
0.0
1001
ACAD
1010
0.0
1020
0.0
1030
0.0
1001
ACADANNOTATIVE
1000
AnnotativeData
1002
{
1070
     1
1070
     1
1002
}
  0
LINE
  5
2E5B
330
2755
100
AcDbEntity
  8
DETAIL
100
AcDbLine
 10
1786.082832522481
 20
672.5520332370806
 30
0.0
 11
1847.398676725252
 21
713.4291583245875
 31
0.0
1001
ACAD
1010
0.0
1020
0.0
1030
0.0
1001
ACADANNOTATIVE
1000
AnnotativeData
1002
{
1070
     1
1070
     1
1002
}
  0
LINE
  5
2E5C
330
2755
100
AcDbEntity
  8
DETAIL
100
AcDbLine
 10
1790.582793816366
 20
672.5520332370823
 30
0.0
 11
1847.398676725252
 21
710.4291917891742
 31
0.0
1001
ACAD
1010
0.0
1020
0.0
1030
0.0
1001
ACADANNOTATIVE
1000
AnnotativeData
1002
{
1070
     1
1070
     1
1002
}
  0
LINE
  5
2E5D
330
2755
100
AcDbEntity
  8
DETAIL
100
AcDbLine
 10
1795.082755110247
 20
672.5520332370788
 30
0.0
 11
1847.398676725252
 21
707.4292252537587
 31
0.0
1001
ACAD
1010
0.0
1020
0.0
1030
0.0
1001
ACADANNOTATIVE
1000
AnnotativeData
1002
{
1070
     1
1070
     1
1002
}
  0
LINE
  5
2E5E
330
2755
100
AcDbEntity
  8
DETAIL
100
AcDbLine
 10
1799.582716404135
 20
672.5520332370788
 30
0.0
 11
1847.398676725252
 21
704.4292587183416
 31
0.0
1001
ACAD
1010
0.0
1020
0.0
1030
0.0
1001
ACADANNOTATIVE
1000
AnnotativeData
1002
{
1070
     1
1070
     1
1002
}
  0
LINE
  5
2E5F
330
2755
100
AcDbEntity
  8
DETAIL
100
AcDbLine
 10
1804.082677698019
 20
672.5520332370788
 30
0.0
 11
1847.398676725252
 21
701.4292921829246
 31
0.0
1001
ACAD
1010
0.0
1020
0.0
1030
0.0
1001
ACADANNOTATIVE
1000
AnnotativeData
1002
{
1070
     1
1070
     1
1002
}
  0
LINE
  5
2E60
330
2755
100
AcDbEntity
  8
DETAIL
100
AcDbLine
 10
1808.582638991907
 20
672.5520332370806
 30
0.0
 11
1847.398676725248
 21
698.4293256475074
 31
0.0
1001
ACAD
1010
0.0
1020
0.0
1030
0.0
1001
ACADANNOTATIVE
1000
AnnotativeData
1002
{
1070
     1
1070
     1
1002
}
  0
LINE
  5
2E61
330
2755
100
AcDbEntity
  8
DETAIL
100
AcDbLine
 10
1813.082600285792
 20
672.5520332370823
 30
0.0
 11
1847.398676725252
 21
695.4293591120939
 31
0.0
1001
ACAD
1010
0.0
1020
0.0
1030
0.0
1001
ACADANNOTATIVE
1000
AnnotativeData
1002
{
1070
     1
1070
     1
1002
}
  0
LINE
  5
2E62
330
2755
100
AcDbEntity
  8
DETAIL
100
AcDbLine
 10
1817.582561579673
 20
672.552033237077
 30
0.0
 11
1847.398676725248
 21
692.4293925766769
 31
0.0
1001
ACAD
1010
0.0
1020
0.0
1030
0.0
1001
ACADANNOTATIVE
1000
AnnotativeData
1002
{
1070
     1
1070
     1
1002
}
  0
LINE
  5
2E63
330
2755
100
AcDbEntity
  8
DETAIL
100
AcDbLine
 10
1822.082522873565
 20
672.5520332370806
 30
0.0
 11
1847.398676725252
 21
689.4294260412597
 31
0.0
1001
ACAD
1010
0.0
1020
0.0
1030
0.0
1001
ACADANNOTATIVE
1000
AnnotativeData
1002
{
1070
     1
1070
     1
1002
}
  0
LINE
  5
2E64
330
2755
100
AcDbEntity
  8
DETAIL
100
AcDbLine
 10
1826.582484167446
 20
672.552033237077
 30
0.0
 11
1847.398676725248
 21
686.4294595058427
 31
0.0
1001
ACAD
1010
0.0
1020
0.0
1030
0.0
1001
ACADANNOTATIVE
1000
AnnotativeData
1002
{
1070
     1
1070
     1
1002
}
  0
LINE
  5
2E65
330
2755
100
AcDbEntity
  8
DETAIL
100
AcDbLine
 10
1831.08244546133
 20
672.5520332370788
 30
0.0
 11
1847.398676725252
 21
683.4294929704274
 31
0.0
1001
ACAD
1010
0.0
1020
0.0
1030
0.0
1001
ACADANNOTATIVE
1000
AnnotativeData
1002
{
1070
     1
1070
     1
1002
}
  0
LINE
  5
2E66
330
2755
100
AcDbEntity
  8
DETAIL
100
AcDbLine
 10
1835.582406755218
 20
672.5520332370806
 30
0.0
 11
1847.398676725248
 21
680.4295264350121
 31
0.0
1001
ACAD
1010
0.0
1020
0.0
1030
0.0
1001
ACADANNOTATIVE
1000
AnnotativeData
1002
{
1070
     1
1070
     1
1002
}
  0
LINE
  5
2E67
330
2755
100
AcDbEntity
  8
DETAIL
100
AcDbLine
 10
1840.082368049107
 20
672.5520332370806
 30
0.0
 11
1847.398676725248
 21
677.429559899595
 31
0.0
1001
ACAD
1010
0.0
1020
0.0
1030
0.0
1001
ACADANNOTATIVE
1000
AnnotativeData
1002
{
1070
     1
1070
     1
1002
}
  0
LINE
  5
2E68
330
2755
100
AcDbEntity
  8
DETAIL
100
AcDbLine
 10
1844.582329342991
 20
672.5520332370788
 30
0.0
 11
1847.398676725252
 21
674.4295933641779
 31
0.0
1001
ACAD
1010
0.0
1020
0.0
1030
0.0
1001
ACADANNOTATIVE
1000
AnnotativeData
1002
{
1070
     1
1070
     1
1002
}
  0
LINE
  5
2E69
330
2755
100
AcDbEntity
  8
DETAIL
100
AcDbLine
 10
1845.442195222427
 20
866.3520332370799
 30
0.0
 11
1847.398676725255
 21
865.0477155658093
 31
0.0
1001
ACAD
1010
0.0
1020
0.0
1030
0.0
1001
ACADANNOTATIVE
1000
AnnotativeData
1002
{
1070
     1
1070
     1
1002
}
  0
LINE
  5
2E6A
330
2755
100
AcDbEntity
  8
DETAIL
100
AcDbLine
 10
1840.942233928539
 20
866.3520332370834
 30
0.0
 11
1847.398676725255
 21
862.0477490303956
 31
0.0
1001
ACAD
1010
0.0
1020
0.0
1030
0.0
1001
ACADANNOTATIVE
1000
AnnotativeData
1002
{
1070
     1
1070
     1
1002
}
  0
LINE
  5
2E6B
330
2755
100
AcDbEntity
  8
DETAIL
100
AcDbLine
 10
1836.442272634658
 20
866.3520332370799
 30
0.0
 11
1847.398676725255
 21
859.0477824949784
 31
0.0
1001
ACAD
1010
0.0
1020
0.0
1030
0.0
1001
ACADANNOTATIVE
1000
AnnotativeData
1002
{
1070
     1
1070
     1
1002
}
  0
LINE
  5
2E6C
330
2755
100
AcDbEntity
  8
DETAIL
100
AcDbLine
 10
1831.94231134077
 20
866.3520332370799
 30
0.0
 11
1847.398676725255
 21
856.0478159595612
 31
0.0
1001
ACAD
1010
0.0
1020
0.0
1030
0.0
1001
ACADANNOTATIVE
1000
AnnotativeData
1002
{
1070
     1
1070
     1
1002
}
  0
LINE
  5
2E6D
330
2755
100
AcDbEntity
  8
DETAIL
100
AcDbLine
 10
1827.442350046882
 20
866.3520332370799
 30
0.0
 11
1847.398676725255
 21
853.0478494241442
 31
0.0
1001
ACAD
1010
0.0
1020
0.0
1030
0.0
1001
ACADANNOTATIVE
1000
AnnotativeData
1002
{
1070
     1
1070
     1
1002
}
  0
LINE
  5
2E6E
330
2755
100
AcDbEntity
  8
DETAIL
100
AcDbLine
 10
1822.942388752997
 20
866.3520332370834
 30
0.0
 11
1847.398676725255
 21
850.0478828887308
 31
0.0
1001
ACAD
1010
0.0
1020
0.0
1030
0.0
1001
ACADANNOTATIVE
1000
AnnotativeData
1002
{
1070
     1
1070
     1
1002
}
  0
LINE
  5
2E6F
330
2755
100
AcDbEntity
  8
DETAIL
100
AcDbLine
 10
1818.442427459113
 20
866.3520332370799
 30
0.0
 11
1847.398676725255
 21
847.0479163533136
 31
0.0
1001
ACAD
1010
0.0
1020
0.0
1030
0.0
1001
ACADANNOTATIVE
1000
AnnotativeData
1002
{
1070
     1
1070
     1
1002
}
  0
LINE
  5
2E70
330
2755
100
AcDbEntity
  8
DETAIL
100
AcDbLine
 10
1813.942466165228
 20
866.3520332370799
 30
0.0
 11
1847.398676725255
 21
844.0479498178966
 31
0.0
1001
ACAD
1010
0.0
1020
0.0
1030
0.0
1001
ACADANNOTATIVE
1000
AnnotativeData
1002
{
1070
     1
1070
     1
1002
}
  0
LINE
  5
2E71
330
2755
100
AcDbEntity
  8
DETAIL
100
AcDbLine
 10
1809.44250487134
 20
866.3520332370799
 30
0.0
 11
1847.398676725255
 21
841.0479832824794
 31
0.0
1001
ACAD
1010
0.0
1020
0.0
1030
0.0
1001
ACADANNOTATIVE
1000
AnnotativeData
1002
{
1070
     1
1070
     1
1002
}
  0
LINE
  5
2E72
330
2755
100
AcDbEntity
  8
DETAIL
100
AcDbLine
 10
1804.942543577455
 20
866.3520332370799
 30
0.0
 11
1847.398676725255
 21
838.0480167470622
 31
0.0
1001
ACAD
1010
0.0
1020
0.0
1030
0.0
1001
ACADANNOTATIVE
1000
AnnotativeData
1002
{
1070
     1
1070
     1
1002
}
  0
LINE
  5
2E73
330
2755
100
AcDbEntity
  8
DETAIL
100
AcDbLine
 10
1800.442582283571
 20
866.3520332370817
 30
0.0
 11
1847.398676725255
 21
835.0480502116488
 31
0.0
1001
ACAD
1010
0.0
1020
0.0
1030
0.0
1001
ACADANNOTATIVE
1000
AnnotativeData
1002
{
1070
     1
1070
     1
1002
}
  0
LINE
  5
2E74
330
2755
100
AcDbEntity
  8
DETAIL
100
AcDbLine
 10
1795.942620989683
 20
866.3520332370817
 30
0.0
 11
1847.398676725255
 21
832.0480836762317
 31
0.0
1001
ACAD
1010
0.0
1020
0.0
1030
0.0
1001
ACADANNOTATIVE
1000
AnnotativeData
1002
{
1070
     1
1070
     1
1002
}
  0
LINE
  5
2E75
330
2755
100
AcDbEntity
  8
DETAIL
100
AcDbLine
 10
1791.442659695798
 20
866.3520332370799
 30
0.0
 11
1847.398676725255
 21
829.0481171408162
 31
0.0
1001
ACAD
1010
0.0
1020
0.0
1030
0.0
1001
ACADANNOTATIVE
1000
AnnotativeData
1002
{
1070
     1
1070
     1
1002
}
  0
LINE
  5
2E76
330
2755
100
AcDbEntity
  8
DETAIL
100
AcDbLine
 10
1786.942698401914
 20
866.3520332370781
 30
0.0
 11
1847.398676725255
 21
826.0481506053993
 31
0.0
1001
ACAD
1010
0.0
1020
0.0
1030
0.0
1001
ACADANNOTATIVE
1000
AnnotativeData
1002
{
1070
     1
1070
     1
1002
}
  0
LINE
  5
2E77
330
2755
100
AcDbEntity
  8
DETAIL
100
AcDbLine
 10
1782.442737108029
 20
866.3520332370817
 30
0.0
 11
1847.398676725255
 21
823.0481840699859
 31
0.0
1001
ACAD
1010
0.0
1020
0.0
1030
0.0
1001
ACADANNOTATIVE
1000
AnnotativeData
1002
{
1070
     1
1070
     1
1002
}
  0
LINE
  5
2E78
330
2755
100
AcDbEntity
  8
DETAIL
100
AcDbLine
 10
1777.942775814141
 20
866.3520332370817
 30
0.0
 11
1847.398676725255
 21
820.0482175345667
 31
0.0
1001
ACAD
1010
0.0
1020
0.0
1030
0.0
1001
ACADANNOTATIVE
1000
AnnotativeData
1002
{
1070
     1
1070
     1
1002
}
  0
LINE
  5
2E79
330
2755
100
AcDbEntity
  8
DETAIL
100
AcDbLine
 10
1773.442814520256
 20
866.3520332370817
 30
0.0
 11
1847.398676725255
 21
817.0482509991497
 31
0.0
1001
ACAD
1010
0.0
1020
0.0
1030
0.0
1001
ACADANNOTATIVE
1000
AnnotativeData
1002
{
1070
     1
1070
     1
1002
}
  0
LINE
  5
2E7A
330
2755
100
AcDbEntity
  8
DETAIL
100
AcDbLine
 10
1768.942853226372
 20
866.3520332370781
 30
0.0
 11
1847.398676725255
 21
814.0482844637345
 31
0.0
1001
ACAD
1010
0.0
1020
0.0
1030
0.0
1001
ACADANNOTATIVE
1000
AnnotativeData
1002
{
1070
     1
1070
     1
1002
}
  0
LINE
  5
2E7B
330
2755
100
AcDbEntity
  8
DETAIL
100
AcDbLine
 10
1764.442891932487
 20
866.3520332370817
 30
0.0
 11
1847.398676725255
 21
811.048317928321
 31
0.0
1001
ACAD
1010
0.0
1020
0.0
1030
0.0
1001
ACADANNOTATIVE
1000
AnnotativeData
1002
{
1070
     1
1070
     1
1002
}
  0
LINE
  5
2E7C
330
2755
100
AcDbEntity
  8
DETAIL
100
AcDbLine
 10
1759.942930638599
 20
866.3520332370817
 30
0.0
 11
1847.398676725255
 21
808.0483513929037
 31
0.0
1001
ACAD
1010
0.0
1020
0.0
1030
0.0
1001
ACADANNOTATIVE
1000
AnnotativeData
1002
{
1070
     1
1070
     1
1002
}
  0
LINE
  5
2E7D
330
2755
100
AcDbEntity
  8
DETAIL
100
AcDbLine
 10
1755.442969344715
 20
866.3520332370817
 30
0.0
 11
1847.398676725255
 21
805.0483848574867
 31
0.0
1001
ACAD
1010
0.0
1020
0.0
1030
0.0
1001
ACADANNOTATIVE
1000
AnnotativeData
1002
{
1070
     1
1070
     1
1002
}
  0
LINE
  5
2E7E
330
2755
100
AcDbEntity
  8
DETAIL
100
AcDbLine
 10
1750.94300805083
 20
866.3520332370799
 30
0.0
 11
1847.398676725255
 21
802.0484183220697
 31
0.0
1001
ACAD
1010
0.0
1020
0.0
1030
0.0
1001
ACADANNOTATIVE
1000
AnnotativeData
1002
{
1070
     1
1070
     1
1002
}
  0
LINE
  5
2E7F
330
2755
100
AcDbEntity
  8
DETAIL
100
AcDbLine
 10
1746.443046756945
 20
866.3520332370781
 30
0.0
 11
1847.398676725255
 21
799.0484517866526
 31
0.0
1001
ACAD
1010
0.0
1020
0.0
1030
0.0
1001
ACADANNOTATIVE
1000
AnnotativeData
1002
{
1070
     1
1070
     1
1002
}
  0
LINE
  5
2E80
330
2755
100
AcDbEntity
  8
DETAIL
100
AcDbLine
 10
1741.943085463061
 20
866.3520332370817
 30
0.0
 11
1847.398676725255
 21
796.0484852512389
 31
0.0
1001
ACAD
1010
0.0
1020
0.0
1030
0.0
1001
ACADANNOTATIVE
1000
AnnotativeData
1002
{
1070
     1
1070
     1
1002
}
  0
LINE
  5
2E81
330
2755
100
AcDbEntity
  8
DETAIL
100
AcDbLine
 10
1737.443124169176
 20
866.3520332370799
 30
0.0
 11
1847.398676725255
 21
793.0485187158218
 31
0.0
1001
ACAD
1010
0.0
1020
0.0
1030
0.0
1001
ACADANNOTATIVE
1000
AnnotativeData
1002
{
1070
     1
1070
     1
1002
}
  0
LINE
  5
2E82
330
2755
100
AcDbEntity
  8
DETAIL
100
AcDbLine
 10
1732.943162875288
 20
866.3520332370799
 30
0.0
 11
1847.398676725255
 21
790.0485521804048
 31
0.0
1001
ACAD
1010
0.0
1020
0.0
1030
0.0
1001
ACADANNOTATIVE
1000
AnnotativeData
1002
{
1070
     1
1070
     1
1002
}
  0
LINE
  5
2E83
330
2755
100
AcDbEntity
  8
DETAIL
100
AcDbLine
 10
1728.4432015814
 20
866.3520332370799
 30
0.0
 11
1847.398676725255
 21
787.0485856449878
 31
0.0
1001
ACAD
1010
0.0
1020
0.0
1030
0.0
1001
ACADANNOTATIVE
1000
AnnotativeData
1002
{
1070
     1
1070
     1
1002
}
  0
LINE
  5
2E84
330
2755
100
AcDbEntity
  8
DETAIL
100
AcDbLine
 10
1723.943240287515
 20
866.3520332370817
 30
0.0
 11
1847.398676725255
 21
784.0486191095743
 31
0.0
1001
ACAD
1010
0.0
1020
0.0
1030
0.0
1001
ACADANNOTATIVE
1000
AnnotativeData
1002
{
1070
     1
1070
     1
1002
}
  0
LINE
  5
2E85
330
2755
100
AcDbEntity
  8
DETAIL
100
AcDbLine
 10
1719.443278993631
 20
866.3520332370799
 30
0.0
 11
1847.398676725255
 21
781.0486525741571
 31
0.0
1001
ACAD
1010
0.0
1020
0.0
1030
0.0
1001
ACADANNOTATIVE
1000
AnnotativeData
1002
{
1070
     1
1070
     1
1002
}
  0
LINE
  5
2E86
330
2755
100
AcDbEntity
  8
DETAIL
100
AcDbLine
 10
1714.943317699746
 20
866.3520332370799
 30
0.0
 11
1847.398676725255
 21
778.0486860387401
 31
0.0
1001
ACAD
1010
0.0
1020
0.0
1030
0.0
1001
ACADANNOTATIVE
1000
AnnotativeData
1002
{
1070
     1
1070
     1
1002
}
  0
LINE
  5
2E87
330
2755
100
AcDbEntity
  8
DETAIL
100
AcDbLine
 10
1710.443356405862
 20
866.3520332370799
 30
0.0
 11
1847.398676725255
 21
775.0487195033229
 31
0.0
1001
ACAD
1010
0.0
1020
0.0
1030
0.0
1001
ACADANNOTATIVE
1000
AnnotativeData
1002
{
1070
     1
1070
     1
1002
}
  0
LINE
  5
2E88
330
2755
100
AcDbEntity
  8
DETAIL
100
AcDbLine
 10
1705.943395111973
 20
866.3520332370834
 30
0.0
 11
1847.398676725255
 21
772.0487529679094
 31
0.0
1001
ACAD
1010
0.0
1020
0.0
1030
0.0
1001
ACADANNOTATIVE
1000
AnnotativeData
1002
{
1070
     1
1070
     1
1002
}
  0
LINE
  5
2E89
330
2755
100
AcDbEntity
  8
DETAIL
100
AcDbLine
 10
1701.443433818089
 20
866.3520332370799
 30
0.0
 11
1847.398676725255
 21
769.0487864324921
 31
0.0
1001
ACAD
1010
0.0
1020
0.0
1030
0.0
1001
ACADANNOTATIVE
1000
AnnotativeData
1002
{
1070
     1
1070
     1
1002
}
  0
LINE
  5
2E8A
330
2755
100
AcDbEntity
  8
DETAIL
100
AcDbLine
 10
1696.943472524201
 20
866.3520332370817
 30
0.0
 11
1847.398676725255
 21
766.0488198970751
 31
0.0
1001
ACAD
1010
0.0
1020
0.0
1030
0.0
1001
ACADANNOTATIVE
1000
AnnotativeData
1002
{
1070
     1
1070
     1
1002
}
  0
LINE
  5
2E8B
330
2755
100
AcDbEntity
  8
DETAIL
100
AcDbLine
 10
1692.443511230315
 20
866.3520332370799
 30
0.0
 11
1847.398676725255
 21
763.048853361658
 31
0.0
1001
ACAD
1010
0.0
1020
0.0
1030
0.0
1001
ACADANNOTATIVE
1000
AnnotativeData
1002
{
1070
     1
1070
     1
1002
}
  0
LINE
  5
2E8C
330
2755
100
AcDbEntity
  8
DETAIL
100
AcDbLine
 10
1687.943549936431
 20
866.3520332370834
 30
0.0
 11
1847.398676725255
 21
760.0488868262447
 31
0.0
1001
ACAD
1010
0.0
1020
0.0
1030
0.0
1001
ACADANNOTATIVE
1000
AnnotativeData
1002
{
1070
     1
1070
     1
1002
}
  0
LINE
  5
2E8D
330
2755
100
AcDbEntity
  8
DETAIL
100
AcDbLine
 10
1683.443588642547
 20
866.3520332370817
 30
0.0
 11
1847.398676725255
 21
757.0489202908275
 31
0.0
1001
ACAD
1010
0.0
1020
0.0
1030
0.0
1001
ACADANNOTATIVE
1000
AnnotativeData
1002
{
1070
     1
1070
     1
1002
}
  0
LINE
  5
2E8E
330
2755
100
AcDbEntity
  8
DETAIL
100
AcDbLine
 10
1678.943627348662
 20
866.3520332370799
 30
0.0
 11
1847.398676725255
 21
754.0489537554102
 31
0.0
1001
ACAD
1010
0.0
1020
0.0
1030
0.0
1001
ACADANNOTATIVE
1000
AnnotativeData
1002
{
1070
     1
1070
     1
1002
}
  0
LINE
  5
2E8F
330
2755
100
AcDbEntity
  8
DETAIL
100
AcDbLine
 10
1674.443666054774
 20
866.3520332370799
 30
0.0
 11
1847.398676725255
 21
751.0489872199951
 31
0.0
1001
ACAD
1010
0.0
1020
0.0
1030
0.0
1001
ACADANNOTATIVE
1000
AnnotativeData
1002
{
1070
     1
1070
     1
1002
}
  0
LINE
  5
2E90
330
2755
100
AcDbEntity
  8
DETAIL
100
AcDbLine
 10
1669.94370476089
 20
866.3520332370781
 30
0.0
 11
1847.398676725255
 21
748.0490206845779
 31
0.0
1001
ACAD
1010
0.0
1020
0.0
1030
0.0
1001
ACADANNOTATIVE
1000
AnnotativeData
1002
{
1070
     1
1070
     1
1002
}
  0
LINE
  5
2E91
330
2755
100
AcDbEntity
  8
DETAIL
100
AcDbLine
 10
1665.443743467005
 20
866.3520332370817
 30
0.0
 11
1847.398676725255
 21
745.0490541491625
 31
0.0
1001
ACAD
1010
0.0
1020
0.0
1030
0.0
1001
ACADANNOTATIVE
1000
AnnotativeData
1002
{
1070
     1
1070
     1
1002
}
  0
LINE
  5
2E92
330
2755
100
AcDbEntity
  8
DETAIL
100
AcDbLine
 10
1660.943782173121
 20
866.3520332370817
 30
0.0
 11
1847.398676725255
 21
742.0490876137472
 31
0.0
1001
ACAD
1010
0.0
1020
0.0
1030
0.0
1001
ACADANNOTATIVE
1000
AnnotativeData
1002
{
1070
     1
1070
     1
1002
}
  0
LINE
  5
2E93
330
2755
100
AcDbEntity
  8
DETAIL
100
AcDbLine
 10
1656.443820879232
 20
866.3520332370799
 30
0.0
 11
1847.398676725255
 21
739.0491210783284
 31
0.0
1001
ACAD
1010
0.0
1020
0.0
1030
0.0
1001
ACADANNOTATIVE
1000
AnnotativeData
1002
{
1070
     1
1070
     1
1002
}
  0
LINE
  5
2E94
330
2755
100
AcDbEntity
  8
DETAIL
100
AcDbLine
 10
1651.943859585348
 20
866.3520332370781
 30
0.0
 11
1847.398676725255
 21
736.0491545429112
 31
0.0
1001
ACAD
1010
0.0
1020
0.0
1030
0.0
1001
ACADANNOTATIVE
1000
AnnotativeData
1002
{
1070
     1
1070
     1
1002
}
  0
LINE
  5
2E95
330
2755
100
AcDbEntity
  8
DETAIL
100
AcDbLine
 10
1647.44389829146
 20
866.3520332370834
 30
0.0
 11
1847.398676725255
 21
733.0491880074996
 31
0.0
1001
ACAD
1010
0.0
1020
0.0
1030
0.0
1001
ACADANNOTATIVE
1000
AnnotativeData
1002
{
1070
     1
1070
     1
1002
}
  0
LINE
  5
2E96
330
2755
100
AcDbEntity
  8
DETAIL
100
AcDbLine
 10
1642.943936997579
 20
866.3520332370817
 30
0.0
 11
1847.398676725255
 21
730.0492214720825
 31
0.0
1001
ACAD
1010
0.0
1020
0.0
1030
0.0
1001
ACADANNOTATIVE
1000
AnnotativeData
1002
{
1070
     1
1070
     1
1002
}
  0
LINE
  5
2E97
330
2755
100
AcDbEntity
  8
DETAIL
100
AcDbLine
 10
1638.443975703691
 20
866.3520332370817
 30
0.0
 11
1847.398676725255
 21
727.0492549366653
 31
0.0
1001
ACAD
1010
0.0
1020
0.0
1030
0.0
1001
ACADANNOTATIVE
1000
AnnotativeData
1002
{
1070
     1
1070
     1
1002
}
  0
LINE
  5
2E98
330
2755
100
AcDbEntity
  8
DETAIL
100
AcDbLine
 10
1633.944014409806
 20
866.3520332370781
 30
0.0
 11
1847.398676725255
 21
724.0492884012483
 31
0.0
1001
ACAD
1010
0.0
1020
0.0
1030
0.0
1001
ACADANNOTATIVE
1000
AnnotativeData
1002
{
1070
     1
1070
     1
1002
}
  0
LINE
  5
2E99
330
2755
100
AcDbEntity
  8
DETAIL
100
AcDbLine
 10
1631.598676725256
 20
864.915621165449
 30
0.0
 11
1847.398676725255
 21
721.0493218658348
 31
0.0
1001
ACAD
1010
0.0
1020
0.0
1030
0.0
1001
ACADANNOTATIVE
1000
AnnotativeData
1002
{
1070
     1
1070
     1
1002
}
  0
LINE
  5
2E9A
330
2755
100
AcDbEntity
  8
DETAIL
100
AcDbLine
 10
1631.598676725256
 20
861.9156546300301
 30
0.0
 11
1847.398676725255
 21
718.0493553304176
 31
0.0
1001
ACAD
1010
0.0
1020
0.0
1030
0.0
1001
ACADANNOTATIVE
1000
AnnotativeData
1002
{
1070
     1
1070
     1
1002
}
  0
LINE
  5
2E9B
330
2755
100
AcDbEntity
  8
DETAIL
100
AcDbLine
 10
1631.598676725256
 20
858.9156880946129
 30
0.0
 11
1847.398676725255
 21
715.0493887950005
 31
0.0
1001
ACAD
1010
0.0
1020
0.0
1030
0.0
1001
ACADANNOTATIVE
1000
AnnotativeData
1002
{
1070
     1
1070
     1
1002
}
  0
LINE
  5
2E9C
330
2755
100
AcDbEntity
  8
DETAIL
100
AcDbLine
 10
1631.598676725256
 20
855.9157215591959
 30
0.0
 11
1847.398676725255
 21
712.0494222595834
 31
0.0
1001
ACAD
1010
0.0
1020
0.0
1030
0.0
1001
ACADANNOTATIVE
1000
AnnotativeData
1002
{
1070
     1
1070
     1
1002
}
  0
LINE
  5
2E9D
330
2755
100
AcDbEntity
  8
DETAIL
100
AcDbLine
 10
1631.598676725256
 20
852.9157550237805
 30
0.0
 11
1847.398676725255
 21
709.0494557241662
 31
0.0
1001
ACAD
1010
0.0
1020
0.0
1030
0.0
1001
ACADANNOTATIVE
1000
AnnotativeData
1002
{
1070
     1
1070
     1
1002
}
  0
LINE
  5
2E9E
330
2755
100
AcDbEntity
  8
DETAIL
100
AcDbLine
 10
1631.598676725256
 20
849.9157884883668
 30
0.0
 11
1847.398676725255
 21
706.0494891887529
 31
0.0
1001
ACAD
1010
0.0
1020
0.0
1030
0.0
1001
ACADANNOTATIVE
1000
AnnotativeData
1002
{
1070
     1
1070
     1
1002
}
  0
LINE
  5
2E9F
330
2755
100
AcDbEntity
  8
DETAIL
100
AcDbLine
 10
1631.598676725256
 20
846.91582195295
 30
0.0
 11
1847.398676725255
 21
703.0495226533357
 31
0.0
1001
ACAD
1010
0.0
1020
0.0
1030
0.0
1001
ACADANNOTATIVE
1000
AnnotativeData
1002
{
1070
     1
1070
     1
1002
}
  0
LINE
  5
2EA0
330
2755
100
AcDbEntity
  8
DETAIL
100
AcDbLine
 10
1631.598676725252
 20
843.9158554175328
 30
0.0
 11
1847.398676725255
 21
700.0495561179186
 31
0.0
1001
ACAD
1010
0.0
1020
0.0
1030
0.0
1001
ACADANNOTATIVE
1000
AnnotativeData
1002
{
1070
     1
1070
     1
1002
}
  0
LINE
  5
2EA1
330
2755
100
AcDbEntity
  8
DETAIL
100
AcDbLine
 10
1631.598676725256
 20
840.9158888821156
 30
0.0
 11
1847.398676725255
 21
697.0495895825015
 31
0.0
1001
ACAD
1010
0.0
1020
0.0
1030
0.0
1001
ACADANNOTATIVE
1000
AnnotativeData
1002
{
1070
     1
1070
     1
1002
}
  0
LINE
  5
2EA2
330
2755
100
AcDbEntity
  8
DETAIL
100
AcDbLine
 10
1631.598676725256
 20
837.9159223467022
 30
0.0
 11
1847.398676725255
 21
694.0496230470881
 31
0.0
1001
ACAD
1010
0.0
1020
0.0
1030
0.0
1001
ACADANNOTATIVE
1000
AnnotativeData
1002
{
1070
     1
1070
     1
1002
}
  0
LINE
  5
2EA3
330
2755
100
AcDbEntity
  8
DETAIL
100
AcDbLine
 10
1631.598676725256
 20
834.9159558112852
 30
0.0
 11
1847.398676725255
 21
691.0496565116708
 31
0.0
1001
ACAD
1010
0.0
1020
0.0
1030
0.0
1001
ACADANNOTATIVE
1000
AnnotativeData
1002
{
1070
     1
1070
     1
1002
}
  0
LINE
  5
2EA4
330
2755
100
AcDbEntity
  8
DETAIL
100
AcDbLine
 10
1631.598676725256
 20
831.9159892758682
 30
0.0
 11
1847.398676725255
 21
688.0496899762538
 31
0.0
1001
ACAD
1010
0.0
1020
0.0
1030
0.0
1001
ACADANNOTATIVE
1000
AnnotativeData
1002
{
1070
     1
1070
     1
1002
}
  0
LINE
  5
2EA5
330
2755
100
AcDbEntity
  8
DETAIL
100
AcDbLine
 10
1631.598676725256
 20
828.9160227404508
 30
0.0
 11
1847.398676725255
 21
685.0497234408367
 31
0.0
1001
ACAD
1010
0.0
1020
0.0
1030
0.0
1001
ACADANNOTATIVE
1000
AnnotativeData
1002
{
1070
     1
1070
     1
1002
}
  0
LINE
  5
2EA6
330
2755
100
AcDbEntity
  8
DETAIL
100
AcDbLine
 10
1631.598676725256
 20
825.9160562050372
 30
0.0
 11
1847.398676725255
 21
682.0497569054232
 31
0.0
1001
ACAD
1010
0.0
1020
0.0
1030
0.0
1001
ACADANNOTATIVE
1000
AnnotativeData
1002
{
1070
     1
1070
     1
1002
}
  0
LINE
  5
2EA7
330
2755
100
AcDbEntity
  8
DETAIL
100
AcDbLine
 10
1631.598676725256
 20
822.9160896696201
 30
0.0
 11
1847.398676725255
 21
679.0497903700061
 31
0.0
1001
ACAD
1010
0.0
1020
0.0
1030
0.0
1001
ACADANNOTATIVE
1000
AnnotativeData
1002
{
1070
     1
1070
     1
1002
}
  0
LINE
  5
2EA8
330
2755
100
AcDbEntity
  8
DETAIL
100
AcDbLine
 10
1631.598676725256
 20
819.9161231342031
 30
0.0
 11
1847.398676725255
 21
676.0498238345888
 31
0.0
1001
ACAD
1010
0.0
1020
0.0
1030
0.0
1001
ACADANNOTATIVE
1000
AnnotativeData
1002
{
1070
     1
1070
     1
1002
}
  0
LINE
  5
2EA9
330
2755
100
AcDbEntity
  8
DETAIL
100
AcDbLine
 10
1631.598676725256
 20
816.916156598786
 30
0.0
 11
1847.398676725255
 21
673.0498572991717
 31
0.0
1001
ACAD
1010
0.0
1020
0.0
1030
0.0
1001
ACADANNOTATIVE
1000
AnnotativeData
1002
{
1070
     1
1070
     1
1002
}
  0
LINE
  5
2EAA
330
2755
100
AcDbEntity
  8
DETAIL
100
AcDbLine
 10
1631.598676725256
 20
813.9161900633688
 30
0.0
 11
1843.645453431322
 21
672.5520332370788
 31
0.0
1001
ACAD
1010
0.0
1020
0.0
1030
0.0
1001
ACADANNOTATIVE
1000
AnnotativeData
1002
{
1070
     1
1070
     1
1002
}
  0
LINE
  5
2EAB
330
2755
100
AcDbEntity
  8
DETAIL
100
AcDbLine
 10
1631.598676725256
 20
810.9162235279555
 30
0.0
 11
1839.145492137433
 21
672.5520332370843
 31
0.0
1001
ACAD
1010
0.0
1020
0.0
1030
0.0
1001
ACADANNOTATIVE
1000
AnnotativeData
1002
{
1070
     1
1070
     1
1002
}
  0
LINE
  5
2EAC
330
2755
100
AcDbEntity
  8
DETAIL
100
AcDbLine
 10
1631.598676725256
 20
807.9162569925383
 30
0.0
 11
1834.645530843548
 21
672.5520332370823
 31
0.0
1001
ACAD
1010
0.0
1020
0.0
1030
0.0
1001
ACADANNOTATIVE
1000
AnnotativeData
1002
{
1070
     1
1070
     1
1002
}
  0
LINE
  5
2EAD
330
2755
100
AcDbEntity
  8
DETAIL
100
AcDbLine
 10
1631.598676725256
 20
804.9162904571213
 30
0.0
 11
1830.145569549664
 21
672.5520332370806
 31
0.0
1001
ACAD
1010
0.0
1020
0.0
1030
0.0
1001
ACADANNOTATIVE
1000
AnnotativeData
1002
{
1070
     1
1070
     1
1002
}
  0
LINE
  5
2EAE
330
2755
100
AcDbEntity
  8
DETAIL
100
AcDbLine
 10
1631.598676725256
 20
801.9163239217041
 30
0.0
 11
1825.645608255779
 21
672.5520332370788
 31
0.0
1001
ACAD
1010
0.0
1020
0.0
1030
0.0
1001
ACADANNOTATIVE
1000
AnnotativeData
1002
{
1070
     1
1070
     1
1002
}
  0
LINE
  5
2EAF
330
2755
100
AcDbEntity
  8
DETAIL
100
AcDbLine
 10
1631.598676725256
 20
798.9163573862905
 30
0.0
 11
1821.145646961891
 21
672.5520332370843
 31
0.0
1001
ACAD
1010
0.0
1020
0.0
1030
0.0
1001
ACADANNOTATIVE
1000
AnnotativeData
1002
{
1070
     1
1070
     1
1002
}
  0
LINE
  5
2EB0
330
2755
100
AcDbEntity
  8
DETAIL
100
AcDbLine
 10
1631.598676725256
 20
795.9163908508736
 30
0.0
 11
1816.645685668007
 21
672.5520332370823
 31
0.0
1001
ACAD
1010
0.0
1020
0.0
1030
0.0
1001
ACADANNOTATIVE
1000
AnnotativeData
1002
{
1070
     1
1070
     1
1002
}
  0
LINE
  5
2EB1
330
2755
100
AcDbEntity
  8
DETAIL
100
AcDbLine
 10
1631.598676725252
 20
792.9164243154564
 30
0.0
 11
1812.145724374122
 21
672.5520332370823
 31
0.0
1001
ACAD
1010
0.0
1020
0.0
1030
0.0
1001
ACADANNOTATIVE
1000
AnnotativeData
1002
{
1070
     1
1070
     1
1002
}
  0
LINE
  5
2EB2
330
2755
100
AcDbEntity
  8
DETAIL
100
AcDbLine
 10
1631.598676725256
 20
789.9164577800412
 30
0.0
 11
1807.645763080238
 21
672.5520332370788
 31
0.0
1001
ACAD
1010
0.0
1020
0.0
1030
0.0
1001
ACADANNOTATIVE
1000
AnnotativeData
1002
{
1070
     1
1070
     1
1002
}
  0
LINE
  5
2EB3
330
2755
100
AcDbEntity
  8
DETAIL
100
AcDbLine
 10
1631.598676725256
 20
786.9164912446257
 30
0.0
 11
1803.145801786353
 21
672.5520332370823
 31
0.0
1001
ACAD
1010
0.0
1020
0.0
1030
0.0
1001
ACADANNOTATIVE
1000
AnnotativeData
1002
{
1070
     1
1070
     1
1002
}
  0
LINE
  5
2EB4
330
2755
100
AcDbEntity
  8
DETAIL
100
AcDbLine
 10
1631.598676725256
 20
783.9165247092087
 30
0.0
 11
1798.645840492465
 21
672.5520332370823
 31
0.0
1001
ACAD
1010
0.0
1020
0.0
1030
0.0
1001
ACADANNOTATIVE
1000
AnnotativeData
1002
{
1070
     1
1070
     1
1002
}
  0
LINE
  5
2EB5
330
2755
100
AcDbEntity
  8
DETAIL
100
AcDbLine
 10
1631.598676725256
 20
780.9165581737914
 30
0.0
 11
1794.145879198584
 21
672.5520332370806
 31
0.0
1001
ACAD
1010
0.0
1020
0.0
1030
0.0
1001
ACADANNOTATIVE
1000
AnnotativeData
1002
{
1070
     1
1070
     1
1002
}
  0
LINE
  5
2EB6
330
2755
100
AcDbEntity
  8
DETAIL
100
AcDbLine
 10
1631.598676725256
 20
777.9165916383743
 30
0.0
 11
1789.645917904696
 21
672.5520332370806
 31
0.0
1001
ACAD
1010
0.0
1020
0.0
1030
0.0
1001
ACADANNOTATIVE
1000
AnnotativeData
1002
{
1070
     1
1070
     1
1002
}
  0
LINE
  5
2EB7
330
2755
100
AcDbEntity
  8
DETAIL
100
AcDbLine
 10
1631.598676725256
 20
774.9166251029593
 30
0.0
 11
1785.145956610808
 21
672.5520332370788
 31
0.0
1001
ACAD
1010
0.0
1020
0.0
1030
0.0
1001
ACADANNOTATIVE
1000
AnnotativeData
1002
{
1070
     1
1070
     1
1002
}
  0
LINE
  5
2EB8
330
2755
100
AcDbEntity
  8
DETAIL
100
AcDbLine
 10
1631.598676725256
 20
771.9166585675456
 30
0.0
 11
1780.645995316923
 21
672.5520332370823
 31
0.0
1001
ACAD
1010
0.0
1020
0.0
1030
0.0
1001
ACADANNOTATIVE
1000
AnnotativeData
1002
{
1070
     1
1070
     1
1002
}
  0
LINE
  5
2EB9
330
2755
100
AcDbEntity
  8
DETAIL
100
AcDbLine
 10
1631.59867672526
 20
768.9166920321268
 30
0.0
 11
1776.146034023039
 21
672.5520332370806
 31
0.0
1001
ACAD
1010
0.0
1020
0.0
1030
0.0
1001
ACADANNOTATIVE
1000
AnnotativeData
1002
{
1070
     1
1070
     1
1002
}
  0
LINE
  5
2EBA
330
2755
100
AcDbEntity
  8
DETAIL
100
AcDbLine
 10
1631.59867672526
 20
765.9167254967095
 30
0.0
 11
1771.646072729154
 21
672.5520332370806
 31
0.0
1001
ACAD
1010
0.0
1020
0.0
1030
0.0
1001
ACADANNOTATIVE
1000
AnnotativeData
1002
{
1070
     1
1070
     1
1002
}
  0
LINE
  5
2EBB
330
2755
100
AcDbEntity
  8
DETAIL
100
AcDbLine
 10
1631.59867672526
 20
762.9167589612925
 30
0.0
 11
1767.146111435266
 21
672.5520332370806
 31
0.0
1001
ACAD
1010
0.0
1020
0.0
1030
0.0
1001
ACADANNOTATIVE
1000
AnnotativeData
1002
{
1070
     1
1070
     1
1002
}
  0
LINE
  5
2EBC
330
2755
100
AcDbEntity
  8
DETAIL
100
AcDbLine
 10
1631.59867672526
 20
759.9167924258772
 30
0.0
 11
1762.646150141381
 21
672.5520332370823
 31
0.0
1001
ACAD
1010
0.0
1020
0.0
1030
0.0
1001
ACADANNOTATIVE
1000
AnnotativeData
1002
{
1070
     1
1070
     1
1002
}
  0
LINE
  5
2EBD
330
2755
100
AcDbEntity
  8
DETAIL
100
AcDbLine
 10
1631.59867672526
 20
756.91682589046
 30
0.0
 11
1758.146188847497
 21
672.5520332370806
 31
0.0
1001
ACAD
1010
0.0
1020
0.0
1030
0.0
1001
ACADANNOTATIVE
1000
AnnotativeData
1002
{
1070
     1
1070
     1
1002
}
  0
LINE
  5
2EBE
330
2755
100
AcDbEntity
  8
DETAIL
100
AcDbLine
 10
1631.59867672526
 20
753.9168593550447
 30
0.0
 11
1753.646227553612
 21
672.5520332370806
 31
0.0
1001
ACAD
1010
0.0
1020
0.0
1030
0.0
1001
ACADANNOTATIVE
1000
AnnotativeData
1002
{
1070
     1
1070
     1
1002
}
  0
LINE
  5
2EBF
330
2755
100
AcDbEntity
  8
DETAIL
100
AcDbLine
 10
1631.59867672526
 20
750.9168928196277
 30
0.0
 11
1749.146266259724
 21
672.5520332370806
 31
0.0
1001
ACAD
1010
0.0
1020
0.0
1030
0.0
1001
ACADANNOTATIVE
1000
AnnotativeData
1002
{
1070
     1
1070
     1
1002
}
  0
LINE
  5
2EC0
330
2755
100
AcDbEntity
  8
DETAIL
100
AcDbLine
 10
1631.59867672526
 20
747.9169262842143
 30
0.0
 11
1744.64630496584
 21
672.5520332370843
 31
0.0
1001
ACAD
1010
0.0
1020
0.0
1030
0.0
1001
ACADANNOTATIVE
1000
AnnotativeData
1002
{
1070
     1
1070
     1
1002
}
  0
LINE
  5
2EC1
330
2755
100
AcDbEntity
  8
DETAIL
100
AcDbLine
 10
1631.59867672526
 20
744.9169597487971
 30
0.0
 11
1740.146343671955
 21
672.5520332370806
 31
0.0
1001
ACAD
1010
0.0
1020
0.0
1030
0.0
1001
ACADANNOTATIVE
1000
AnnotativeData
1002
{
1070
     1
1070
     1
1002
}
  0
LINE
  5
2EC2
330
2755
100
AcDbEntity
  8
DETAIL
100
AcDbLine
 10
1631.59867672526
 20
741.91699321338
 30
0.0
 11
1735.64638237807
 21
672.5520332370806
 31
0.0
1001
ACAD
1010
0.0
1020
0.0
1030
0.0
1001
ACADANNOTATIVE
1000
AnnotativeData
1002
{
1070
     1
1070
     1
1002
}
  0
LINE
  5
2EC3
330
2755
100
AcDbEntity
  8
DETAIL
100
AcDbLine
 10
1631.59867672526
 20
738.9170266779627
 30
0.0
 11
1731.146421084182
 21
672.5520332370806
 31
0.0
1001
ACAD
1010
0.0
1020
0.0
1030
0.0
1001
ACADANNOTATIVE
1000
AnnotativeData
1002
{
1070
     1
1070
     1
1002
}
  0
LINE
  5
2EC4
330
2755
100
AcDbEntity
  8
DETAIL
100
AcDbLine
 10
1631.59867672526
 20
735.9170601425457
 30
0.0
 11
1726.646459790298
 21
672.5520332370788
 31
0.0
1001
ACAD
1010
0.0
1020
0.0
1030
0.0
1001
ACADANNOTATIVE
1000
AnnotativeData
1002
{
1070
     1
1070
     1
1002
}
  0
LINE
  5
2EC5
330
2755
100
AcDbEntity
  8
DETAIL
100
AcDbLine
 10
1631.59867672526
 20
732.9170936071323
 30
0.0
 11
1722.146498496413
 21
672.5520332370823
 31
0.0
1001
ACAD
1010
0.0
1020
0.0
1030
0.0
1001
ACADANNOTATIVE
1000
AnnotativeData
1002
{
1070
     1
1070
     1
1002
}
  0
LINE
  5
2EC6
330
2755
100
AcDbEntity
  8
DETAIL
100
AcDbLine
 10
1631.59867672526
 20
729.9171270717152
 30
0.0
 11
1717.646537202529
 21
672.5520332370788
 31
0.0
1001
ACAD
1010
0.0
1020
0.0
1030
0.0
1001
ACADANNOTATIVE
1000
AnnotativeData
1002
{
1070
     1
1070
     1
1002
}
  0
LINE
  5
2EC7
330
2755
100
AcDbEntity
  8
DETAIL
100
AcDbLine
 10
1631.59867672526
 20
726.9171605362981
 30
0.0
 11
1713.146575908641
 21
672.5520332370806
 31
0.0
1001
ACAD
1010
0.0
1020
0.0
1030
0.0
1001
ACADANNOTATIVE
1000
AnnotativeData
1002
{
1070
     1
1070
     1
1002
}
  0
LINE
  5
2EC8
330
2755
100
AcDbEntity
  8
DETAIL
100
AcDbLine
 10
1631.59867672526
 20
723.9171940008808
 30
0.0
 11
1708.646614614756
 21
672.5520332370788
 31
0.0
1001
ACAD
1010
0.0
1020
0.0
1030
0.0
1001
ACADANNOTATIVE
1000
AnnotativeData
1002
{
1070
     1
1070
     1
1002
}
  0
LINE
  5
2EC9
330
2755
100
AcDbEntity
  8
DETAIL
100
AcDbLine
 10
1631.59867672526
 20
720.9172274654673
 30
0.0
 11
1704.146653320871
 21
672.5520332370823
 31
0.0
1001
ACAD
1010
0.0
1020
0.0
1030
0.0
1001
ACADANNOTATIVE
1000
AnnotativeData
1002
{
1070
     1
1070
     1
1002
}
  0
LINE
  5
2ECA
330
2755
100
AcDbEntity
  8
DETAIL
100
AcDbLine
 10
1631.59867672526
 20
717.9172609300502
 30
0.0
 11
1699.646692026987
 21
672.5520332370806
 31
0.0
1001
ACAD
1010
0.0
1020
0.0
1030
0.0
1001
ACADANNOTATIVE
1000
AnnotativeData
1002
{
1070
     1
1070
     1
1002
}
  0
LINE
  5
2ECB
330
2755
100
AcDbEntity
  8
DETAIL
100
AcDbLine
 10
1631.59867672526
 20
714.9172943946331
 30
0.0
 11
1695.146730733095
 21
672.5520332370823
 31
0.0
1001
ACAD
1010
0.0
1020
0.0
1030
0.0
1001
ACADANNOTATIVE
1000
AnnotativeData
1002
{
1070
     1
1070
     1
1002
}
  0
LINE
  5
2ECC
330
2755
100
AcDbEntity
  8
DETAIL
100
AcDbLine
 10
1631.59867672526
 20
711.9173278592161
 30
0.0
 11
1690.646769439213
 21
672.5520332370788
 31
0.0
1001
ACAD
1010
0.0
1020
0.0
1030
0.0
1001
ACADANNOTATIVE
1000
AnnotativeData
1002
{
1070
     1
1070
     1
1002
}
  0
LINE
  5
2ECD
330
2755
100
AcDbEntity
  8
DETAIL
100
AcDbLine
 10
1631.59867672526
 20
708.9173613238026
 30
0.0
 11
1686.146808145326
 21
672.5520332370823
 31
0.0
1001
ACAD
1010
0.0
1020
0.0
1030
0.0
1001
ACADANNOTATIVE
1000
AnnotativeData
1002
{
1070
     1
1070
     1
1002
}
  0
LINE
  5
2ECE
330
2755
100
AcDbEntity
  8
DETAIL
100
AcDbLine
 10
1631.59867672526
 20
705.9173947883854
 30
0.0
 11
1681.646846851441
 21
672.5520332370806
 31
0.0
1001
ACAD
1010
0.0
1020
0.0
1030
0.0
1001
ACADANNOTATIVE
1000
AnnotativeData
1002
{
1070
     1
1070
     1
1002
}
  0
LINE
  5
2ECF
330
2755
100
AcDbEntity
  8
DETAIL
100
AcDbLine
 10
1631.59867672526
 20
702.9174282529684
 30
0.0
 11
1677.146885557556
 21
672.5520332370806
 31
0.0
1001
ACAD
1010
0.0
1020
0.0
1030
0.0
1001
ACADANNOTATIVE
1000
AnnotativeData
1002
{
1070
     1
1070
     1
1002
}
  0
LINE
  5
2ED0
330
2755
100
AcDbEntity
  8
DETAIL
100
AcDbLine
 10
1631.59867672526
 20
699.9174617175513
 30
0.0
 11
1672.646924263672
 21
672.5520332370788
 31
0.0
1001
ACAD
1010
0.0
1020
0.0
1030
0.0
1001
ACADANNOTATIVE
1000
AnnotativeData
1002
{
1070
     1
1070
     1
1002
}
  0
LINE
  5
2ED1
330
2755
100
AcDbEntity
  8
DETAIL
100
AcDbLine
 10
1631.59867672526
 20
696.9174951821343
 30
0.0
 11
1668.146962969784
 21
672.5520332370788
 31
0.0
1001
ACAD
1010
0.0
1020
0.0
1030
0.0
1001
ACADANNOTATIVE
1000
AnnotativeData
1002
{
1070
     1
1070
     1
1002
}
  0
LINE
  5
2ED2
330
2755
100
AcDbEntity
  8
DETAIL
100
AcDbLine
 10
1631.59867672526
 20
693.9175286467206
 30
0.0
 11
1663.647001675903
 21
672.5520332370806
 31
0.0
1001
ACAD
1010
0.0
1020
0.0
1030
0.0
1001
ACADANNOTATIVE
1000
AnnotativeData
1002
{
1070
     1
1070
     1
1002
}
  0
LINE
  5
2ED3
330
2755
100
AcDbEntity
  8
DETAIL
100
AcDbLine
 10
1631.59867672526
 20
690.9175621113054
 30
0.0
 11
1659.147040382015
 21
672.5520332370806
 31
0.0
1001
ACAD
1010
0.0
1020
0.0
1030
0.0
1001
ACADANNOTATIVE
1000
AnnotativeData
1002
{
1070
     1
1070
     1
1002
}
  0
LINE
  5
2ED4
330
2755
100
AcDbEntity
  8
DETAIL
100
AcDbLine
 10
1631.59867672526
 20
687.9175955758881
 30
0.0
 11
1654.64707908813
 21
672.5520332370806
 31
0.0
1001
ACAD
1010
0.0
1020
0.0
1030
0.0
1001
ACADANNOTATIVE
1000
AnnotativeData
1002
{
1070
     1
1070
     1
1002
}
  0
LINE
  5
2ED5
330
2755
100
AcDbEntity
  8
DETAIL
100
AcDbLine
 10
1631.59867672526
 20
684.9176290404694
 30
0.0
 11
1650.147117794246
 21
672.552033237077
 31
0.0
1001
ACAD
1010
0.0
1020
0.0
1030
0.0
1001
ACADANNOTATIVE
1000
AnnotativeData
1002
{
1070
     1
1070
     1
1002
}
  0
LINE
  5
2ED6
330
2755
100
AcDbEntity
  8
DETAIL
100
AcDbLine
 10
1631.59867672526
 20
681.9176625050559
 30
0.0
 11
1645.647156500357
 21
672.5520332370806
 31
0.0
1001
ACAD
1010
0.0
1020
0.0
1030
0.0
1001
ACADANNOTATIVE
1000
AnnotativeData
1002
{
1070
     1
1070
     1
1002
}
  0
LINE
  5
2ED7
330
2755
100
AcDbEntity
  8
DETAIL
100
AcDbLine
 10
1631.59867672526
 20
678.9176959696387
 30
0.0
 11
1641.147195206473
 21
672.5520332370806
 31
0.0
1001
ACAD
1010
0.0
1020
0.0
1030
0.0
1001
ACADANNOTATIVE
1000
AnnotativeData
1002
{
1070
     1
1070
     1
1002
}
  0
LINE
  5
2ED8
330
2755
100
AcDbEntity
  8
DETAIL
100
AcDbLine
 10
1631.59867672526
 20
675.9177294342235
 30
0.0
 11
1636.647233912588
 21
672.5520332370806
 31
0.0
1001
ACAD
1010
0.0
1020
0.0
1030
0.0
1001
ACADANNOTATIVE
1000
AnnotativeData
1002
{
1070
     1
1070
     1
1002
}
  0
LINE
  5
2ED9
330
2755
100
AcDbEntity
  8
DETAIL
100
AcDbLine
 10
1631.59867672526
 20
672.9177628988062
 30
0.0
 11
1632.147272618704
 21
672.5520332370788
 31
0.0
1001
ACAD
1010
0.0
1020
0.0
1030
0.0
1001
ACADANNOTATIVE
1000
AnnotativeData
1002
{
1070
     1
1070
     1
1002
}
  0
LINE
  5
2EDA
330
2755
100
AcDbEntity
  8
DETAIL
100
AcDbLine
 10
1631.598676725263
 20
866.3520332370822
 30
0.0
 11
1631.598676725263
 21
672.5520332370823
 31
0.0
  0
LINE
  5
2EDB
330
2755
100
AcDbEntity
  8
DETAIL
100
AcDbLine
 10
1847.398676725262
 20
866.3520332370822
 30
0.0
 11
1847.398676725262
 21
672.5520332370823
 31
0.0
  0
LINE
  5
2EDC
330
2755
100
AcDbEntity
  8
DETAIL
100
AcDbLine
 10
1847.398676725262
 20
866.3520332370822
 30
0.0
 11
1631.598676725263
 21
866.3520332370822
 31
0.0
  0
LINE
  5
2EDD
330
2755
100
AcDbEntity
  8
DETAIL
100
AcDbLine
 10
1631.598676725263
 20
672.5520332370823
 30
0.0
 11
1847.398676725262
 21
672.5520332370823
 31
0.0
  0
ENDSEC
  0
SECTION
  2
OBJECTS
  0
DICTIONARY
  5
26ED
330
0
100
AcDbDictionary
281
     1
  3
ACAD_2007HEADERVARS_RT
350
2FC1
  3
ACAD_COLOR
350
274B
  3
ACAD_GROUP
350
26EE
  3
ACAD_LAYOUT
350
274A
  3
ACAD_MATERIAL
350
26F1
  3
ACAD_MLEADERSTYLE
350
274E
  3
ACAD_MLINESTYLE
350
2747
  3
ACAD_PLOTSETTINGS
350
2749
  3
ACAD_PLOTSTYLENAME
350
26EF
  3
ACAD_SCALELIST
350
271B
  3
ACAD_TABLESTYLE
350
274C
  3
ACAD_VISUALSTYLE
350
270A
  3
ACDB_RECOMPOSE_DATA
350
2941
  3
AcDbVariableDictionary
350
2938
  3
AcmDictionary
350
28EB
  3
AMG
350
2838
  3
AMGSNAPSETTINGS
350
2A32
  0
DICTIONARY
  5
2A3B
330
26E3
100
AcDbDictionary
280
     1
281
     1
  3
ACAD_LAYERSTATES
360
2A3C
  0
DICTIONARY
  5
2913
330
273D
100
AcDbDictionary
280
     1
281
     1
  3
ADSK_XREC_LAYER_RECONCILED
360
2914
  0
DICTIONARY
  5
2915
330
276C
100
AcDbDictionary
280
     1
281
     1
  3
ADSK_XREC_LAYER_RECONCILED
360
2916
  0
DICTIONARY
  5
2917
330
276D
100
AcDbDictionary
280
     1
281
     1
  3
ADSK_XREC_LAYER_RECONCILED
360
2918
  0
DICTIONARY
  5
2919
330
276E
100
AcDbDictionary
280
     1
281
     1
  3
ADSK_XREC_LAYER_RECONCILED
360
291A
  0
DICTIONARY
  5
291B
330
276F
100
AcDbDictionary
280
     1
281
     1
  3
ADSK_XREC_LAYER_RECONCILED
360
291C
  0
DICTIONARY
  5
291D
330
2770
100
AcDbDictionary
280
     1
281
     1
  3
ADSK_XREC_LAYER_RECONCILED
360
291E
  0
DICTIONARY
  5
291F
330
2772
100
AcDbDictionary
280
     1
281
     1
  3
ADSK_XREC_LAYER_RECONCILED
360
2920
  0
DICTIONARY
  5
2921
330
2773
100
AcDbDictionary
280
     1
281
     1
  3
ADSK_XREC_LAYER_RECONCILED
360
2922
  0
DICTIONARY
  5
2923
330
2774
100
AcDbDictionary
280
     1
281
     1
  3
ADSK_XREC_LAYER_RECONCILED
360
2924
  0
DICTIONARY
  5
2925
330
2775
100
AcDbDictionary
280
     1
281
     1
  3
ADSK_XREC_LAYER_RECONCILED
360
2926
  0
DICTIONARY
  5
2927
330
2776
100
AcDbDictionary
280
     1
281
     1
  3
ADSK_XREC_LAYER_RECONCILED
360
2928
  0
DICTIONARY
  5
2929
330
2755
100
AcDbDictionary
280
     1
281
     1
  3
ACAD_INDEX
360
292A
  0
DICTIONARY
  5
2FC1
102
{ACAD_REACTORS
330
26ED
102
}
330
26ED
100
AcDbDictionary
281
     1
  3
DIMARCSYM
350
2FC2
  3
DIMLTEX1
350
2FC4
  3
DIMLTEX2
350
2FC5
  3
DIMLTYPE
350
2FC3
  0
DICTIONARY
  5
274B
102
{ACAD_REACTORS
330
26ED
102
}
330
26ED
100
AcDbDictionary
281
     1
  0
DICTIONARY
  5
26EE
102
{ACAD_REACTORS
330
26ED
102
}
330
26ED
100
AcDbDictionary
281
     1
  0
DICTIONARY
  5
274A
102
{ACAD_REACTORS
330
26ED
102
}
330
26ED
100
AcDbDictionary
281
     1
  3
Model
350
2758
  3
レイアウト1
350
2754
  0
DICTIONARY
  5
26F1
102
{ACAD_REACTORS
330
26ED
102
}
330
26ED
100
AcDbDictionary
281
     1
  3
ByBlock
350
26FA
  3
ByLayer
350
26F2
  3
Global
350
2702
  0
DICTIONARY
  5
274E
102
{ACAD_REACTORS
330
26ED
102
}
330
26ED
100
AcDbDictionary
281
     1
  3
Standard
350
274F
  0
DICTIONARY
  5
2747
102
{ACAD_REACTORS
330
26ED
102
}
330
26ED
100
AcDbDictionary
281
     1
  3
Standard
350
2748
  0
DICTIONARY
  5
2749
102
{ACAD_REACTORS
330
26ED
102
}
330
26ED
100
AcDbDictionary
281
     1
  0
ACDBDICTIONARYWDFLT
  5
26EF
102
{ACAD_REACTORS
330
26ED
102
}
330
26ED
100
AcDbDictionary
281
     1
  3
Normal
350
26F0
100
AcDbDictionaryWithDefault
340
26F0
  0
DICTIONARY
  5
271B
102
{ACAD_REACTORS
330
26ED
102
}
330
26ED
100
AcDbDictionary
281
     1
  3
A0
350
271C
  3
A1
350
271D
  3
A2
350
271E
  3
A3
350
271F
  3
A4
350
2720
  3
A5
350
2721
  3
A6
350
2722
  3
A7
350
2723
  3
A8
350
2724
  3
A9
350
2725
  3
B0
350
2726
  3
B1
350
2727
  3
B2
350
2728
  3
B3
350
2729
  3
B4
350
272A
  3
B5
350
272B
  3
B6
350
272C
  3
B7
350
272D
  3
B8
350
272E
  3
B9
350
272F
  3
C0
350
2730
  3
C1
350
2731
  3
C2
350
2732
  3
C3
350
2733
  3
C4
350
2734
  3
C5
350
2735
  3
C6
350
2736
  3
C7
350
2737
  3
C8
350
2738
  3
C9
350
2739
  3
D0
350
273A
  3
D1
350
273B
  3
D2
350
273C
  0
DICTIONARY
  5
274C
102
{ACAD_REACTORS
330
26ED
102
}
330
26ED
100
AcDbDictionary
281
     1
  3
Standard
350
274D
  0
DICTIONARY
  5
270A
102
{ACAD_REACTORS
330
26ED
102
}
330
26ED
100
AcDbDictionary
281
     1
  3
2dWireframe
350
2710
  3
3D Hidden
350
2712
  3
3dWireframe
350
2711
  3
Basic
350
270F
  3
Brighten
350
2716
  3
ColorChange
350
271A
  3
Conceptual
350
2713
  3
Dim
350
2715
  3
Facepattern
350
2719
  3
Flat
350
270B
  3
FlatWithEdges
350
270C
  3
Gouraud
350
270D
  3
GouraudWithEdges
350
270E
  3
Linepattern
350
2718
  3
Realistic
350
2714
  3
Thicken
350
2717
  0
XRECORD
  5
2941
102
{ACAD_REACTORS
330
26ED
102
}
330
26ED
100
AcDbXrecord
280
     1
 90
        1
330
274D
  0
DICTIONARY
  5
2938
102
{ACAD_REACTORS
330
26ED
102
}
330
26ED
100
AcDbDictionary
281
     1
  3
CANNOSCALE
350
293B
  3
CMLEADERSTYLE
350
293A
  3
CTABLESTYLE
350
2939
  3
DIMASSOC
350
293E
  3
INDEXCTL
350
293D
  3
LAYEREVAL
350
2B78
  3
LAYERNOTIFY
350
2B79
  3
LIGHTINGUNITS
350
2B77
  3
LOFTANG1
350
2FBD
  3
LOFTANG2
350
2FBE
  3
LONGITUDE
350
2FBF
  3
MSLTSCALE
350
2B76
  3
SORTENTS
350
293C
  0
DICTIONARY
  5
28EB
102
{ACAD_REACTORS
330
26ED
102
}
330
26ED
100
AcDbDictionary
281
     1
  3
AcmStdDictionary
350
28F9
  0
DICTIONARY
  5
2838
102
{ACAD_REACTORS
330
26ED
102
}
330
26ED
100
AcDbDictionary
281
     1
  3
AcMgSettings
350
2839
  0
DICTIONARY
  5
2A32
102
{ACAD_REACTORS
330
26ED
102
}
330
26ED
100
AcDbDictionary
281
     1
  3
DIMENSION
350
2A37
  3
FEA
350
2A36
  3
HATCH (1)
350
2A33
  3
HATCH (2)
350
2A34
  3
SIMPLE WELD
350
2A38
  3
SYMBOLS
350
2A35
  0
DICTIONARY
  5
2A3C
102
{ACAD_REACTORS
330
2A3B
102
}
330
2A3B
100
AcDbDictionary
281
     1
  0
XRECORD
  5
2914
102
{ACAD_REACTORS
330
2913
102
}
330
2913
100
AcDbXrecord
280
     1
290
     1
  0
XRECORD
  5
2916
102
{ACAD_REACTORS
330
2915
102
}
330
2915
100
AcDbXrecord
280
     1
290
     1
  0
XRECORD
  5
2918
102
{ACAD_REACTORS
330
2917
102
}
330
2917
100
AcDbXrecord
280
     1
290
     1
  0
XRECORD
  5
291A
102
{ACAD_REACTORS
330
2919
102
}
330
2919
100
AcDbXrecord
280
     1
290
     1
  0
XRECORD
  5
291C
102
{ACAD_REACTORS
330
291B
102
}
330
291B
100
AcDbXrecord
280
     1
290
     1
  0
XRECORD
  5
291E
102
{ACAD_REACTORS
330
291D
102
}
330
291D
100
AcDbXrecord
280
     1
290
     1
  0
XRECORD
  5
2920
102
{ACAD_REACTORS
330
291F
102
}
330
291F
100
AcDbXrecord
280
     1
290
     1
  0
XRECORD
  5
2922
102
{ACAD_REACTORS
330
2921
102
}
330
2921
100
AcDbXrecord
280
     1
290
     1
  0
XRECORD
  5
2924
102
{ACAD_REACTORS
330
2923
102
}
330
2923
100
AcDbXrecord
280
     1
290
     1
  0
XRECORD
  5
2926
102
{ACAD_REACTORS
330
2925
102
}
330
2925
100
AcDbXrecord
280
     1
290
     1
  0
XRECORD
  5
2928
102
{ACAD_REACTORS
330
2927
102
}
330
2927
100
AcDbXrecord
280
     1
290
     1
  0
DICTIONARY
  5
292A
102
{ACAD_REACTORS
330
2929
102
}
330
2929
100
AcDbDictionary
281
     1
  3
*A1
350
292B
  0
XRECORD
  5
2FC2
102
{ACAD_REACTORS
330
2FC1
102
}
330
2FC1
100
AcDbXrecord
280
     1
 70
     1
  0
XRECORD
  5
2FC4
102
{ACAD_REACTORS
330
2FC1
102
}
330
2FC1
100
AcDbXrecord
280
     1
340
2743
  0
XRECORD
  5
2FC5
102
{ACAD_REACTORS
330
2FC1
102
}
330
2FC1
100
AcDbXrecord
280
     1
340
2743
  0
XRECORD
  5
2FC3
102
{ACAD_REACTORS
330
2FC1
102
}
330
2FC1
100
AcDbXrecord
280
     1
340
2743
  0
LAYOUT
  5
2758
102
{ACAD_REACTORS
330
274A
102
}
330
274A
100
AcDbPlotSettings
  1

  2
自動 EPSON LP-9600S (W2450527 上)
  4

  6

 40
0.0
 41
0.0
 42
0.0
 43
0.0
 44
0.0
 45
0.0
 46
0.0
 47
0.0
 48
0.0
 49
0.0
140
0.0
141
0.0
142
1.0
143
1.0
 70
  1712
 72
     0
 73
     0
 74
     0
  7

 75
     0
147
1.0
 76
     0
 77
     2
 78
   300
148
0.0
149
0.0
100
AcDbLayout
  1
Model
 70
     1
 71
     0
 10
0.0
 20
0.0
 11
12.0
 21
9.0
 12
0.0
 22
0.0
 32
0.0
 14
0.0
 24
0.0
 34
0.0
 15
0.0
 25
0.0
 35
0.0
146
0.0
 13
0.0
 23
0.0
 33
0.0
 16
1.0
 26
0.0
 36
0.0
 17
0.0
 27
1.0
 37
0.0
 76
     0
330
2755
331
2759
  0
LAYOUT
  5
2754
102
{ACAD_REACTORS
330
274A
102
}
330
274A
100
AcDbPlotSettings
  1

  2
自動 EPSON LP-9600S (W2450527 上)
  4

  6

 40
0.0
 41
0.0
 42
0.0
 43
0.0
 44
0.0
 45
0.0
 46
0.0
 47
0.0
 48
0.0
 49
0.0
140
0.0
141
0.0
142
1.0
143
1.0
 70
   688
 72
     0
 73
     0
 74
     5
  7

 75
    16
147
1.0
 76
     0
 77
     2
 78
   300
148
0.0
149
0.0
100
AcDbLayout
  1
レイアウト1
 70
     1
 71
     1
 10
0.0
 20
0.0
 11
12.0
 21
9.0
 12
0.0
 22
0.0
 32
0.0
 14
1.000000000000000E+20
 24
1.000000000000000E+20
 34
1.000000000000000E+20
 15
-1.000000000000000E+20
 25
-1.000000000000000E+20
 35
-1.000000000000000E+20
146
0.0
 13
0.0
 23
0.0
 33
0.0
 16
1.0
 26
0.0
 36
0.0
 17
0.0
 27
1.0
 37
0.0
 76
     0
330
2751
  0
MATERIAL
  5
26FA
102
{ACAD_XDICTIONARY
360
26FB
102
}
102
{ACAD_REACTORS
330
26F1
102
}
330
26F1
100
AcDbMaterial
  1
ByBlock
 72
     0
 43
0.0208333333333333
 43
0.0
 43
0.0
 43
0.0
 43
0.0
 43
0.0208333333333333
 43
0.0
 43
0.0
 43
0.0
 43
0.0
 43
1.0
 43
0.0
 43
0.0
 43
0.0
 43
0.0
 43
1.0
 77
     0
 47
0.0208333333333333
 47
0.0
 47
0.0
 47
0.0
 47
0.0
 47
0.0208333333333333
 47
0.0
 47
0.0
 47
0.0
 47
0.0
 47
1.0
 47
0.0
 47
0.0
 47
0.0
 47
0.0
 47
1.0
171
     0
 49
0.0208333333333333
 49
0.0
 49
0.0
 49
0.0
 49
0.0
 49
0.0208333333333333
 49
0.0
 49
0.0
 49
0.0
 49
0.0
 49
1.0
 49
0.0
 49
0.0
 49
0.0
 49
0.0
 49
1.0
175
     0
142
0.0208333333333333
142
0.0
142
0.0
142
0.0
142
0.0
142
0.0208333333333333
142
0.0
142
0.0
142
0.0
142
0.0
142
1.0
142
0.0
142
0.0
142
0.0
142
0.0
142
1.0
179
     0
144
0.0208333333333333
144
0.0
144
0.0
144
0.0
144
0.0
144
0.0208333333333333
144
0.0
144
0.0
144
0.0
144
0.0
144
1.0
144
0.0
144
0.0
144
0.0
144
0.0
144
1.0
147
0.0208333333333333
147
0.0
147
0.0
147
0.0
147
0.0
147
0.0208333333333333
147
0.0
147
0.0
147
0.0
147
0.0
147
1.0
147
0.0
147
0.0
147
0.0
147
0.0
147
1.0
  0
MATERIAL
  5
26F2
102
{ACAD_XDICTIONARY
360
26F3
102
}
102
{ACAD_REACTORS
330
26F1
102
}
330
26F1
100
AcDbMaterial
  1
ByLayer
 72
     0
 43
0.0208333333333333
 43
0.0
 43
0.0
 43
0.0
 43
0.0
 43
0.0208333333333333
 43
0.0
 43
0.0
 43
0.0
 43
0.0
 43
1.0
 43
0.0
 43
0.0
 43
0.0
 43
0.0
 43
1.0
 77
     0
 47
0.0208333333333333
 47
0.0
 47
0.0
 47
0.0
 47
0.0
 47
0.0208333333333333
 47
0.0
 47
0.0
 47
0.0
 47
0.0
 47
1.0
 47
0.0
 47
0.0
 47
0.0
 47
0.0
 47
1.0
171
     0
 49
0.0208333333333333
 49
0.0
 49
0.0
 49
0.0
 49
0.0
 49
0.0208333333333333
 49
0.0
 49
0.0
 49
0.0
 49
0.0
 49
1.0
 49
0.0
 49
0.0
 49
0.0
 49
0.0
 49
1.0
175
     0
142
0.0208333333333333
142
0.0
142
0.0
142
0.0
142
0.0
142
0.0208333333333333
142
0.0
142
0.0
142
0.0
142
0.0
142
1.0
142
0.0
142
0.0
142
0.0
142
0.0
142
1.0
179
     0
144
0.0208333333333333
144
0.0
144
0.0
144
0.0
144
0.0
144
0.0208333333333333
144
0.0
144
0.0
144
0.0
144
0.0
144
1.0
144
0.0
144
0.0
144
0.0
144
0.0
144
1.0
147
0.0208333333333333
147
0.0
147
0.0
147
0.0
147
0.0
147
0.0208333333333333
147
0.0
147
0.0
147
0.0
147
0.0
147
1.0
147
0.0
147
0.0
147
0.0
147
0.0
147
1.0
  0
MATERIAL
  5
2702
102
{ACAD_XDICTIONARY
360
2703
102
}
102
{ACAD_REACTORS
330
26F1
102
}
330
26F1
100
AcDbMaterial
  1
Global
 72
     0
 43
0.0208333333333333
 43
0.0
 43
0.0
 43
0.0
 43
0.0
 43
0.0208333333333333
 43
0.0
 43
0.0
 43
0.0
 43
0.0
 43
1.0
 43
0.0
 43
0.0
 43
0.0
 43
0.0
 43
1.0
 77
     0
 47
0.0208333333333333
 47
0.0
 47
0.0
 47
0.0
 47
0.0
 47
0.0208333333333333
 47
0.0
 47
0.0
 47
0.0
 47
0.0
 47
1.0
 47
0.0
 47
0.0
 47
0.0
 47
0.0
 47
1.0
171
     0
 49
0.0208333333333333
 49
0.0
 49
0.0
 49
0.0
 49
0.0
 49
0.0208333333333333
 49
0.0
 49
0.0
 49
0.0
 49
0.0
 49
1.0
 49
0.0
 49
0.0
 49
0.0
 49
0.0
 49
1.0
175
     0
142
0.0208333333333333
142
0.0
142
0.0
142
0.0
142
0.0
142
0.0208333333333333
142
0.0
142
0.0
142
0.0
142
0.0
142
1.0
142
0.0
142
0.0
142
0.0
142
0.0
142
1.0
179
     0
144
0.0208333333333333
144
0.0
144
0.0
144
0.0
144
0.0
144
0.0208333333333333
144
0.0
144
0.0
144
0.0
144
0.0
144
1.0
144
0.0
144
0.0
144
0.0
144
0.0
144
1.0
147
0.0208333333333333
147
0.0
147
0.0
147
0.0
147
0.0
147
0.0208333333333333
147
0.0
147
0.0
147
0.0
147
0.0
147
1.0
147
0.0
147
0.0
147
0.0
147
0.0
147
1.0
  0
MLEADERSTYLE
  5
274F
102
{ACAD_REACTORS
330
274E
102
}
330
274E
100
AcDbMLeaderStyle
170
     2
171
     1
172
     0
 90
        2
 40
0.0
 41
0.0
173
     1
 91
-1056964608
340
2743
 92
       -2
290
     1
 42
0.09
291
     1
 43
0.36
  3
Standard
 44
0.18
300

342
273E
174
     1
178
     6
175
     1
176
     0
 93
-1056964608
 45
0.18
292
     0
297
     0
 46
0.18
 94
-1056964608
 47
1.0
 49
1.0
140
1.0
293
     1
141
0.0
294
     1
177
     0
142
1.0
295
     0
296
     0
143
0.125
1001
ACAD_MLEADERVER
1070
     2
  0
MLINESTYLE
  5
2748
102
{ACAD_REACTORS
330
2747
102
}
330
2747
100
AcDbMlineStyle
  2
STANDARD
 70
     0
  3

 62
   256
 51
90.0
 52
90.0
 71
     2
 49
0.5
 62
   256
  6
BYLAYER
 49
-0.5
 62
   256
  6
BYLAYER
  0
ACDBPLACEHOLDER
  5
26F0
102
{ACAD_REACTORS
330
26EF
102
}
330
26EF
  0
SCALE
  5
271C
102
{ACAD_REACTORS
330
271B
102
}
330
271B
100
AcDbScale
 70
     0
300
1:1
140
1.0
141
1.0
290
     1
  0
SCALE
  5
271D
102
{ACAD_REACTORS
330
271B
102
}
330
271B
100
AcDbScale
 70
     0
300
1:2
140
1.0
141
2.0
290
     0
  0
SCALE
  5
271E
102
{ACAD_REACTORS
330
271B
102
}
330
271B
100
AcDbScale
 70
     0
300
1:4
140
1.0
141
4.0
290
     0
  0
SCALE
  5
271F
102
{ACAD_REACTORS
330
271B
102
}
330
271B
100
AcDbScale
 70
     0
300
1:5
140
1.0
141
5.0
290
     0
  0
SCALE
  5
2720
102
{ACAD_REACTORS
330
271B
102
}
330
271B
100
AcDbScale
 70
     0
300
1:8
140
1.0
141
8.0
290
     0
  0
SCALE
  5
2721
102
{ACAD_REACTORS
330
271B
102
}
330
271B
100
AcDbScale
 70
     0
300
1:10
140
1.0
141
10.0
290
     0
  0
SCALE
  5
2722
102
{ACAD_REACTORS
330
271B
102
}
330
271B
100
AcDbScale
 70
     0
300
1:16
140
1.0
141
16.0
290
     0
  0
SCALE
  5
2723
102
{ACAD_REACTORS
330
271B
102
}
330
271B
100
AcDbScale
 70
     0
300
1:20
140
1.0
141
20.0
290
     0
  0
SCALE
  5
2724
102
{ACAD_REACTORS
330
271B
102
}
330
271B
100
AcDbScale
 70
     0
300
1:30
140
1.0
141
30.0
290
     0
  0
SCALE
  5
2725
102
{ACAD_REACTORS
330
271B
102
}
330
271B
100
AcDbScale
 70
     0
300
1:40
140
1.0
141
40.0
290
     0
  0
SCALE
  5
2726
102
{ACAD_REACTORS
330
271B
102
}
330
271B
100
AcDbScale
 70
     0
300
1:50
140
1.0
141
50.0
290
     0
  0
SCALE
  5
2727
102
{ACAD_REACTORS
330
271B
102
}
330
271B
100
AcDbScale
 70
     0
300
1:100
140
1.0
141
100.0
290
     0
  0
SCALE
  5
2728
102
{ACAD_REACTORS
330
271B
102
}
330
271B
100
AcDbScale
 70
     0
300
2:1
140
2.0
141
1.0
290
     0
  0
SCALE
  5
2729
102
{ACAD_REACTORS
330
271B
102
}
330
271B
100
AcDbScale
 70
     0
300
4:1
140
4.0
141
1.0
290
     0
  0
SCALE
  5
272A
102
{ACAD_REACTORS
330
271B
102
}
330
271B
100
AcDbScale
 70
     0
300
8:1
140
8.0
141
1.0
290
     0
  0
SCALE
  5
272B
102
{ACAD_REACTORS
330
271B
102
}
330
271B
100
AcDbScale
 70
     0
300
10:1
140
10.0
141
1.0
290
     0
  0
SCALE
  5
272C
102
{ACAD_REACTORS
330
271B
102
}
330
271B
100
AcDbScale
 70
     0
300
100:1
140
100.0
141
1.0
290
     0
  0
SCALE
  5
272D
102
{ACAD_REACTORS
330
271B
102
}
330
271B
100
AcDbScale
 70
     0
300
1/128" = 1'-0"
140
0.0078125
141
12.0
290
     0
  0
SCALE
  5
272E
102
{ACAD_REACTORS
330
271B
102
}
330
271B
100
AcDbScale
 70
     0
300
1/64" = 1'-0"
140
0.015625
141
12.0
290
     0
  0
SCALE
  5
272F
102
{ACAD_REACTORS
330
271B
102
}
330
271B
100
AcDbScale
 70
     0
300
1/32" = 1'-0"
140
0.03125
141
12.0
290
     0
  0
SCALE
  5
2730
102
{ACAD_REACTORS
330
271B
102
}
330
271B
100
AcDbScale
 70
     0
300
1/16" = 1'-0"
140
0.0625
141
12.0
290
     0
  0
SCALE
  5
2731
102
{ACAD_REACTORS
330
271B
102
}
330
271B
100
AcDbScale
 70
     0
300
3/32" = 1'-0"
140
0.09375
141
12.0
290
     0
  0
SCALE
  5
2732
102
{ACAD_REACTORS
330
271B
102
}
330
271B
100
AcDbScale
 70
     0
300
1/8" = 1'-0"
140
0.125
141
12.0
290
     0
  0
SCALE
  5
2733
102
{ACAD_REACTORS
330
271B
102
}
330
271B
100
AcDbScale
 70
     0
300
3/16" = 1'-0"
140
0.1875
141
12.0
290
     0
  0
SCALE
  5
2734
102
{ACAD_REACTORS
330
271B
102
}
330
271B
100
AcDbScale
 70
     0
300
1/4" = 1'-0"
140
0.25
141
12.0
290
     0
  0
SCALE
  5
2735
102
{ACAD_REACTORS
330
271B
102
}
330
271B
100
AcDbScale
 70
     0
300
3/8" = 1'-0"
140
0.375
141
12.0
290
     0
  0
SCALE
  5
2736
102
{ACAD_REACTORS
330
271B
102
}
330
271B
100
AcDbScale
 70
     0
300
1/2" = 1'-0"
140
0.5
141
12.0
290
     0
  0
SCALE
  5
2737
102
{ACAD_REACTORS
330
271B
102
}
330
271B
100
AcDbScale
 70
     0
300
3/4" = 1'-0"
140
0.75
141
12.0
290
     0
  0
SCALE
  5
2738
102
{ACAD_REACTORS
330
271B
102
}
330
271B
100
AcDbScale
 70
     0
300
1" = 1'-0"
140
1.0
141
12.0
290
     0
  0
SCALE
  5
2739
102
{ACAD_REACTORS
330
271B
102
}
330
271B
100
AcDbScale
 70
     0
300
1-1/2" = 1'-0"
140
1.5
141
12.0
290
     0
  0
SCALE
  5
273A
102
{ACAD_REACTORS
330
271B
102
}
330
271B
100
AcDbScale
 70
     0
300
3" = 1'-0"
140
3.0
141
12.0
290
     0
  0
SCALE
  5
273B
102
{ACAD_REACTORS
330
271B
102
}
330
271B
100
AcDbScale
 70
     0
300
6" = 1'-0"
140
6.0
141
12.0
290
     0
  0
SCALE
  5
273C
102
{ACAD_REACTORS
330
271B
102
}
330
271B
100
AcDbScale
 70
     0
300
1'-0" = 1'-0"
140
12.0
141
12.0
290
     0
  0
TABLESTYLE
  5
274D
102
{ACAD_XDICTIONARY
360
293F
102
}
102
{ACAD_REACTORS
330
274C
102
}
330
274C
100
AcDbTableStyle
  3
Standard
 70
     0
 71
     0
 40
0.06
 41
0.06
280
     0
281
     0
  7
STANDARD
140
0.18
170
     2
 62
     0
 63
     7
283
     0
274
    -2
284
     1
 64
     0
275
    -2
285
     1
 65
     0
276
    -2
286
     1
 66
     0
277
    -2
287
     1
 67
     0
278
    -2
288
     1
 68
     0
279
    -2
289
     1
 69
     0
  7
STANDARD
140
0.25
170
     5
 62
     0
 63
     7
283
     0
274
    -2
284
     1
 64
     0
275
    -2
285
     1
 65
     0
276
    -2
286
     1
 66
     0
277
    -2
287
     1
 67
     0
278
    -2
288
     1
 68
     0
279
    -2
289
     1
 69
     0
  7
STANDARD
140
0.18
170
     5
 62
     0
 63
     7
283
     0
274
    -2
284
     1
 64
     0
275
    -2
285
     1
 65
     0
276
    -2
286
     1
 66
     0
277
    -2
287
     1
 67
     0
278
    -2
288
     1
 68
     0
279
    -2
289
     1
 69
     0
  0
VISUALSTYLE
  5
2710
102
{ACAD_REACTORS
330
270A
102
}
330
270A
100
AcDbVisualStyle
  2
2dWireframe
 70
     4
 71
     0
 72
     2
 73
     0
 90
        0
 40
-0.6
 41
-30.0
 62
     5
 63
     7
 74
     1
 91
        4
 64
     7
 65
   257
 75
     1
175
     1
 42
1.0
 92
        0
 66
   257
 43
1.0
 76
     1
 77
     6
 78
     2
 67
     7
 79
     5
170
     0
171
     0
290
     0
174
     0
 93
        1
 44
0.0
173
     0
291
     0
 45
0.0
1001
ACAD
1000
AcDbSavedByObjectVersion
1070
     0
1000
AcDbSavedByObjectVersion
1070
     0
  0
VISUALSTYLE
  5
2712
102
{ACAD_REACTORS
330
270A
102
}
330
270A
100
AcDbVisualStyle
  2
3D Hidden
 70
     6
 71
     1
 72
     2
 73
     2
 90
        0
 40
-0.6
 41
-30.0
 62
     5
 63
     7
 74
     2
 91
        2
 64
     7
 65
   257
 75
     2
175
     1
 42
40.0
 92
        0
 66
   257
 43
1.0
 76
     1
 77
     6
 78
     2
 67
     7
 79
     3
170
     0
171
     0
290
     0
174
     0
 93
        1
 44
0.0
173
     0
291
     0
 45
0.0
1001
ACAD
1000
AcDbSavedByObjectVersion
1070
     0
1000
AcDbSavedByObjectVersion
1070
     0
  0
VISUALSTYLE
  5
2711
102
{ACAD_REACTORS
330
270A
102
}
330
270A
100
AcDbVisualStyle
  2
3dWireframe
 70
     5
 71
     0
 72
     2
 73
     0
 90
        0
 40
-0.6
 41
-30.0
 62
     5
 63
     7
 74
     1
 91
        4
 64
     7
 65
   257
 75
     1
175
     1
 42
1.0
 92
        0
 66
   257
 43
1.0
 76
     1
 77
     6
 78
     2
 67
     7
 79
     5
170
     0
171
     0
290
     0
174
     0
 93
        1
 44
0.0
173
     0
291
     0
 45
0.0
1001
ACAD
1000
AcDbSavedByObjectVersion
1070
     0
1000
AcDbSavedByObjectVersion
1070
     0
  0
VISUALSTYLE
  5
270F
102
{ACAD_REACTORS
330
270A
102
}
330
270A
100
AcDbVisualStyle
  2
Basic
 70
     7
 71
     1
 72
     0
 73
     1
 90
        0
 40
-0.6
 41
-30.0
 62
     5
 63
     7
 74
     0
 91
        4
 64
     7
 65
   257
 75
     1
175
     1
 42
1.0
 92
        8
 66
     7
 43
1.0
 76
     1
 77
     6
 78
     2
 67
     7
 79
     5
170
     0
171
     0
290
     0
174
     0
 93
        1
 44
0.0
173
     0
291
     1
 45
0.0
1001
ACAD
1000
AcDbSavedByObjectVersion
1070
     0
1000
AcDbSavedByObjectVersion
1070
     0
  0
VISUALSTYLE
  5
2716
102
{ACAD_REACTORS
330
270A
102
}
330
270A
100
AcDbVisualStyle
  2
Brighten
 70
    12
 71
     2
 72
     2
 73
     0
 90
        0
 40
-0.6
 41
-30.0
 62
     5
 63
     7
 74
     1
 91
        4
 64
     7
 65
   257
 75
     1
175
     1
 42
1.0
 92
        8
 66
     7
 43
1.0
 76
     1
 77
     6
 78
     2
 67
     7
 79
     5
170
     0
171
     0
290
     0
174
     0
 93
        1
 44
50.0
173
     0
291
     1
 45
0.0
1001
ACAD
1000
AcDbSavedByObjectVersion
1070
     0
1000
AcDbSavedByObjectVersion
1070
     0
  0
VISUALSTYLE
  5
271A
102
{ACAD_REACTORS
330
270A
102
}
330
270A
100
AcDbVisualStyle
  2
ColorChange
 70
    16
 71
     2
 72
     2
 73
     3
 90
        0
 40
-0.6
 41
-30.0
 62
     5
 63
     8
 74
     1
 91
        4
 64
     7
 65
   257
 75
     1
175
     1
 42
1.0
 92
        8
 66
     8
 43
1.0
 76
     1
 77
     6
 78
     2
 67
     7
 79
     5
170
     0
171
     0
290
     0
174
     0
 93
        1
 44
0.0
173
     0
291
     1
 45
0.0
1001
ACAD
1000
AcDbSavedByObjectVersion
1070
     0
1000
AcDbSavedByObjectVersion
1070
     0
  0
VISUALSTYLE
  5
2713
102
{ACAD_REACTORS
330
270A
102
}
330
270A
100
AcDbVisualStyle
  2
Conceptual
 70
     9
 71
     3
 72
     2
 73
     0
 90
        0
 40
-0.6
 41
-30.0
 62
     5
 63
     7
 74
     2
 91
        2
 64
     7
 65
   257
 75
     1
175
     1
 42
40.0
 92
        8
 66
     7
 43
1.0
 76
     1
 77
     6
 78
     2
 67
     7
 79
     3
170
     0
171
     0
290
     0
174
     0
 93
        1
 44
0.0
173
     0
291
     0
 45
0.0
1001
ACAD
1000
AcDbSavedByObjectVersion
1070
     0
1000
AcDbSavedByObjectVersion
1070
     0
  0
VISUALSTYLE
  5
2715
102
{ACAD_REACTORS
330
270A
102
}
330
270A
100
AcDbVisualStyle
  2
Dim
 70
    11
 71
     2
 72
     2
 73
     0
 90
        0
 40
-0.6
 41
-30.0
 62
     5
 63
     7
 74
     1
 91
        4
 64
     7
 65
   257
 75
     1
175
     1
 42
1.0
 92
        8
 66
     7
 43
1.0
 76
     1
 77
     6
 78
     2
 67
     7
 79
     5
170
     0
171
     0
290
     0
174
     0
 93
        1
 44
-50.0
173
     0
291
     1
 45
0.0
1001
ACAD
1000
AcDbSavedByObjectVersion
1070
     0
1000
AcDbSavedByObjectVersion
1070
     0
  0
VISUALSTYLE
  5
2719
102
{ACAD_REACTORS
330
270A
102
}
330
270A
100
AcDbVisualStyle
  2
Facepattern
 70
    15
 71
     2
 72
     2
 73
     0
 90
        0
 40
-0.6
 41
-30.0
 62
     5
 63
     7
 74
     1
 91
        4
 64
     7
 65
   257
 75
     1
175
     1
 42
1.0
 92
        8
 66
     7
 43
1.0
 76
     1
 77
     6
 78
     2
 67
     7
 79
     5
170
     0
171
     0
290
     0
174
     0
 93
        1
 44
0.0
173
     0
291
     1
 45
0.0
1001
ACAD
1000
AcDbSavedByObjectVersion
1070
     0
1000
AcDbSavedByObjectVersion
1070
     0
  0
VISUALSTYLE
  5
270B
102
{ACAD_REACTORS
330
270A
102
}
330
270A
100
AcDbVisualStyle
  2
Flat
 70
     0
 71
     2
 72
     1
 73
     1
 90
        2
 40
-0.6
 41
30.0
 62
     5
 63
     7
 74
     0
 91
        4
 64
     7
 65
   257
 75
     1
175
     1
 42
1.0
 92
        8
 66
     7
 43
1.0
 76
     1
 77
     6
 78
     2
 67
     7
 79
     5
170
     0
171
     0
290
     0
174
     0
 93
       13
 44
0.0
173
     0
291
     1
 45
0.0
1001
ACAD
1000
AcDbSavedByObjectVersion
1070
     0
1000
AcDbSavedByObjectVersion
1070
     0
  0
VISUALSTYLE
  5
270C
102
{ACAD_REACTORS
330
270A
102
}
330
270A
100
AcDbVisualStyle
  2
FlatWithEdges
 70
     1
 71
     2
 72
     1
 73
     1
 90
        2
 40
-0.6
 41
30.0
 62
     5
 63
     7
 74
     1
 91
        4
 64
     7
 65
   257
 75
     1
175
     1
 42
1.0
 92
        0
 66
   257
 43
1.0
 76
     1
 77
     6
 78
     2
 67
     7
 79
     5
170
     0
171
     0
290
     0
174
     0
 93
       13
 44
0.0
173
     0
291
     1
 45
0.0
1001
ACAD
1000
AcDbSavedByObjectVersion
1070
     0
1000
AcDbSavedByObjectVersion
1070
     0
  0
VISUALSTYLE
  5
270D
102
{ACAD_REACTORS
330
270A
102
}
330
270A
100
AcDbVisualStyle
  2
Gouraud
 70
     2
 71
     2
 72
     2
 73
     1
 90
        2
 40
-0.6
 41
30.0
 62
     5
 63
     7
 74
     0
 91
        4
 64
     7
 65
   257
 75
     1
175
     1
 42
1.0
 92
        0
 66
     7
 43
1.0
 76
     1
 77
     6
 78
     2
 67
     7
 79
     5
170
     0
171
     0
290
     0
174
     0
 93
       13
 44
0.0
173
     0
291
     1
 45
0.0
1001
ACAD
1000
AcDbSavedByObjectVersion
1070
     0
1000
AcDbSavedByObjectVersion
1070
     0
  0
VISUALSTYLE
  5
270E
102
{ACAD_REACTORS
330
270A
102
}
330
270A
100
AcDbVisualStyle
  2
GouraudWithEdges
 70
     3
 71
     2
 72
     2
 73
     1
 90
        2
 40
-0.6
 41
30.0
 62
     5
 63
     7
 74
     1
 91
        4
 64
     7
 65
   257
 75
     1
175
     1
 42
1.0
 92
        0
 66
   257
 43
1.0
 76
     1
 77
     6
 78
     2
 67
     7
 79
     5
170
     0
171
     0
290
     0
174
     0
 93
       13
 44
0.0
173
     0
291
     1
 45
0.0
1001
ACAD
1000
AcDbSavedByObjectVersion
1070
     0
1000
AcDbSavedByObjectVersion
1070
     0
  0
VISUALSTYLE
  5
2718
102
{ACAD_REACTORS
330
270A
102
}
330
270A
100
AcDbVisualStyle
  2
Linepattern
 70
    14
 71
     2
 72
     2
 73
     0
 90
        0
 40
-0.6
 41
-30.0
 62
     5
 63
     7
 74
     1
 91
        4
 64
     7
 65
   257
 75
     7
175
     7
 42
1.0
 92
        8
 66
     7
 43
1.0
 76
     1
 77
     6
 78
     2
 67
     7
 79
     5
170
     0
171
     0
290
     0
174
     0
 93
        1
 44
0.0
173
     0
291
     1
 45
0.0
1001
ACAD
1000
AcDbSavedByObjectVersion
1070
     0
1000
AcDbSavedByObjectVersion
1070
     0
  0
VISUALSTYLE
  5
2714
102
{ACAD_REACTORS
330
270A
102
}
330
270A
100
AcDbVisualStyle
  2
Realistic
 70
     8
 71
     2
 72
     2
 73
     0
 90
        0
 40
-0.6
 41
-30.0
 62
     5
 63
     7
 74
     1
 91
        0
 64
     7
 65
   257
 75
     1
175
     1
 42
1.0
 92
        8
 66
     8
 43
1.0
 76
     1
 77
     6
 78
     2
 67
     7
 79
     5
170
     0
171
     0
290
     0
174
     0
 93
       13
 44
0.0
173
     0
291
     0
 45
0.0
1001
ACAD
1000
AcDbSavedByObjectVersion
1070
     0
1000
AcDbSavedByObjectVersion
1070
     0
  0
VISUALSTYLE
  5
2717
102
{ACAD_REACTORS
330
270A
102
}
330
270A
100
AcDbVisualStyle
  2
Thicken
 70
    13
 71
     2
 72
     2
 73
     0
 90
        0
 40
-0.6
 41
-30.0
 62
     5
 63
     7
 74
     1
 91
        4
 64
     7
 65
   257
 75
     1
175
     1
 42
1.0
 92
       12
 66
     7
 43
1.0
 76
     1
 77
     6
 78
     2
 67
     7
 79
     5
170
     0
171
     0
290
     0
174
     0
 93
        1
 44
0.0
173
     0
291
     1
 45
0.0
1001
ACAD
1000
AcDbSavedByObjectVersion
1070
     0
1000
AcDbSavedByObjectVersion
1070
     0
  0
DICTIONARYVAR
  5
293B
102
{ACAD_REACTORS
330
2938
102
}
330
2938
100
DictionaryVariables
280
     0
  1
1:1
  0
DICTIONARYVAR
  5
293A
102
{ACAD_REACTORS
330
2938
102
}
330
2938
100
DictionaryVariables
280
     0
  1
STANDARD
  0
DICTIONARYVAR
  5
2939
102
{ACAD_REACTORS
330
2938
102
}
330
2938
100
DictionaryVariables
280
     0
  1
STANDARD
  0
DICTIONARYVAR
  5
293E
102
{ACAD_REACTORS
330
2938
102
}
330
2938
100
DictionaryVariables
280
     0
  1
1
  0
DICTIONARYVAR
  5
293D
102
{ACAD_REACTORS
330
2938
102
}
330
2938
100
DictionaryVariables
280
     0
  1
1
  0
DICTIONARYVAR
  5
2B78
102
{ACAD_REACTORS
330
2938
102
}
330
2938
100
DictionaryVariables
280
     0
  1
1
  0
DICTIONARYVAR
  5
2B79
102
{ACAD_REACTORS
330
2938
102
}
330
2938
100
DictionaryVariables
280
     0
  1
15
  0
DICTIONARYVAR
  5
2B77
102
{ACAD_REACTORS
330
2938
102
}
330
2938
100
DictionaryVariables
280
     0
  1
0
  0
DICTIONARYVAR
  5
2FBD
102
{ACAD_REACTORS
330
2938
102
}
330
2938
100
DictionaryVariables
280
     0
  1
1.570796
  0
DICTIONARYVAR
  5
2FBE
102
{ACAD_REACTORS
330
2938
102
}
330
2938
100
DictionaryVariables
280
     0
  1
1.570796
  0
DICTIONARYVAR
  5
2FBF
102
{ACAD_REACTORS
330
2938
102
}
330
2938
100
DictionaryVariables
280
     0
  1
-122.394000
  0
DICTIONARYVAR
  5
2B76
102
{ACAD_REACTORS
330
2938
102
}
330
2938
100
DictionaryVariables
280
     0
  1
0
  0
DICTIONARYVAR
  5
293C
102
{ACAD_REACTORS
330
2938
102
}
330
2938
100
DictionaryVariables
280
     0
  1
127
  0
DICTIONARY
  5
28F9
102
{ACAD_REACTORS
330
28EB
102
}
330
28EB
100
AcDbDictionary
281
     1
  0
DICTIONARY
  5
2839
102
{ACAD_REACTORS
330
2838
102
}
330
2838
100
AcDbDictionary
281
     1
  3
DWGSETTINGS
350
2EE8
  3
TRANSSETTINGS
350
2EE9
  0
ACAMGFILTERDAT
  5
2A37
102
{ACAD_REACTORS
330
2A32
102
}
330
2A32
100
AcAmgFilterDat
 70
    15
  1
DIMENSION,AMDT_*_DIM
  2
*
  3
*
  4
*
  5
*
290
     1
  0
ACAMGFILTERDAT
  5
2A36
102
{ACAD_REACTORS
330
2A32
102
}
330
2A32
100
AcAmgFilterDat
 70
    15
  1
*
  2
AM_FEA-AM_*
  3
*
  4
*
  5
*
290
     1
  0
ACAMGFILTERDAT
  5
2A33
102
{ACAD_REACTORS
330
2A32
102
}
330
2A32
100
AcAmgFilterDat
 70
    15
  1
HATCH
  2
*
  3
*
  4
*
  5
*
290
     1
  0
ACAMGFILTERDAT
  5
2A34
102
{ACAD_REACTORS
330
2A32
102
}
330
2A32
100
AcAmgFilterDat
 70
    15
  1
LINE
  2
8,8N,*-8,*-8N,AM_8,AM_8N,*-AM_8,*-AM_8N
  3
*
  4
*
  5
INSERT,STDPART2D
290
     1
  0
ACAMGFILTERDAT
  5
2A38
102
{ACAD_REACTORS
330
2A32
102
}
330
2A32
100
AcAmgFilterDat
 70
    15
  1
ARC
  2
AM_5
  3
*
  4
2
  5
INSERT
290
     0
  0
ACAMGFILTERDAT
  5
2A35
102
{ACAD_REACTORS
330
2A32
102
}
330
2A32
100
AcAmgFilterDat
 70
    15
  1
ACMFCFRAME,ACMDATUMTARGET,ACMDATUMID,ACMWELDSYM,ACMSURFSYM,ACMFEATID,ACMPARTREF,ACMBALLOON,AMDTEDGESYM,AMGSCREWCALCTABLE,ACMMARKSTAMP
  2
*
  3
*
  4
*
  5
*
290
     1
  0
LAYER_INDEX
  5
292B
102
{ACAD_REACTORS
330
292A
102
}
330
292A
100
AcDbIndex
 40
2457491.586902627
100
AcDbLayerIndex
  8
0
360
292C
 90
        0
  8
OUTLINE
360
292D
 90
       22
  8
SIZE
360
292E
 90
       40
  8
BASIS
360
292F
 90
        1
  8
DETAIL
360
2930
 90
      249
  8
ARRANGE
360
2931
 90
        2
  8
DEFPOINTS
360
2932
 90
        0
  8
ETC
360
2933
 90
        3
  8
FIX
360
2934
 90
        0
  8
NOTE
360
2935
 90
        7
  8
SERVICESPACE
360
2936
 90
        0
  8
SYMBOLLINE
360
2937
 90
        0
  0
DICTIONARY
  5
26FB
330
26FA
100
AcDbDictionary
280
     1
281
     1
  3
ACAD_XREC_ROUNDTRIP
360
2949
  3
BUMPTILE
360
26FD
  3
DIFFUSETILE
360
26FC
  3
OPACITYTILE
360
2700
  3
REFLECTIONTILE
360
26FF
  3
REFRACTIONTILE
360
2701
  3
SPECULARTILE
360
26FE
  0
DICTIONARY
  5
26F3
330
26F2
100
AcDbDictionary
280
     1
281
     1
  3
ACAD_XREC_ROUNDTRIP
360
2948
  3
BUMPTILE
360
26F5
  3
DIFFUSETILE
360
26F4
  3
OPACITYTILE
360
26F8
  3
REFLECTIONTILE
360
26F7
  3
REFRACTIONTILE
360
26F9
  3
SPECULARTILE
360
26F6
  0
DICTIONARY
  5
2703
330
2702
100
AcDbDictionary
280
     1
281
     1
  3
ACAD_XREC_ROUNDTRIP
360
294A
  3
BUMPTILE
360
2705
  3
DIFFUSETILE
360
2704
  3
OPACITYTILE
360
2708
  3
REFLECTIONTILE
360
2707
  3
REFRACTIONTILE
360
2709
  3
SPECULARTILE
360
2706
  0
DICTIONARY
  5
293F
330
274D
100
AcDbDictionary
280
     1
281
     1
  3
ACAD_ROUNDTRIP_2008_TABLESTYLE_CELLSTYLEMAP
360
2FC0
  3
ACAD_XREC_ROUNDTRIP
360
2FC6
  0
IDBUFFER
  5
292C
330
0
100
AcDbIdBuffer
  0
IDBUFFER
  5
292D
330
0
100
AcDbIdBuffer
330
953
330
954
330
955
330
956
330
957
330
958
330
2DE9
330
2DEA
330
2DEB
330
2DEC
330
2DED
330
2DEE
330
2DEF
330
2DF0
330
2DF1
330
2DF2
330
2DF3
330
2DF4
330
2DF5
330
2DF6
330
2DF7
330
2DF8
  0
IDBUFFER
  5
292E
330
0
100
AcDbIdBuffer
330
2DA3
330
2DA4
330
2DA5
330
2DA6
330
2DA7
330
2DA8
330
2DAA
330
2DAB
330
2DAC
330
2DAD
330
2DAE
330
2DAF
330
2DB0
330
2DB1
330
2DB2
330
2DB3
330
2DB4
330
2DB5
330
2DCE
330
2DCF
330
2DD0
330
2DD1
330
2DD2
330
2DD3
330
2DD9
330
2DDA
330
2DDB
330
2DDC
330
2DDD
330
2DDE
330
2DDF
330
2DE0
330
2DE1
330
2DE2
330
2DE3
330
2DE4
330
2DE5
330
2DE6
330
2DE7
330
2DE8
  0
IDBUFFER
  5
292F
330
0
100
AcDbIdBuffer
330
2DCC
  0
IDBUFFER
  5
2930
330
0
100
AcDbIdBuffer
330
2DB7
330
2DB9
330
2DBA
330
2DBB
330
2DBC
330
2DBD
330
2DBE
330
2DC0
330
2DC1
330
2DC2
330
2DC3
330
2DC4
330
2DC5
330
2DC6
330
2DC7
330
2DC8
330
2DC9
330
2DCA
330
2DCB
330
2DCD
330
2DF9
330
2DFA
330
2DFB
330
2DFC
330
2DFD
330
2DFE
330
2DFF
330
2E00
330
2E01
330
2E02
330
2E03
330
2E04
330
2E05
330
2E06
330
2E07
330
2E08
330
2E09
330
2E0A
330
2E0B
330
2E0C
330
2E0D
330
2E0E
330
2E0F
330
2E10
330
2E11
330
2E12
330
2E13
330
2E14
330
2E15
330
2E16
330
2E17
330
2E18
330
2E19
330
2E1A
330
2E1B
330
2E1C
330
2E1D
330
2E1E
330
2E1F
330
2E20
330
2E21
330
2E22
330
2E23
330
2E24
330
2E25
330
2E26
330
2E27
330
2E28
330
2E29
330
2E2A
330
2E2B
330
2E2C
330
2E2D
330
2E2E
330
2E2F
330
2E30
330
2E31
330
2E32
330
2E33
330
2E34
330
2E35
330
2E36
330
2E37
330
2E38
330
2E39
330
2E3A
330
2E3B
330
2E3C
330
2E3D
330
2E3E
330
2E3F
330
2E40
330
2E41
330
2E42
330
2E43
330
2E44
330
2E45
330
2E46
330
2E47
330
2E48
330
2E49
330
2E4A
330
2E4B
330
2E4C
330
2E4D
330
2E4E
330
2E4F
330
2E50
330
2E51
330
2E52
330
2E53
330
2E54
330
2E55
330
2E56
330
2E57
330
2E58
330
2E59
330
2E5A
330
2E5B
330
2E5C
330
2E5D
330
2E5E
330
2E5F
330
2E60
330
2E61
330
2E62
330
2E63
330
2E64
330
2E65
330
2E66
330
2E67
330
2E68
330
2E69
330
2E6A
330
2E6B
330
2E6C
330
2E6D
330
2E6E
330
2E6F
330
2E70
330
2E71
330
2E72
330
2E73
330
2E74
330
2E75
330
2E76
330
2E77
330
2E78
330
2E79
330
2E7A
330
2E7B
330
2E7C
330
2E7D
330
2E7E
330
2E7F
330
2E80
330
2E81
330
2E82
330
2E83
330
2E84
330
2E85
330
2E86
330
2E87
330
2E88
330
2E89
330
2E8A
330
2E8B
330
2E8C
330
2E8D
330
2E8E
330
2E8F
330
2E90
330
2E91
330
2E92
330
2E93
330
2E94
330
2E95
330
2E96
330
2E97
330
2E98
330
2E99
330
2E9A
330
2E9B
330
2E9C
330
2E9D
330
2E9E
330
2E9F
330
2EA0
330
2EA1
330
2EA2
330
2EA3
330
2EA4
330
2EA5
330
2EA6
330
2EA7
330
2EA8
330
2EA9
330
2EAA
330
2EAB
330
2EAC
330
2EAD
330
2EAE
330
2EAF
330
2EB0
330
2EB1
330
2EB2
330
2EB3
330
2EB4
330
2EB5
330
2EB6
330
2EB7
330
2EB8
330
2EB9
330
2EBA
330
2EBB
330
2EBC
330
2EBD
330
2EBE
330
2EBF
330
2EC0
330
2EC1
330
2EC2
330
2EC3
330
2EC4
330
2EC5
330
2EC6
330
2EC7
330
2EC8
330
2EC9
330
2ECA
330
2ECB
330
2ECC
330
2ECD
330
2ECE
330
2ECF
330
2ED0
330
2ED1
330
2ED2
330
2ED3
330
2ED4
330
2ED5
330
2ED6
330
2ED7
330
2ED8
330
2ED9
330
2EDA
330
2EDB
330
2EDC
330
2EDD
  0
IDBUFFER
  5
2931
330
0
100
AcDbIdBuffer
330
2DA9
330
2DBF
  0
IDBUFFER
  5
2932
330
0
100
AcDbIdBuffer
  0
IDBUFFER
  5
2933
330
0
100
AcDbIdBuffer
330
2DA0
330
2DA1
330
2DA2
  0
IDBUFFER
  5
2934
330
0
100
AcDbIdBuffer
  0
IDBUFFER
  5
2935
330
0
100
AcDbIdBuffer
330
2DB6
330
2DB8
330
2DD4
330
2DD5
330
2DD6
330
2DD7
330
2DD8
  0
IDBUFFER
  5
2936
330
0
100
AcDbIdBuffer
  0
IDBUFFER
  5
2937
330
0
100
AcDbIdBuffer
  0
XRECORD
  5
2949
102
{ACAD_REACTORS
330
26FB
102
}
330
26FB
100
AcDbXrecord
280
     1
102
MATERIAL
148
0.0
149
0.0
149
0.0
 93
        0
 94
      127
282
     0
 72
     0
 77
     0
171
     0
175
     0
179
     0
273
     0
  0
XRECORD
  5
26FD
102
{ACAD_REACTORS
330
26FB
102
}
330
26FB
100
AcDbXrecord
280
     1
270
     1
271
     1
  0
XRECORD
  5
26FC
102
{ACAD_REACTORS
330
26FB
102
}
330
26FB
100
AcDbXrecord
280
     1
270
     1
271
     1
  0
XRECORD
  5
2700
102
{ACAD_REACTORS
330
26FB
102
}
330
26FB
100
AcDbXrecord
280
     1
270
     1
271
     1
  0
XRECORD
  5
26FF
102
{ACAD_REACTORS
330
26FB
102
}
330
26FB
100
AcDbXrecord
280
     1
270
     1
271
     1
  0
XRECORD
  5
2701
102
{ACAD_REACTORS
330
26FB
102
}
330
26FB
100
AcDbXrecord
280
     1
270
     1
271
     1
  0
XRECORD
  5
26FE
102
{ACAD_REACTORS
330
26FB
102
}
330
26FB
100
AcDbXrecord
280
     1
270
     1
271
     1
  0
XRECORD
  5
2948
102
{ACAD_REACTORS
330
26F3
102
}
330
26F3
100
AcDbXrecord
280
     1
102
MATERIAL
148
0.0
149
0.0
149
0.0
 93
        0
 94
      127
282
     0
 72
     0
 77
     0
171
     0
175
     0
179
     0
273
     0
  0
XRECORD
  5
26F5
102
{ACAD_REACTORS
330
26F3
102
}
330
26F3
100
AcDbXrecord
280
     1
270
     1
271
     1
  0
XRECORD
  5
26F4
102
{ACAD_REACTORS
330
26F3
102
}
330
26F3
100
AcDbXrecord
280
     1
270
     1
271
     1
  0
XRECORD
  5
26F8
102
{ACAD_REACTORS
330
26F3
102
}
330
26F3
100
AcDbXrecord
280
     1
270
     1
271
     1
  0
XRECORD
  5
26F7
102
{ACAD_REACTORS
330
26F3
102
}
330
26F3
100
AcDbXrecord
280
     1
270
     1
271
     1
  0
XRECORD
  5
26F9
102
{ACAD_REACTORS
330
26F3
102
}
330
26F3
100
AcDbXrecord
280
     1
270
     1
271
     1
  0
XRECORD
  5
26F6
102
{ACAD_REACTORS
330
26F3
102
}
330
26F3
100
AcDbXrecord
280
     1
270
     1
271
     1
  0
XRECORD
  5
294A
102
{ACAD_REACTORS
330
2703
102
}
330
2703
100
AcDbXrecord
280
     1
102
MATERIAL
148
0.0
149
0.0
149
0.0
 93
        0
 94
      127
282
     0
 72
     0
 77
     0
171
     0
175
     0
179
     0
273
     0
  0
XRECORD
  5
2705
102
{ACAD_REACTORS
330
2703
102
}
330
2703
100
AcDbXrecord
280
     1
270
     1
271
     1
  0
XRECORD
  5
2704
102
{ACAD_REACTORS
330
2703
102
}
330
2703
100
AcDbXrecord
280
     1
270
     1
271
     1
  0
XRECORD
  5
2708
102
{ACAD_REACTORS
330
2703
102
}
330
2703
100
AcDbXrecord
280
     1
270
     1
271
     1
  0
XRECORD
  5
2707
102
{ACAD_REACTORS
330
2703
102
}
330
2703
100
AcDbXrecord
280
     1
270
     1
271
     1
  0
XRECORD
  5
2709
102
{ACAD_REACTORS
330
2703
102
}
330
2703
100
AcDbXrecord
280
     1
270
     1
271
     1
  0
XRECORD
  5
2706
102
{ACAD_REACTORS
330
2703
102
}
330
2703
100
AcDbXrecord
280
     1
270
     1
271
     1
  0
CELLSTYLEMAP
  5
2FC0
102
{ACAD_REACTORS
330
293F
102
}
330
293F
100
AcDbCellStyleMap
 90
        3
300
CELLSTYLE
  1
TABLEFORMAT_BEGIN
 90
        5
170
     1
 91
        0
 92
    32768
 62
   257
 93
        1
300
CONTENTFORMAT
  1
CONTENTFORMAT_BEGIN
 90
        0
 91
        0
 92
      512
 93
        0
300

 40
0.0
140
1.0
 94
        5
 62
     0
340
273E
144
0.25
309
CONTENTFORMAT_END
171
     1
301
MARGIN
  1
CELLMARGIN_BEGIN
 40
0.06
 40
0.06
 40
0.06
 40
0.06
 40
0.18
 40
0.18
309
CELLMARGIN_END
 94
        6
 95
        1
302
GRIDFORMAT
  1
GRIDFORMAT_BEGIN
 90
        0
 91
        1
 62
     0
 92
       -2
340
0
 93
        0
 40
0.045
309
GRIDFORMAT_END
 95
        2
302
GRIDFORMAT
  1
GRIDFORMAT_BEGIN
 90
        0
 91
        1
 62
     0
 92
       -2
340
0
 93
        0
 40
0.045
309
GRIDFORMAT_END
 95
        4
302
GRIDFORMAT
  1
GRIDFORMAT_BEGIN
 90
        0
 91
        1
 62
     0
 92
       -2
340
0
 93
        0
 40
0.045
309
GRIDFORMAT_END
 95
        8
302
GRIDFORMAT
  1
GRIDFORMAT_BEGIN
 90
        0
 91
        1
 62
     0
 92
       -2
340
0
 93
        0
 40
0.045
309
GRIDFORMAT_END
 95
       16
302
GRIDFORMAT
  1
GRIDFORMAT_BEGIN
 90
        0
 91
        1
 62
     0
 92
       -2
340
0
 93
        0
 40
0.045
309
GRIDFORMAT_END
 95
       32
302
GRIDFORMAT
  1
GRIDFORMAT_BEGIN
 90
        0
 91
        1
 62
     0
 92
       -2
340
0
 93
        0
 40
0.045
309
GRIDFORMAT_END
309
TABLEFORMAT_END
  1
CELLSTYLE_BEGIN
 90
        1
 91
        1
300
_TITLE
309
CELLSTYLE_END
300
CELLSTYLE
  1
TABLEFORMAT_BEGIN
 90
        5
170
     1
 91
        0
 92
        0
 62
   257
 93
        1
300
CONTENTFORMAT
  1
CONTENTFORMAT_BEGIN
 90
        0
 91
        0
 92
      512
 93
        0
300

 40
0.0
140
1.0
 94
        5
 62
     0
340
273E
144
0.18
309
CONTENTFORMAT_END
171
     1
301
MARGIN
  1
CELLMARGIN_BEGIN
 40
0.06
 40
0.06
 40
0.06
 40
0.06
 40
0.18
 40
0.18
309
CELLMARGIN_END
 94
        6
 95
        1
302
GRIDFORMAT
  1
GRIDFORMAT_BEGIN
 90
        0
 91
        1
 62
     0
 92
       -2
340
0
 93
        0
 40
0.045
309
GRIDFORMAT_END
 95
        2
302
GRIDFORMAT
  1
GRIDFORMAT_BEGIN
 90
        0
 91
        1
 62
     0
 92
       -2
340
0
 93
        0
 40
0.045
309
GRIDFORMAT_END
 95
        4
302
GRIDFORMAT
  1
GRIDFORMAT_BEGIN
 90
        0
 91
        1
 62
     0
 92
       -2
340
0
 93
        0
 40
0.045
309
GRIDFORMAT_END
 95
        8
302
GRIDFORMAT
  1
GRIDFORMAT_BEGIN
 90
        0
 91
        1
 62
     0
 92
       -2
340
0
 93
        0
 40
0.045
309
GRIDFORMAT_END
 95
       16
302
GRIDFORMAT
  1
GRIDFORMAT_BEGIN
 90
        0
 91
        1
 62
     0
 92
       -2
340
0
 93
        0
 40
0.045
309
GRIDFORMAT_END
 95
       32
302
GRIDFORMAT
  1
GRIDFORMAT_BEGIN
 90
        0
 91
        1
 62
     0
 92
       -2
340
0
 93
        0
 40
0.045
309
GRIDFORMAT_END
309
TABLEFORMAT_END
  1
CELLSTYLE_BEGIN
 90
        2
 91
        1
300
_HEADER
309
CELLSTYLE_END
300
CELLSTYLE
  1
TABLEFORMAT_BEGIN
 90
        5
170
     1
 91
        0
 92
        0
 62
   257
 93
        1
300
CONTENTFORMAT
  1
CONTENTFORMAT_BEGIN
 90
        0
 91
        0
 92
      512
 93
        0
300

 40
0.0
140
1.0
 94
        2
 62
     0
340
273E
144
0.18
309
CONTENTFORMAT_END
171
     1
301
MARGIN
  1
CELLMARGIN_BEGIN
 40
0.06
 40
0.06
 40
0.06
 40
0.06
 40
0.18
 40
0.18
309
CELLMARGIN_END
 94
        6
 95
        1
302
GRIDFORMAT
  1
GRIDFORMAT_BEGIN
 90
        0
 91
        1
 62
     0
 92
       -2
340
0
 93
        0
 40
0.045
309
GRIDFORMAT_END
 95
        2
302
GRIDFORMAT
  1
GRIDFORMAT_BEGIN
 90
        0
 91
        1
 62
     0
 92
       -2
340
0
 93
        0
 40
0.045
309
GRIDFORMAT_END
 95
        4
302
GRIDFORMAT
  1
GRIDFORMAT_BEGIN
 90
        0
 91
        1
 62
     0
 92
       -2
340
0
 93
        0
 40
0.045
309
GRIDFORMAT_END
 95
        8
302
GRIDFORMAT
  1
GRIDFORMAT_BEGIN
 90
        0
 91
        1
 62
     0
 92
       -2
340
0
 93
        0
 40
0.045
309
GRIDFORMAT_END
 95
       16
302
GRIDFORMAT
  1
GRIDFORMAT_BEGIN
 90
        0
 91
        1
 62
     0
 92
       -2
340
0
 93
        0
 40
0.045
309
GRIDFORMAT_END
 95
       32
302
GRIDFORMAT
  1
GRIDFORMAT_BEGIN
 90
        0
 91
        1
 62
     0
 92
       -2
340
0
 93
        0
 40
0.045
309
GRIDFORMAT_END
309
TABLEFORMAT_END
  1
CELLSTYLE_BEGIN
 90
        3
 91
        2
300
_DATA
309
CELLSTYLE_END
  0
XRECORD
  5
2FC6
102
{ACAD_REACTORS
330
293F
102
}
330
293F
100
AcDbXrecord
280
     1
102
ACAD_ROUNDTRIP_PRE2007_TABLESTYLE
 90
      512
 91
        0
  1

 92
      512
 93
        0
  2

 94
      512
 95
        0
  3

  0
ENDSEC
  0
EOF
