  0
SECTION
  2
HEADER
  9
$ACADVER
  1
AC1015
  9
$ACADMAINTVER
 70
    20
  9
$DWGCODEPAGE
  3
ANSI_932
  9
$INSBASE
 10
0.0
 20
0.0
 30
0.0
  9
$EXTMIN
 10
-798.7093999922541
 20
-492.1508013989762
 30
0.0
  9
$EXTMAX
 10
956.3976860345059
 20
671.3369804703257
 30
50.0
  9
$LIMMIN
 10
-2970.0
 20
-2100.0
  9
$LIMMAX
 10
2970.0
 20
2100.0
  9
$ORTHOMODE
 70
     1
  9
$REGENMODE
 70
     0
  9
$FILLMODE
 70
     1
  9
$QTEXTMODE
 70
     0
  9
$MIRRTEXT
 70
     0
  9
$LTSCALE
 40
20.0
  9
$ATTMODE
 70
     1
  9
$TEXTSIZE
 40
64.0
  9
$TRACEWID
 40
0.05
  9
$TEXTSTYLE
  7
STANDARD
  9
$CLAYER
  8
0
  9
$CELTYPE
  6
ByLayer
  9
$CECOLOR
 62
   256
  9
$CELTSCALE
 40
1.0
  9
$DISPSILH
 70
     0
  9
$DIMSCALE
 40
1.0
  9
$DIMASZ
 40
0.12
  9
$DIMEXO
 40
0.05
  9
$DIMDLI
 40
0.5
  9
$DIMRND
 40
0.0
  9
$DIMDLE
 40
0.0
  9
$DIMEXE
 40
0.1
  9
$DIMTP
 40
0.1
  9
$DIMTM
 40
0.1
  9
$DIMTXT
 40
0.12
  9
$DIMCEN
 40
0.0
  9
$DIMTSZ
 40
0.0
  9
$DIMTOL
 70
     0
  9
$DIMLIM
 70
     0
  9
$DIMTIH
 70
     1
  9
$DIMTOH
 70
     1
  9
$DIMSE1
 70
     0
  9
$DIMSE2
 70
     0
  9
$DIMTAD
 70
     0
  9
$DIMZIN
 70
     7
  9
$DIMBLK
  1

  9
$DIMASO
 70
     1
  9
$DIMSHO
 70
     0
  9
$DIMPOST
  1

  9
$DIMAPOST
  1
mm
  9
$DIMALT
 70
     0
  9
$DIMALTD
 70
     2
  9
$DIMALTF
 40
25.4
  9
$DIMLFAC
 40
1.0
  9
$DIMTOFL
 70
     0
  9
$DIMTVP
 40
0.0
  9
$DIMTIX
 70
     0
  9
$DIMSOXD
 70
     0
  9
$DIMSAH
 70
     0
  9
$DIMBLK1
  1

  9
$DIMBLK2
  1

  9
$DIMSTYLE
  2
AM_ANSI
  9
$DIMCLRD
 70
   256
  9
$DIMCLRE
 70
   256
  9
$DIMCLRT
 70
     2
  9
$DIMTFAC
 40
0.71
  9
$DIMGAP
 40
0.06
  9
$DIMJUST
 70
     0
  9
$DIMSD1
 70
     0
  9
$DIMSD2
 70
     0
  9
$DIMTOLJ
 70
     1
  9
$DIMTZIN
 70
     7
  9
$DIMALTZ
 70
     0
  9
$DIMALTTZ
 70
     0
  9
$DIMUPT
 70
     0
  9
$DIMDEC
 70
     4
  9
$DIMTDEC
 70
     4
  9
$DIMALTU
 70
     2
  9
$DIMALTTD
 70
     4
  9
$DIMTXSTY
  7
STANDARD
  9
$DIMAUNIT
 70
     0
  9
$DIMADEC
 70
     0
  9
$DIMALTRND
 40
0.0
  9
$DIMAZIN
 70
     2
  9
$DIMDSEP
 70
    46
  9
$DIMATFIT
 70
     3
  9
$DIMFRAC
 70
     0
  9
$DIMLDRBLK
  1

  9
$DIMLUNIT
 70
     2
  9
$DIMLWD
 70
    -1
  9
$DIMLWE
 70
    -1
  9
$DIMTMOVE
 70
     0
  9
$LUNITS
 70
     2
  9
$LUPREC
 70
     4
  9
$SKETCHINC
 40
0.1
  9
$FILLETRAD
 40
4.0
  9
$AUNITS
 70
     1
  9
$AUPREC
 70
     3
  9
$MENU
  1
ACAD
  9
$ELEVATION
 40
0.0
  9
$PELEVATION
 40
0.0
  9
$THICKNESS
 40
50.0
  9
$LIMCHECK
 70
     0
  9
$CHAMFERA
 40
0.0
  9
$CHAMFERB
 40
0.0
  9
$CHAMFERC
 40
0.0
  9
$CHAMFERD
 40
0.0
  9
$SKPOLY
 70
     0
  9
$TDCREATE
 40
2452321.396199653
  9
$TDUCREATE
 40
2452321.021199653
  9
$TDUPDATE
 40
2456212.885292558
  9
$TDUUPDATE
 40
2456212.510292558
  9
$TDINDWG
 40
1.0471497569
  9
$TDUSRTIMER
 40
1.0471438079
  9
$USRTIMER
 70
     1
  9
$ANGBASE
 50
0.0
  9
$ANGDIR
 70
     0
  9
$PDMODE
 70
     3
  9
$PDSIZE
 40
-2.0
  9
$PLINEWID
 40
0.0
  9
$SPLFRAME
 70
     0
  9
$SPLINETYPE
 70
     6
  9
$SPLINESEGS
 70
     8
  9
$HANDSEED
  5
304D
  9
$SURFTAB1
 70
     6
  9
$SURFTAB2
 70
     6
  9
$SURFTYPE
 70
     6
  9
$SURFU
 70
     6
  9
$SURFV
 70
     6
  9
$UCSBASE
  2

  9
$UCSNAME
  2

  9
$UCSORG
 10
0.0
 20
0.0
 30
0.0
  9
$UCSXDIR
 10
1.0
 20
0.0
 30
0.0
  9
$UCSYDIR
 10
0.0
 20
1.0
 30
0.0
  9
$UCSORTHOREF
  2

  9
$UCSORTHOVIEW
 70
     0
  9
$UCSORGTOP
 10
0.0
 20
0.0
 30
0.0
  9
$UCSORGBOTTOM
 10
0.0
 20
0.0
 30
0.0
  9
$UCSORGLEFT
 10
0.0
 20
0.0
 30
0.0
  9
$UCSORGRIGHT
 10
0.0
 20
0.0
 30
0.0
  9
$UCSORGFRONT
 10
0.0
 20
0.0
 30
0.0
  9
$UCSORGBACK
 10
0.0
 20
0.0
 30
0.0
  9
$PUCSBASE
  2

  9
$PUCSNAME
  2

  9
$PUCSORG
 10
0.0
 20
0.0
 30
0.0
  9
$PUCSXDIR
 10
1.0
 20
0.0
 30
0.0
  9
$PUCSYDIR
 10
0.0
 20
1.0
 30
0.0
  9
$PUCSORTHOREF
  2

  9
$PUCSORTHOVIEW
 70
     0
  9
$PUCSORGTOP
 10
0.0
 20
0.0
 30
0.0
  9
$PUCSORGBOTTOM
 10
0.0
 20
0.0
 30
0.0
  9
$PUCSORGLEFT
 10
0.0
 20
0.0
 30
0.0
  9
$PUCSORGRIGHT
 10
0.0
 20
0.0
 30
0.0
  9
$PUCSORGFRONT
 10
0.0
 20
0.0
 30
0.0
  9
$PUCSORGBACK
 10
0.0
 20
0.0
 30
0.0
  9
$USERI1
 70
     0
  9
$USERI2
 70
     0
  9
$USERI3
 70
     0
  9
$USERI4
 70
     0
  9
$USERI5
 70
     0
  9
$USERR1
 40
20.0
  9
$USERR2
 40
0.0
  9
$USERR3
 40
0.0
  9
$USERR4
 40
0.0
  9
$USERR5
 40
0.0
  9
$WORLDVIEW
 70
     1
  9
$SHADEDGE
 70
     3
  9
$SHADEDIF
 70
    70
  9
$TILEMODE
 70
     1
  9
$MAXACTVP
 70
    64
  9
$PINSBASE
 10
0.0
 20
0.0
 30
0.0
  9
$PLIMCHECK
 70
     0
  9
$PEXTMIN
 10
1.000000000000000E+20
 20
1.000000000000000E+20
 30
1.000000000000000E+20
  9
$PEXTMAX
 10
-1.000000000000000E+20
 20
-1.000000000000000E+20
 30
-1.000000000000000E+20
  9
$PLIMMIN
 10
0.0
 20
0.0
  9
$PLIMMAX
 10
12.0
 20
9.0
  9
$UNITMODE
 70
     0
  9
$VISRETAIN
 70
     1
  9
$PLINEGEN
 70
     0
  9
$PSLTSCALE
 70
     1
  9
$TREEDEPTH
 70
  3020
  9
$CMLSTYLE
  2
Standard
  9
$CMLJUST
 70
     0
  9
$CMLSCALE
 40
1.0
  9
$PROXYGRAPHICS
 70
     1
  9
$MEASUREMENT
 70
     0
  9
$CELWEIGHT
370
    -1
  9
$ENDCAPS
280
     0
  9
$JOINSTYLE
280
     0
  9
$LWDISPLAY
290
     0
  9
$INSUNITS
 70
     0
  9
$HYPERLINKBASE
  1

  9
$STYLESHEET
  1

  9
$XEDIT
290
     1
  9
$CEPSNTYPE
380
     0
  9
$PSTYLEMODE
290
     1
  9
$FINGERPRINTGUID
  2
{4F364F2F-86A0-4EE5-9AAD-567EBCC303C4}
  9
$VERSIONGUID
  2
{EC1079B7-9DD0-4304-98B8-2516E19AE9BB}
  9
$EXTNAMES
290
     1
  9
$PSVPSCALE
 40
0.0
  9
$OLESTARTUP
290
     0
  0
ENDSEC
  0
SECTION
  2
CLASSES
  0
CLASS
  1
ACDBDICTIONARYWDFLT
  2
AcDbDictionaryWithDefault
  3
ObjectDBX Classes
 90
        0
280
     0
281
     0
  0
CLASS
  1
MATERIAL
  2
AcDbMaterial
  3
ObjectDBX Classes
 90
     1153
280
     0
281
     0
  0
CLASS
  1
VISUALSTYLE
  2
AcDbVisualStyle
  3
ObjectDBX Classes
 90
     4095
280
     0
281
     0
  0
CLASS
  1
SCALE
  2
AcDbScale
  3
ObjectDBX Classes
 90
     1153
280
     0
281
     0
  0
CLASS
  1
TABLESTYLE
  2
AcDbTableStyle
  3
ObjectDBX Classes
 90
     4095
280
     0
281
     0
  0
CLASS
  1
MLEADERSTYLE
  2
AcDbMLeaderStyle
  3
ACDB_MLEADERSTYLE_CLASS
 90
     4095
280
     0
281
     0
  0
CLASS
  1
AMGSETTINGSOBJ
  2
AmgSettingsObj
  3
"AcadM|Product Description: AutoCAD Mechanical|Company: Autodesk, Inc."
 90
     1024
280
     0
281
     0
  0
CLASS
  1
ACME_DOCUMENT
  2
AcMeDbDoc
  3
AcMeServices
 90
     1024
280
     0
281
     0
  0
CLASS
  1
ACMESCOPE
  2
AcMeScope
  3
AcMeServices
 90
     1024
280
     0
281
     0
  0
CLASS
  1
ACMECOMMANDHISTORY
  2
AcMeCommandHistory
  3
AcMeServices
 90
     1024
280
     0
281
     0
  0
CLASS
  1
ACIMSYSVARMAN
  2
AcImSysVarManager
  3
AcMeServices
 90
     1024
280
     0
281
     0
  0
CLASS
  1
ACIMREALSYSVAR
  2
AcImRealSysVar
  3
AcMeServices
 90
     1024
280
     0
281
     0
  0
CLASS
  1
ACIMINTSYSVAR
  2
AcImIntSysVar
  3
AcMeServices
 90
     1024
280
     0
281
     0
  0
CLASS
  1
ACMEDRAWINGMAN
  2
AcMeDrawingMan
  3
AcMeServices
 90
     1024
280
     0
281
     0
  0
CLASS
  1
ACMEVIEW
  2
AcMeView
  3
AcMeServices
 90
     1024
280
     0
281
     0
  0
CLASS
  1
ACDBENTITYCACHE
  2
AcMeEntityCache
  3
AcMeServices
 90
     1024
280
     0
281
     0
  0
CLASS
  1
GSMANAGER
  2
AcMeGSManager
  3
AcMeServices
 90
     1024
280
     0
281
     0
  0
CLASS
  1
AMDTINTERNALREACTOR
  2
AmdtInternalReactor
  3
AcMeServices
 90
     1024
280
     0
281
     0
  0
CLASS
  1
ACMESTATEMGR
  2
AcMeStateMgr
  3
AcMeServices
 90
     1024
280
     0
281
     0
  0
CLASS
  1
ACGREFMASTER
  2
AcGrefMaster
  3
AcAttribServices
 90
     1024
280
     0
281
     0
  0
CLASS
  1
AM_DRAWING_MGR
  2
AcDmDwgMgr
  3
AcMechDwgViewMgmt
 90
     1024
280
     0
281
     0
  0
CLASS
  1
AM_DWG_DOCUMENT
  2
AcDmDwgDocument
  3
AcMechDwgViewMgmt
 90
     1024
280
     0
281
     0
  0
CLASS
  1
AM_DWG_SHEET
  2
AcDmSheet
  3
AcMechDwgViewMgmt
 90
     1024
280
     0
281
     0
  0
CLASS
  1
AM_VIEWDIMPARMAP
  2
AcDmViewDimParMap
  3
AcMechDwgViewMgmt
 90
     1024
280
     0
281
     0
  0
CLASS
  1
AM_DWGMGR_NAME
  2
AcDmDwgMgrName
  3
AcMechDwgViewMgmt
 90
     1024
280
     0
281
     0
  0
CLASS
  1
ACME_DATABASE
  2
AcMeDbDatabase
  3
AcMeServices
 90
     1024
280
     0
281
     0
  0
CLASS
  1
ACRFINSADJUSTERMGR
  2
AcRfInsAdjusterMgr
  3
AcMeServices
 90
     1024
280
     0
281
     0
  0
CLASS
  1
ACGREFACADMASTER
  2
AcGrefacadMaster
  3
AcGrefServices
 90
     1024
280
     0
281
     0
  0
CLASS
  1
AMDTMENUSTATEMGR
  2
AmdtMenuStateMgr
  3
McadcomServices
 90
     1024
280
     0
281
     0
  0
CLASS
  1
AMDTMCOMMENUSTATE
  2
AmdtMcomMenuState
  3
McadcomServices
 90
     1024
280
     0
281
     0
  0
CLASS
  1
AMIMASTER
  2
AmiMaster
  3
AmiServices
 90
     1024
280
     0
281
     0
  0
CLASS
  1
ASAPP
  2
AcAsAppObject
  3
AutoSurfServices
 90
     1024
280
     0
281
     0
  0
CLASS
  1
IM_STATIC_MAN
  2
AcImStaticVarManager
  3
AcMeServices
 90
     1024
280
     0
281
     0
  0
CLASS
  1
ACIMSTRSYSVAR
  2
AcImStrSysVar
  3
AcMeServices
 90
     1024
280
     0
281
     0
  0
CLASS
  1
ACIMDBLSTATICVAR
  2
AcImDblStaticVar
  3
AcMeServices
 90
     1024
280
     0
281
     0
  0
CLASS
  1
ACIMSTRSTATICVAR
  2
AcImStrStaticVar
  3
AcMeServices
 90
     1024
280
     0
281
     0
  0
CLASS
  1
ACIMINTSTATICVAR
  2
AcImIntStaticVar
  3
AcMeServices
 90
     1024
280
     0
281
     0
  0
CLASS
  1
ACASGREFMASTER
  2
AcAsGrefMaster
  3
AutoSurfResolverServices
 90
     1024
280
     0
281
     0
  0
CLASS
  1
ACADGREFMODULE
  2
AcAdGrefModule
  3
AdGrefServices
 90
     1024
280
     0
281
     0
  0
CLASS
  1
AMDTMAPISURFMOUDULE
  2
AmdtMApiSurfModule
  3
MApiSurfServices
 90
     1024
280
     0
281
     0
  0
CLASS
  1
MAPIAMMOUDLE
  2
MApiAmModule
  3
MApiAmServices
 90
     1024
280
     0
281
     0
  0
CLASS
  1
AMDTADMENUSTATE
  2
AmdtAdMenuState
  3
DesignerServices
 90
     1024
280
     0
281
     0
  0
CLASS
  1
ADAPPL
  2
AcAdAppl
  3
DesignerServices
 90
     1024
280
     0
281
     0
  0
CLASS
  1
DEPMGR
  2
AcAdDepMgr
  3
DesignerServices
 90
     1024
280
     0
281
     0
  0
CLASS
  1
PARAMMGR
  2
AcAdParamMgr
  3
DesignerServices
 90
     1024
280
     0
281
     0
  0
CLASS
  1
PARAMSCOPE
  2
AcAdParamScope
  3
DesignerServices
 90
     1024
280
     0
281
     0
  0
CLASS
  1
NAMEDAPPL
  2
AcAdNamedAppl
  3
DesignerServices
 90
     1024
280
     0
281
     0
  0
CLASS
  1
AMDTDMMENUSTATE
  2
AmdtDmMenuState
  3
AcMechDwgViewMgmt
 90
     1024
280
     0
281
     0
  0
CLASS
  1
MAPIADMODULE
  2
MApiAdModule
  3
MApiAdServices
 90
     1024
280
     0
281
     0
  0
CLASS
  1
AMDTAMMENUSTATE
  2
AmdtAmMenuState
  3
DesignerAssemblies
 90
     1024
280
     0
281
     0
  0
CLASS
  1
ACAMPROJECT
  2
AcAmProject
  3
DesignerAssemblies
 90
     1024
280
     0
281
     0
  0
CLASS
  1
ACAMGRCOMPDEF
  2
AcAmGrCompDef
  3
DesignerAssemblies
 90
     1024
280
     0
281
     0
  0
CLASS
  1
ACCMCONTEXT
  2
AcCmContext
  3
DesignerAssemblies
 90
     1024
280
     0
281
     0
  0
CLASS
  1
ACAMCOMPDEF
  2
AcAmCompDef
  3
DesignerAssemblies
 90
     1024
280
     0
281
     0
  0
CLASS
  1
ACAMCOMPDEFMGR
  2
AcAmCompDefMgr
  3
DesignerAssemblies
 90
     1024
280
     0
281
     0
  0
CLASS
  1
AMCONTEXTMGR
  2
AcAmContextMgr
  3
DesignerAssemblies
 90
     1024
280
     0
281
     0
  0
CLASS
  1
ACAMCONTEXTMODELER
  2
AcAmContextModeler
  3
DesignerAssemblies
 90
     1024
280
     0
281
     0
  0
CLASS
  1
ACMDATADICTIONARY
  2
AcmDataDictionary
  3
"AcmSymBB|Product Description: AutoCAD Mechanical|Company: Autodesk, Inc."
 90
     1024
280
     0
281
     0
  0
CLASS
  1
ACMDATAENTRYBLOCK
  2
AcmDataEntryBlock
  3
AcmSymBB|Product Description: AutoCAD Mechanical|Company: Autodesk, Inc.
 90
     1024
280
     0
281
     0
  0
CLASS
  1
ACRFATTGENMGR
  2
AcRfAttGeneralMgr
  3
AcAttribServices
 90
     1024
280
     0
281
     0
  0
CLASS
  1
ACRFOBJATTMGR
  2
AcRfObjAttGroupMgr
  3
AcAttribServices
 90
     1024
280
     0
281
     0
  0
CLASS
  1
ACRFMCADAPIATTHOLDER
  2
AcRfMCADAPIAttHolder
  3
AcAttribServices
 90
     1024
280
     0
281
     0
  0
CLASS
  1
AMDTSYSATTR
  2
AmdtSystemAttribute
  3
AcAttribServices
 90
     1024
280
     0
281
     0
  0
CLASS
  1
CATALOGSTATE
  2
AcAmCatalogState
  3
DesignerAssemblies
 90
     1024
280
     0
281
     0
  0
CLASS
  1
ACAMGRCOMPDEFSET
  2
AcAmGrCompDefSet
  3
DesignerAssemblies
 90
     1024
280
     0
281
     0
  0
CLASS
  1
AMDTBROWSERDBTAB
  2
AmdtBrowserDbTab
  3
McadcomServices
 90
     1024
280
     0
281
     0
  0
CLASS
  1
CBROWSERAPPOBJECT
  2
CBrowserAppObject
  3
McadcomServices
 90
     1024
280
     0
281
     0
  0
CLASS
  1
DM_PLACEHOLDER
  2
AcDmSelsetPlaceholder
  3
AcMechDwgViewMgmt
 90
     1024
280
     0
281
     0
  0
CLASS
  1
ACMSTANDARDANSI
  2
AcmStandardANSI
  3
"Amdt_StdImp|Product Description: AutoCAD Mechanical|Company: Autodesk, Inc."
 90
     1024
280
     0
281
     0
  0
CLASS
  1
ACMSURFSTANDARDANSI
  2
AcmSurfTextStdANSI
  3
"Amdt_StdImp|Product Description: AutoCAD Mechanical|Company: Autodesk, Inc."
 90
     1024
280
     0
281
     0
  0
CLASS
  1
ACMFCFSTANDARDANSI
  2
AcmFCFStdANSI
  3
"Amdt_StdImp|Product Description: AutoCAD Mechanical|Company: Autodesk, Inc."
 90
     1024
280
     0
281
     0
  0
CLASS
  1
ACMWELDSTANDARDANSI
  2
AcmWeldingStdANSI
  3
"Amdt_StdImp|Product Description: AutoCAD Mechanical|Company: Autodesk, Inc."
 90
     1024
280
     0
281
     0
  0
CLASS
  1
ACMIDSTANDARDANSI
  2
AcmIdStdANSI
  3
"Amdt_StdImp|Product Description: AutoCAD Mechanical|Company: Autodesk, Inc."
 90
     1024
280
     0
281
     0
  0
CLASS
  1
ACMDATUMSTANDARDANSI
  2
AcmDatumStdANSI
  3
"Amdt_StdImp|Product Description: AutoCAD Mechanical|Company: Autodesk, Inc."
 90
     1024
280
     0
281
     0
  0
CLASS
  1
ACMBOMSTANDARDANSI
  2
AcmBOMStdANSI
  3
"Amdt_StdImp|Product Description: AutoCAD Mechanical|Company: Autodesk, Inc."
 90
     1024
280
     0
281
     0
  0
CLASS
  1
ACMDETAILSTANDARDANSI
  2
AmdtDetailSymStdANSI
  3
"Amdt_StdImp|Product Description: AutoCAD Mechanical|Company: Autodesk, Inc."
 90
     1024
280
     0
281
     0
  0
CLASS
  1
ACMSECTIONSTANDARDANSI
  2
AmdtSectionSymStdANSI
  3
"Amdt_StdImp|Product Description: AutoCAD Mechanical|Company: Autodesk, Inc."
 90
     1024
280
     0
281
     0
  0
CLASS
  1
ACMCENTERLINESTANDARDANSI
  2
AmdtCenterLineStdANSI
  3
"Amdt_StdImp|Product Description: AutoCAD Mechanical|Company: Autodesk, Inc."
 90
     1024
280
     0
281
     0
  0
CLASS
  1
ACMTHREADLINESTANDARDANSI
  2
AmdtThreadLineStdANSI
  3
"Amdt_StdImp|Product Description: AutoCAD Mechanical|Company: Autodesk, Inc."
 90
     1024
280
     0
281
     0
  0
CLASS
  1
ACMNOTESTANDARDANSI
  2
AmdtNoteStdANSI
  3
"Amdt_StdImp|Product Description: AutoCAD Mechanical|Company: Autodesk, Inc."
 90
     1024
280
     0
281
     0
  0
CLASS
  1
ACMTAPERSTANDARDANSI
  2
AcmTaperStdANSI
  3
"Amdt_StdImp|Product Description: AutoCAD Mechanical|Company: Autodesk, Inc."
 90
     1024
280
     0
281
     0
  0
CLASS
  1
ACMANOOTATIONVIEWSTANDARDANSI
  2
AmdtAnViewStdANSI
  3
"Amdt_StdImp|Product Description: AutoCAD Mechanical|Company: Autodesk, Inc."
 90
     1024
280
     0
281
     0
  0
CLASS
  1
ACAMGLAYSTD
  2
AcAmgLayStd
  3
"AmgLay|Product Description: AutoCAD Mechanical|Company: Autodesk, Inc."
 90
     1024
280
     0
281
     0
  0
CLASS
  1
ACAMGDIMSTD
  2
AcAmgDimStd
  3
"AmgDim|Product Description: AutoCAD Mechanical|Company: Autodesk, Inc."
 90
     1024
280
     0
281
     0
  0
CLASS
  1
ACAMGHOLECHARTSTDANSI
  2
AcAmgHoleChartStdANSI
  3
AmgDim|Product Description: AutoCAD Mechanical|Company: Autodesk, Inc.
 90
     1024
280
     0
281
     0
  0
CLASS
  1
AMGOBJPROPCFG
  2
AmgObjPropCfg
  3
"AmgLay|Product Description: AutoCAD Mechanical|Company: Autodesk, Inc."
 90
     1025
280
     0
281
     0
  0
CLASS
  1
ACAMGTITLESTD
  2
AcAmgTitleStd
  3
"AmgTitle|Product Description: AutoCAD Mechanical|Company: Autodesk, Inc."
 90
     4095
280
     0
281
     0
  0
CLASS
  1
AMDTNOTETEMPLATEDB
  2
AmdtNoteTemplateDB
  3
AcmSymBB|Product Description: AutoCAD Mechanical|Company: Autodesk, Inc.
 90
     1024
280
     0
281
     0
  0
CLASS
  1
LAYER_INDEX
  2
AcDbLayerIndex
  3
ObjectDBX Classes
 90
        0
280
     0
281
     0
  0
CLASS
  1
IDBUFFER
  2
AcDbIdBuffer
  3
ObjectDBX Classes
 90
        0
280
     0
281
     0
  0
CLASS
  1
DICTIONARYVAR
  2
AcDbDictionaryVar
  3
ObjectDBX Classes
 90
        0
280
     0
281
     0
  0
CLASS
  1
CELLSTYLEMAP
  2
AcDbCellStyleMap
  3
ObjectDBX Classes
 90
     1152
280
     0
281
     0
  0
CLASS
  1
ACDBPLACEHOLDER
  2
AcDbPlaceHolder
  3
ObjectDBX Classes
 90
        0
280
     0
281
     0
  0
CLASS
  1
LAYOUT
  2
AcDbLayout
  3
ObjectDBX Classes
 90
        0
280
     0
281
     0
  0
ENDSEC
  0
SECTION
  2
TABLES
  0
TABLE
  2
VPORT
  5
2DE1
330
0
100
AcDbSymbolTable
 70
     1
  0
VPORT
  5
2E51
330
2DE1
100
AcDbSymbolTableRecord
100
AcDbViewportTableRecord
  2
*ACTIVE
 70
     0
 10
0.0
 20
0.0
 11
1.0
 21
1.0
 12
0.0
 22
0.0
 13
0.0
 23
0.0
 14
1.0
 24
1.0
 15
0.0
 25
0.0
 16
0.0
 26
0.0
 36
1.0
 17
54.15574509435776
 27
102.1254077593837
 37
0.0
 40
1197.008637517684
 41
1.712555066079295
 42
50.0
 43
0.0
 44
0.0
 50
0.0
 51
0.0
 71
     0
 72
   100
 73
     1
 74
     0
 75
     0
 76
     0
 77
     0
 78
     0
281
     0
 65
     0
110
0.0
120
0.0
130
0.0
111
1.0
121
0.0
131
0.0
112
0.0
122
1.0
132
0.0
 79
     0
146
0.0
  0
ENDTAB
  0
TABLE
  2
LTYPE
  5
2DDE
330
0
100
AcDbSymbolTable
 70
    19
  0
LTYPE
  5
2E3B
330
2DDE
100
AcDbSymbolTableRecord
100
AcDbLinetypeTableRecord
  2
ByBlock
 70
     0
  3

 72
    65
 73
     0
 40
0.0
  0
LTYPE
  5
2E3C
330
2DDE
100
AcDbSymbolTableRecord
100
AcDbLinetypeTableRecord
  2
ByLayer
 70
     0
  3

 72
    65
 73
     0
 40
0.0
  0
LTYPE
  5
2E3D
330
2DDE
100
AcDbSymbolTableRecord
100
AcDbLinetypeTableRecord
  2
CONTINUOUS
 70
     0
  3
実線
 72
    65
 73
     0
 40
0.0
  0
LTYPE
  5
2E52
330
2DDE
100
AcDbSymbolTableRecord
100
AcDbLinetypeTableRecord
  2
DASHDOT
 70
     0
  3
____ _ ____ _ ____ _ ____ _ ____ _ ____ _ ____
 72
    65
 73
     4
 40
5.5
 49
4.0
 74
     0
 49
-0.6
 74
     0
 49
0.3
 74
     0
 49
-0.6
 74
     0
  0
LTYPE
  5
2E53
330
2DDE
100
AcDbSymbolTableRecord
100
AcDbLinetypeTableRecord
  2
HIDDEN
 70
     0
  3
Hidden __ __ __ __ __ __ __ __ __ __ __ __ __ _
 72
    65
 73
     2
 40
0.375
 49
0.25
 74
     0
 49
-0.125
 74
     0
  0
LTYPE
  5
2E54
330
2DDE
100
AcDbSymbolTableRecord
100
AcDbLinetypeTableRecord
  2
PHANTOM2
 70
     0
  3
Phantom (.5x) ___ _ _ ___ _ _ ___ _ _ ___ _ _
 72
    65
 73
     6
 40
1.25
 49
0.625
 74
     0
 49
-0.125
 74
     0
 49
0.125
 74
     0
 49
-0.125
 74
     0
 49
0.125
 74
     0
 49
-0.125
 74
     0
  0
LTYPE
  5
2E55
330
2DDE
100
AcDbSymbolTableRecord
100
AcDbLinetypeTableRecord
  2
CENTER
 70
     0
  3
Center ____ _ ____ _ ____ _ ____ _ ____ _ ____
 72
    65
 73
     4
 40
2.0
 49
1.25
 74
     0
 49
-0.25
 74
     0
 49
0.25
 74
     0
 49
-0.25
 74
     0
  0
LTYPE
  5
2E56
330
2DDE
100
AcDbSymbolTableRecord
100
AcDbLinetypeTableRecord
  2
ASULTYPE
 70
     0
  3
実線
 72
    65
 73
     2
 40
3.0
 49
2.5
 74
     0
 49
0.5
 74
     0
  0
LTYPE
  5
2E57
330
2DDE
100
AcDbSymbolTableRecord
100
AcDbLinetypeTableRecord
  2
ASVLTYPE
 70
     0
  3
__ __ __ __ __ __ __ __ __ __ __ __ __ __ __ __ __ __ __ __ __
 72
    65
 73
     2
 40
0.75
 49
0.5
 74
     0
 49
-0.25
 74
     0
  0
LTYPE
  5
2E58
330
2DDE
100
AcDbSymbolTableRecord
100
AcDbLinetypeTableRecord
  2
AM_ISO02W050
 70
     0
  3
__ __ __ __ __ __ __ __ __ __ __ __ __ __ __
 72
    65
 73
     2
 40
7.5
 49
6.0
 74
     0
 49
-1.5
 74
     0
  0
LTYPE
  5
2E59
330
2DDE
100
AcDbSymbolTableRecord
100
AcDbLinetypeTableRecord
  2
AM_ISO08W050
 70
     0
  3
____ . ____ . ____ . ____ . ____ . ____ . ____
 72
    65
 73
     4
 40
18.0
 49
12.0
 74
     0
 49
-1.5
 74
     0
 49
3.0
 74
     0
 49
-1.5
 74
     0
  0
LTYPE
  5
2E5A
330
2DDE
100
AcDbSymbolTableRecord
100
AcDbLinetypeTableRecord
  2
AM_ISO09W050
 70
     0
  3
_____ . . _____ . . _____ . . ____ .. ____
 72
    65
 73
     6
 40
22.5
 49
12.0
 74
     0
 49
-1.5
 74
     0
 49
3.0
 74
     0
 49
-1.5
 74
     0
 49
3.0
 74
     0
 49
-1.5
 74
     0
  0
LTYPE
  5
2E5B
330
2DDE
100
AcDbSymbolTableRecord
100
AcDbLinetypeTableRecord
  2
AMCONSTR
 70
     0
  3
_______________________
 72
    65
 73
     2
 40
9999.0
 49
9999.0
 74
     0
 49
0.0
 74
     0
  0
LTYPE
  5
2E5C
330
2DDE
100
AcDbSymbolTableRecord
100
AcDbLinetypeTableRecord
  2
AM_ISO08W050X2
 70
     0
  3
__ . __ . __ . __ . __ . __
 72
    65
 73
     4
 40
9.0
 49
6.0
 74
     0
 49
-0.75
 74
     0
 49
1.5
 74
     0
 49
-0.75
 74
     0
  0
LTYPE
  5
2E5D
330
2DDE
100
AcDbSymbolTableRecord
100
AcDbLinetypeTableRecord
  2
AM_ISO02W050X2
 70
     0
  3
 _ _ _ _ _ _ _ _ _ _ _ _
 72
    65
 73
     2
 40
3.75
 49
3.0
 74
     0
 49
-0.75
 74
     0
  0
LTYPE
  5
2E5E
330
2DDE
100
AcDbSymbolTableRecord
100
AcDbLinetypeTableRecord
  2
AMZIGZAG
 70
     0
  3
/\/-/\/-/\/-/\/-/\/-/\/
 72
    65
 73
     2
 40
11.0001
 49
0.0001
 74
     0
 49
-11.0
 74
     0
  0
LTYPE
  5
2E5F
330
2DDE
100
AcDbSymbolTableRecord
100
AcDbLinetypeTableRecord
  2
CENTER2
 70
     0
  3
Center (.5x) ___ _ ___ _ ___ _ ___ _ ___ _ ___
 72
    65
 73
     4
 40
1.125
 49
0.75
 74
     0
 49
-0.125
 74
     0
 49
0.125
 74
     0
 49
-0.125
 74
     0
  0
LTYPE
  5
2E60
330
2DDE
100
AcDbSymbolTableRecord
100
AcDbLinetypeTableRecord
  2
HIDDEN2
 70
     0
  3
Hidden (.5x) _ _ _ _ _ _ _ _ _ _ _ _ _ _ _ _ _
 72
    65
 73
     2
 40
0.1875
 49
0.125
 74
     0
 49
-0.0625
 74
     0
  0
LTYPE
  5
2E61
330
2DDE
100
AcDbSymbolTableRecord
100
AcDbLinetypeTableRecord
  2
AMZIGZAG2
 70
     0
  3
/\/-/\/-/\/-/\/-/\/-/\/
 72
    65
 73
     2
 40
0.4401
 49
0.0001
 74
     0
 49
-0.4400000000000003
 74
     0
  0
LTYPE
  5
2E62
330
2DDE
100
AcDbSymbolTableRecord
100
AcDbLinetypeTableRecord
  2
ACANSTGB
 70
     0
  3
__ . . __ . .
 72
    65
 73
     6
 40
0.35433070866
 49
0.15748031496
 74
     0
 49
-0.03937007874
 74
     0
 49
0.03937007874
 74
     0
 49
-0.03937007874
 74
     0
 49
0.03937007874
 74
     0
 49
-0.03937007874
 74
     0
  0
LTYPE
  5
2E63
330
2DDE
100
AcDbSymbolTableRecord
100
AcDbLinetypeTableRecord
  2
ACANSTGL
 70
     0
  3
_ _ _ _ _
 72
    65
 73
     2
 40
0.11811023622
 49
0.07874015748
 74
     0
 49
-0.03937007874
 74
     0
  0
ENDTAB
  0
TABLE
  2
LAYER
  5
2DDB
330
0
100
AcDbSymbolTable
 70
    12
  0
LAYER
  5
2E35
102
{ACAD_XDICTIONARY
360
300C
102
}
330
2DDB
100
AcDbSymbolTableRecord
100
AcDbLayerTableRecord
  2
0
 70
     0
 62
     7
  6
CONTINUOUS
370
    -3
390
2DE8
  0
LAYER
  5
2E64
102
{ACAD_XDICTIONARY
360
300E
102
}
330
2DDB
100
AcDbSymbolTableRecord
100
AcDbLayerTableRecord
  2
OUTLINE
 70
     0
 62
     3
  6
CONTINUOUS
370
    -3
390
2DE8
  0
LAYER
  5
2E65
102
{ACAD_XDICTIONARY
360
3010
102
}
330
2DDB
100
AcDbSymbolTableRecord
100
AcDbLayerTableRecord
  2
SIZE
 70
     0
 62
    30
  6
CONTINUOUS
370
    -3
390
2DE8
  0
LAYER
  5
2E66
102
{ACAD_XDICTIONARY
360
3012
102
}
330
2DDB
100
AcDbSymbolTableRecord
100
AcDbLayerTableRecord
  2
BASIS
 70
     0
 62
     6
  6
DASHDOT
370
    -3
390
2DE8
  0
LAYER
  5
2E67
102
{ACAD_XDICTIONARY
360
3014
102
}
330
2DDB
100
AcDbSymbolTableRecord
100
AcDbLayerTableRecord
  2
DETAIL
 70
     0
 62
     5
  6
CONTINUOUS
370
    -3
390
2DE8
  0
LAYER
  5
2E68
102
{ACAD_XDICTIONARY
360
3016
102
}
330
2DDB
100
AcDbSymbolTableRecord
100
AcDbLayerTableRecord
  2
ARRANGE
 70
     0
 62
     1
  6
CONTINUOUS
370
    -3
390
2DE8
  0
LAYER
  5
2E69
330
2DDB
100
AcDbSymbolTableRecord
100
AcDbLayerTableRecord
  2
DEFPOINTS
 70
     0
 62
     7
  6
CONTINUOUS
290
     0
370
    -3
390
2DE8
  0
LAYER
  5
2E6A
102
{ACAD_XDICTIONARY
360
3018
102
}
330
2DDB
100
AcDbSymbolTableRecord
100
AcDbLayerTableRecord
  2
ETC
 70
     0
 62
    61
  6
CONTINUOUS
370
    -3
390
2DE8
  0
LAYER
  5
2E6B
102
{ACAD_XDICTIONARY
360
301A
102
}
330
2DDB
100
AcDbSymbolTableRecord
100
AcDbLayerTableRecord
  2
FIX
 70
     0
 62
    11
  6
CONTINUOUS
370
    -3
390
2DE8
  0
LAYER
  5
2E6C
102
{ACAD_XDICTIONARY
360
301C
102
}
330
2DDB
100
AcDbSymbolTableRecord
100
AcDbLayerTableRecord
  2
NOTE
 70
     0
 62
     4
  6
CONTINUOUS
370
    -3
390
2DE8
  0
LAYER
  5
2E6D
102
{ACAD_XDICTIONARY
360
301E
102
}
330
2DDB
100
AcDbSymbolTableRecord
100
AcDbLayerTableRecord
  2
SERVICESPACE
 70
     0
 62
     2
  6
DASHDOT
370
    -3
390
2DE8
  0
LAYER
  5
2E6E
102
{ACAD_XDICTIONARY
360
3020
102
}
330
2DDB
100
AcDbSymbolTableRecord
100
AcDbLayerTableRecord
  2
SYMBOLLINE
 70
     0
 62
    15
  6
CONTINUOUS
370
    -3
390
2DE8
  0
ENDTAB
  0
TABLE
  2
STYLE
  5
2DDC
330
0
100
AcDbSymbolTable
 70
     5
  0
STYLE
  5
2E36
330
2DDC
100
AcDbSymbolTableRecord
100
AcDbTextStyleTableRecord
  2
STANDARD
 70
     0
 40
64.0
 41
0.9
 50
0.0
 71
     0
 42
64.0
  3
SIMPLEX.shx
  4
BIGFONT.shx
  0
STYLE
  5
2E3A
330
2DDC
100
AcDbSymbolTableRecord
100
AcDbTextStyleTableRecord
  2
ANNOTATIVE
 70
     0
 40
0.0
 41
1.0
 50
0.0
 71
     0
 42
0.2
  3
txt
  4

1001
ACADANNOTATIVE
1000
AnnotativeData
1002
{
1070
     1
1070
     1
1002
}
  0
STYLE
  5
2E6F
330
2DDC
100
AcDbSymbolTableRecord
100
AcDbTextStyleTableRecord
  2

 70
     1
 40
0.0
 41
1.0
 50
0.0
 71
     0
 42
64.0
  3
genltshp.shx
  4

  0
STYLE
  5
2E70
330
2DDC
100
AcDbSymbolTableRecord
100
AcDbTextStyleTableRecord
  2
ACANSTS
 70
     0
 40
1.0
 41
1.0
 50
0.0
 71
     0
 42
64.0
  3
romans.shx
  4
extfont.shx
  0
STYLE
  5
2E71
330
2DDC
100
AcDbSymbolTableRecord
100
AcDbTextStyleTableRecord
  2
ACANSGDT
 70
     0
 40
0.0
 41
1.0
 50
0.0
 71
     0
 42
64.0
  3
amgdt.shx
  4

  0
ENDTAB
  0
TABLE
  2
VIEW
  5
2DDF
330
0
100
AcDbSymbolTable
 70
     1
  0
VIEW
  5
2E72
330
2DDF
100
AcDbSymbolTableRecord
100
AcDbViewTableRecord
  2
ALL
 70
     0
 40
4282.619807999997
 10
0.0
 20
41.30990399999999
 41
5940.0
 11
0.0
 21
0.0
 31
1.0
 12
0.0
 22
0.0
 32
0.0
 42
50.0
 43
0.0
 44
0.0
 50
0.0
 71
     0
281
     0
 72
     1
110
0.0
120
0.0
130
0.0
111
1.0
121
0.0
131
0.0
112
0.0
122
1.0
132
0.0
 79
     0
146
0.0
  0
ENDTAB
  0
TABLE
  2
UCS
  5
2DE0
330
0
100
AcDbSymbolTable
 70
     0
  0
ENDTAB
  0
TABLE
  2
APPID
  5
2DE2
330
0
100
AcDbSymbolTable
 70
    27
  0
APPID
  5
2E37
330
2DE2
100
AcDbSymbolTableRecord
100
AcDbRegAppTableRecord
  2
ACAD
 70
     0
  0
APPID
  5
2E3E
330
2DE2
100
AcDbSymbolTableRecord
100
AcDbRegAppTableRecord
  2
ACADANNOTATIVE
 70
     0
  0
APPID
  5
2E48
330
2DE2
100
AcDbSymbolTableRecord
100
AcDbRegAppTableRecord
  2
ACAD_MLEADERVER
 70
     0
  0
APPID
  5
2E73
330
2DE2
100
AcDbSymbolTableRecord
100
AcDbRegAppTableRecord
  2
GENIUS_GENDIM_13
 70
     0
  0
APPID
  5
2E74
330
2DE2
100
AcDbSymbolTableRecord
100
AcDbRegAppTableRecord
  2
GENIUS_GENDTOL_13
 70
     0
  0
APPID
  5
2E75
330
2DE2
100
AcDbSymbolTableRecord
100
AcDbRegAppTableRecord
  2
GENIUS_GE3DTOL_13
 70
     0
  0
APPID
  5
2E76
330
2DE2
100
AcDbSymbolTableRecord
100
AcDbRegAppTableRecord
  2
MCAD_NO_VIS
 70
     0
  0
APPID
  5
2E77
330
2DE2
100
AcDbSymbolTableRecord
100
AcDbRegAppTableRecord
  2
ACAD_TEMP_GRAPHIC
 70
     0
  0
APPID
  5
2E78
330
2DE2
100
AcDbSymbolTableRecord
100
AcDbRegAppTableRecord
  2
AD_DRAW
 70
     0
  0
APPID
  5
2E79
330
2DE2
100
AcDbSymbolTableRecord
100
AcDbRegAppTableRecord
  2
ACATTRIBSERVICES
 70
     0
  0
APPID
  5
2E7A
330
2DE2
100
AcDbSymbolTableRecord
100
AcDbRegAppTableRecord
  2
ASURF_PCURVE_APPNAME
 70
     0
  0
APPID
  5
2E7B
330
2DE2
100
AcDbSymbolTableRecord
100
AcDbRegAppTableRecord
  2
AMG_3D2D_5_0
 70
     0
  0
APPID
  5
2E7C
330
2DE2
100
AcDbSymbolTableRecord
100
AcDbRegAppTableRecord
  2
DESIGNERASSEMBLIES
 70
     0
  0
APPID
  5
2E7D
330
2DE2
100
AcDbSymbolTableRecord
100
AcDbRegAppTableRecord
  2
ACADM_DIM_EDIT
 70
     0
  0
APPID
  5
2E7E
330
2DE2
100
AcDbSymbolTableRecord
100
AcDbRegAppTableRecord
  2
AMDT_DM_ADJ
 70
     0
  0
APPID
  5
2E7F
330
2DE2
100
AcDbSymbolTableRecord
100
AcDbRegAppTableRecord
  2
ACAD_DSTYLE_DIMARC_LENGTH_
 70
     0
  0
APPID
  5
2E80
330
2DE2
100
AcDbSymbolTableRecord
100
AcDbRegAppTableRecord
  2
ACAD_DSTYLE_DIMJOGGED_JOGA
 70
     0
  0
APPID
  5
2E81
330
2DE2
100
AcDbSymbolTableRecord
100
AcDbRegAppTableRecord
  2
ACAD_PSEXT
 70
     0
  0
APPID
  5
2E82
330
2DE2
100
AcDbSymbolTableRecord
100
AcDbRegAppTableRecord
  2
ACAD_EXEMPT_FROM_CAD_STANDARDS
 70
     0
  0
APPID
  5
2E83
330
2DE2
100
AcDbSymbolTableRecord
100
AcDbRegAppTableRecord
  2
ACAD_DSTYLE_DIMJAG
 70
     0
  0
APPID
  5
2E84
330
2DE2
100
AcDbSymbolTableRecord
100
AcDbRegAppTableRecord
  2
ACAD_DSTYLE_DIMTALN
 70
     0
  0
APPID
  5
2E85
330
2DE2
100
AcDbSymbolTableRecord
100
AcDbRegAppTableRecord
  2
AMG_3D2D_5_00
 70
     0
  0
APPID
  5
2FB3
330
2DE2
100
AcDbSymbolTableRecord
100
AcDbRegAppTableRecord
  2
AMG_3D2D_5.0
 70
     0
  0
APPID
  5
3049
330
2DE2
100
AcDbSymbolTableRecord
100
AcDbRegAppTableRecord
  2
ACAD_DSTYLE_DIMARC_LENGTH_SYMBOL
 70
     0
  0
APPID
  5
304A
330
2DE2
100
AcDbSymbolTableRecord
100
AcDbRegAppTableRecord
  2
ACAD_DSTYLE_DIM_LINETYPE
 70
     0
  0
APPID
  5
304B
330
2DE2
100
AcDbSymbolTableRecord
100
AcDbRegAppTableRecord
  2
ACAD_DSTYLE_DIM_EXT1_LINETYPE
 70
     0
  0
APPID
  5
304C
330
2DE2
100
AcDbSymbolTableRecord
100
AcDbRegAppTableRecord
  2
ACAD_DSTYLE_DIM_EXT2_LINETYPE
 70
     0
  0
ENDTAB
  0
TABLE
  2
DIMSTYLE
  5
2DE3
330
0
100
AcDbSymbolTable
 70
    10
100
AcDbDimStyleTable
 71
     1
340
2E86
  0
DIMSTYLE
105
2E38
330
2DE3
100
AcDbSymbolTableRecord
100
AcDbDimStyleTableRecord
  2
STANDARD
 70
     0
 41
12.0
 42
20.0
 44
20.0
 77
     1
 78
     8
140
64.0
141
0.0
147
10.0
275
     1
279
     2
284
     7
285
     7
286
     7
340
2E36
  0
DIMSTYLE
105
2E39
330
2DE3
100
AcDbSymbolTableRecord
100
AcDbDimStyleTableRecord
  2
ANNOTATIVE
 70
     0
275
     1
279
     2
284
     7
285
     7
286
     7
340
2E36
1001
ACADANNOTATIVE
1000
AnnotativeData
1002
{
1070
     1
1070
     1
1002
}
  0
DIMSTYLE
105
2E86
330
2DE3
100
AcDbSymbolTableRecord
100
AcDbDimStyleTableRecord
  2
AM_ANSI
 70
     0
  4
mm
 41
0.12
 42
0.05
 43
0.5
 44
0.1
 47
0.1
 48
0.1
 78
     7
 79
     2
140
0.12
141
0.0
146
0.71
147
0.06
176
   256
177
   256
178
     2
274
     4
284
     7
340
2E36
371
    -1
372
    -1
1001
ACAD_DSTYLE_DIMARC_LENGTH_SYMBOL
1070
   379
1070
     1
1001
ACAD_DSTYLE_DIM_LINETYPE
1070
   380
1005
2E3B
1001
ACAD_DSTYLE_DIM_EXT1_LINETYPE
1070
   381
1005
2E3B
1001
ACAD_DSTYLE_DIM_EXT2_LINETYPE
1070
   382
1005
2E3B
  0
DIMSTYLE
105
2E87
330
2DE3
100
AcDbSymbolTableRecord
100
AcDbDimStyleTableRecord
  2
AM_ANSI$3
 70
     0
  4
mm
 41
0.12
 42
0.05
 43
0.5
 44
0.1
 47
0.1
 48
0.1
 78
     7
 79
     2
140
0.12
141
0.0
146
0.71
147
0.06
176
   256
177
   256
178
     2
274
     4
284
     7
288
     1
289
     0
340
2E36
371
    -1
372
    -1
1001
ACAD_DSTYLE_DIMARC_LENGTH_SYMBOL
1070
   379
1070
     1
1001
ACAD_DSTYLE_DIM_LINETYPE
1070
   380
1005
2E3B
1001
ACAD_DSTYLE_DIM_EXT1_LINETYPE
1070
   381
1005
2E3B
1001
ACAD_DSTYLE_DIM_EXT2_LINETYPE
1070
   382
1005
2E3B
  0
DIMSTYLE
105
2E88
330
2DE3
100
AcDbSymbolTableRecord
100
AcDbDimStyleTableRecord
  2
AM_ANSI$4
 70
     0
  4
mm
 41
0.12
 42
0.05
 43
0.5
 44
0.1
 47
0.1
 48
0.1
 78
     7
 79
     2
140
0.12
141
0.0
146
0.71
147
0.06
176
   256
177
   256
178
     2
274
     4
284
     7
340
2E36
371
    -1
372
    -1
1001
ACAD_DSTYLE_DIMARC_LENGTH_SYMBOL
1070
   379
1070
     1
1001
ACAD_DSTYLE_DIM_LINETYPE
1070
   380
1005
2E3B
1001
ACAD_DSTYLE_DIM_EXT1_LINETYPE
1070
   381
1005
2E3B
1001
ACAD_DSTYLE_DIM_EXT2_LINETYPE
1070
   382
1005
2E3B
  0
DIMSTYLE
105
2E89
330
2DE3
100
AcDbSymbolTableRecord
100
AcDbDimStyleTableRecord
  2
AM_ANSI$7
 70
     0
  4
mm
 41
0.12
 42
0.05
 43
0.5
 44
0.1
 47
0.1
 48
0.1
 78
     7
 79
     2
140
0.12
141
0.0
146
0.71
147
0.06
176
   256
177
   256
178
     2
274
     4
284
     7
340
2E36
371
    -1
372
    -1
1001
ACAD_DSTYLE_DIMARC_LENGTH_SYMBOL
1070
   379
1070
     1
1001
ACAD_DSTYLE_DIM_LINETYPE
1070
   380
1005
2E3B
1001
ACAD_DSTYLE_DIM_EXT1_LINETYPE
1070
   381
1005
2E3B
1001
ACAD_DSTYLE_DIM_EXT2_LINETYPE
1070
   382
1005
2E3B
  0
DIMSTYLE
105
2E8A
330
2DE3
100
AcDbSymbolTableRecord
100
AcDbDimStyleTableRecord
  2
AM_ANSI$SF
 70
     0
  4
mm
 41
0.12
 42
0.05
 43
0.5
 44
0.1
 47
0.1
 48
0.1
 75
     1
 76
     1
 78
     7
 79
     2
140
0.12
141
0.0
146
0.71
147
0.06
176
   256
177
   256
178
     2
274
     4
284
     7
340
2E36
371
    -1
372
    -1
1001
ACAD_DSTYLE_DIMARC_LENGTH_SYMBOL
1070
   379
1070
     1
1001
ACAD_DSTYLE_DIM_LINETYPE
1070
   380
1005
2E3B
1001
ACAD_DSTYLE_DIM_EXT1_LINETYPE
1070
   381
1005
2E3B
1001
ACAD_DSTYLE_DIM_EXT2_LINETYPE
1070
   382
1005
2E3B
  0
DIMSTYLE
105
2E8B
330
2DE3
100
AcDbSymbolTableRecord
100
AcDbDimStyleTableRecord
  2
AM_ANSI$SH
 70
     0
  4
mm
 41
0.12
 42
0.05
 43
0.5
 44
0.1
 47
0.1
 48
0.1
 75
     1
 76
     1
 78
     7
 79
     2
140
0.12
141
0.0
146
0.71
147
0.06
173
     1
176
   256
177
   256
178
     2
274
     4
284
     7
340
2E36
343
2EAB
371
    -1
372
    -1
1001
ACAD_DSTYLE_DIMARC_LENGTH_SYMBOL
1070
   379
1070
     1
1001
ACAD_DSTYLE_DIM_LINETYPE
1070
   380
1005
2E3B
1001
ACAD_DSTYLE_DIM_EXT1_LINETYPE
1070
   381
1005
2E3B
1001
ACAD_DSTYLE_DIM_EXT2_LINETYPE
1070
   382
1005
2E3B
  0
DIMSTYLE
105
2E8C
330
2DE3
100
AcDbSymbolTableRecord
100
AcDbDimStyleTableRecord
  2
STANDARD1
 70
     0
 40
6.0
 41
2.5
 42
0.625
 43
6.0
 44
1.25
 47
1.0
 48
0.5
 77
     1
 78
     8
140
2.5
141
0.0
146
0.6
147
1.0
173
     1
275
     1
279
     2
284
     7
285
     7
286
     7
340
2E36
  0
DIMSTYLE
105
2E8D
330
2DE3
100
AcDbSymbolTableRecord
100
AcDbDimStyleTableRecord
  2
STANDARD$0
 70
     0
 41
12.0
 42
20.0
 44
20.0
 73
     0
 74
     0
 77
     1
 78
     8
140
64.0
141
0.0
147
10.0
275
     1
279
     2
284
     7
285
     7
286
     7
340
2E36
  0
ENDTAB
  0
TABLE
  2
BLOCK_RECORD
  5
2DDA
330
0
100
AcDbSymbolTable
 70
    79
  0
BLOCK_RECORD
  5
2E4D
102
{ACAD_XDICTIONARY
360
3022
102
}
330
2DDA
100
AcDbSymbolTableRecord
100
AcDbBlockTableRecord
  2
*Model_Space
340
2E50
  0
BLOCK_RECORD
  5
2E49
330
2DDA
100
AcDbSymbolTableRecord
100
AcDbBlockTableRecord
  2
*Paper_Space
340
2E4C
  0
BLOCK_RECORD
  5
2E95
330
2DDA
100
AcDbSymbolTableRecord
100
AcDbBlockTableRecord
  2
$MODEL_SPACE
340
0
  0
BLOCK_RECORD
  5
2E97
330
2DDA
100
AcDbSymbolTableRecord
100
AcDbBlockTableRecord
  2
$PAPER_SPACE
340
0
  0
BLOCK_RECORD
  5
2E99
330
2DDA
100
AcDbSymbolTableRecord
100
AcDbBlockTableRecord
  2
_ORIGIN
340
0
  0
BLOCK_RECORD
  5
2E9B
330
2DDA
100
AcDbSymbolTableRecord
100
AcDbBlockTableRecord
  2
_DOTBLANK
340
0
102
{BLKREFS
331
1299
331
129A
331
11AA
331
11AB
331
E80
331
E81
331
1123
331
1124
331
11C2
331
11C3
331
11EC
331
11ED
331
11F9
331
11FA
331
1287
331
1288
331
1417
331
1418
331
1423
331
1424
331
142F
331
1430
331
143B
331
143C
331
166E
331
166F
331
1677
331
1678
331
1680
331
1681
331
1689
331
168A
331
1696
331
1697
331
16A3
331
16A4
331
16AF
331
16B0
331
16BB
331
16BC
331
16C7
331
16C8
331
16D3
331
16D4
331
1D86
331
1D87
331
1D8F
331
1D90
331
1D98
331
1D99
331
1DA1
331
1DA2
331
1DAB
331
1DAC
331
1DB5
331
1DB6
331
291A
331
291B
331
291F
331
2920
331
2925
331
2926
331
292B
331
292C
331
2930
331
2931
331
2935
331
2936
102
}
  0
BLOCK_RECORD
  5
2E9D
330
2DDA
100
AcDbSymbolTableRecord
100
AcDbBlockTableRecord
  2
_OPEN30
340
0
102
{BLKREFS
331
2087
331
2173
331
227F
331
23B5
331
2519
331
2681
102
}
  0
BLOCK_RECORD
  5
2E9F
330
2DDA
100
AcDbSymbolTableRecord
100
AcDbBlockTableRecord
  2
*D5
340
0
  0
BLOCK_RECORD
  5
2EA1
330
2DDA
100
AcDbSymbolTableRecord
100
AcDbBlockTableRecord
  2
*U6
340
0
102
{BLKREFS
331
129B
102
}
  0
BLOCK_RECORD
  5
2EA3
330
2DDA
100
AcDbSymbolTableRecord
100
AcDbBlockTableRecord
  2
*D7
340
0
  0
BLOCK_RECORD
  5
2EA5
330
2DDA
100
AcDbSymbolTableRecord
100
AcDbBlockTableRecord
  2
*U8
340
0
102
{BLKREFS
331
11AC
102
}
  0
BLOCK_RECORD
  5
2EA7
330
2DDA
100
AcDbSymbolTableRecord
100
AcDbBlockTableRecord
  2
*D9
340
0
  0
BLOCK_RECORD
  5
2EA9
330
2DDA
100
AcDbSymbolTableRecord
100
AcDbBlockTableRecord
  2
*U10
340
0
102
{BLKREFS
331
E82
102
}
  0
BLOCK_RECORD
  5
2EAB
330
2DDA
100
AcDbSymbolTableRecord
100
AcDbBlockTableRecord
  2
GENAXEH
340
0
  0
BLOCK_RECORD
  5
2EAD
330
2DDA
100
AcDbSymbolTableRecord
100
AcDbBlockTableRecord
  2
*D12
340
0
  0
BLOCK_RECORD
  5
2EAF
330
2DDA
100
AcDbSymbolTableRecord
100
AcDbBlockTableRecord
  2
*U13
340
0
102
{BLKREFS
331
1125
102
}
  0
BLOCK_RECORD
  5
2EB1
330
2DDA
100
AcDbSymbolTableRecord
100
AcDbBlockTableRecord
  2
*D14
340
0
  0
BLOCK_RECORD
  5
2EB3
330
2DDA
100
AcDbSymbolTableRecord
100
AcDbBlockTableRecord
  2
*U15
340
0
102
{BLKREFS
331
11C4
102
}
  0
BLOCK_RECORD
  5
2EB5
330
2DDA
100
AcDbSymbolTableRecord
100
AcDbBlockTableRecord
  2
*D16
340
0
  0
BLOCK_RECORD
  5
2EB7
330
2DDA
100
AcDbSymbolTableRecord
100
AcDbBlockTableRecord
  2
*U17
340
0
102
{BLKREFS
331
11EE
102
}
  0
BLOCK_RECORD
  5
2EB9
330
2DDA
100
AcDbSymbolTableRecord
100
AcDbBlockTableRecord
  2
*D18
340
0
  0
BLOCK_RECORD
  5
2EBB
330
2DDA
100
AcDbSymbolTableRecord
100
AcDbBlockTableRecord
  2
*U19
340
0
102
{BLKREFS
331
11FB
102
}
  0
BLOCK_RECORD
  5
2EBD
330
2DDA
100
AcDbSymbolTableRecord
100
AcDbBlockTableRecord
  2
*D20
340
0
  0
BLOCK_RECORD
  5
2EBF
330
2DDA
100
AcDbSymbolTableRecord
100
AcDbBlockTableRecord
  2
*U21
340
0
102
{BLKREFS
331
1289
102
}
  0
BLOCK_RECORD
  5
2EC1
330
2DDA
100
AcDbSymbolTableRecord
100
AcDbBlockTableRecord
  2
*D22
340
0
  0
BLOCK_RECORD
  5
2EC3
330
2DDA
100
AcDbSymbolTableRecord
100
AcDbBlockTableRecord
  2
*U23
340
0
102
{BLKREFS
331
1419
102
}
  0
BLOCK_RECORD
  5
2EC5
330
2DDA
100
AcDbSymbolTableRecord
100
AcDbBlockTableRecord
  2
*D24
340
0
  0
BLOCK_RECORD
  5
2EC7
330
2DDA
100
AcDbSymbolTableRecord
100
AcDbBlockTableRecord
  2
*U25
340
0
102
{BLKREFS
331
1425
102
}
  0
BLOCK_RECORD
  5
2EC9
330
2DDA
100
AcDbSymbolTableRecord
100
AcDbBlockTableRecord
  2
*D26
340
0
  0
BLOCK_RECORD
  5
2ECB
330
2DDA
100
AcDbSymbolTableRecord
100
AcDbBlockTableRecord
  2
*U27
340
0
102
{BLKREFS
331
1431
102
}
  0
BLOCK_RECORD
  5
2ECD
330
2DDA
100
AcDbSymbolTableRecord
100
AcDbBlockTableRecord
  2
*D28
340
0
  0
BLOCK_RECORD
  5
2ECF
330
2DDA
100
AcDbSymbolTableRecord
100
AcDbBlockTableRecord
  2
*U29
340
0
102
{BLKREFS
331
143D
102
}
  0
BLOCK_RECORD
  5
2ED1
330
2DDA
100
AcDbSymbolTableRecord
100
AcDbBlockTableRecord
  2
*D30
340
0
  0
BLOCK_RECORD
  5
2ED3
330
2DDA
100
AcDbSymbolTableRecord
100
AcDbBlockTableRecord
  2
*U31
340
0
102
{BLKREFS
331
1670
102
}
  0
BLOCK_RECORD
  5
2ED5
330
2DDA
100
AcDbSymbolTableRecord
100
AcDbBlockTableRecord
  2
*D32
340
0
  0
BLOCK_RECORD
  5
2ED7
330
2DDA
100
AcDbSymbolTableRecord
100
AcDbBlockTableRecord
  2
*U33
340
0
102
{BLKREFS
331
1679
102
}
  0
BLOCK_RECORD
  5
2ED9
330
2DDA
100
AcDbSymbolTableRecord
100
AcDbBlockTableRecord
  2
*D34
340
0
  0
BLOCK_RECORD
  5
2EDB
330
2DDA
100
AcDbSymbolTableRecord
100
AcDbBlockTableRecord
  2
*U35
340
0
102
{BLKREFS
331
1682
102
}
  0
BLOCK_RECORD
  5
2EDD
330
2DDA
100
AcDbSymbolTableRecord
100
AcDbBlockTableRecord
  2
*D36
340
0
  0
BLOCK_RECORD
  5
2EDF
330
2DDA
100
AcDbSymbolTableRecord
100
AcDbBlockTableRecord
  2
*U37
340
0
102
{BLKREFS
331
168B
102
}
  0
BLOCK_RECORD
  5
2EE1
330
2DDA
100
AcDbSymbolTableRecord
100
AcDbBlockTableRecord
  2
*U38
340
0
  0
BLOCK_RECORD
  5
2EE3
330
2DDA
100
AcDbSymbolTableRecord
100
AcDbBlockTableRecord
  2
*D39
340
0
  0
BLOCK_RECORD
  5
2EE5
330
2DDA
100
AcDbSymbolTableRecord
100
AcDbBlockTableRecord
  2
*U40
340
0
102
{BLKREFS
331
1698
102
}
  0
BLOCK_RECORD
  5
2EE7
330
2DDA
100
AcDbSymbolTableRecord
100
AcDbBlockTableRecord
  2
*D41
340
0
  0
BLOCK_RECORD
  5
2EE9
330
2DDA
100
AcDbSymbolTableRecord
100
AcDbBlockTableRecord
  2
*U42
340
0
102
{BLKREFS
331
16A5
102
}
  0
BLOCK_RECORD
  5
2EEB
330
2DDA
100
AcDbSymbolTableRecord
100
AcDbBlockTableRecord
  2
*D43
340
0
  0
BLOCK_RECORD
  5
2EED
330
2DDA
100
AcDbSymbolTableRecord
100
AcDbBlockTableRecord
  2
*U44
340
0
102
{BLKREFS
331
16B1
102
}
  0
BLOCK_RECORD
  5
2EEF
330
2DDA
100
AcDbSymbolTableRecord
100
AcDbBlockTableRecord
  2
*D45
340
0
  0
BLOCK_RECORD
  5
2EF1
330
2DDA
100
AcDbSymbolTableRecord
100
AcDbBlockTableRecord
  2
*U46
340
0
102
{BLKREFS
331
16BD
102
}
  0
BLOCK_RECORD
  5
2EF3
330
2DDA
100
AcDbSymbolTableRecord
100
AcDbBlockTableRecord
  2
*D47
340
0
  0
BLOCK_RECORD
  5
2EF5
330
2DDA
100
AcDbSymbolTableRecord
100
AcDbBlockTableRecord
  2
*U48
340
0
102
{BLKREFS
331
16C9
102
}
  0
BLOCK_RECORD
  5
2EF7
330
2DDA
100
AcDbSymbolTableRecord
100
AcDbBlockTableRecord
  2
*D49
340
0
  0
BLOCK_RECORD
  5
2EF9
330
2DDA
100
AcDbSymbolTableRecord
100
AcDbBlockTableRecord
  2
*U50
340
0
102
{BLKREFS
331
16D5
102
}
  0
BLOCK_RECORD
  5
2EFB
330
2DDA
100
AcDbSymbolTableRecord
100
AcDbBlockTableRecord
  2
*D51
340
0
  0
BLOCK_RECORD
  5
2EFD
330
2DDA
100
AcDbSymbolTableRecord
100
AcDbBlockTableRecord
  2
*U52
340
0
102
{BLKREFS
331
1D88
102
}
  0
BLOCK_RECORD
  5
2EFF
330
2DDA
100
AcDbSymbolTableRecord
100
AcDbBlockTableRecord
  2
*D53
340
0
  0
BLOCK_RECORD
  5
2F01
330
2DDA
100
AcDbSymbolTableRecord
100
AcDbBlockTableRecord
  2
*U54
340
0
102
{BLKREFS
331
1D91
102
}
  0
BLOCK_RECORD
  5
2F03
330
2DDA
100
AcDbSymbolTableRecord
100
AcDbBlockTableRecord
  2
*D55
340
0
  0
BLOCK_RECORD
  5
2F05
330
2DDA
100
AcDbSymbolTableRecord
100
AcDbBlockTableRecord
  2
*U56
340
0
102
{BLKREFS
331
1D9A
102
}
  0
BLOCK_RECORD
  5
2F07
330
2DDA
100
AcDbSymbolTableRecord
100
AcDbBlockTableRecord
  2
*D57
340
0
  0
BLOCK_RECORD
  5
2F09
330
2DDA
100
AcDbSymbolTableRecord
100
AcDbBlockTableRecord
  2
*U58
340
0
102
{BLKREFS
331
1DA3
102
}
  0
BLOCK_RECORD
  5
2F0B
330
2DDA
100
AcDbSymbolTableRecord
100
AcDbBlockTableRecord
  2
*D59
340
0
  0
BLOCK_RECORD
  5
2F0D
330
2DDA
100
AcDbSymbolTableRecord
100
AcDbBlockTableRecord
  2
*U60
340
0
102
{BLKREFS
331
1DAD
102
}
  0
BLOCK_RECORD
  5
2F0F
330
2DDA
100
AcDbSymbolTableRecord
100
AcDbBlockTableRecord
  2
*D61
340
0
  0
BLOCK_RECORD
  5
2F11
330
2DDA
100
AcDbSymbolTableRecord
100
AcDbBlockTableRecord
  2
*U62
340
0
102
{BLKREFS
331
1DB7
102
}
  0
BLOCK_RECORD
  5
2F13
330
2DDA
100
AcDbSymbolTableRecord
100
AcDbBlockTableRecord
  2
*U63
340
0
  0
BLOCK_RECORD
  5
2F15
330
2DDA
100
AcDbSymbolTableRecord
100
AcDbBlockTableRecord
  2
*U64
340
0
  0
BLOCK_RECORD
  5
2F17
330
2DDA
100
AcDbSymbolTableRecord
100
AcDbBlockTableRecord
  2
*U65
340
0
  0
BLOCK_RECORD
  5
2F19
330
2DDA
100
AcDbSymbolTableRecord
100
AcDbBlockTableRecord
  2
*U66
340
0
  0
BLOCK_RECORD
  5
2F1B
330
2DDA
100
AcDbSymbolTableRecord
100
AcDbBlockTableRecord
  2
*U67
340
0
  0
BLOCK_RECORD
  5
2F1D
330
2DDA
100
AcDbSymbolTableRecord
100
AcDbBlockTableRecord
  2
*U68
340
0
  0
BLOCK_RECORD
  5
2F1F
330
2DDA
100
AcDbSymbolTableRecord
100
AcDbBlockTableRecord
  2
*U69
340
0
  0
BLOCK_RECORD
  5
2F21
330
2DDA
100
AcDbSymbolTableRecord
100
AcDbBlockTableRecord
  2
*U70
340
0
  0
BLOCK_RECORD
  5
2F23
330
2DDA
100
AcDbSymbolTableRecord
100
AcDbBlockTableRecord
  2
*U71
340
0
  0
BLOCK_RECORD
  5
2F25
330
2DDA
100
AcDbSymbolTableRecord
100
AcDbBlockTableRecord
  2
*U72
340
0
  0
BLOCK_RECORD
  5
2F27
330
2DDA
100
AcDbSymbolTableRecord
100
AcDbBlockTableRecord
  2
*U73
340
0
  0
BLOCK_RECORD
  5
2F29
330
2DDA
100
AcDbSymbolTableRecord
100
AcDbBlockTableRecord
  2
*U74
340
0
102
{BLKREFS
331
28FF
102
}
  0
BLOCK_RECORD
  5
2F2B
330
2DDA
100
AcDbSymbolTableRecord
100
AcDbBlockTableRecord
  2
*U75
340
0
102
{BLKREFS
331
2900
102
}
  0
BLOCK_RECORD
  5
2F2D
330
2DDA
100
AcDbSymbolTableRecord
100
AcDbBlockTableRecord
  2
*X76
340
0
102
{BLKREFS
331
2911
102
}
  0
BLOCK_RECORD
  5
2F2F
330
2DDA
100
AcDbSymbolTableRecord
100
AcDbBlockTableRecord
  2
*X77
340
0
102
{BLKREFS
331
2912
102
}
  0
ENDTAB
  0
ENDSEC
  0
SECTION
  2
BLOCKS
  0
BLOCK
  5
2E4E
330
2E4D
100
AcDbEntity
  8
0
100
AcDbBlockBegin
  2
*Model_Space
 70
     0
 10
0.0
 20
0.0
 30
0.0
  3
*Model_Space
  1

  0
ENDBLK
  5
2E4F
330
2E4D
100
AcDbEntity
  8
0
100
AcDbBlockEnd
  0
BLOCK
  5
2E4A
330
2E49
100
AcDbEntity
 67
     1
  8
0
100
AcDbBlockBegin
  2
*Paper_Space
 70
     0
 10
0.0
 20
0.0
 30
0.0
  3
*Paper_Space
  1

  0
ENDBLK
  5
2E4B
330
2E49
100
AcDbEntity
 67
     1
  8
0
100
AcDbBlockEnd
  0
BLOCK
  5
2E96
330
2E95
100
AcDbEntity
  8
0
100
AcDbBlockBegin
  2
$MODEL_SPACE
 70
     0
 10
0.0
 20
0.0
 30
0.0
  3
$MODEL_SPACE
  1

  0
ENDBLK
  5
2BDB
330
2E95
100
AcDbEntity
  8
0
100
AcDbBlockEnd
  0
BLOCK
  5
2E98
330
2E97
100
AcDbEntity
  8
0
100
AcDbBlockBegin
  2
$PAPER_SPACE
 70
     0
 10
0.0
 20
0.0
 30
0.0
  3
$PAPER_SPACE
  1

  0
ENDBLK
  5
2BD7
330
2E97
100
AcDbEntity
  8
0
100
AcDbBlockEnd
  0
BLOCK
  5
2E9A
330
2E99
100
AcDbEntity
  8
0
100
AcDbBlockBegin
  2
_ORIGIN
 70
     0
 10
0.0
 20
0.0
 30
0.0
  3
_ORIGIN
  1

  0
CIRCLE
  5
880
330
2E99
100
AcDbEntity
  8
0
  6
Continuous
 62
     7
100
AcDbCircle
 10
0.0
 20
0.0
 30
0.0
 40
0.5
  0
LINE
  5
881
330
2E99
100
AcDbEntity
  8
0
  6
Continuous
 62
     7
100
AcDbLine
 10
0.0
 20
0.0
 30
0.0
 11
-1.0
 21
0.0
 31
0.0
  0
ENDBLK
  5
882
330
2E99
100
AcDbEntity
  8
0
100
AcDbBlockEnd
  0
BLOCK
  5
2E9C
330
2E9B
100
AcDbEntity
  8
0
 62
     1
100
AcDbBlockBegin
  2
_DOTBLANK
 70
     0
 10
0.0
 20
0.0
 30
0.0
  3
_DOTBLANK
  1

  0
CIRCLE
  5
AB3
330
2E9B
100
AcDbEntity
  8
0
  6
ByBlock
 62
     0
100
AcDbCircle
 10
0.0
 20
0.0
 30
0.0
 40
0.5
  0
LINE
  5
AB4
330
2E9B
100
AcDbEntity
  8
0
  6
ByBlock
 62
     0
100
AcDbLine
 10
-0.5
 20
0.0
 30
0.0
 11
-1.0
 21
0.0
 31
0.0
  0
ENDBLK
  5
AB6
330
2E9B
100
AcDbEntity
  8
0
 62
     1
100
AcDbBlockEnd
  0
BLOCK
  5
2E9E
330
2E9D
100
AcDbEntity
  8
0
 62
     1
100
AcDbBlockBegin
  2
_OPEN30
 70
     0
 10
0.0
 20
0.0
 30
0.0
  3
_OPEN30
  1

  0
LINE
  5
AB8
330
2E9D
100
AcDbEntity
  8
0
  6
ByBlock
 62
     0
100
AcDbLine
 10
-1.0
 20
0.26794919
 30
0.0
 11
0.0
 21
0.0
 31
0.0
  0
LINE
  5
AB9
330
2E9D
100
AcDbEntity
  8
0
  6
ByBlock
 62
     0
100
AcDbLine
 10
0.0
 20
0.0
 30
0.0
 11
-1.0
 21
-0.26794919
 31
0.0
  0
LINE
  5
ABA
330
2E9D
100
AcDbEntity
  8
0
  6
ByBlock
 62
     0
100
AcDbLine
 10
0.0
 20
0.0
 30
0.0
 11
-1.0
 21
0.0
 31
0.0
  0
ENDBLK
  5
ABC
330
2E9D
100
AcDbEntity
  8
0
 62
     1
100
AcDbBlockEnd
  0
BLOCK
  5
2EA0
330
2E9F
100
AcDbEntity
  8
0
100
AcDbBlockBegin
  2
*D5
 70
     1
 10
0.0
 20
0.0
 30
0.0
  3
*D5
  1

  0
LINE
  5
1296
330
2E9F
100
AcDbEntity
  8
SIZE
 62
     0
100
AcDbLine
 10
-134.5
 20
-320.0
 30
0.0
 11
-134.5
 21
-468.0173952306001
 31
0.0
  0
LINE
  5
1297
330
2E9F
100
AcDbEntity
  8
SIZE
 62
     0
100
AcDbLine
 10
134.5
 20
-320.0
 30
0.0
 11
134.5
 21
-468.0173952306001
 31
0.0
  0
LINE
  5
1298
330
2E9F
100
AcDbEntity
  8
SIZE
 62
     0
100
AcDbLine
 10
-122.5
 20
-448.0173952306
 30
0.0
 11
122.5
 21
-448.0173952306
 31
0.0
  0
INSERT
  5
1299
330
2E9F
100
AcDbEntity
  8
SIZE
 62
     0
100
AcDbBlockReference
  2
_DOTBLANK
 10
-134.5
 20
-448.0173952306
 30
0.0
 41
12.0
 42
12.0
 43
12.0
 50
180.0
  0
INSERT
  5
129A
330
2E9F
100
AcDbEntity
  8
SIZE
 62
     0
100
AcDbBlockReference
  2
_DOTBLANK
 10
134.5
 20
-448.0173952306
 30
0.0
 41
12.0
 42
12.0
 43
12.0
  0
INSERT
  5
129B
330
2E9F
100
AcDbEntity
  8
0
100
AcDbBlockReference
  2
*U6
 10
0.0
 20
0.0
 30
0.0
  0
POINT
  5
129C
330
2E9F
100
AcDbEntity
  8
DEFPOINTS
 62
     0
100
AcDbPoint
 10
-134.5
 20
-300.0
 30
0.0
  0
POINT
  5
129D
330
2E9F
100
AcDbEntity
  8
DEFPOINTS
 62
     0
100
AcDbPoint
 10
134.5
 20
-300.0
 30
0.0
  0
POINT
  5
129E
330
2E9F
100
AcDbEntity
  8
DEFPOINTS
 62
     0
100
AcDbPoint
 10
134.5
 20
-448.0173952306
 30
0.0
  0
ENDBLK
  5
D72
330
2E9F
100
AcDbEntity
  8
0
100
AcDbBlockEnd
  0
BLOCK
  5
2EA2
330
2EA1
100
AcDbEntity
  8
0
100
AcDbBlockBegin
  2
*U6
 70
     1
 10
0.0
 20
0.0
 30
0.0
  3
*U6
  1

  0
TEXT
  5
1EF5
330
2EA1
100
AcDbEntity
  8
SIZE
 62
     0
100
AcDbText
 10
-72.68571428571426
 20
-438.0173952305999
 30
0.0
 40
64.0
  1
269
 41
0.9
100
AcDbText
  0
ENDBLK
  5
1EF7
330
2EA1
100
AcDbEntity
  8
0
100
AcDbBlockEnd
  0
BLOCK
  5
2EA4
330
2EA3
100
AcDbEntity
  8
0
100
AcDbBlockBegin
  2
*D7
 70
     1
 10
0.0
 20
0.0
 30
0.0
  3
*D7
  1

  0
LINE
  5
11A7
330
2EA3
100
AcDbEntity
  8
SIZE
  6
Continuous
 62
     0
100
AcDbLine
 10
143.5
 20
-300.0
 30
0.0
 11
304.6432844803791
 21
-300.0
 31
0.0
  0
LINE
  5
11A8
330
2EA3
100
AcDbEntity
  8
SIZE
  6
Continuous
 62
     0
100
AcDbLine
 10
177.5
 20
-0.0000000000000057
 30
0.0
 11
304.6432844803792
 21
-0.0000000000000417
 31
0.0
  0
LINE
  5
11A9
330
2EA3
100
AcDbEntity
  8
SIZE
  6
Continuous
 62
     0
100
AcDbLine
 10
284.6432844803791
 20
-288.0000000000001
 30
0.0
 11
284.6432844803792
 21
-12.00000000000003
 31
0.0
  0
INSERT
  5
11AA
330
2EA3
100
AcDbEntity
  8
SIZE
  6
Continuous
 62
     0
100
AcDbBlockReference
  2
_DOTBLANK
 10
284.6432844803791
 20
-300.0
 30
0.0
 41
12.0
 42
12.0
 43
12.0
 50
270.0
  0
INSERT
  5
11AB
330
2EA3
100
AcDbEntity
  8
SIZE
  6
Continuous
 62
     0
100
AcDbBlockReference
  2
_DOTBLANK
 10
284.6432844803792
 20
-0.000000000000036
 30
0.0
 41
12.0
 42
12.0
 43
12.0
 50
90.0
  0
INSERT
  5
11AC
330
2EA3
100
AcDbEntity
  8
0
100
AcDbBlockReference
  2
*U8
 10
0.0
 20
0.0
 30
0.0
  0
POINT
  5
11AD
330
2EA3
100
AcDbEntity
  8
DEFPOINTS
  6
Continuous
 62
     0
100
AcDbPoint
 10
123.5
 20
-300.0
 30
0.0
  0
POINT
  5
11AE
330
2EA3
100
AcDbEntity
  8
DEFPOINTS
  6
Continuous
 62
     0
100
AcDbPoint
 10
157.5
 20
0.0
 30
0.0
  0
POINT
  5
11AF
330
2EA3
100
AcDbEntity
  8
DEFPOINTS
  6
Continuous
 62
     0
100
AcDbPoint
 10
284.6432844803792
 20
-0.000000000000036
 30
0.0
  0
ENDBLK
  5
E11
330
2EA3
100
AcDbEntity
  8
0
100
AcDbBlockEnd
  0
BLOCK
  5
2EA6
330
2EA5
100
AcDbEntity
  8
0
100
AcDbBlockBegin
  2
*U8
 70
     1
 10
0.0
 20
0.0
 30
0.0
  3
*U8
  1

  0
TEXT
  5
1EE1
330
2EA5
100
AcDbEntity
  8
SIZE
 62
     0
100
AcDbText
 10
274.6432844803792
 20
-224.0571428571429
 30
0.0
 40
64.0
  1
300
 50
90.0
 41
0.9
100
AcDbText
  0
ENDBLK
  5
1EE3
330
2EA5
100
AcDbEntity
  8
0
100
AcDbBlockEnd
  0
BLOCK
  5
2EA8
330
2EA7
100
AcDbEntity
  8
0
100
AcDbBlockBegin
  2
*D9
 70
     1
 10
0.0
 20
0.0
 30
0.0
  3
*D9
  1

  0
LINE
  5
E7D
330
2EA7
100
AcDbEntity
  8
SIZE
 62
     0
100
AcDbLine
 10
-139.9999999999998
 20
32.46448280219375
 30
0.0
 11
-139.9999999999998
 21
136.4516878685508
 31
0.0
  0
LINE
  5
E7E
330
2EA7
100
AcDbEntity
  8
SIZE
 62
     0
100
AcDbLine
 10
140.0
 20
32.46448280219375
 30
0.0
 11
140.0
 21
136.4516878685508
 31
0.0
  0
LINE
  5
E7F
330
2EA7
100
AcDbEntity
  8
SIZE
 62
     0
100
AcDbLine
 10
-128.0
 20
116.4516878685508
 30
0.0
 11
128.0
 21
116.4516878685508
 31
0.0
  0
INSERT
  5
E80
330
2EA7
100
AcDbEntity
  8
SIZE
 62
     0
100
AcDbBlockReference
  2
_DOTBLANK
 10
-139.9999999999998
 20
116.4516878685508
 30
0.0
 41
12.0
 42
12.0
 43
12.0
 50
180.0
  0
INSERT
  5
E81
330
2EA7
100
AcDbEntity
  8
SIZE
 62
     0
100
AcDbBlockReference
  2
_DOTBLANK
 10
140.0
 20
116.4516878685508
 30
0.0
 41
12.0
 42
12.0
 43
12.0
  0
INSERT
  5
E82
330
2EA7
100
AcDbEntity
  8
0
100
AcDbBlockReference
  2
*U10
 10
0.0
 20
0.0
 30
0.0
  0
POINT
  5
E83
330
2EA7
100
AcDbEntity
  8
DEFPOINTS
 62
     0
100
AcDbPoint
 10
-139.9999999999998
 20
12.46448280219374
 30
0.0
  0
POINT
  5
E84
330
2EA7
100
AcDbEntity
  8
DEFPOINTS
 62
     0
100
AcDbPoint
 10
140.0
 20
12.46448280219374
 30
0.0
  0
POINT
  5
E85
330
2EA7
100
AcDbEntity
  8
DEFPOINTS
 62
     0
100
AcDbPoint
 10
140.0
 20
116.4516878685508
 30
0.0
  0
ENDBLK
  5
E7C
330
2EA7
100
AcDbEntity
  8
0
100
AcDbBlockEnd
  0
BLOCK
  5
2EAA
330
2EA9
100
AcDbEntity
  8
0
100
AcDbBlockBegin
  2
*U10
 70
     1
 10
0.0
 20
0.0
 30
0.0
  3
*U10
  1

  0
TEXT
  5
1ED8
330
2EA9
100
AcDbEntity
  8
SIZE
 62
     0
100
AcDbText
 10
-74.05714285714281
 20
126.4516878685508
 30
0.0
 40
64.0
  1
280
 41
0.9
100
AcDbText
  0
ENDBLK
  5
1EDA
330
2EA9
100
AcDbEntity
  8
0
100
AcDbBlockEnd
  0
BLOCK
  5
2EAC
330
2EAB
100
AcDbEntity
  8
0
100
AcDbBlockBegin
  2
GENAXEH
 70
     0
 10
0.0
 20
0.0
 30
0.0
  3
GENAXEH
  1

  0
LINE
  5
FDB
330
2EAB
100
AcDbEntity
  8
0
100
AcDbLine
 10
-1.0
 20
0.0
 30
0.0
 11
1.0
 21
0.0
 31
0.0
  0
ENDBLK
  5
FDD
330
2EAB
100
AcDbEntity
  8
0
100
AcDbBlockEnd
  0
BLOCK
  5
2EAE
330
2EAD
100
AcDbEntity
  8
0
100
AcDbBlockBegin
  2
*D12
 70
     1
 10
0.0
 20
0.0
 30
0.0
  3
*D12
  1

  0
LINE
  5
1120
330
2EAD
100
AcDbEntity
  8
SIZE
 62
     0
100
AcDbLine
 10
-157.5
 20
20.0
 30
0.0
 11
-157.5
 21
245.5794621189598
 31
0.0
  0
LINE
  5
1121
330
2EAD
100
AcDbEntity
  8
SIZE
 62
     0
100
AcDbLine
 10
157.5
 20
20.0
 30
0.0
 11
157.5
 21
245.5794621189598
 31
0.0
  0
LINE
  5
1122
330
2EAD
100
AcDbEntity
  8
SIZE
 62
     0
100
AcDbLine
 10
-145.5
 20
225.5794621189598
 30
0.0
 11
145.5
 21
225.5794621189598
 31
0.0
  0
INSERT
  5
1123
330
2EAD
100
AcDbEntity
  8
SIZE
 62
     0
100
AcDbBlockReference
  2
_DOTBLANK
 10
-157.5
 20
225.5794621189598
 30
0.0
 41
12.0
 42
12.0
 43
12.0
 50
180.0
  0
INSERT
  5
1124
330
2EAD
100
AcDbEntity
  8
SIZE
 62
     0
100
AcDbBlockReference
  2
_DOTBLANK
 10
157.5
 20
225.5794621189598
 30
0.0
 41
12.0
 42
12.0
 43
12.0
  0
INSERT
  5
1125
330
2EAD
100
AcDbEntity
  8
0
100
AcDbBlockReference
  2
*U13
 10
0.0
 20
0.0
 30
0.0
  0
POINT
  5
1126
330
2EAD
100
AcDbEntity
  8
DEFPOINTS
 62
     0
100
AcDbPoint
 10
-157.5
 20
0.0
 30
0.0
  0
POINT
  5
1127
330
2EAD
100
AcDbEntity
  8
DEFPOINTS
 62
     0
100
AcDbPoint
 10
157.5
 20
0.0
 30
0.0
  0
POINT
  5
1128
330
2EAD
100
AcDbEntity
  8
DEFPOINTS
 62
     0
100
AcDbPoint
 10
157.5
 20
225.5794621189598
 30
0.0
  0
ENDBLK
  5
111F
330
2EAD
100
AcDbEntity
  8
0
100
AcDbBlockEnd
  0
BLOCK
  5
2EB0
330
2EAF
100
AcDbEntity
  8
0
100
AcDbBlockBegin
  2
*U13
 70
     1
 10
0.0
 20
0.0
 30
0.0
  3
*U13
  1

  0
TEXT
  5
1EDD
330
2EAF
100
AcDbEntity
  8
SIZE
 62
     0
100
AcDbText
 10
-68.57142857142857
 20
235.5794621189599
 30
0.0
 40
64.0
  1
315
 41
0.9
100
AcDbText
  0
ENDBLK
  5
1EDF
330
2EAF
100
AcDbEntity
  8
0
100
AcDbBlockEnd
  0
BLOCK
  5
2EB2
330
2EB1
100
AcDbEntity
  8
0
100
AcDbBlockBegin
  2
*D14
 70
     1
 10
0.0
 20
0.0
 30
0.0
  3
*D14
  1

  0
LINE
  5
11BD
330
2EB1
100
AcDbEntity
  8
NOTE
 62
     0
100
AcDbLine
 10
-123.4999999999999
 20
-320.0
 30
0.0
 11
-123.4999999999999
 21
-354.9529861856111
 31
0.0
  0
LINE
  5
11BE
330
2EB1
100
AcDbEntity
  8
NOTE
 62
     0
100
AcDbLine
 10
-133.4999999999998
 20
-331.2126909923287
 30
0.0
 11
-133.4999999999998
 21
-354.9529861856111
 31
0.0
  0
LINE
  5
11BF
330
2EB1
100
AcDbEntity
  8
NOTE
 62
     0
100
AcDbLine
 10
-111.4999999999999
 20
-334.9529861856112
 30
0.0
 11
-99.4999999999999
 21
-334.9529861856112
 31
0.0
  0
LINE
  5
11C0
330
2EB1
100
AcDbEntity
  8
NOTE
 62
     0
100
AcDbLine
 10
-145.4999999999998
 20
-334.9529861856112
 30
0.0
 11
-157.4999999999998
 21
-334.9529861856112
 31
0.0
  0
LINE
  5
11C1
330
2EB1
100
AcDbEntity
  8
NOTE
 62
     0
100
AcDbLine
 10
-123.4999999999999
 20
-334.9529861856112
 30
0.0
 11
-133.4999999999998
 21
-334.9529861856112
 31
0.0
  0
INSERT
  5
11C2
330
2EB1
100
AcDbEntity
  8
NOTE
 62
     0
100
AcDbBlockReference
  2
_DOTBLANK
 10
-123.4999999999999
 20
-334.9529861856112
 30
0.0
 41
12.0
 42
12.0
 43
12.0
 50
180.0
  0
INSERT
  5
11C3
330
2EB1
100
AcDbEntity
  8
NOTE
 62
     0
100
AcDbBlockReference
  2
_DOTBLANK
 10
-133.4999999999998
 20
-334.9529861856112
 30
0.0
 41
12.0
 42
12.0
 43
12.0
  0
INSERT
  5
11C4
330
2EB1
100
AcDbEntity
  8
0
100
AcDbBlockReference
  2
*U15
 10
0.0
 20
0.0
 30
0.0
  0
POINT
  5
11C5
330
2EB1
100
AcDbEntity
  8
DEFPOINTS
 62
     0
100
AcDbPoint
 10
-123.4999999999999
 20
-300.0
 30
0.0
  0
POINT
  5
11C6
330
2EB1
100
AcDbEntity
  8
DEFPOINTS
 62
     0
100
AcDbPoint
 10
-133.4999999999998
 20
-311.2126909923287
 30
0.0
  0
POINT
  5
11C7
330
2EB1
100
AcDbEntity
  8
DEFPOINTS
 62
     0
100
AcDbPoint
 10
-133.4999999999998
 20
-334.9529861856112
 30
0.0
  0
ENDBLK
  5
11BC
330
2EB1
100
AcDbEntity
  8
0
100
AcDbBlockEnd
  0
BLOCK
  5
2EB4
330
2EB3
100
AcDbEntity
  8
0
100
AcDbBlockBegin
  2
*U15
 70
     1
 10
0.0
 20
0.0
 30
0.0
  3
*U15
  1

  0
TEXT
  5
1EE5
330
2EB3
100
AcDbEntity
  8
NOTE
 62
     0
100
AcDbText
 10
-169.642857142857
 20
-324.9529861856112
 30
0.0
 40
64.0
  1
10
 41
0.9
100
AcDbText
  0
ENDBLK
  5
1EE7
330
2EB3
100
AcDbEntity
  8
0
100
AcDbBlockEnd
  0
BLOCK
  5
2EB6
330
2EB5
100
AcDbEntity
  8
0
100
AcDbBlockBegin
  2
*D16
 70
     1
 10
0.0
 20
0.0
 30
0.0
  3
*D16
  1

  0
LINE
  5
11E7
330
2EB5
100
AcDbEntity
  8
NOTE
 62
     0
100
AcDbLine
 10
-135.5
 20
-333.2126909923287
 30
0.0
 11
-135.5
 21
-386.2569421441843
 31
0.0
  0
LINE
  5
11E8
330
2EB5
100
AcDbEntity
  8
NOTE
 62
     0
100
AcDbLine
 10
-123.4999999999999
 20
-320.0
 30
0.0
 11
-123.4999999999999
 21
-386.2569421441843
 31
0.0
  0
LINE
  5
11E9
330
2EB5
100
AcDbEntity
  8
NOTE
 62
     0
100
AcDbLine
 10
-147.5
 20
-366.2569421441844
 30
0.0
 11
-159.5
 21
-366.2569421441844
 31
0.0
  0
LINE
  5
11EA
330
2EB5
100
AcDbEntity
  8
NOTE
 62
     0
100
AcDbLine
 10
-111.4999999999999
 20
-366.2569421441844
 30
0.0
 11
-99.4999999999999
 21
-366.2569421441844
 31
0.0
  0
LINE
  5
11EB
330
2EB5
100
AcDbEntity
  8
NOTE
 62
     0
100
AcDbLine
 10
-135.5
 20
-366.2569421441844
 30
0.0
 11
-123.4999999999999
 21
-366.2569421441844
 31
0.0
  0
INSERT
  5
11EC
330
2EB5
100
AcDbEntity
  8
NOTE
 62
     0
100
AcDbBlockReference
  2
_DOTBLANK
 10
-135.5
 20
-366.2569421441844
 30
0.0
 41
12.0
 42
12.0
 43
12.0
  0
INSERT
  5
11ED
330
2EB5
100
AcDbEntity
  8
NOTE
 62
     0
100
AcDbBlockReference
  2
_DOTBLANK
 10
-123.4999999999999
 20
-366.2569421441844
 30
0.0
 41
12.0
 42
12.0
 43
12.0
 50
180.0
  0
INSERT
  5
11EE
330
2EB5
100
AcDbEntity
  8
0
100
AcDbBlockReference
  2
*U17
 10
0.0
 20
0.0
 30
0.0
  0
POINT
  5
11EF
330
2EB5
100
AcDbEntity
  8
DEFPOINTS
 62
     0
100
AcDbPoint
 10
-135.5
 20
-313.2126909923287
 30
0.0
  0
POINT
  5
11F0
330
2EB5
100
AcDbEntity
  8
DEFPOINTS
 62
     0
100
AcDbPoint
 10
-123.4999999999999
 20
-300.0
 30
0.0
  0
POINT
  5
11F1
330
2EB5
100
AcDbEntity
  8
DEFPOINTS
 62
     0
100
AcDbPoint
 10
-123.4999999999999
 20
-366.2569421441844
 30
0.0
  0
ENDBLK
  5
11E6
330
2EB5
100
AcDbEntity
  8
0
100
AcDbBlockEnd
  0
BLOCK
  5
2EB8
330
2EB7
100
AcDbEntity
  8
0
100
AcDbBlockBegin
  2
*U17
 70
     1
 10
0.0
 20
0.0
 30
0.0
  3
*U17
  1

  0
TEXT
  5
1EE9
330
2EB7
100
AcDbEntity
  8
NOTE
 62
     0
100
AcDbText
 10
-170.642857142857
 20
-356.2569421441843
 30
0.0
 40
64.0
  1
12
 41
0.9
100
AcDbText
  0
ENDBLK
  5
1EEB
330
2EB7
100
AcDbEntity
  8
0
100
AcDbBlockEnd
  0
BLOCK
  5
2EBA
330
2EB9
100
AcDbEntity
  8
0
100
AcDbBlockBegin
  2
*D18
 70
     1
 10
0.0
 20
0.0
 30
0.0
  3
*D18
  1

  0
LINE
  5
11F6
330
2EB9
100
AcDbEntity
  8
NOTE
 62
     0
100
AcDbLine
 10
-123.4999999999999
 20
-320.0
 30
0.0
 11
-123.4999999999999
 21
-583.8286022818904
 31
0.0
  0
LINE
  5
11F7
330
2EB9
100
AcDbEntity
  8
NOTE
 62
     0
100
AcDbLine
 10
123.5
 20
-320.0
 30
0.0
 11
123.5
 21
-583.8286022818904
 31
0.0
  0
LINE
  5
11F8
330
2EB9
100
AcDbEntity
  8
NOTE
 62
     0
100
AcDbLine
 10
-111.4999999999999
 20
-563.8286022818904
 30
0.0
 11
111.5
 21
-563.8286022818904
 31
0.0
  0
INSERT
  5
11F9
330
2EB9
100
AcDbEntity
  8
NOTE
 62
     0
100
AcDbBlockReference
  2
_DOTBLANK
 10
-123.4999999999999
 20
-563.8286022818904
 30
0.0
 41
12.0
 42
12.0
 43
12.0
 50
180.0
  0
INSERT
  5
11FA
330
2EB9
100
AcDbEntity
  8
NOTE
 62
     0
100
AcDbBlockReference
  2
_DOTBLANK
 10
123.5
 20
-563.8286022818904
 30
0.0
 41
12.0
 42
12.0
 43
12.0
  0
INSERT
  5
11FB
330
2EB9
100
AcDbEntity
  8
0
100
AcDbBlockReference
  2
*U19
 10
0.0
 20
0.0
 30
0.0
  0
POINT
  5
11FC
330
2EB9
100
AcDbEntity
  8
DEFPOINTS
 62
     0
100
AcDbPoint
 10
-123.4999999999999
 20
-300.0
 30
0.0
  0
POINT
  5
11FD
330
2EB9
100
AcDbEntity
  8
DEFPOINTS
 62
     0
100
AcDbPoint
 10
123.5
 20
-300.0
 30
0.0
  0
POINT
  5
11FE
330
2EB9
100
AcDbEntity
  8
DEFPOINTS
 62
     0
100
AcDbPoint
 10
123.5
 20
-563.8286022818904
 30
0.0
  0
ENDBLK
  5
11F5
330
2EB9
100
AcDbEntity
  8
0
100
AcDbBlockEnd
  0
BLOCK
  5
2EBC
330
2EBB
100
AcDbEntity
  8
0
100
AcDbBlockBegin
  2
*U19
 70
     1
 10
0.0
 20
0.0
 30
0.0
  3
*U19
  1

  0
TEXT
  5
1EED
330
2EBB
100
AcDbEntity
  8
NOTE
 62
     0
100
AcDbText
 10
-74.05714285714281
 20
-553.8286022818904
 30
0.0
 40
64.0
  1
247
 41
0.9
100
AcDbText
  0
ENDBLK
  5
1EEF
330
2EBB
100
AcDbEntity
  8
0
100
AcDbBlockEnd
  0
BLOCK
  5
2EBE
330
2EBD
100
AcDbEntity
  8
0
100
AcDbBlockBegin
  2
*D20
 70
     1
 10
0.0
 20
0.0
 30
0.0
  3
*D20
  1

  0
LINE
  5
1284
330
2EBD
100
AcDbEntity
  8
NOTE
 62
     0
100
AcDbLine
 10
-123.5
 20
12.0
 30
0.0
 11
-123.5
 21
71.83630134534229
 31
0.0
  0
LINE
  5
1285
330
2EBD
100
AcDbEntity
  8
NOTE
 62
     0
100
AcDbLine
 10
123.5
 20
12.0
 30
0.0
 11
123.5
 21
71.83630134534229
 31
0.0
  0
LINE
  5
1286
330
2EBD
100
AcDbEntity
  8
NOTE
 62
     0
100
AcDbLine
 10
-111.5
 20
51.83630134534229
 30
0.0
 11
111.5
 21
51.83630134534229
 31
0.0
  0
INSERT
  5
1287
330
2EBD
100
AcDbEntity
  8
NOTE
 62
     0
100
AcDbBlockReference
  2
_DOTBLANK
 10
-123.5
 20
51.83630134534229
 30
0.0
 41
12.0
 42
12.0
 43
12.0
 50
180.0
  0
INSERT
  5
1288
330
2EBD
100
AcDbEntity
  8
NOTE
 62
     0
100
AcDbBlockReference
  2
_DOTBLANK
 10
123.5
 20
51.83630134534229
 30
0.0
 41
12.0
 42
12.0
 43
12.0
  0
INSERT
  5
1289
330
2EBD
100
AcDbEntity
  8
0
100
AcDbBlockReference
  2
*U21
 10
0.0
 20
0.0
 30
0.0
  0
POINT
  5
128A
330
2EBD
100
AcDbEntity
  8
DEFPOINTS
 62
     0
100
AcDbPoint
 10
-123.5
 20
-8.0
 30
0.0
  0
POINT
  5
128B
330
2EBD
100
AcDbEntity
  8
DEFPOINTS
 62
     0
100
AcDbPoint
 10
123.5
 20
-8.0
 30
0.0
  0
POINT
  5
128C
330
2EBD
100
AcDbEntity
  8
DEFPOINTS
 62
     0
100
AcDbPoint
 10
123.5
 20
51.83630134534229
 30
0.0
  0
ENDBLK
  5
1283
330
2EBD
100
AcDbEntity
  8
0
100
AcDbBlockEnd
  0
BLOCK
  5
2EC0
330
2EBF
100
AcDbEntity
  8
0
100
AcDbBlockBegin
  2
*U21
 70
     1
 10
0.0
 20
0.0
 30
0.0
  3
*U21
  1

  0
TEXT
  5
1EF1
330
2EBF
100
AcDbEntity
  8
NOTE
 62
     0
100
AcDbText
 10
-74.05714285714283
 20
61.83630134534229
 30
0.0
 40
64.0
  1
247
 41
0.9
100
AcDbText
  0
ENDBLK
  5
1EF3
330
2EBF
100
AcDbEntity
  8
0
100
AcDbBlockEnd
  0
BLOCK
  5
2EC2
330
2EC1
100
AcDbEntity
  8
0
100
AcDbBlockBegin
  2
*D22
 70
     1
 10
0.0
 20
0.0
 30
0.0
  3
*D22
  1

  0
LINE
  5
1414
330
2EC1
100
AcDbEntity
  8
SIZE
 62
     0
100
AcDbLine
 10
-22313.11521613997
 20
7365.702971374808
 30
0.0
 11
-22313.11521613997
 21
7217.685576144207
 31
0.0
  0
LINE
  5
1415
330
2EC1
100
AcDbEntity
  8
SIZE
 62
     0
100
AcDbLine
 10
-22044.11521613997
 20
7365.702971374808
 30
0.0
 11
-22044.11521613997
 21
7217.685576144207
 31
0.0
  0
LINE
  5
1416
330
2EC1
100
AcDbEntity
  8
SIZE
 62
     0
100
AcDbLine
 10
-22301.11521613997
 20
7237.685576144207
 30
0.0
 11
-22056.11521613997
 21
7237.685576144207
 31
0.0
  0
INSERT
  5
1417
330
2EC1
100
AcDbEntity
  8
SIZE
 62
     0
100
AcDbBlockReference
  2
_DOTBLANK
 10
-22313.11521613997
 20
7237.685576144207
 30
0.0
 41
12.0
 42
12.0
 43
12.0
 50
180.0
  0
INSERT
  5
1418
330
2EC1
100
AcDbEntity
  8
SIZE
 62
     0
100
AcDbBlockReference
  2
_DOTBLANK
 10
-22044.11521613997
 20
7237.685576144207
 30
0.0
 41
12.0
 42
12.0
 43
12.0
  0
INSERT
  5
1419
330
2EC1
100
AcDbEntity
  8
0
100
AcDbBlockReference
  2
*U23
 10
0.0
 20
0.0
 30
0.0
  0
POINT
  5
141A
330
2EC1
100
AcDbEntity
  8
DEFPOINTS
 62
     0
100
AcDbPoint
 10
-22313.11521613997
 20
7385.702971374808
 30
0.0
  0
POINT
  5
141B
330
2EC1
100
AcDbEntity
  8
DEFPOINTS
 62
     0
100
AcDbPoint
 10
-22044.11521613997
 20
7385.702971374808
 30
0.0
  0
POINT
  5
141C
330
2EC1
100
AcDbEntity
  8
DEFPOINTS
 62
     0
100
AcDbPoint
 10
-22044.11521613997
 20
7237.685576144207
 30
0.0
  0
ENDBLK
  5
141D
330
2EC1
100
AcDbEntity
  8
0
100
AcDbBlockEnd
  0
BLOCK
  5
2EC4
330
2EC3
100
AcDbEntity
  8
0
100
AcDbBlockBegin
  2
*U23
 70
     1
 10
0.0
 20
0.0
 30
0.0
  3
*U23
  1

  0
TEXT
  5
1EF9
330
2EC3
100
AcDbEntity
  8
SIZE
 62
     0
100
AcDbText
 10
-22251.30093042568
 20
7247.685576144205
 30
0.0
 40
64.0
  1
269
 41
0.9
100
AcDbText
  0
ENDBLK
  5
1EFB
330
2EC3
100
AcDbEntity
  8
0
100
AcDbBlockEnd
  0
BLOCK
  5
2EC6
330
2EC5
100
AcDbEntity
  8
0
100
AcDbBlockBegin
  2
*D24
 70
     1
 10
0.0
 20
0.0
 30
0.0
  3
*D24
  1

  0
LINE
  5
1420
330
2EC5
100
AcDbEntity
  8
SIZE
  6
Continuous
 62
     0
100
AcDbLine
 10
-22035.11521613997
 20
7385.702971374808
 30
0.0
 11
-21873.97193165959
 21
7385.702971374808
 31
0.0
  0
LINE
  5
1421
330
2EC5
100
AcDbEntity
  8
SIZE
  6
Continuous
 62
     0
100
AcDbLine
 10
-22001.11521613997
 20
7685.702971374808
 30
0.0
 11
-21873.97193165959
 21
7685.702971374808
 31
0.0
  0
LINE
  5
1422
330
2EC5
100
AcDbEntity
  8
SIZE
  6
Continuous
 62
     0
100
AcDbLine
 10
-21893.97193165959
 20
7397.702971374808
 30
0.0
 11
-21893.97193165959
 21
7673.702971374808
 31
0.0
  0
INSERT
  5
1423
330
2EC5
100
AcDbEntity
  8
SIZE
  6
Continuous
 62
     0
100
AcDbBlockReference
  2
_DOTBLANK
 10
-21893.97193165959
 20
7385.702971374808
 30
0.0
 41
12.0
 42
12.0
 43
12.0
 50
270.0
  0
INSERT
  5
1424
330
2EC5
100
AcDbEntity
  8
SIZE
  6
Continuous
 62
     0
100
AcDbBlockReference
  2
_DOTBLANK
 10
-21893.97193165959
 20
7685.702971374808
 30
0.0
 41
12.0
 42
12.0
 43
12.0
 50
90.0
  0
INSERT
  5
1425
330
2EC5
100
AcDbEntity
  8
0
100
AcDbBlockReference
  2
*U25
 10
0.0
 20
0.0
 30
0.0
  0
POINT
  5
1426
330
2EC5
100
AcDbEntity
  8
DEFPOINTS
  6
Continuous
 62
     0
100
AcDbPoint
 10
-22055.11521613997
 20
7385.702971374808
 30
0.0
  0
POINT
  5
1427
330
2EC5
100
AcDbEntity
  8
DEFPOINTS
  6
Continuous
 62
     0
100
AcDbPoint
 10
-22021.11521613997
 20
7685.702971374808
 30
0.0
  0
POINT
  5
1428
330
2EC5
100
AcDbEntity
  8
DEFPOINTS
  6
Continuous
 62
     0
100
AcDbPoint
 10
-21893.97193165959
 20
7685.702971374808
 30
0.0
  0
ENDBLK
  5
1429
330
2EC5
100
AcDbEntity
  8
0
100
AcDbBlockEnd
  0
BLOCK
  5
2EC8
330
2EC7
100
AcDbEntity
  8
0
100
AcDbBlockBegin
  2
*U25
 70
     1
 10
0.0
 20
0.0
 30
0.0
  3
*U25
  1

  0
TEXT
  5
1EFD
330
2EC7
100
AcDbEntity
  8
SIZE
 62
     0
100
AcDbText
 10
-21903.97193165959
 20
7461.645828517662
 30
0.0
 40
64.0
  1
300
 50
90.0
 41
0.9
100
AcDbText
  0
ENDBLK
  5
1EFF
330
2EC7
100
AcDbEntity
  8
0
100
AcDbBlockEnd
  0
BLOCK
  5
2ECA
330
2EC9
100
AcDbEntity
  8
0
100
AcDbBlockBegin
  2
*D26
 70
     1
 10
0.0
 20
0.0
 30
0.0
  3
*D26
  1

  0
LINE
  5
142C
330
2EC9
100
AcDbEntity
  8
SIZE
 62
     0
100
AcDbLine
 10
-22318.61521613997
 20
7718.167454177002
 30
0.0
 11
-22318.61521613997
 21
7822.154659243358
 31
0.0
  0
LINE
  5
142D
330
2EC9
100
AcDbEntity
  8
SIZE
 62
     0
100
AcDbLine
 10
-22038.61521613997
 20
7718.167454177002
 30
0.0
 11
-22038.61521613997
 21
7822.154659243358
 31
0.0
  0
LINE
  5
142E
330
2EC9
100
AcDbEntity
  8
SIZE
 62
     0
100
AcDbLine
 10
-22306.61521613997
 20
7802.154659243358
 30
0.0
 11
-22050.61521613997
 21
7802.154659243358
 31
0.0
  0
INSERT
  5
142F
330
2EC9
100
AcDbEntity
  8
SIZE
 62
     0
100
AcDbBlockReference
  2
_DOTBLANK
 10
-22318.61521613997
 20
7802.154659243358
 30
0.0
 41
12.0
 42
12.0
 43
12.0
 50
180.0
  0
INSERT
  5
1430
330
2EC9
100
AcDbEntity
  8
SIZE
 62
     0
100
AcDbBlockReference
  2
_DOTBLANK
 10
-22038.61521613997
 20
7802.154659243358
 30
0.0
 41
12.0
 42
12.0
 43
12.0
  0
INSERT
  5
1431
330
2EC9
100
AcDbEntity
  8
0
100
AcDbBlockReference
  2
*U27
 10
0.0
 20
0.0
 30
0.0
  0
POINT
  5
1432
330
2EC9
100
AcDbEntity
  8
DEFPOINTS
 62
     0
100
AcDbPoint
 10
-22318.61521613997
 20
7698.167454177002
 30
0.0
  0
POINT
  5
1433
330
2EC9
100
AcDbEntity
  8
DEFPOINTS
 62
     0
100
AcDbPoint
 10
-22038.61521613997
 20
7698.167454177002
 30
0.0
  0
POINT
  5
1434
330
2EC9
100
AcDbEntity
  8
DEFPOINTS
 62
     0
100
AcDbPoint
 10
-22038.61521613997
 20
7802.154659243358
 30
0.0
  0
ENDBLK
  5
1435
330
2EC9
100
AcDbEntity
  8
0
100
AcDbBlockEnd
  0
BLOCK
  5
2ECC
330
2ECB
100
AcDbEntity
  8
0
100
AcDbBlockBegin
  2
*U27
 70
     1
 10
0.0
 20
0.0
 30
0.0
  3
*U27
  1

  0
TEXT
  5
1F01
330
2ECB
100
AcDbEntity
  8
SIZE
 62
     0
100
AcDbText
 10
-22252.6723589971
 20
7812.154659243358
 30
0.0
 40
64.0
  1
280
 41
0.9
100
AcDbText
  0
ENDBLK
  5
1F03
330
2ECB
100
AcDbEntity
  8
0
100
AcDbBlockEnd
  0
BLOCK
  5
2ECE
330
2ECD
100
AcDbEntity
  8
0
100
AcDbBlockBegin
  2
*D28
 70
     1
 10
0.0
 20
0.0
 30
0.0
  3
*D28
  1

  0
LINE
  5
1438
330
2ECD
100
AcDbEntity
  8
SIZE
 62
     0
100
AcDbLine
 10
-22336.11521613997
 20
7705.702971374808
 30
0.0
 11
-22336.11521613997
 21
7931.282433493766
 31
0.0
  0
LINE
  5
1439
330
2ECD
100
AcDbEntity
  8
SIZE
 62
     0
100
AcDbLine
 10
-22021.11521613997
 20
7705.702971374808
 30
0.0
 11
-22021.11521613997
 21
7931.282433493766
 31
0.0
  0
LINE
  5
143A
330
2ECD
100
AcDbEntity
  8
SIZE
 62
     0
100
AcDbLine
 10
-22324.11521613997
 20
7911.282433493766
 30
0.0
 11
-22033.11521613997
 21
7911.282433493766
 31
0.0
  0
INSERT
  5
143B
330
2ECD
100
AcDbEntity
  8
SIZE
 62
     0
100
AcDbBlockReference
  2
_DOTBLANK
 10
-22336.11521613997
 20
7911.282433493766
 30
0.0
 41
12.0
 42
12.0
 43
12.0
 50
180.0
  0
INSERT
  5
143C
330
2ECD
100
AcDbEntity
  8
SIZE
 62
     0
100
AcDbBlockReference
  2
_DOTBLANK
 10
-22021.11521613997
 20
7911.282433493766
 30
0.0
 41
12.0
 42
12.0
 43
12.0
  0
INSERT
  5
143D
330
2ECD
100
AcDbEntity
  8
0
100
AcDbBlockReference
  2
*U29
 10
0.0
 20
0.0
 30
0.0
  0
POINT
  5
143E
330
2ECD
100
AcDbEntity
  8
DEFPOINTS
 62
     0
100
AcDbPoint
 10
-22336.11521613997
 20
7685.702971374808
 30
0.0
  0
POINT
  5
143F
330
2ECD
100
AcDbEntity
  8
DEFPOINTS
 62
     0
100
AcDbPoint
 10
-22021.11521613997
 20
7685.702971374808
 30
0.0
  0
POINT
  5
1440
330
2ECD
100
AcDbEntity
  8
DEFPOINTS
 62
     0
100
AcDbPoint
 10
-22021.11521613997
 20
7911.282433493766
 30
0.0
  0
ENDBLK
  5
1441
330
2ECD
100
AcDbEntity
  8
0
100
AcDbBlockEnd
  0
BLOCK
  5
2ED0
330
2ECF
100
AcDbEntity
  8
0
100
AcDbBlockBegin
  2
*U29
 70
     1
 10
0.0
 20
0.0
 30
0.0
  3
*U29
  1

  0
TEXT
  5
1F05
330
2ECF
100
AcDbEntity
  8
SIZE
 62
     0
100
AcDbText
 10
-22247.18664471139
 20
7921.282433493766
 30
0.0
 40
64.0
  1
315
 41
0.9
100
AcDbText
  0
ENDBLK
  5
1F07
330
2ECF
100
AcDbEntity
  8
0
100
AcDbBlockEnd
  0
BLOCK
  5
2ED2
330
2ED1
100
AcDbEntity
  8
0
100
AcDbBlockBegin
  2
*D30
 70
     1
 10
0.0
 20
0.0
 30
0.0
  3
*D30
  1

  0
LINE
  5
166B
330
2ED1
100
AcDbEntity
  8
SIZE
 62
     0
100
AcDbLine
 10
-134.5
 20
-320.0
 30
0.0
 11
-134.5
 21
-468.0173952306001
 31
0.0
  0
LINE
  5
166C
330
2ED1
100
AcDbEntity
  8
SIZE
 62
     0
100
AcDbLine
 10
134.5
 20
-320.0
 30
0.0
 11
134.5
 21
-468.0173952306001
 31
0.0
  0
LINE
  5
166D
330
2ED1
100
AcDbEntity
  8
SIZE
 62
     0
100
AcDbLine
 10
-122.5
 20
-448.0173952306
 30
0.0
 11
122.5
 21
-448.0173952306
 31
0.0
  0
INSERT
  5
166E
330
2ED1
100
AcDbEntity
  8
SIZE
 62
     0
100
AcDbBlockReference
  2
_DOTBLANK
 10
-134.5
 20
-448.0173952306
 30
0.0
 41
12.0
 42
12.0
 43
12.0
 50
180.0
  0
INSERT
  5
166F
330
2ED1
100
AcDbEntity
  8
SIZE
 62
     0
100
AcDbBlockReference
  2
_DOTBLANK
 10
134.5
 20
-448.0173952306
 30
0.0
 41
12.0
 42
12.0
 43
12.0
  0
INSERT
  5
1670
330
2ED1
100
AcDbEntity
  8
0
100
AcDbBlockReference
  2
*U31
 10
0.0
 20
0.0
 30
0.0
  0
POINT
  5
1671
330
2ED1
100
AcDbEntity
  8
DEFPOINTS
 62
     0
100
AcDbPoint
 10
-134.5
 20
-300.0
 30
0.0
  0
POINT
  5
1672
330
2ED1
100
AcDbEntity
  8
DEFPOINTS
 62
     0
100
AcDbPoint
 10
134.5
 20
-300.0
 30
0.0
  0
POINT
  5
1673
330
2ED1
100
AcDbEntity
  8
DEFPOINTS
 62
     0
100
AcDbPoint
 10
134.5
 20
-448.0173952306
 30
0.0
  0
ENDBLK
  5
14A7
330
2ED1
100
AcDbEntity
  8
0
100
AcDbBlockEnd
  0
BLOCK
  5
2ED4
330
2ED3
100
AcDbEntity
  8
0
100
AcDbBlockBegin
  2
*U31
 70
     1
 10
0.0
 20
0.0
 30
0.0
  3
*U31
  1

  0
TEXT
  5
1F09
330
2ED3
100
AcDbEntity
  8
SIZE
 62
     0
100
AcDbText
 10
-72.68571428571426
 20
-438.0173952306002
 30
0.0
 40
64.0
  1
269
 41
0.9
100
AcDbText
  0
ENDBLK
  5
1F0B
330
2ED3
100
AcDbEntity
  8
0
100
AcDbBlockEnd
  0
BLOCK
  5
2ED6
330
2ED5
100
AcDbEntity
  8
0
100
AcDbBlockBegin
  2
*D32
 70
     1
 10
0.0
 20
0.0
 30
0.0
  3
*D32
  1

  0
LINE
  5
1674
330
2ED5
100
AcDbEntity
  8
SIZE
  6
Continuous
 62
     0
100
AcDbLine
 10
143.5
 20
-300.0
 30
0.0
 11
304.6432844803784
 21
-300.0
 31
0.0
  0
LINE
  5
1675
330
2ED5
100
AcDbEntity
  8
SIZE
  6
Continuous
 62
     0
100
AcDbLine
 10
177.5
 20
-0.0000000000000057
 30
0.0
 11
304.6432844803785
 21
-0.0000000000000417
 31
0.0
  0
LINE
  5
1676
330
2ED5
100
AcDbEntity
  8
SIZE
  6
Continuous
 62
     0
100
AcDbLine
 10
284.6432844803784
 20
-288.0000000000001
 30
0.0
 11
284.6432844803785
 21
-12.00000000000003
 31
0.0
  0
INSERT
  5
1677
330
2ED5
100
AcDbEntity
  8
SIZE
  6
Continuous
 62
     0
100
AcDbBlockReference
  2
_DOTBLANK
 10
284.6432844803784
 20
-300.0
 30
0.0
 41
12.0
 42
12.0
 43
12.0
 50
270.0
  0
INSERT
  5
1678
330
2ED5
100
AcDbEntity
  8
SIZE
  6
Continuous
 62
     0
100
AcDbBlockReference
  2
_DOTBLANK
 10
284.6432844803785
 20
-0.000000000000036
 30
0.0
 41
12.0
 42
12.0
 43
12.0
 50
90.0
  0
INSERT
  5
1679
330
2ED5
100
AcDbEntity
  8
0
100
AcDbBlockReference
  2
*U33
 10
0.0
 20
0.0
 30
0.0
  0
POINT
  5
167A
330
2ED5
100
AcDbEntity
  8
DEFPOINTS
  6
Continuous
 62
     0
100
AcDbPoint
 10
123.5
 20
-300.0
 30
0.0
  0
POINT
  5
167B
330
2ED5
100
AcDbEntity
  8
DEFPOINTS
  6
Continuous
 62
     0
100
AcDbPoint
 10
157.5
 20
0.0
 30
0.0
  0
POINT
  5
167C
330
2ED5
100
AcDbEntity
  8
DEFPOINTS
  6
Continuous
 62
     0
100
AcDbPoint
 10
284.6432844803785
 20
-0.000000000000036
 30
0.0
  0
ENDBLK
  5
14B3
330
2ED5
100
AcDbEntity
  8
0
100
AcDbBlockEnd
  0
BLOCK
  5
2ED8
330
2ED7
100
AcDbEntity
  8
0
100
AcDbBlockBegin
  2
*U33
 70
     1
 10
0.0
 20
0.0
 30
0.0
  3
*U33
  1

  0
TEXT
  5
1F0D
330
2ED7
100
AcDbEntity
  8
SIZE
 62
     0
100
AcDbText
 10
274.6432844803785
 20
-224.0571428571429
 30
0.0
 40
64.0
  1
300
 50
90.0
 41
0.9
100
AcDbText
  0
ENDBLK
  5
1F0F
330
2ED7
100
AcDbEntity
  8
0
100
AcDbBlockEnd
  0
BLOCK
  5
2EDA
330
2ED9
100
AcDbEntity
  8
0
100
AcDbBlockBegin
  2
*D34
 70
     1
 10
0.0
 20
0.0
 30
0.0
  3
*D34
  1

  0
LINE
  5
167D
330
2ED9
100
AcDbEntity
  8
SIZE
 62
     0
100
AcDbLine
 10
-140.0
 20
32.46448280219375
 30
0.0
 11
-140.0
 21
136.4516878685507
 31
0.0
  0
LINE
  5
167E
330
2ED9
100
AcDbEntity
  8
SIZE
 62
     0
100
AcDbLine
 10
140.0
 20
32.46448280219375
 30
0.0
 11
140.0
 21
136.4516878685507
 31
0.0
  0
LINE
  5
167F
330
2ED9
100
AcDbEntity
  8
SIZE
 62
     0
100
AcDbLine
 10
-128.0
 20
116.4516878685508
 30
0.0
 11
128.0
 21
116.4516878685508
 31
0.0
  0
INSERT
  5
1680
330
2ED9
100
AcDbEntity
  8
SIZE
 62
     0
100
AcDbBlockReference
  2
_DOTBLANK
 10
-140.0
 20
116.4516878685508
 30
0.0
 41
12.0
 42
12.0
 43
12.0
 50
180.0
  0
INSERT
  5
1681
330
2ED9
100
AcDbEntity
  8
SIZE
 62
     0
100
AcDbBlockReference
  2
_DOTBLANK
 10
140.0
 20
116.4516878685508
 30
0.0
 41
12.0
 42
12.0
 43
12.0
  0
INSERT
  5
1682
330
2ED9
100
AcDbEntity
  8
0
100
AcDbBlockReference
  2
*U35
 10
0.0
 20
0.0
 30
0.0
  0
POINT
  5
1683
330
2ED9
100
AcDbEntity
  8
DEFPOINTS
 62
     0
100
AcDbPoint
 10
-140.0
 20
12.46448280219374
 30
0.0
  0
POINT
  5
1684
330
2ED9
100
AcDbEntity
  8
DEFPOINTS
 62
     0
100
AcDbPoint
 10
140.0
 20
12.46448280219374
 30
0.0
  0
POINT
  5
1685
330
2ED9
100
AcDbEntity
  8
DEFPOINTS
 62
     0
100
AcDbPoint
 10
140.0
 20
116.4516878685508
 30
0.0
  0
ENDBLK
  5
14BF
330
2ED9
100
AcDbEntity
  8
0
100
AcDbBlockEnd
  0
BLOCK
  5
2EDC
330
2EDB
100
AcDbEntity
  8
0
100
AcDbBlockBegin
  2
*U35
 70
     1
 10
0.0
 20
0.0
 30
0.0
  3
*U35
  1

  0
TEXT
  5
1F11
330
2EDB
100
AcDbEntity
  8
SIZE
 62
     0
100
AcDbText
 10
-74.05714285714283
 20
126.4516878685507
 30
0.0
 40
64.0
  1
280
 41
0.9
100
AcDbText
  0
ENDBLK
  5
1F13
330
2EDB
100
AcDbEntity
  8
0
100
AcDbBlockEnd
  0
BLOCK
  5
2EDE
330
2EDD
100
AcDbEntity
  8
0
100
AcDbBlockBegin
  2
*D36
 70
     1
 10
0.0
 20
0.0
 30
0.0
  3
*D36
  1

  0
LINE
  5
1686
330
2EDD
100
AcDbEntity
  8
SIZE
 62
     0
100
AcDbLine
 10
-157.5
 20
20.0
 30
0.0
 11
-157.5
 21
245.5794621189598
 31
0.0
  0
LINE
  5
1687
330
2EDD
100
AcDbEntity
  8
SIZE
 62
     0
100
AcDbLine
 10
157.5
 20
20.0
 30
0.0
 11
157.5
 21
245.5794621189598
 31
0.0
  0
LINE
  5
1688
330
2EDD
100
AcDbEntity
  8
SIZE
 62
     0
100
AcDbLine
 10
-145.5
 20
225.5794621189598
 30
0.0
 11
145.5
 21
225.5794621189598
 31
0.0
  0
INSERT
  5
1689
330
2EDD
100
AcDbEntity
  8
SIZE
 62
     0
100
AcDbBlockReference
  2
_DOTBLANK
 10
-157.5
 20
225.5794621189598
 30
0.0
 41
12.0
 42
12.0
 43
12.0
 50
180.0
  0
INSERT
  5
168A
330
2EDD
100
AcDbEntity
  8
SIZE
 62
     0
100
AcDbBlockReference
  2
_DOTBLANK
 10
157.5
 20
225.5794621189598
 30
0.0
 41
12.0
 42
12.0
 43
12.0
  0
INSERT
  5
168B
330
2EDD
100
AcDbEntity
  8
0
100
AcDbBlockReference
  2
*U37
 10
0.0
 20
0.0
 30
0.0
  0
POINT
  5
168C
330
2EDD
100
AcDbEntity
  8
DEFPOINTS
 62
     0
100
AcDbPoint
 10
-157.5
 20
0.0
 30
0.0
  0
POINT
  5
168D
330
2EDD
100
AcDbEntity
  8
DEFPOINTS
 62
     0
100
AcDbPoint
 10
157.5
 20
0.0
 30
0.0
  0
POINT
  5
168E
330
2EDD
100
AcDbEntity
  8
DEFPOINTS
 62
     0
100
AcDbPoint
 10
157.5
 20
225.5794621189598
 30
0.0
  0
ENDBLK
  5
14CB
330
2EDD
100
AcDbEntity
  8
0
100
AcDbBlockEnd
  0
BLOCK
  5
2EE0
330
2EDF
100
AcDbEntity
  8
0
100
AcDbBlockBegin
  2
*U37
 70
     1
 10
0.0
 20
0.0
 30
0.0
  3
*U37
  1

  0
TEXT
  5
1F15
330
2EDF
100
AcDbEntity
  8
SIZE
 62
     0
100
AcDbText
 10
-68.57142857142857
 20
235.5794621189598
 30
0.0
 40
64.0
  1
315
 41
0.9
100
AcDbText
  0
ENDBLK
  5
1F17
330
2EDF
100
AcDbEntity
  8
0
100
AcDbBlockEnd
  0
BLOCK
  5
2EE2
330
2EE1
100
AcDbEntity
  8
0
100
AcDbBlockBegin
  2
*U38
 70
     1
 10
0.0
 20
0.0
 30
0.0
  3
*U38
  1

  0
ENDBLK
  5
15CF
330
2EE1
100
AcDbEntity
  8
0
100
AcDbBlockEnd
  0
BLOCK
  5
2EE4
330
2EE3
100
AcDbEntity
  8
0
100
AcDbBlockBegin
  2
*D39
 70
     1
 10
0.0
 20
0.0
 30
0.0
  3
*D39
  1

  0
LINE
  5
1692
330
2EE3
100
AcDbEntity
  8
SIZE
 62
     0
100
AcDbLine
 10
-25844.51823276502
 20
7685.702971374808
 30
0.0
 11
-25981.04465488371
 21
7685.702971374808
 31
0.0
  0
LINE
  5
1693
330
2EE3
100
AcDbEntity
  8
SIZE
 62
     0
100
AcDbLine
 10
-25844.51823276502
 20
7677.702971374808
 30
0.0
 11
-25981.04465488371
 21
7677.702971374808
 31
0.0
  0
LINE
  5
1694
330
2EE3
100
AcDbEntity
  8
SIZE
 62
     0
100
AcDbLine
 10
-25961.04465488371
 20
7697.702971374808
 30
0.0
 11
-25961.04465488371
 21
7709.702971374809
 31
0.0
  0
LINE
  5
1695
330
2EE3
100
AcDbEntity
  8
SIZE
 62
     0
100
AcDbLine
 10
-25961.04465488371
 20
7665.70297137481
 30
0.0
 11
-25961.04465488371
 21
7595.302971374808
 31
0.0
  0
INSERT
  5
1696
330
2EE3
100
AcDbEntity
  8
SIZE
 62
     0
100
AcDbBlockReference
  2
_DOTBLANK
 10
-25961.04465488371
 20
7685.702971374808
 30
0.0
 41
12.0
 42
12.0
 43
12.0
 50
270.0
  0
INSERT
  5
1697
330
2EE3
100
AcDbEntity
  8
SIZE
 62
     0
100
AcDbBlockReference
  2
_DOTBLANK
 10
-25961.04465488371
 20
7677.702971374808
 30
0.0
 41
12.0
 42
12.0
 43
12.0
 50
90.0
  0
INSERT
  5
1698
330
2EE3
100
AcDbEntity
  8
0
100
AcDbBlockReference
  2
*U40
 10
0.0
 20
0.0
 30
0.0
  0
POINT
  5
1699
330
2EE3
100
AcDbEntity
  8
DEFPOINTS
 62
     0
100
AcDbPoint
 10
-25824.51823276501
 20
7685.702971374808
 30
0.0
  0
POINT
  5
169A
330
2EE3
100
AcDbEntity
  8
DEFPOINTS
 62
     0
100
AcDbPoint
 10
-25824.51823276501
 20
7677.702971374808
 30
0.0
  0
POINT
  5
169B
330
2EE3
100
AcDbEntity
  8
DEFPOINTS
 62
     0
100
AcDbPoint
 10
-25961.04465488371
 20
7677.702971374808
 30
0.0
  0
ENDBLK
  5
169C
330
2EE3
100
AcDbEntity
  8
0
100
AcDbBlockEnd
  0
BLOCK
  5
2EE6
330
2EE5
100
AcDbEntity
  8
0
100
AcDbBlockBegin
  2
*U40
 70
     1
 10
0.0
 20
0.0
 30
0.0
  3
*U40
  1

  0
TEXT
  5
1F19
330
2EE5
100
AcDbEntity
  8
SIZE
 62
     0
100
AcDbText
 10
-25971.04465488371
 20
7605.302971374804
 30
0.0
 40
64.0
  1
8
 50
90.0
 41
0.9
100
AcDbText
  0
ENDBLK
  5
1F1B
330
2EE5
100
AcDbEntity
  8
0
100
AcDbBlockEnd
  0
BLOCK
  5
2EE8
330
2EE7
100
AcDbEntity
  8
0
100
AcDbBlockBegin
  2
*D41
 70
     1
 10
0.0
 20
0.0
 30
0.0
  3
*D41
  1

  0
LINE
  5
169F
330
2EE7
100
AcDbEntity
  8
SIZE
 62
     0
100
AcDbLine
 10
-25512.51823276502
 20
7385.702971374808
 30
0.0
 11
-25362.37494828464
 21
7385.702971374808
 31
0.0
  0
LINE
  5
16A0
330
2EE7
100
AcDbEntity
  8
SIZE
 62
     0
100
AcDbLine
 10
-25523.51823276501
 20
7373.702971374808
 30
0.0
 11
-25362.37494828464
 21
7373.702971374808
 31
0.0
  0
LINE
  5
16A1
330
2EE7
100
AcDbEntity
  8
SIZE
 62
     0
100
AcDbLine
 10
-25382.37494828464
 20
7397.702971374808
 30
0.0
 11
-25382.37494828464
 21
7409.70297137481
 31
0.0
  0
LINE
  5
16A2
330
2EE7
100
AcDbEntity
  8
SIZE
 62
     0
100
AcDbLine
 10
-25382.37494828464
 20
7361.702971374808
 30
0.0
 11
-25382.37494828464
 21
7244.674399946237
 31
0.0
  0
INSERT
  5
16A3
330
2EE7
100
AcDbEntity
  8
SIZE
 62
     0
100
AcDbBlockReference
  2
_DOTBLANK
 10
-25382.37494828464
 20
7385.702971374808
 30
0.0
 41
12.0
 42
12.0
 43
12.0
 50
270.0
  0
INSERT
  5
16A4
330
2EE7
100
AcDbEntity
  8
SIZE
 62
     0
100
AcDbBlockReference
  2
_DOTBLANK
 10
-25382.37494828464
 20
7373.702971374808
 30
0.0
 41
12.0
 42
12.0
 43
12.0
 50
90.0
  0
INSERT
  5
16A5
330
2EE7
100
AcDbEntity
  8
0
100
AcDbBlockReference
  2
*U42
 10
0.0
 20
0.0
 30
0.0
  0
POINT
  5
16A6
330
2EE7
100
AcDbEntity
  8
DEFPOINTS
 62
     0
100
AcDbPoint
 10
-25532.51823276502
 20
7385.702971374808
 30
0.0
  0
POINT
  5
16A7
330
2EE7
100
AcDbEntity
  8
DEFPOINTS
 62
     0
100
AcDbPoint
 10
-25543.51823276502
 20
7373.702971374808
 30
0.0
  0
POINT
  5
16A8
330
2EE7
100
AcDbEntity
  8
DEFPOINTS
 62
     0
100
AcDbPoint
 10
-25382.37494828464
 20
7373.702971374808
 30
0.0
  0
ENDBLK
  5
16A9
330
2EE7
100
AcDbEntity
  8
0
100
AcDbBlockEnd
  0
BLOCK
  5
2EEA
330
2EE9
100
AcDbEntity
  8
0
100
AcDbBlockBegin
  2
*U42
 70
     1
 10
0.0
 20
0.0
 30
0.0
  3
*U42
  1

  0
TEXT
  5
1F1D
330
2EE9
100
AcDbEntity
  8
SIZE
 62
     0
100
AcDbText
 10
-25392.37494828464
 20
7256.045828517662
 30
0.0
 40
64.0
  1
12
 50
90.0
 41
0.9
100
AcDbText
  0
ENDBLK
  5
1F1F
330
2EE9
100
AcDbEntity
  8
0
100
AcDbBlockEnd
  0
BLOCK
  5
2EEC
330
2EEB
100
AcDbEntity
  8
0
100
AcDbBlockBegin
  2
*D43
 70
     1
 10
0.0
 20
0.0
 30
0.0
  3
*D43
  1

  0
LINE
  5
16AC
330
2EEB
100
AcDbEntity
  8
SIZE
 62
     0
100
AcDbLine
 10
-25801.51823276501
 20
7365.702971374808
 30
0.0
 11
-25801.51823276501
 21
7217.685576144207
 31
0.0
  0
LINE
  5
16AD
330
2EEB
100
AcDbEntity
  8
SIZE
 62
     0
100
AcDbLine
 10
-25532.51823276502
 20
7365.702971374808
 30
0.0
 11
-25532.51823276502
 21
7217.685576144207
 31
0.0
  0
LINE
  5
16AE
330
2EEB
100
AcDbEntity
  8
SIZE
 62
     0
100
AcDbLine
 10
-25789.51823276502
 20
7237.685576144207
 30
0.0
 11
-25544.51823276501
 21
7237.685576144207
 31
0.0
  0
INSERT
  5
16AF
330
2EEB
100
AcDbEntity
  8
SIZE
 62
     0
100
AcDbBlockReference
  2
_DOTBLANK
 10
-25801.51823276501
 20
7237.685576144207
 30
0.0
 41
12.0
 42
12.0
 43
12.0
 50
180.0
  0
INSERT
  5
16B0
330
2EEB
100
AcDbEntity
  8
SIZE
 62
     0
100
AcDbBlockReference
  2
_DOTBLANK
 10
-25532.51823276502
 20
7237.685576144207
 30
0.0
 41
12.0
 42
12.0
 43
12.0
  0
INSERT
  5
16B1
330
2EEB
100
AcDbEntity
  8
0
100
AcDbBlockReference
  2
*U44
 10
0.0
 20
0.0
 30
0.0
  0
POINT
  5
16B2
330
2EEB
100
AcDbEntity
  8
DEFPOINTS
 62
     0
100
AcDbPoint
 10
-25801.51823276501
 20
7385.702971374808
 30
0.0
  0
POINT
  5
16B3
330
2EEB
100
AcDbEntity
  8
DEFPOINTS
 62
     0
100
AcDbPoint
 10
-25532.51823276502
 20
7385.702971374808
 30
0.0
  0
POINT
  5
16B4
330
2EEB
100
AcDbEntity
  8
DEFPOINTS
 62
     0
100
AcDbPoint
 10
-25532.51823276502
 20
7237.685576144207
 30
0.0
  0
ENDBLK
  5
16B5
330
2EEB
100
AcDbEntity
  8
0
100
AcDbBlockEnd
  0
BLOCK
  5
2EEE
330
2EED
100
AcDbEntity
  8
0
100
AcDbBlockBegin
  2
*U44
 70
     1
 10
0.0
 20
0.0
 30
0.0
  3
*U44
  1

  0
TEXT
  5
1F21
330
2EED
100
AcDbEntity
  8
SIZE
 62
     0
100
AcDbText
 10
-25739.70394705074
 20
7247.685576144205
 30
0.0
 40
64.0
  1
269
 41
0.9
100
AcDbText
  0
ENDBLK
  5
1F23
330
2EED
100
AcDbEntity
  8
0
100
AcDbBlockEnd
  0
BLOCK
  5
2EF0
330
2EEF
100
AcDbEntity
  8
0
100
AcDbBlockBegin
  2
*D45
 70
     1
 10
0.0
 20
0.0
 30
0.0
  3
*D45
  1

  0
LINE
  5
16B8
330
2EEF
100
AcDbEntity
  8
SIZE
 62
     0
100
AcDbLine
 10
-25512.51823276502
 20
7385.702971374808
 30
0.0
 11
-25362.37494828464
 21
7385.702971374808
 31
0.0
  0
LINE
  5
16B9
330
2EEF
100
AcDbEntity
  8
SIZE
 62
     0
100
AcDbLine
 10
-25489.51823276501
 20
7685.702971374808
 30
0.0
 11
-25362.37494828464
 21
7685.702971374808
 31
0.0
  0
LINE
  5
16BA
330
2EEF
100
AcDbEntity
  8
SIZE
 62
     0
100
AcDbLine
 10
-25382.37494828464
 20
7397.702971374808
 30
0.0
 11
-25382.37494828464
 21
7673.702971374808
 31
0.0
  0
INSERT
  5
16BB
330
2EEF
100
AcDbEntity
  8
SIZE
 62
     0
100
AcDbBlockReference
  2
_DOTBLANK
 10
-25382.37494828464
 20
7385.702971374808
 30
0.0
 41
12.0
 42
12.0
 43
12.0
 50
270.0
  0
INSERT
  5
16BC
330
2EEF
100
AcDbEntity
  8
SIZE
 62
     0
100
AcDbBlockReference
  2
_DOTBLANK
 10
-25382.37494828464
 20
7685.702971374808
 30
0.0
 41
12.0
 42
12.0
 43
12.0
 50
90.0
  0
INSERT
  5
16BD
330
2EEF
100
AcDbEntity
  8
0
100
AcDbBlockReference
  2
*U46
 10
0.0
 20
0.0
 30
0.0
  0
POINT
  5
16BE
330
2EEF
100
AcDbEntity
  8
DEFPOINTS
 62
     0
100
AcDbPoint
 10
-25532.51823276502
 20
7385.702971374808
 30
0.0
  0
POINT
  5
16BF
330
2EEF
100
AcDbEntity
  8
DEFPOINTS
 62
     0
100
AcDbPoint
 10
-25509.51823276502
 20
7685.702971374808
 30
0.0
  0
POINT
  5
16C0
330
2EEF
100
AcDbEntity
  8
DEFPOINTS
 62
     0
100
AcDbPoint
 10
-25382.37494828464
 20
7685.702971374808
 30
0.0
  0
ENDBLK
  5
16C1
330
2EEF
100
AcDbEntity
  8
0
100
AcDbBlockEnd
  0
BLOCK
  5
2EF2
330
2EF1
100
AcDbEntity
  8
0
100
AcDbBlockBegin
  2
*U46
 70
     1
 10
0.0
 20
0.0
 30
0.0
  3
*U46
  1

  0
TEXT
  5
1F25
330
2EF1
100
AcDbEntity
  8
SIZE
 62
     0
100
AcDbText
 10
-25392.37494828464
 20
7461.645828517662
 30
0.0
 40
64.0
  1
300
 50
90.0
 41
0.9
100
AcDbText
  0
ENDBLK
  5
1F27
330
2EF1
100
AcDbEntity
  8
0
100
AcDbBlockEnd
  0
BLOCK
  5
2EF4
330
2EF3
100
AcDbEntity
  8
0
100
AcDbBlockBegin
  2
*D47
 70
     1
 10
0.0
 20
0.0
 30
0.0
  3
*D47
  1

  0
LINE
  5
16C4
330
2EF3
100
AcDbEntity
  8
SIZE
 62
     0
100
AcDbLine
 10
-25807.01823276501
 20
7718.167454177002
 30
0.0
 11
-25807.01823276501
 21
7822.154659243358
 31
0.0
  0
LINE
  5
16C5
330
2EF3
100
AcDbEntity
  8
SIZE
 62
     0
100
AcDbLine
 10
-25527.01823276501
 20
7718.167454177002
 30
0.0
 11
-25527.01823276501
 21
7822.154659243358
 31
0.0
  0
LINE
  5
16C6
330
2EF3
100
AcDbEntity
  8
SIZE
 62
     0
100
AcDbLine
 10
-25795.01823276502
 20
7802.154659243358
 30
0.0
 11
-25539.01823276501
 21
7802.154659243358
 31
0.0
  0
INSERT
  5
16C7
330
2EF3
100
AcDbEntity
  8
SIZE
 62
     0
100
AcDbBlockReference
  2
_DOTBLANK
 10
-25807.01823276501
 20
7802.154659243358
 30
0.0
 41
12.0
 42
12.0
 43
12.0
 50
180.0
  0
INSERT
  5
16C8
330
2EF3
100
AcDbEntity
  8
SIZE
 62
     0
100
AcDbBlockReference
  2
_DOTBLANK
 10
-25527.01823276501
 20
7802.154659243358
 30
0.0
 41
12.0
 42
12.0
 43
12.0
  0
INSERT
  5
16C9
330
2EF3
100
AcDbEntity
  8
0
100
AcDbBlockReference
  2
*U48
 10
0.0
 20
0.0
 30
0.0
  0
POINT
  5
16CA
330
2EF3
100
AcDbEntity
  8
DEFPOINTS
 62
     0
100
AcDbPoint
 10
-25807.01823276501
 20
7698.167454177002
 30
0.0
  0
POINT
  5
16CB
330
2EF3
100
AcDbEntity
  8
DEFPOINTS
 62
     0
100
AcDbPoint
 10
-25527.01823276501
 20
7698.167454177002
 30
0.0
  0
POINT
  5
16CC
330
2EF3
100
AcDbEntity
  8
DEFPOINTS
 62
     0
100
AcDbPoint
 10
-25527.01823276501
 20
7802.154659243358
 30
0.0
  0
ENDBLK
  5
16CD
330
2EF3
100
AcDbEntity
  8
0
100
AcDbBlockEnd
  0
BLOCK
  5
2EF6
330
2EF5
100
AcDbEntity
  8
0
100
AcDbBlockBegin
  2
*U48
 70
     1
 10
0.0
 20
0.0
 30
0.0
  3
*U48
  1

  0
TEXT
  5
1F29
330
2EF5
100
AcDbEntity
  8
SIZE
 62
     0
100
AcDbText
 10
-25741.07537562216
 20
7812.154659243358
 30
0.0
 40
64.0
  1
280
 41
0.9
100
AcDbText
  0
ENDBLK
  5
1F2B
330
2EF5
100
AcDbEntity
  8
0
100
AcDbBlockEnd
  0
BLOCK
  5
2EF8
330
2EF7
100
AcDbEntity
  8
0
100
AcDbBlockBegin
  2
*D49
 70
     1
 10
0.0
 20
0.0
 30
0.0
  3
*D49
  1

  0
LINE
  5
16D0
330
2EF7
100
AcDbEntity
  8
SIZE
 62
     0
100
AcDbLine
 10
-25824.51823276501
 20
7705.702971374808
 30
0.0
 11
-25824.51823276501
 21
7931.282433493766
 31
0.0
  0
LINE
  5
16D1
330
2EF7
100
AcDbEntity
  8
SIZE
 62
     0
100
AcDbLine
 10
-25509.51823276502
 20
7705.702971374808
 30
0.0
 11
-25509.51823276502
 21
7931.282433493766
 31
0.0
  0
LINE
  5
16D2
330
2EF7
100
AcDbEntity
  8
SIZE
 62
     0
100
AcDbLine
 10
-25812.51823276502
 20
7911.282433493766
 30
0.0
 11
-25521.51823276501
 21
7911.282433493766
 31
0.0
  0
INSERT
  5
16D3
330
2EF7
100
AcDbEntity
  8
SIZE
 62
     0
100
AcDbBlockReference
  2
_DOTBLANK
 10
-25824.51823276501
 20
7911.282433493766
 30
0.0
 41
12.0
 42
12.0
 43
12.0
 50
180.0
  0
INSERT
  5
16D4
330
2EF7
100
AcDbEntity
  8
SIZE
 62
     0
100
AcDbBlockReference
  2
_DOTBLANK
 10
-25509.51823276502
 20
7911.282433493766
 30
0.0
 41
12.0
 42
12.0
 43
12.0
  0
INSERT
  5
16D5
330
2EF7
100
AcDbEntity
  8
0
100
AcDbBlockReference
  2
*U50
 10
0.0
 20
0.0
 30
0.0
  0
POINT
  5
16D6
330
2EF7
100
AcDbEntity
  8
DEFPOINTS
 62
     0
100
AcDbPoint
 10
-25824.51823276501
 20
7685.702971374808
 30
0.0
  0
POINT
  5
16D7
330
2EF7
100
AcDbEntity
  8
DEFPOINTS
 62
     0
100
AcDbPoint
 10
-25509.51823276502
 20
7685.702971374808
 30
0.0
  0
POINT
  5
16D8
330
2EF7
100
AcDbEntity
  8
DEFPOINTS
 62
     0
100
AcDbPoint
 10
-25509.51823276502
 20
7911.282433493766
 30
0.0
  0
ENDBLK
  5
16D9
330
2EF7
100
AcDbEntity
  8
0
100
AcDbBlockEnd
  0
BLOCK
  5
2EFA
330
2EF9
100
AcDbEntity
  8
0
100
AcDbBlockBegin
  2
*U50
 70
     1
 10
0.0
 20
0.0
 30
0.0
  3
*U50
  1

  0
TEXT
  5
1F2D
330
2EF9
100
AcDbEntity
  8
SIZE
 62
     0
100
AcDbText
 10
-25735.58966133645
 20
7921.282433493766
 30
0.0
 40
64.0
  1
315
 41
0.9
100
AcDbText
  0
ENDBLK
  5
1F2F
330
2EF9
100
AcDbEntity
  8
0
100
AcDbBlockEnd
  0
BLOCK
  5
2EFC
330
2EFB
100
AcDbEntity
  8
0
100
AcDbBlockBegin
  2
*D51
 70
     1
 10
0.0
 20
0.0
 30
0.0
  3
*D51
  1

  0
LINE
  5
1D83
330
2EFB
100
AcDbEntity
  8
SIZE
 62
     0
100
AcDbLine
 10
-134.5
 20
-320.0
 30
0.0
 11
-134.5
 21
-468.0173952306001
 31
0.0
  0
LINE
  5
1D84
330
2EFB
100
AcDbEntity
  8
SIZE
 62
     0
100
AcDbLine
 10
134.5
 20
-320.0
 30
0.0
 11
134.5
 21
-468.0173952306001
 31
0.0
  0
LINE
  5
1D85
330
2EFB
100
AcDbEntity
  8
SIZE
 62
     0
100
AcDbLine
 10
-122.5
 20
-448.0173952306
 30
0.0
 11
122.5
 21
-448.0173952306
 31
0.0
  0
INSERT
  5
1D86
330
2EFB
100
AcDbEntity
  8
SIZE
 62
     0
100
AcDbBlockReference
  2
_DOTBLANK
 10
-134.5
 20
-448.0173952306
 30
0.0
 41
12.0
 42
12.0
 43
12.0
 50
180.0
  0
INSERT
  5
1D87
330
2EFB
100
AcDbEntity
  8
SIZE
 62
     0
100
AcDbBlockReference
  2
_DOTBLANK
 10
134.5
 20
-448.0173952306
 30
0.0
 41
12.0
 42
12.0
 43
12.0
  0
INSERT
  5
1D88
330
2EFB
100
AcDbEntity
  8
0
100
AcDbBlockReference
  2
*U52
 10
0.0
 20
0.0
 30
0.0
  0
POINT
  5
1D89
330
2EFB
100
AcDbEntity
  8
DEFPOINTS
 62
     0
100
AcDbPoint
 10
-134.5
 20
-300.0
 30
0.0
  0
POINT
  5
1D8A
330
2EFB
100
AcDbEntity
  8
DEFPOINTS
 62
     0
100
AcDbPoint
 10
134.5
 20
-300.0
 30
0.0
  0
POINT
  5
1D8B
330
2EFB
100
AcDbEntity
  8
DEFPOINTS
 62
     0
100
AcDbPoint
 10
134.5
 20
-448.0173952306
 30
0.0
  0
ENDBLK
  5
173D
330
2EFB
100
AcDbEntity
  8
0
100
AcDbBlockEnd
  0
BLOCK
  5
2EFE
330
2EFD
100
AcDbEntity
  8
0
100
AcDbBlockBegin
  2
*U52
 70
     1
 10
0.0
 20
0.0
 30
0.0
  3
*U52
  1

  0
TEXT
  5
1F31
330
2EFD
100
AcDbEntity
  8
SIZE
 62
     0
100
AcDbText
 10
-72.68571428571426
 20
-438.0173952306003
 30
0.0
 40
64.0
  1
269
 41
0.9
100
AcDbText
  0
ENDBLK
  5
1F33
330
2EFD
100
AcDbEntity
  8
0
100
AcDbBlockEnd
  0
BLOCK
  5
2F00
330
2EFF
100
AcDbEntity
  8
0
100
AcDbBlockBegin
  2
*D53
 70
     1
 10
0.0
 20
0.0
 30
0.0
  3
*D53
  1

  0
LINE
  5
1D8C
330
2EFF
100
AcDbEntity
  8
SIZE
 62
     0
100
AcDbLine
 10
154.5
 20
-300.0
 30
0.0
 11
304.6432844803784
 21
-300.0
 31
0.0
  0
LINE
  5
1D8D
330
2EFF
100
AcDbEntity
  8
SIZE
 62
     0
100
AcDbLine
 10
177.5
 20
-0.0000000000000057
 30
0.0
 11
304.6432844803785
 21
-0.0000000000000417
 31
0.0
  0
LINE
  5
1D8E
330
2EFF
100
AcDbEntity
  8
SIZE
 62
     0
100
AcDbLine
 10
284.6432844803784
 20
-288.0
 30
0.0
 11
284.6432844803785
 21
-12.00000000000003
 31
0.0
  0
INSERT
  5
1D8F
330
2EFF
100
AcDbEntity
  8
SIZE
 62
     0
100
AcDbBlockReference
  2
_DOTBLANK
 10
284.6432844803784
 20
-300.0
 30
0.0
 41
12.0
 42
12.0
 43
12.0
 50
270.0
  0
INSERT
  5
1D90
330
2EFF
100
AcDbEntity
  8
SIZE
 62
     0
100
AcDbBlockReference
  2
_DOTBLANK
 10
284.6432844803785
 20
-0.000000000000036
 30
0.0
 41
12.0
 42
12.0
 43
12.0
 50
90.0
  0
INSERT
  5
1D91
330
2EFF
100
AcDbEntity
  8
0
100
AcDbBlockReference
  2
*U54
 10
0.0
 20
0.0
 30
0.0
  0
POINT
  5
1D92
330
2EFF
100
AcDbEntity
  8
DEFPOINTS
 62
     0
100
AcDbPoint
 10
134.5
 20
-300.0
 30
0.0
  0
POINT
  5
1D93
330
2EFF
100
AcDbEntity
  8
DEFPOINTS
 62
     0
100
AcDbPoint
 10
157.5
 20
0.0
 30
0.0
  0
POINT
  5
1D94
330
2EFF
100
AcDbEntity
  8
DEFPOINTS
 62
     0
100
AcDbPoint
 10
284.6432844803785
 20
-0.000000000000036
 30
0.0
  0
ENDBLK
  5
1749
330
2EFF
100
AcDbEntity
  8
0
100
AcDbBlockEnd
  0
BLOCK
  5
2F02
330
2F01
100
AcDbEntity
  8
0
100
AcDbBlockBegin
  2
*U54
 70
     1
 10
0.0
 20
0.0
 30
0.0
  3
*U54
  1

  0
TEXT
  5
1F35
330
2F01
100
AcDbEntity
  8
SIZE
 62
     0
100
AcDbText
 10
274.6432844803785
 20
-224.0571428571429
 30
0.0
 40
64.0
  1
300
 50
90.0
 41
0.9
100
AcDbText
  0
ENDBLK
  5
1F37
330
2F01
100
AcDbEntity
  8
0
100
AcDbBlockEnd
  0
BLOCK
  5
2F04
330
2F03
100
AcDbEntity
  8
0
100
AcDbBlockBegin
  2
*D55
 70
     1
 10
0.0
 20
0.0
 30
0.0
  3
*D55
  1

  0
LINE
  5
1D95
330
2F03
100
AcDbEntity
  8
SIZE
 62
     0
100
AcDbLine
 10
-140.0
 20
32.46448280219375
 30
0.0
 11
-140.0
 21
136.4516878685508
 31
0.0
  0
LINE
  5
1D96
330
2F03
100
AcDbEntity
  8
SIZE
 62
     0
100
AcDbLine
 10
140.0
 20
32.46448280219375
 30
0.0
 11
140.0
 21
136.4516878685508
 31
0.0
  0
LINE
  5
1D97
330
2F03
100
AcDbEntity
  8
SIZE
 62
     0
100
AcDbLine
 10
-128.0
 20
116.4516878685508
 30
0.0
 11
128.0
 21
116.4516878685508
 31
0.0
  0
INSERT
  5
1D98
330
2F03
100
AcDbEntity
  8
SIZE
 62
     0
100
AcDbBlockReference
  2
_DOTBLANK
 10
-140.0
 20
116.4516878685508
 30
0.0
 41
12.0
 42
12.0
 43
12.0
 50
180.0
  0
INSERT
  5
1D99
330
2F03
100
AcDbEntity
  8
SIZE
 62
     0
100
AcDbBlockReference
  2
_DOTBLANK
 10
140.0
 20
116.4516878685508
 30
0.0
 41
12.0
 42
12.0
 43
12.0
  0
INSERT
  5
1D9A
330
2F03
100
AcDbEntity
  8
0
100
AcDbBlockReference
  2
*U56
 10
0.0
 20
0.0
 30
0.0
  0
POINT
  5
1D9B
330
2F03
100
AcDbEntity
  8
DEFPOINTS
 62
     0
100
AcDbPoint
 10
-140.0
 20
12.46448280219374
 30
0.0
  0
POINT
  5
1D9C
330
2F03
100
AcDbEntity
  8
DEFPOINTS
 62
     0
100
AcDbPoint
 10
140.0
 20
12.46448280219374
 30
0.0
  0
POINT
  5
1D9D
330
2F03
100
AcDbEntity
  8
DEFPOINTS
 62
     0
100
AcDbPoint
 10
140.0
 20
116.4516878685508
 30
0.0
  0
ENDBLK
  5
1755
330
2F03
100
AcDbEntity
  8
0
100
AcDbBlockEnd
  0
BLOCK
  5
2F06
330
2F05
100
AcDbEntity
  8
0
100
AcDbBlockBegin
  2
*U56
 70
     1
 10
0.0
 20
0.0
 30
0.0
  3
*U56
  1

  0
TEXT
  5
1F39
330
2F05
100
AcDbEntity
  8
SIZE
 62
     0
100
AcDbText
 10
-74.05714285714283
 20
126.4516878685508
 30
0.0
 40
64.0
  1
280
 41
0.9
100
AcDbText
  0
ENDBLK
  5
1F3B
330
2F05
100
AcDbEntity
  8
0
100
AcDbBlockEnd
  0
BLOCK
  5
2F08
330
2F07
100
AcDbEntity
  8
0
100
AcDbBlockBegin
  2
*D57
 70
     1
 10
0.0
 20
0.0
 30
0.0
  3
*D57
  1

  0
LINE
  5
1D9E
330
2F07
100
AcDbEntity
  8
SIZE
 62
     0
100
AcDbLine
 10
-157.5
 20
20.0
 30
0.0
 11
-157.5
 21
245.5794621189598
 31
0.0
  0
LINE
  5
1D9F
330
2F07
100
AcDbEntity
  8
SIZE
 62
     0
100
AcDbLine
 10
157.5
 20
20.0
 30
0.0
 11
157.5
 21
245.5794621189598
 31
0.0
  0
LINE
  5
1DA0
330
2F07
100
AcDbEntity
  8
SIZE
 62
     0
100
AcDbLine
 10
-145.5
 20
225.5794621189598
 30
0.0
 11
145.5
 21
225.5794621189598
 31
0.0
  0
INSERT
  5
1DA1
330
2F07
100
AcDbEntity
  8
SIZE
 62
     0
100
AcDbBlockReference
  2
_DOTBLANK
 10
-157.5
 20
225.5794621189598
 30
0.0
 41
12.0
 42
12.0
 43
12.0
 50
180.0
  0
INSERT
  5
1DA2
330
2F07
100
AcDbEntity
  8
SIZE
 62
     0
100
AcDbBlockReference
  2
_DOTBLANK
 10
157.5
 20
225.5794621189598
 30
0.0
 41
12.0
 42
12.0
 43
12.0
  0
INSERT
  5
1DA3
330
2F07
100
AcDbEntity
  8
0
100
AcDbBlockReference
  2
*U58
 10
0.0
 20
0.0
 30
0.0
  0
POINT
  5
1DA4
330
2F07
100
AcDbEntity
  8
DEFPOINTS
 62
     0
100
AcDbPoint
 10
-157.5
 20
0.0
 30
0.0
  0
POINT
  5
1DA5
330
2F07
100
AcDbEntity
  8
DEFPOINTS
 62
     0
100
AcDbPoint
 10
157.5
 20
0.0
 30
0.0
  0
POINT
  5
1DA6
330
2F07
100
AcDbEntity
  8
DEFPOINTS
 62
     0
100
AcDbPoint
 10
157.5
 20
225.5794621189598
 30
0.0
  0
ENDBLK
  5
1761
330
2F07
100
AcDbEntity
  8
0
100
AcDbBlockEnd
  0
BLOCK
  5
2F0A
330
2F09
100
AcDbEntity
  8
0
100
AcDbBlockBegin
  2
*U58
 70
     1
 10
0.0
 20
0.0
 30
0.0
  3
*U58
  1

  0
TEXT
  5
1F3D
330
2F09
100
AcDbEntity
  8
SIZE
 62
     0
100
AcDbText
 10
-68.57142857142857
 20
235.5794621189599
 30
0.0
 40
64.0
  1
315
 41
0.9
100
AcDbText
  0
ENDBLK
  5
1F3F
330
2F09
100
AcDbEntity
  8
0
100
AcDbBlockEnd
  0
BLOCK
  5
2F0C
330
2F0B
100
AcDbEntity
  8
0
100
AcDbBlockBegin
  2
*D59
 70
     1
 10
0.0
 20
0.0
 30
0.0
  3
*D59
  1

  0
LINE
  5
1DA7
330
2F0B
100
AcDbEntity
  8
SIZE
 62
     0
100
AcDbLine
 10
-177.5
 20
0.0000000000000057
 30
0.0
 11
-314.0264221186908
 21
0.0000000000000443
 31
0.0
  0
LINE
  5
1DA8
330
2F0B
100
AcDbEntity
  8
SIZE
 62
     0
100
AcDbLine
 10
-177.5
 20
-7.999999999999993
 30
0.0
 11
-314.0264221186908
 21
-7.999999999999958
 31
0.0
  0
LINE
  5
1DA9
330
2F0B
100
AcDbEntity
  8
SIZE
 62
     0
100
AcDbLine
 10
-294.0264221186908
 20
12.00000000000003
 30
0.0
 11
-294.0264221186908
 21
24.00000000000004
 31
0.0
  0
LINE
  5
1DAA
330
2F0B
100
AcDbEntity
  8
SIZE
 62
     0
100
AcDbLine
 10
-294.0264221186908
 20
-19.99999999999996
 30
0.0
 11
-294.0264221186908
 21
-90.39999999999997
 31
0.0
  0
INSERT
  5
1DAB
330
2F0B
100
AcDbEntity
  8
SIZE
 62
     0
100
AcDbBlockReference
  2
_DOTBLANK
 10
-294.0264221186908
 20
0.0000000000000387
 30
0.0
 41
12.0
 42
12.0
 43
12.0
 50
270.0
  0
INSERT
  5
1DAC
330
2F0B
100
AcDbEntity
  8
SIZE
 62
     0
100
AcDbBlockReference
  2
_DOTBLANK
 10
-294.0264221186908
 20
-7.999999999999961
 30
0.0
 41
12.0
 42
12.0
 43
12.0
 50
90.0
  0
INSERT
  5
1DAD
330
2F0B
100
AcDbEntity
  8
0
100
AcDbBlockReference
  2
*U60
 10
0.0
 20
0.0
 30
0.0
  0
POINT
  5
1DAE
330
2F0B
100
AcDbEntity
  8
DEFPOINTS
 62
     0
100
AcDbPoint
 10
-157.5
 20
0.0
 30
0.0
  0
POINT
  5
1DAF
330
2F0B
100
AcDbEntity
  8
DEFPOINTS
 62
     0
100
AcDbPoint
 10
-157.5
 20
-8.000000000000003
 30
0.0
  0
POINT
  5
1DB0
330
2F0B
100
AcDbEntity
  8
DEFPOINTS
 62
     0
100
AcDbPoint
 10
-294.0264221186908
 20
-7.999999999999961
 30
0.0
  0
ENDBLK
  5
176D
330
2F0B
100
AcDbEntity
  8
0
100
AcDbBlockEnd
  0
BLOCK
  5
2F0E
330
2F0D
100
AcDbEntity
  8
0
100
AcDbBlockBegin
  2
*U60
 70
     1
 10
0.0
 20
0.0
 30
0.0
  3
*U60
  1

  0
TEXT
  5
1F41
330
2F0D
100
AcDbEntity
  8
SIZE
 62
     0
100
AcDbText
 10
-304.0264221186908
 20
-80.4
 30
0.0
 40
64.0
  1
8
 50
90.0
 41
0.9
100
AcDbText
  0
ENDBLK
  5
1F43
330
2F0D
100
AcDbEntity
  8
0
100
AcDbBlockEnd
  0
BLOCK
  5
2F10
330
2F0F
100
AcDbEntity
  8
0
100
AcDbBlockBegin
  2
*D61
 70
     1
 10
0.0
 20
0.0
 30
0.0
  3
*D61
  1

  0
LINE
  5
1DB1
330
2F0F
100
AcDbEntity
  8
SIZE
 62
     0
100
AcDbLine
 10
154.5
 20
-300.0
 30
0.0
 11
304.6432844803785
 21
-300.0
 31
0.0
  0
LINE
  5
1DB2
330
2F0F
100
AcDbEntity
  8
SIZE
 62
     0
100
AcDbLine
 10
143.5
 20
-312.0
 30
0.0
 11
304.6432844803785
 21
-312.0
 31
0.0
  0
LINE
  5
1DB3
330
2F0F
100
AcDbEntity
  8
SIZE
 62
     0
100
AcDbLine
 10
284.6432844803785
 20
-288.0
 30
0.0
 11
284.6432844803785
 21
-276.0
 31
0.0
  0
LINE
  5
1DB4
330
2F0F
100
AcDbEntity
  8
SIZE
 62
     0
100
AcDbLine
 10
284.6432844803785
 20
-324.0000000000001
 30
0.0
 11
284.6432844803784
 21
-438.2857142857143
 31
0.0
  0
INSERT
  5
1DB5
330
2F0F
100
AcDbEntity
  8
SIZE
 62
     0
100
AcDbBlockReference
  2
_DOTBLANK
 10
284.6432844803785
 20
-300.0
 30
0.0
 41
12.0
 42
12.0
 43
12.0
 50
270.0
  0
INSERT
  5
1DB6
330
2F0F
100
AcDbEntity
  8
SIZE
 62
     0
100
AcDbBlockReference
  2
_DOTBLANK
 10
284.6432844803785
 20
-312.0
 30
0.0
 41
12.0
 42
12.0
 43
12.0
 50
90.0
  0
INSERT
  5
1DB7
330
2F0F
100
AcDbEntity
  8
0
100
AcDbBlockReference
  2
*U62
 10
0.0
 20
0.0
 30
0.0
  0
POINT
  5
1DB8
330
2F0F
100
AcDbEntity
  8
DEFPOINTS
 62
     0
100
AcDbPoint
 10
134.5
 20
-300.0
 30
0.0
  0
POINT
  5
1DB9
330
2F0F
100
AcDbEntity
  8
DEFPOINTS
 62
     0
100
AcDbPoint
 10
123.5
 20
-312.0
 30
0.0
  0
POINT
  5
1DBA
330
2F0F
100
AcDbEntity
  8
DEFPOINTS
 62
     0
100
AcDbPoint
 10
284.6432844803785
 20
-312.0
 30
0.0
  0
ENDBLK
  5
177B
330
2F0F
100
AcDbEntity
  8
0
100
AcDbBlockEnd
  0
BLOCK
  5
2F12
330
2F11
100
AcDbEntity
  8
0
100
AcDbBlockBegin
  2
*U62
 70
     1
 10
0.0
 20
0.0
 30
0.0
  3
*U62
  1

  0
TEXT
  5
1F45
330
2F11
100
AcDbEntity
  8
SIZE
 62
     0
100
AcDbText
 10
274.6432844803785
 20
-428.2857142857142
 30
0.0
 40
64.0
  1
12
 50
90.0
 41
0.9
100
AcDbText
  0
ENDBLK
  5
1F47
330
2F11
100
AcDbEntity
  8
0
100
AcDbBlockEnd
  0
BLOCK
  5
2F14
330
2F13
100
AcDbEntity
  8
0
100
AcDbBlockBegin
  2
*U63
 70
     1
 10
0.0
 20
0.0
 30
0.0
  3
*U63
  1

  0
ENDBLK
  5
1D57
330
2F13
100
AcDbEntity
  8
0
100
AcDbBlockEnd
  0
BLOCK
  5
2F16
330
2F15
100
AcDbEntity
  8
0
100
AcDbBlockBegin
  2
*U64
 70
     1
 10
0.0
 20
0.0
 30
0.0
  3
*U64
  1

  0
INSERT
  5
2087
330
2F15
100
AcDbEntity
  8
NOTE
100
AcDbBlockReference
  2
_OPEN30
 10
-165.0
 20
0.0
 30
0.0
 41
12.0
 42
12.0
 43
12.0
 50
312.6090116116894
  0
POLYLINE
  5
2088
330
2F15
100
AcDbEntity
  8
NOTE
100
AcDb2dPolyline
 66
     1
 10
0.0
 20
0.0
 30
0.0
  0
VERTEX
  5
2B39
330
2088
100
AcDbEntity
  8
NOTE
100
AcDbVertex
100
AcDb2dVertex
 10
-173.1239008361894
 20
8.831887408915475
 30
0.0
  0
VERTEX
  5
2B3A
330
2088
100
AcDbEntity
  8
NOTE
100
AcDbVertex
100
AcDb2dVertex
 10
-252.8693999922543
 20
95.52709505801338
 30
0.0
  0
VERTEX
  5
2B3B
330
2088
100
AcDbEntity
  8
NOTE
100
AcDbVertex
100
AcDb2dVertex
 10
-798.7093999922541
 20
95.52709505801338
 30
0.0
  0
SEQEND
  5
2B3C
330
2088
100
AcDbEntity
  8
NOTE
  0
ENDBLK
  5
2089
330
2F15
100
AcDbEntity
  8
0
100
AcDbBlockEnd
  0
BLOCK
  5
2F18
330
2F17
100
AcDbEntity
  8
0
100
AcDbBlockBegin
  2
*U65
 70
     1
 10
0.0
 20
0.0
 30
0.0
  3
*U65
  1

  0
TEXT
  5
208C
330
2F17
100
AcDbEntity
  8
NOTE
100
AcDbText
 10
-798.7093999922541
 20
113.5270950580134
 30
0.0
 40
64.0
  1
4×φ10取付穴
 41
0.9
100
AcDbText
  0
ENDBLK
  5
208D
330
2F17
100
AcDbEntity
  8
0
100
AcDbBlockEnd
  0
BLOCK
  5
2F1A
330
2F19
100
AcDbEntity
  8
0
100
AcDbBlockBegin
  2
*U66
 70
     1
 10
0.0
 20
0.0
 30
0.0
  3
*U66
  1

  0
INSERT
  5
2173
330
2F19
100
AcDbEntity
  8
NOTE
100
AcDbBlockReference
  2
_OPEN30
 10
165.0
 20
165.0
 30
0.0
 41
12.0
 42
12.0
 43
12.0
 50
230.7091310502216
  0
POLYLINE
  5
2174
330
2F19
100
AcDbEntity
  8
NOTE
100
AcDb2dPolyline
 66
     1
 10
0.0
 20
0.0
 30
0.0
  0
VERTEX
  5
2B3D
330
2174
100
AcDbEntity
  8
NOTE
100
AcDbVertex
100
AcDb2dVertex
 10
172.599090480922
 20
174.2872936780722
 30
0.0
  0
VERTEX
  5
2B3E
330
2174
100
AcDbEntity
  8
NOTE
100
AcDbVertex
100
AcDb2dVertex
 10
228.4345623698611
 20
242.5270950580133
 30
0.0
  0
VERTEX
  5
2B3F
330
2174
100
AcDbEntity
  8
NOTE
100
AcDbVertex
100
AcDb2dVertex
 10
774.2745623698612
 20
242.5270950580133
 30
0.0
  0
SEQEND
  5
2B40
330
2174
100
AcDbEntity
  8
NOTE
  0
ENDBLK
  5
2175
330
2F19
100
AcDbEntity
  8
0
100
AcDbBlockEnd
  0
BLOCK
  5
2F1C
330
2F1B
100
AcDbEntity
  8
0
100
AcDbBlockBegin
  2
*U67
 70
     1
 10
0.0
 20
0.0
 30
0.0
  3
*U67
  1

  0
TEXT
  5
2178
330
2F1B
100
AcDbEntity
  8
NOTE
100
AcDbText
 10
290.4345623698611
 20
260.5270950580133
 30
0.0
 40
64.0
  1
4×φ10取付穴
 41
0.9
100
AcDbText
  0
ENDBLK
  5
2179
330
2F1B
100
AcDbEntity
  8
0
100
AcDbBlockEnd
  0
BLOCK
  5
2F1E
330
2F1D
100
AcDbEntity
  8
0
100
AcDbBlockBegin
  2
*U68
 70
     1
 10
0.0
 20
0.0
 30
0.0
  3
*U68
  1

  0
INSERT
  5
227F
330
2F1D
100
AcDbEntity
  8
NOTE
100
AcDbBlockReference
  2
_OPEN30
 10
164.9999998782508
 20
164.9999999999991
 30
0.0
 41
12.0
 42
12.0
 43
12.0
 50
232.3258907693334
  0
POLYLINE
  5
2280
330
2F1D
100
AcDbEntity
  8
NOTE
100
AcDb2dPolyline
 66
     1
 10
0.0
 20
0.0
 30
0.0
  0
VERTEX
  5
2B41
330
2280
100
AcDbEntity
  8
NOTE
100
AcDbVertex
100
AcDb2dVertex
 10
172.3340331621957
 20
174.4979974620954
 30
0.0
  0
VERTEX
  5
2B42
330
2280
100
AcDbEntity
  8
NOTE
100
AcDbVertex
100
AcDb2dVertex
 10
238.7628006654591
 20
260.5270950580116
 30
0.0
  0
VERTEX
  5
2B43
330
2280
100
AcDbEntity
  8
NOTE
100
AcDbVertex
100
AcDb2dVertex
 10
784.6028006654592
 20
260.5270950580116
 30
0.0
  0
SEQEND
  5
2B44
330
2280
100
AcDbEntity
  8
NOTE
  0
ENDBLK
  5
2281
330
2F1D
100
AcDbEntity
  8
0
100
AcDbBlockEnd
  0
BLOCK
  5
2F20
330
2F1F
100
AcDbEntity
  8
0
100
AcDbBlockBegin
  2
*U69
 70
     1
 10
0.0
 20
0.0
 30
0.0
  3
*U69
  1

  0
TEXT
  5
2284
330
2F1F
100
AcDbEntity
  8
NOTE
100
AcDbText
 10
300.7628006654591
 20
278.5270950580116
 30
0.0
 40
64.0
  1
4×φ10取付穴
 41
0.9
100
AcDbText
  0
ENDBLK
  5
2285
330
2F1F
100
AcDbEntity
  8
0
100
AcDbBlockEnd
  0
BLOCK
  5
2F22
330
2F21
100
AcDbEntity
  8
0
100
AcDbBlockBegin
  2
*U70
 70
     1
 10
0.0
 20
0.0
 30
0.0
  3
*U70
  1

  0
INSERT
  5
23B5
330
2F21
100
AcDbEntity
  8
NOTE
100
AcDbBlockReference
  2
_OPEN30
 10
0.0
 20
165.0
 30
0.0
 41
12.0
 42
12.0
 43
12.0
 50
312.6090116116895
  0
POLYLINE
  5
23B6
330
2F21
100
AcDbEntity
  8
NOTE
100
AcDb2dPolyline
 66
     1
 10
0.0
 20
0.0
 30
0.0
  0
VERTEX
  5
2B45
330
23B6
100
AcDbEntity
  8
NOTE
100
AcDbVertex
100
AcDb2dVertex
 10
-8.123900836189513
 20
173.8318874089154
 30
0.0
  0
VERTEX
  5
2B46
330
23B6
100
AcDbEntity
  8
NOTE
100
AcDbVertex
100
AcDb2dVertex
 10
-87.86939999225436
 20
260.527095058013
 30
0.0
  0
VERTEX
  5
2B47
330
23B6
100
AcDbEntity
  8
NOTE
100
AcDbVertex
100
AcDb2dVertex
 10
-633.7093999922545
 20
260.527095058013
 30
0.0
  0
SEQEND
  5
2B48
330
23B6
100
AcDbEntity
  8
NOTE
  0
ENDBLK
  5
23B7
330
2F21
100
AcDbEntity
  8
0
100
AcDbBlockEnd
  0
BLOCK
  5
2F24
330
2F23
100
AcDbEntity
  8
0
100
AcDbBlockBegin
  2
*U71
 70
     1
 10
0.0
 20
0.0
 30
0.0
  3
*U71
  1

  0
TEXT
  5
23BA
330
2F23
100
AcDbEntity
  8
NOTE
100
AcDbText
 10
-633.7093999922545
 20
278.5270950580129
 30
0.0
 40
64.0
  1
4×φ10取付穴
 41
0.9
100
AcDbText
  0
ENDBLK
  5
23BB
330
2F23
100
AcDbEntity
  8
0
100
AcDbBlockEnd
  0
BLOCK
  5
2F26
330
2F25
100
AcDbEntity
  8
0
100
AcDbBlockBegin
  2
*U72
 70
     1
 10
0.0
 20
0.0
 30
0.0
  3
*U72
  1

  0
INSERT
  5
2519
330
2F25
100
AcDbEntity
  8
NOTE
100
AcDbBlockReference
  2
_OPEN30
 10
0.0
 20
165.0
 30
0.0
 41
12.0
 42
12.0
 43
12.0
 50
227.3909883883105
  0
POLYLINE
  5
251A
330
2F25
100
AcDbEntity
  8
NOTE
100
AcDb2dPolyline
 66
     1
 10
0.0
 20
0.0
 30
0.0
  0
VERTEX
  5
2B49
330
251A
100
AcDbEntity
  8
NOTE
100
AcDbVertex
100
AcDb2dVertex
 10
8.123900836189513
 20
173.8318874089154
 30
0.0
  0
VERTEX
  5
2B4A
330
251A
100
AcDbEntity
  8
NOTE
100
AcDbVertex
100
AcDb2dVertex
 10
87.86939999225436
 20
260.527095058013
 30
0.0
  0
VERTEX
  5
2B4B
330
251A
100
AcDbEntity
  8
NOTE
100
AcDbVertex
100
AcDb2dVertex
 10
633.7093999922545
 20
260.527095058013
 30
0.0
  0
SEQEND
  5
2B4C
330
251A
100
AcDbEntity
  8
NOTE
  0
ENDBLK
  5
251B
330
2F25
100
AcDbEntity
  8
0
100
AcDbBlockEnd
  0
BLOCK
  5
2F28
330
2F27
100
AcDbEntity
  8
0
100
AcDbBlockBegin
  2
*U73
 70
     1
 10
0.0
 20
0.0
 30
0.0
  3
*U73
  1

  0
TEXT
  5
251E
330
2F27
100
AcDbEntity
  8
NOTE
100
AcDbText
 10
149.8693999922543
 20
278.5270950580129
 30
0.0
 40
64.0
  1
4×φ10取付穴
 41
0.9
100
AcDbText
  0
ENDBLK
  5
251F
330
2F27
100
AcDbEntity
  8
0
100
AcDbBlockEnd
  0
BLOCK
  5
2F2A
330
2F29
100
AcDbEntity
  8
0
100
AcDbBlockBegin
  2
*U74
 70
     1
 10
0.0
 20
0.0
 30
0.0
  3
*U74
  1

  0
INSERT
  5
2681
330
2F29
100
AcDbEntity
  8
NOTE
100
AcDbBlockReference
  2
_OPEN30
 10
-165.0
 20
0.0
 30
0.0
 41
12.0
 42
12.0
 43
12.0
 50
312.6090116116894
  0
POLYLINE
  5
2682
330
2F29
100
AcDbEntity
  8
NOTE
100
AcDb2dPolyline
 66
     1
 10
0.0
 20
0.0
 30
0.0
  0
VERTEX
  5
2B4D
330
2682
100
AcDbEntity
  8
NOTE
100
AcDbVertex
100
AcDb2dVertex
 10
-173.1239008361894
 20
8.831887408915475
 30
0.0
  0
VERTEX
  5
2B4E
330
2682
100
AcDbEntity
  8
NOTE
100
AcDbVertex
100
AcDb2dVertex
 10
-252.8693999922543
 20
95.52709505801338
 30
0.0
  0
VERTEX
  5
2B4F
330
2682
100
AcDbEntity
  8
NOTE
100
AcDbVertex
100
AcDb2dVertex
 10
-798.7093999922541
 20
95.52709505801338
 30
0.0
  0
SEQEND
  5
2B50
330
2682
100
AcDbEntity
  8
NOTE
  0
ENDBLK
  5
2683
330
2F29
100
AcDbEntity
  8
0
100
AcDbBlockEnd
  0
BLOCK
  5
2F2C
330
2F2B
100
AcDbEntity
  8
0
100
AcDbBlockBegin
  2
*U75
 70
     1
 10
0.0
 20
0.0
 30
0.0
  3
*U75
  1

  0
TEXT
  5
2686
330
2F2B
100
AcDbEntity
  8
NOTE
100
AcDbText
 10
-798.7093999922541
 20
113.5270950580134
 30
0.0
 40
64.0
  1
4×φ10取付穴
 41
0.9
100
AcDbText
  0
ENDBLK
  5
2687
330
2F2B
100
AcDbEntity
  8
0
100
AcDbBlockEnd
  0
BLOCK
  5
2F2E
330
2F2D
100
AcDbEntity
  8
0
100
AcDbBlockBegin
  2
*X76
 70
     1
 10
0.0
 20
0.0
 30
0.0
  3
*X76
  1

  0
LINE
  5
268A
330
2F2D
100
AcDbEntity
  8
0
 62
     0
100
AcDbLine
 10
132.2515696609152
 20
-321.4000000000015
 30
0.0
 11
132.8999999999923
 21
-320.9677142111396
 31
0.0
  0
LINE
  5
268B
330
2F2D
100
AcDbEntity
  8
0
 62
     0
100
AcDbLine
 10
127.7516083670307
 20
-321.4000000000015
 30
0.0
 11
132.8999999999942
 21
-317.9677476757224
 31
0.0
  0
LINE
  5
268C
330
2F2D
100
AcDbEntity
  8
0
 62
     0
100
AcDbLine
 10
123.2516470731443
 20
-321.4000000000015
 30
0.0
 11
132.8999999999942
 21
-314.9677811403052
 31
0.0
  0
LINE
  5
268D
330
2F2D
100
AcDbEntity
  8
0
 62
     0
100
AcDbLine
 10
118.7516857792616
 20
-321.4000000000015
 30
0.0
 11
132.8999999999942
 21
-311.96781460489
 31
0.0
  0
LINE
  5
268E
330
2F2D
100
AcDbEntity
  8
0
 62
     0
100
AcDbLine
 10
114.2517244853734
 20
-321.4000000000032
 30
0.0
 11
132.8999999999923
 21
-308.9678480694765
 31
0.0
  0
LINE
  5
268F
330
2F2D
100
AcDbEntity
  8
0
 62
     0
100
AcDbLine
 10
109.7517631914907
 20
-321.3999999999996
 30
0.0
 11
132.8999999999942
 21
-305.9678815340576
 31
0.0
  0
LINE
  5
2690
330
2F2D
100
AcDbEntity
  8
0
 62
     0
100
AcDbLine
 10
105.2518018976007
 20
-321.4000000000015
 30
0.0
 11
132.8999999999942
 21
-302.9679149986405
 31
0.0
  0
LINE
  5
2691
330
2F2D
100
AcDbEntity
  8
0
 62
     0
100
AcDbLine
 10
100.7518406037179
 20
-321.4000000000015
 30
0.0
 11
132.8999999999923
 21
-299.9679484632252
 31
0.0
  0
LINE
  5
2692
330
2F2D
100
AcDbEntity
  8
0
 62
     0
100
AcDbLine
 10
96.25187930983157
 20
-321.4000000000032
 30
0.0
 11
132.8999999999942
 21
-296.9679819278099
 31
0.0
  0
LINE
  5
2693
330
2F2D
100
AcDbEntity
  8
0
 62
     0
100
AcDbLine
 10
91.75191801594698
 20
-321.4000000000032
 30
0.0
 11
132.8999999999942
 21
-293.9680153923945
 31
0.0
  0
LINE
  5
2694
330
2F2D
100
AcDbEntity
  8
0
 62
     0
100
AcDbLine
 10
87.25195672205883
 20
-321.4000000000032
 30
0.0
 11
132.8999999999942
 21
-290.9680488569756
 31
0.0
  0
LINE
  5
2695
330
2F2D
100
AcDbEntity
  8
0
 62
     0
100
AcDbLine
 10
82.75199542817606
 20
-321.3999999999996
 30
0.0
 11
132.8999999999923
 21
-287.9680823215604
 31
0.0
  0
LINE
  5
2696
330
2F2D
100
AcDbEntity
  8
0
 62
     0
100
AcDbLine
 10
130.7521681946673
 20
-286.4000000000014
 30
0.0
 11
132.8999999999887
 21
-284.9681157861487
 31
0.0
  0
LINE
  5
2697
330
2F2D
100
AcDbEntity
  8
0
 62
     0
100
AcDbLine
 10
78.2520341342897
 20
-321.4000000000015
 30
0.0
 11
130.7521681946673
 21
-286.4000000000014
 31
0.0
  0
LINE
  5
2698
330
2F2D
100
AcDbEntity
  8
0
 62
     0
100
AcDbLine
 10
126.2522069007809
 20
-286.4000000000032
 30
0.0
 11
132.8999999999887
 21
-281.9681492507316
 31
0.0
  0
LINE
  5
2699
330
2F2D
100
AcDbEntity
  8
0
 62
     0
100
AcDbLine
 10
73.75207284040334
 20
-321.4000000000032
 30
0.0
 11
126.2522069007809
 21
-286.4000000000032
 31
0.0
  0
LINE
  5
269A
330
2F2D
100
AcDbEntity
  8
0
 62
     0
100
AcDbLine
 10
121.7522456068927
 20
-286.4000000000014
 30
0.0
 11
132.8999999999869
 21
-278.9681827153163
 31
0.0
  0
LINE
  5
269B
330
2F2D
100
AcDbEntity
  8
0
 62
     0
100
AcDbLine
 10
69.25211154651515
 20
-321.4000000000032
 30
0.0
 11
121.7522456068927
 21
-286.4000000000014
 31
0.0
  0
LINE
  5
269C
330
2F2D
100
AcDbEntity
  8
0
 62
     0
100
AcDbLine
 10
117.2522843130118
 20
-286.3999999999996
 30
0.0
 11
132.8999999999887
 21
-275.9682161798973
 31
0.0
  0
LINE
  5
269D
330
2F2D
100
AcDbEntity
  8
0
 62
     0
100
AcDbLine
 10
64.75215025263422
 20
-321.3999999999996
 30
0.0
 11
117.2522843130118
 21
-286.3999999999996
 31
0.0
  0
LINE
  5
269E
330
2F2D
100
AcDbEntity
  8
0
 62
     0
100
AcDbLine
 10
112.7523230191236
 20
-286.4000000000014
 30
0.0
 11
132.8999999999905
 21
-272.9682496444821
 31
0.0
  0
LINE
  5
269F
330
2F2D
100
AcDbEntity
  8
0
 62
     0
100
AcDbLine
 10
60.25218895874604
 20
-321.4000000000015
 30
0.0
 11
112.7523230191236
 21
-286.4000000000014
 31
0.0
  0
LINE
  5
26A0
330
2F2D
100
AcDbEntity
  8
0
 62
     0
100
AcDbLine
 10
108.2523617252373
 20
-286.4000000000032
 30
0.0
 11
132.8999999999869
 21
-269.9682831090667
 31
0.0
  0
LINE
  5
26A1
330
2F2D
100
AcDbEntity
  8
0
 62
     0
100
AcDbLine
 10
55.75222766485968
 20
-321.4000000000032
 30
0.0
 11
108.2523617252373
 21
-286.4000000000032
 31
0.0
  0
LINE
  5
26A2
330
2F2D
100
AcDbEntity
  8
0
 62
     0
100
AcDbLine
 10
103.7524004313545
 20
-286.4000000000014
 30
0.0
 11
132.8999999999905
 21
-266.9683165736496
 31
0.0
  0
LINE
  5
26A3
330
2F2D
100
AcDbEntity
  8
0
 62
     0
100
AcDbLine
 10
51.25226637097693
 20
-321.4000000000015
 30
0.0
 11
103.7524004313545
 21
-286.4000000000014
 31
0.0
  0
LINE
  5
26A4
330
2F2D
100
AcDbEntity
  8
0
 62
     0
100
AcDbLine
 10
99.25243913746999
 20
-286.3999999999996
 30
0.0
 11
132.8999999999887
 21
-263.9683500382343
 31
0.0
  0
LINE
  5
26A5
330
2F2D
100
AcDbEntity
  8
0
 62
     0
100
AcDbLine
 10
46.75230507709239
 20
-321.4000000000015
 30
0.0
 11
99.25243913746635
 21
-286.4000000000014
 31
0.0
  0
LINE
  5
26A6
330
2F2D
100
AcDbEntity
  8
0
 62
     0
100
AcDbLine
 10
94.75247784358177
 20
-286.4000000000014
 30
0.0
 11
132.8999999999887
 21
-260.9683835028172
 31
0.0
  0
LINE
  5
26A7
330
2F2D
100
AcDbEntity
  8
0
 62
     0
100
AcDbLine
 10
42.25234378320418
 20
-321.4000000000032
 30
0.0
 11
94.75247784358177
 21
-286.4000000000014
 31
0.0
  0
LINE
  5
26A8
330
2F2D
100
AcDbEntity
  8
0
 62
     0
100
AcDbLine
 10
90.25251654969542
 20
-286.4000000000032
 30
0.0
 11
132.8999999999869
 21
-257.9684169674038
 31
0.0
  0
LINE
  5
26A9
330
2F2D
100
AcDbEntity
  8
0
 62
     0
100
AcDbLine
 10
37.75238248931783
 20
-321.4000000000032
 30
0.0
 11
90.25251654969542
 21
-286.4000000000032
 31
0.0
  0
LINE
  5
26AA
330
2F2D
100
AcDbEntity
  8
0
 62
     0
100
AcDbLine
 10
85.75255525581265
 20
-286.4000000000014
 30
0.0
 11
132.8999999999887
 21
-254.9684504319848
 31
0.0
  0
LINE
  5
26AB
330
2F2D
100
AcDbEntity
  8
0
 62
     0
100
AcDbLine
 10
33.25242119543509
 20
-321.4000000000015
 30
0.0
 11
85.75255525581265
 21
-286.4000000000014
 31
0.0
  0
LINE
  5
26AC
330
2F2D
100
AcDbEntity
  8
0
 62
     0
100
AcDbLine
 10
81.25259396192268
 20
-286.4000000000032
 30
0.0
 11
132.8999999999905
 21
-251.9684838965677
 31
0.0
  0
LINE
  5
26AD
330
2F2D
100
AcDbEntity
  8
0
 62
     0
100
AcDbLine
 10
28.75245990154872
 20
-321.4000000000015
 30
0.0
 11
81.25259396192268
 21
-286.4000000000032
 31
0.0
  0
LINE
  5
26AE
330
2F2D
100
AcDbEntity
  8
0
 62
     0
100
AcDbLine
 10
76.75263266803812
 20
-286.3999999999996
 30
0.0
 11
132.8999999999869
 21
-248.9685173611524
 31
0.0
  0
LINE
  5
26AF
330
2F2D
100
AcDbEntity
  8
0
 62
     0
100
AcDbLine
 10
24.25249860766053
 20
-321.4000000000015
 30
0.0
 11
76.75263266803812
 21
-286.3999999999996
 31
0.0
  0
LINE
  5
26B0
330
2F2D
100
AcDbEntity
  8
0
 62
     0
100
AcDbLine
 10
72.25267137415356
 20
-286.4000000000014
 30
0.0
 11
132.8999999999905
 21
-245.9685508257353
 31
0.0
  0
LINE
  5
26B1
330
2F2D
100
AcDbEntity
  8
0
 62
     0
100
AcDbLine
 10
19.75253731377597
 20
-321.4000000000032
 30
0.0
 11
72.25267137415356
 21
-286.4000000000014
 31
0.0
  0
LINE
  5
26B2
330
2F2D
100
AcDbEntity
  8
0
 62
     0
100
AcDbLine
 10
67.75271008027086
 20
-286.4000000000014
 30
0.0
 11
132.8999999999887
 21
-242.9685842903217
 31
0.0
  0
LINE
  5
26B3
330
2F2D
100
AcDbEntity
  8
0
 62
     0
100
AcDbLine
 10
15.25257601989324
 20
-321.4000000000015
 30
0.0
 11
67.75271008027086
 21
-286.4000000000014
 31
0.0
  0
LINE
  5
26B4
330
2F2D
100
AcDbEntity
  8
0
 62
     0
100
AcDbLine
 10
63.25274878638445
 20
-286.4000000000014
 30
0.0
 11
132.8999999999905
 21
-239.9686177549029
 31
0.0
  0
LINE
  5
26B5
330
2F2D
100
AcDbEntity
  8
0
 62
     0
100
AcDbLine
 10
10.75261472600687
 20
-321.4000000000015
 30
0.0
 11
63.25274878638445
 21
-286.4000000000014
 31
0.0
  0
LINE
  5
26B6
330
2F2D
100
AcDbEntity
  8
0
 62
     0
100
AcDbLine
 10
58.75278749249628
 20
-286.4000000000014
 30
0.0
 11
132.8999999999869
 21
-236.9686512194876
 31
0.0
  0
LINE
  5
26B7
330
2F2D
100
AcDbEntity
  8
0
 62
     0
100
AcDbLine
 10
6.252653432118676
 20
-321.4000000000015
 30
0.0
 11
58.75278749249628
 21
-286.4000000000014
 31
0.0
  0
LINE
  5
26B8
330
2F2D
100
AcDbEntity
  8
0
 62
     0
100
AcDbLine
 10
54.25282619861537
 20
-286.3999999999996
 30
0.0
 11
132.8999999999905
 21
-233.9686846840723
 31
0.0
  0
LINE
  5
26B9
330
2F2D
100
AcDbEntity
  8
0
 62
     0
100
AcDbLine
 10
1.75269213823776
 20
-321.4000000000015
 30
0.0
 11
54.25282619861537
 21
-286.3999999999996
 31
0.0
  0
LINE
  5
26BA
330
2F2D
100
AcDbEntity
  8
0
 62
     0
100
AcDbLine
 10
49.75286490472718
 20
-286.4000000000014
 30
0.0
 11
132.8999999999905
 21
-230.9687181486552
 31
0.0
  0
LINE
  5
26BB
330
2F2D
100
AcDbEntity
  8
0
 62
     0
100
AcDbLine
 10
-2.747269155650426
 20
-321.4000000000032
 30
0.0
 11
49.75286490472536
 21
-286.4000000000032
 31
0.0
  0
LINE
  5
26BC
330
2F2D
100
AcDbEntity
  8
0
 62
     0
100
AcDbLine
 10
45.2529036108408
 20
-286.4000000000014
 30
0.0
 11
132.8999999999887
 21
-227.9687516132399
 31
0.0
  0
LINE
  5
26BD
330
2F2D
100
AcDbEntity
  8
0
 62
     0
100
AcDbLine
 10
-7.247230449536798
 20
-321.4000000000015
 30
0.0
 11
45.2529036108408
 21
-286.4000000000014
 31
0.0
  0
LINE
  5
26BE
330
2F2D
100
AcDbEntity
  8
0
 62
     0
100
AcDbLine
 10
40.75294231695443
 20
-286.4000000000014
 30
0.0
 11
132.8999999999905
 21
-224.9687850778209
 31
0.0
  0
LINE
  5
26BF
330
2F2D
100
AcDbEntity
  8
0
 62
     0
100
AcDbLine
 10
-11.74719174342135
 20
-321.4000000000015
 30
0.0
 11
40.75294231695443
 21
-286.4000000000014
 31
0.0
  0
LINE
  5
26C0
330
2F2D
100
AcDbEntity
  8
0
 62
     0
100
AcDbLine
 10
36.25298102307353
 20
-286.4000000000014
 30
0.0
 11
132.8999999999905
 21
-221.9688185424075
 31
0.0
  0
LINE
  5
26C1
330
2F2D
100
AcDbEntity
  8
0
 62
     0
100
AcDbLine
 10
-16.24715303730409
 20
-321.4000000000015
 30
0.0
 11
36.25298102307353
 21
-286.4000000000014
 31
0.0
  0
LINE
  5
26C2
330
2F2D
100
AcDbEntity
  8
0
 62
     0
100
AcDbLine
 10
31.75301972918169
 20
-286.4000000000051
 30
0.0
 11
132.8999999999887
 21
-218.9688520069921
 31
0.0
  0
LINE
  5
26C3
330
2F2D
100
AcDbEntity
  8
0
 62
     0
100
AcDbLine
 10
-20.7471143311941
 20
-321.4000000000032
 30
0.0
 11
31.75301972918169
 21
-286.4000000000051
 31
0.0
  0
LINE
  5
26C4
330
2F2D
100
AcDbEntity
  8
0
 62
     0
100
AcDbLine
 10
27.25305843529895
 20
-286.4000000000014
 30
0.0
 11
132.8999999999887
 21
-215.9688854715752
 31
0.0
  0
LINE
  5
26C5
330
2F2D
100
AcDbEntity
  8
0
 62
     0
100
AcDbLine
 10
-25.24707562507865
 20
-321.4000000000032
 30
0.0
 11
27.25305843529895
 21
-286.4000000000014
 31
0.0
  0
LINE
  5
26C6
330
2F2D
100
AcDbEntity
  8
0
 62
     0
100
AcDbLine
 10
22.75309714141259
 20
-286.4000000000014
 30
0.0
 11
132.8999999999905
 21
-212.9689189361579
 31
0.0
  0
LINE
  5
26C7
330
2F2D
100
AcDbEntity
  8
0
 62
     0
100
AcDbLine
 10
-29.74703691896321
 20
-321.4000000000015
 30
0.0
 11
22.75309714141259
 21
-286.4000000000014
 31
0.0
  0
LINE
  5
26C8
330
2F2D
100
AcDbEntity
  8
0
 62
     0
100
AcDbLine
 10
18.25313584752985
 20
-286.3999999999996
 30
0.0
 11
132.8999999999887
 21
-209.9689524007408
 31
0.0
  0
LINE
  5
26C9
330
2F2D
100
AcDbEntity
  8
0
 62
     0
100
AcDbLine
 10
-34.24699821284777
 20
-321.3999999999996
 30
0.0
 11
18.25313584752985
 21
-286.3999999999996
 31
0.0
  0
LINE
  5
26CA
330
2F2D
100
AcDbEntity
  8
0
 62
     0
100
AcDbLine
 10
13.75317455363983
 20
-286.4000000000032
 30
0.0
 11
132.8999999999887
 21
-206.9689858653255
 31
0.0
  0
LINE
  5
26CB
330
2F2D
100
AcDbEntity
  8
0
 62
     0
100
AcDbLine
 10
-38.74695950673777
 20
-321.4000000000032
 30
0.0
 11
13.75317455363983
 21
-286.4000000000032
 31
0.0
  0
LINE
  5
26CC
330
2F2D
100
AcDbEntity
  8
0
 62
     0
100
AcDbLine
 10
9.253213259757103
 20
-286.4000000000014
 30
0.0
 11
132.8999999999887
 21
-203.969019329912
 31
0.0
  0
LINE
  5
26CD
330
2F2D
100
AcDbEntity
  8
0
 62
     0
100
AcDbLine
 10
-43.24692080062049
 20
-321.4000000000032
 30
0.0
 11
9.253213259757103
 21
-286.4000000000014
 31
0.0
  0
LINE
  5
26CE
330
2F2D
100
AcDbEntity
  8
0
 62
     0
100
AcDbLine
 10
4.753251965870728
 20
-286.4000000000014
 30
0.0
 11
132.8999999999887
 21
-200.9690527944931
 31
0.0
  0
LINE
  5
26CF
330
2F2D
100
AcDbEntity
  8
0
 62
     0
100
AcDbLine
 10
-47.74688209450685
 20
-321.4000000000032
 30
0.0
 11
4.753251965870728
 21
-286.4000000000014
 31
0.0
  0
LINE
  5
26D0
330
2F2D
100
AcDbEntity
  8
0
 62
     0
100
AcDbLine
 10
0.2532906719861785
 20
-286.3999999999996
 30
0.0
 11
132.8999999999887
 21
-197.969086259076
 31
0.0
  0
LINE
  5
26D1
330
2F2D
100
AcDbEntity
  8
0
 62
     0
100
AcDbLine
 10
-52.24684338839143
 20
-321.3999999999996
 30
0.0
 11
0.2532906719825405
 21
-286.4000000000014
 31
0.0
  0
LINE
  5
26D2
330
2F2D
100
AcDbEntity
  8
0
 62
     0
100
AcDbLine
 10
-4.246670621900189
 20
-286.4000000000014
 30
0.0
 11
132.8999999999887
 21
-194.9691197236607
 31
0.0
  0
LINE
  5
26D3
330
2F2D
100
AcDbEntity
  8
0
 62
     0
100
AcDbLine
 10
-56.74680468227778
 20
-321.4000000000015
 30
0.0
 11
-4.246670621900189
 21
-286.4000000000014
 31
0.0
  0
LINE
  5
26D4
330
2F2D
100
AcDbEntity
  8
0
 62
     0
100
AcDbLine
 10
-8.746631915784744
 20
-286.4000000000032
 30
0.0
 11
132.8999999999905
 21
-191.9691531882454
 31
0.0
  0
LINE
  5
26D5
330
2F2D
100
AcDbEntity
  8
0
 62
     0
100
AcDbLine
 10
-61.24676597616235
 20
-321.4000000000032
 30
0.0
 11
-8.746631915784744
 21
-286.4000000000032
 31
0.0
  0
LINE
  5
26D6
330
2F2D
100
AcDbEntity
  8
0
 62
     0
100
AcDbLine
 10
-13.2465932096693
 20
-286.3999999999996
 30
0.0
 11
132.8999999999887
 21
-188.96918665283
 31
0.0
  0
LINE
  5
26D7
330
2F2D
100
AcDbEntity
  8
0
 62
     0
100
AcDbLine
 10
-65.7467272700469
 20
-321.4000000000015
 30
0.0
 11
-13.2465932096693
 21
-286.3999999999996
 31
0.0
  0
LINE
  5
26D8
330
2F2D
100
AcDbEntity
  8
0
 62
     0
100
AcDbLine
 10
-17.74655450355931
 20
-286.4000000000014
 30
0.0
 11
132.8999999999923
 21
-185.9692201174093
 31
0.0
  0
LINE
  5
26D9
330
2F2D
100
AcDbEntity
  8
0
 62
     0
100
AcDbLine
 10
-70.24668856393327
 20
-321.4000000000015
 30
0.0
 11
-17.74655450355931
 21
-286.4000000000014
 31
0.0
  0
LINE
  5
26DA
330
2F2D
100
AcDbEntity
  8
0
 62
     0
100
AcDbLine
 10
-22.24651579744204
 20
-286.4000000000014
 30
0.0
 11
132.8999999999942
 21
-182.969253581994
 31
0.0
  0
LINE
  5
26DB
330
2F2D
100
AcDbEntity
  8
0
 62
     0
100
AcDbLine
 10
-74.74664985781784
 20
-321.4000000000015
 30
0.0
 11
-22.24651579744204
 21
-286.4000000000014
 31
0.0
  0
LINE
  5
26DC
330
2F2D
100
AcDbEntity
  8
0
 62
     0
100
AcDbLine
 10
-26.74647709132841
 20
-286.4000000000032
 30
0.0
 11
132.8999999999923
 21
-179.9692870465787
 31
0.0
  0
LINE
  5
26DD
330
2F2D
100
AcDbEntity
  8
0
 62
     0
100
AcDbLine
 10
-79.24661115170602
 20
-321.4000000000032
 30
0.0
 11
-26.74647709132841
 21
-286.4000000000032
 31
0.0
  0
LINE
  5
26DE
330
2F2D
100
AcDbEntity
  8
0
 62
     0
100
AcDbLine
 10
-31.24643838521297
 20
-286.4000000000014
 30
0.0
 11
132.8999999999923
 21
-176.9693205111616
 31
0.0
  0
LINE
  5
26DF
330
2F2D
100
AcDbEntity
  8
0
 62
     0
100
AcDbLine
 10
-83.74657244559058
 20
-321.4000000000015
 30
0.0
 11
-31.24643838521297
 21
-286.4000000000014
 31
0.0
  0
LINE
  5
26E0
330
2F2D
100
AcDbEntity
  8
0
 62
     0
100
AcDbLine
 10
-35.74639967910116
 20
-286.4000000000032
 30
0.0
 11
132.8999999999923
 21
-173.9693539757445
 31
0.0
  0
LINE
  5
26E1
330
2F2D
100
AcDbEntity
  8
0
 62
     0
100
AcDbLine
 10
-88.24653373947873
 20
-321.4000000000032
 30
0.0
 11
-35.74639967910116
 21
-286.4000000000032
 31
0.0
  0
LINE
  5
26E2
330
2F2D
100
AcDbEntity
  8
0
 62
     0
100
AcDbLine
 10
-40.24636097298389
 20
-286.3999999999996
 30
0.0
 11
132.8999999999942
 21
-170.9693874403274
 31
0.0
  0
LINE
  5
26E3
330
2F2D
100
AcDbEntity
  8
0
 62
     0
100
AcDbLine
 10
-92.74649503335968
 20
-321.4000000000015
 30
0.0
 11
-40.24636097298389
 21
-286.3999999999996
 31
0.0
  0
LINE
  5
26E4
330
2F2D
100
AcDbEntity
  8
0
 62
     0
100
AcDbLine
 10
-44.74632226687027
 20
-286.4000000000014
 30
0.0
 11
132.8999999999923
 21
-167.9694209049139
 31
0.0
  0
LINE
  5
26E5
330
2F2D
100
AcDbEntity
  8
0
 62
     0
100
AcDbLine
 10
-97.24645632724785
 20
-321.4000000000015
 30
0.0
 11
-44.74632226687027
 21
-286.4000000000014
 31
0.0
  0
LINE
  5
26E6
330
2F2D
100
AcDbEntity
  8
0
 62
     0
100
AcDbLine
 10
-49.24628356075483
 20
-286.4000000000014
 30
0.0
 11
132.8999999999923
 21
-164.9694543694968
 31
0.0
  0
LINE
  5
26E7
330
2F2D
100
AcDbEntity
  8
0
 62
     0
100
AcDbLine
 10
-101.7464176211324
 20
-321.4000000000015
 30
0.0
 11
-49.24628356075665
 21
-286.4000000000032
 31
0.0
  0
LINE
  5
26E8
330
2F2D
100
AcDbEntity
  8
0
 62
     0
100
AcDbLine
 10
-53.74624485463936
 20
-286.4000000000014
 30
0.0
 11
132.899999999996
 21
-161.9694878340796
 31
0.0
  0
LINE
  5
26E9
330
2F2D
100
AcDbEntity
  8
0
 62
     0
100
AcDbLine
 10
-106.246378915017
 20
-321.4000000000015
 30
0.0
 11
-53.74624485463936
 21
-286.4000000000014
 31
0.0
  0
LINE
  5
26EA
330
2F2D
100
AcDbEntity
  8
0
 62
     0
100
AcDbLine
 10
-58.24620614852574
 20
-286.3999999999996
 30
0.0
 11
132.8999999999923
 21
-158.9695212986626
 31
0.0
  0
LINE
  5
26EB
330
2F2D
100
AcDbEntity
  8
0
 62
     0
100
AcDbLine
 10
-110.7463402089033
 20
-321.4000000000015
 30
0.0
 11
-58.24620614852574
 21
-286.3999999999996
 31
0.0
  0
LINE
  5
26EC
330
2F2D
100
AcDbEntity
  8
0
 62
     0
100
AcDbLine
 10
-62.74616744241029
 20
-286.3999999999996
 30
0.0
 11
132.8999999999905
 21
-155.9695547632491
 31
0.0
  0
LINE
  5
26ED
330
2F2D
100
AcDbEntity
  8
0
 62
     0
100
AcDbLine
 10
-115.2463015027879
 20
-321.4000000000015
 30
0.0
 11
-62.74616744241029
 21
-286.3999999999996
 31
0.0
  0
LINE
  5
26EE
330
2F2D
100
AcDbEntity
  8
0
 62
     0
100
AcDbLine
 10
-67.24612873629846
 20
-286.4000000000032
 30
0.0
 11
132.8999999999923
 21
-152.9695882278338
 31
0.0
  0
LINE
  5
26EF
330
2F2D
100
AcDbEntity
  8
0
 62
     0
100
AcDbLine
 10
-119.7462627966743
 20
-321.4000000000015
 30
0.0
 11
-67.24612873629846
 21
-286.4000000000032
 31
0.0
  0
LINE
  5
26F0
330
2F2D
100
AcDbEntity
  8
0
 62
     0
100
AcDbLine
 10
-71.74609003018305
 20
-286.4000000000014
 30
0.0
 11
132.8999999999942
 21
-149.9696216924149
 31
0.0
  0
LINE
  5
26F1
330
2F2D
100
AcDbEntity
  8
0
 62
     0
100
AcDbLine
 10
-124.2462240905606
 20
-321.4000000000015
 30
0.0
 11
-71.74609003018305
 21
-286.4000000000014
 31
0.0
  0
LINE
  5
26F2
330
2F2D
100
AcDbEntity
  8
0
 62
     0
100
AcDbLine
 10
-76.2460513240694
 20
-286.4000000000014
 30
0.0
 11
132.8999999999905
 21
-146.9696551569994
 31
0.0
  0
LINE
  5
26F3
330
2F2D
100
AcDbEntity
  8
0
 62
     0
100
AcDbLine
 10
-128.746185384447
 20
-321.4000000000015
 30
0.0
 11
-76.2460513240694
 21
-286.4000000000014
 31
0.0
  0
LINE
  5
26F4
330
2F2D
100
AcDbEntity
  8
0
 62
     0
100
AcDbLine
 10
-80.74601261795214
 20
-286.3999999999996
 30
0.0
 11
132.8999999999923
 21
-143.9696886215824
 31
0.0
  0
LINE
  5
26F5
330
2F2D
100
AcDbEntity
  8
0
 62
     0
100
AcDbLine
 10
-132.9000000000142
 20
-321.1692361370533
 30
0.0
 11
-80.74601261795214
 21
-286.3999999999996
 31
0.0
  0
LINE
  5
26F6
330
2F2D
100
AcDbEntity
  8
0
 62
     0
100
AcDbLine
 10
-82.90000000000324
 20
-284.8360213857814
 30
0.0
 11
132.8999999999923
 21
-140.969722086169
 31
0.0
  0
LINE
  5
26F7
330
2F2D
100
AcDbEntity
  8
0
 62
     0
100
AcDbLine
 10
-132.9000000000123
 20
-318.1692696016362
 30
0.0
 11
-82.90000000000324
 21
-284.8360213857814
 31
0.0
  0
LINE
  5
26F8
330
2F2D
100
AcDbEntity
  8
0
 62
     0
100
AcDbLine
 10
-82.9000000000069
 20
-281.8360548503642
 30
0.0
 11
132.8999999999923
 21
-137.9697555507519
 31
0.0
  0
LINE
  5
26F9
330
2F2D
100
AcDbEntity
  8
0
 62
     0
100
AcDbLine
 10
-132.9000000000142
 20
-315.1693030662209
 30
0.0
 11
-82.9000000000069
 21
-281.8360548503642
 31
0.0
  0
LINE
  5
26FA
330
2F2D
100
AcDbEntity
  8
0
 62
     0
100
AcDbLine
 10
-82.90000000000508
 20
-278.8360883149471
 30
0.0
 11
132.8999999999905
 21
-134.9697890153347
 31
0.0
  0
LINE
  5
26FB
330
2F2D
100
AcDbEntity
  8
0
 62
     0
100
AcDbLine
 10
-132.9000000000142
 20
-312.1693365308038
 30
0.0
 11
-82.90000000000508
 21
-278.8360883149471
 31
0.0
  0
LINE
  5
26FC
330
2F2D
100
AcDbEntity
  8
0
 62
     0
100
AcDbLine
 10
-82.9000000000069
 20
-275.83612177953
 30
0.0
 11
132.8999999999923
 21
-131.9698224799176
 31
0.0
  0
LINE
  5
26FD
330
2F2D
100
AcDbEntity
  8
0
 62
     0
100
AcDbLine
 10
-132.9000000000142
 20
-309.1693699953867
 30
0.0
 11
-82.9000000000069
 21
-275.83612177953
 31
0.0
  0
LINE
  5
26FE
330
2F2D
100
AcDbEntity
  8
0
 62
     0
100
AcDbLine
 10
-82.90000000000508
 20
-272.8361552441147
 30
0.0
 11
132.8999999999942
 21
-128.9698559445005
 31
0.0
  0
LINE
  5
26FF
330
2F2D
100
AcDbEntity
  8
0
 62
     0
100
AcDbLine
 10
-132.9000000000142
 20
-306.1694034599714
 30
0.0
 11
-82.90000000000508
 21
-272.8361552441147
 31
0.0
  0
LINE
  5
2700
330
2F2D
100
AcDbEntity
  8
0
 62
     0
100
AcDbLine
 10
-82.90000000000873
 20
-269.8361887087012
 30
0.0
 11
132.8999999999905
 21
-125.969889409087
 31
0.0
  0
LINE
  5
2701
330
2F2D
100
AcDbEntity
  8
0
 62
     0
100
AcDbLine
 10
-132.900000000016
 20
-303.1694369245561
 30
0.0
 11
-82.90000000000873
 21
-269.8361887087012
 31
0.0
  0
LINE
  5
2702
330
2F2D
100
AcDbEntity
  8
0
 62
     0
100
AcDbLine
 10
-82.90000000000508
 20
-266.8362221732823
 30
0.0
 11
132.8999999999942
 21
-122.9699228736681
 31
0.0
  0
LINE
  5
2703
330
2F2D
100
AcDbEntity
  8
0
 62
     0
100
AcDbLine
 10
-132.9000000000142
 20
-300.169470389139
 30
0.0
 11
-82.90000000000508
 21
-266.8362221732823
 31
0.0
  0
LINE
  5
2704
330
2F2D
100
AcDbEntity
  8
0
 62
     0
100
AcDbLine
 10
-82.90000000000324
 20
-263.8362556378652
 30
0.0
 11
132.8999999999923
 21
-119.9699563382528
 31
0.0
  0
LINE
  5
2705
330
2F2D
100
AcDbEntity
  8
0
 62
     0
100
AcDbLine
 10
-132.9000000000142
 20
-297.1695038537236
 30
0.0
 11
-82.90000000000324
 21
-263.8362556378652
 31
0.0
  0
LINE
  5
2706
330
2F2D
100
AcDbEntity
  8
0
 62
     0
100
AcDbLine
 10
-82.90000000000508
 20
-260.8362891024499
 30
0.0
 11
132.8999999999942
 21
-116.9699898028375
 31
0.0
  0
LINE
  5
2707
330
2F2D
100
AcDbEntity
  8
0
 62
     0
100
AcDbLine
 10
-132.9000000000142
 20
-294.1695373183065
 30
0.0
 11
-82.90000000000508
 21
-260.8362891024499
 31
0.0
  0
LINE
  5
2708
330
2F2D
100
AcDbEntity
  8
0
 62
     0
100
AcDbLine
 10
-82.90000000000508
 20
-257.8363225670346
 30
0.0
 11
132.8999999999905
 21
-113.9700232674222
 31
0.0
  0
LINE
  5
2709
330
2F2D
100
AcDbEntity
  8
0
 62
     0
100
AcDbLine
 10
-132.9000000000123
 20
-291.1695707828912
 30
0.0
 11
-82.90000000000508
 21
-257.8363225670346
 31
0.0
  0
LINE
  5
270A
330
2F2D
100
AcDbEntity
  8
0
 62
     0
100
AcDbLine
 10
-82.90000000000508
 20
-254.8363560316193
 30
0.0
 11
132.8999999999942
 21
-110.9700567320051
 31
0.0
  0
LINE
  5
270B
330
2F2D
100
AcDbEntity
  8
0
 62
     0
100
AcDbLine
 10
-132.9000000000142
 20
-288.1696042474741
 30
0.0
 11
-82.90000000000508
 21
-254.8363560316193
 31
0.0
  0
LINE
  5
270C
330
2F2D
100
AcDbEntity
  8
0
 62
     0
100
AcDbLine
 10
-82.90000000000508
 20
-251.8363894962003
 30
0.0
 11
132.8999999999942
 21
-107.9700901965861
 31
0.0
  0
LINE
  5
270D
330
2F2D
100
AcDbEntity
  8
0
 62
     0
100
AcDbLine
 10
-132.9000000000123
 20
-285.169637712057
 30
0.0
 11
-82.90000000000508
 21
-251.8363894962003
 31
0.0
  0
LINE
  5
270E
330
2F2D
100
AcDbEntity
  8
0
 62
     0
100
AcDbLine
 10
-82.9000000000069
 20
-248.8364229607869
 30
0.0
 11
132.8999999999923
 21
-104.9701236611727
 31
0.0
  0
LINE
  5
270F
330
2F2D
100
AcDbEntity
  8
0
 62
     0
100
AcDbLine
 10
-132.900000000016
 20
-282.1696711766435
 30
0.0
 11
-82.9000000000069
 21
-248.8364229607869
 31
0.0
  0
LINE
  5
2710
330
2F2D
100
AcDbEntity
  8
0
 62
     0
100
AcDbLine
 10
-82.90000000000508
 20
-245.8364564253697
 30
0.0
 11
132.8999999999942
 21
-101.9701571257574
 31
0.0
  0
LINE
  5
2711
330
2F2D
100
AcDbEntity
  8
0
 62
     0
100
AcDbLine
 10
-132.9000000000123
 20
-279.1697046412264
 30
0.0
 11
-82.90000000000508
 21
-245.8364564253697
 31
0.0
  0
LINE
  5
2712
330
2F2D
100
AcDbEntity
  8
0
 62
     0
100
AcDbLine
 10
-82.90000000000508
 20
-242.8364898899545
 30
0.0
 11
132.8999999999942
 21
-98.97019059034029
 31
0.0
  0
LINE
  5
2713
330
2F2D
100
AcDbEntity
  8
0
 62
     0
100
AcDbLine
 10
-132.9000000000142
 20
-276.1697381058111
 30
0.0
 11
-82.90000000000508
 21
-242.8364898899545
 31
0.0
  0
LINE
  5
2714
330
2F2D
100
AcDbEntity
  8
0
 62
     0
100
AcDbLine
 10
-82.9000000000069
 20
-239.8365233545373
 30
0.0
 11
132.8999999999923
 21
-95.97022405492316
 31
0.0
  0
LINE
  5
2715
330
2F2D
100
AcDbEntity
  8
0
 62
     0
100
AcDbLine
 10
-132.9000000000142
 20
-273.1697715703921
 30
0.0
 11
-82.9000000000069
 21
-239.8365233545373
 31
0.0
  0
LINE
  5
2716
330
2F2D
100
AcDbEntity
  8
0
 62
     0
100
AcDbLine
 10
-82.90000000000508
 20
-236.8365568191184
 30
0.0
 11
132.8999999999923
 21
-92.97025751950604
 31
0.0
  0
LINE
  5
2717
330
2F2D
100
AcDbEntity
  8
0
 62
     0
100
AcDbLine
 10
-132.900000000016
 20
-270.1698050349769
 30
0.0
 11
-82.90000000000873
 21
-236.8365568191202
 31
0.0
  0
LINE
  5
2718
330
2F2D
100
AcDbEntity
  8
0
 62
     0
100
AcDbLine
 10
-82.90000000000508
 20
-233.836590283705
 30
0.0
 11
128.9554264035632
 21
-92.60000000000221
 31
0.0
  0
LINE
  5
2719
330
2F2D
100
AcDbEntity
  8
0
 62
     0
100
AcDbLine
 10
-132.9000000000123
 20
-267.1698384995616
 30
0.0
 11
-82.90000000000508
 21
-233.836590283705
 31
0.0
  0
LINE
  5
271A
330
2F2D
100
AcDbEntity
  8
0
 62
     0
100
AcDbLine
 10
-82.90000000000508
 20
-230.8366237482877
 30
0.0
 11
124.4554651096787
 21
-92.60000000000037
 31
0.0
  0
LINE
  5
271B
330
2F2D
100
AcDbEntity
  8
0
 62
     0
100
AcDbLine
 10
-132.9000000000123
 20
-264.1698719641445
 30
0.0
 11
-82.90000000000508
 21
-230.8366237482877
 31
0.0
  0
LINE
  5
271C
330
2F2D
100
AcDbEntity
  8
0
 62
     0
100
AcDbLine
 10
-82.9000000000069
 20
-227.8366572128725
 30
0.0
 11
119.9555038157923
 21
-92.60000000000037
 31
0.0
  0
LINE
  5
271D
330
2F2D
100
AcDbEntity
  8
0
 62
     0
100
AcDbLine
 10
-132.9000000000142
 20
-261.1699054287292
 30
0.0
 11
-82.9000000000069
 21
-227.8366572128725
 31
0.0
  0
LINE
  5
271E
330
2F2D
100
AcDbEntity
  8
0
 62
     0
100
AcDbLine
 10
-82.90000000000508
 20
-224.8366906774536
 30
0.0
 11
115.4555425219059
 21
-92.60000000000037
 31
0.0
  0
LINE
  5
271F
330
2F2D
100
AcDbEntity
  8
0
 62
     0
100
AcDbLine
 10
-132.9000000000123
 20
-258.1699388933103
 30
0.0
 11
-82.90000000000508
 21
-224.8366906774536
 31
0.0
  0
LINE
  5
2720
330
2F2D
100
AcDbEntity
  8
0
 62
     0
100
AcDbLine
 10
-82.9000000000069
 20
-221.8367241420401
 30
0.0
 11
110.9555812280232
 21
-92.60000000000037
 31
0.0
  0
LINE
  5
2721
330
2F2D
100
AcDbEntity
  8
0
 62
     0
100
AcDbLine
 10
-132.9000000000142
 20
-255.1699723578968
 30
0.0
 11
-82.9000000000069
 21
-221.8367241420401
 31
0.0
  0
LINE
  5
2722
330
2F2D
100
AcDbEntity
  8
0
 62
     0
100
AcDbLine
 10
-82.9000000000069
 20
-218.8367576066248
 30
0.0
 11
106.455619934135
 21
-92.60000000000221
 31
0.0
  0
LINE
  5
2723
330
2F2D
100
AcDbEntity
  8
0
 62
     0
100
AcDbLine
 10
-132.9000000000142
 20
-252.1700058224815
 30
0.0
 11
-82.9000000000069
 21
-218.8367576066248
 31
0.0
  0
LINE
  5
2724
330
2F2D
100
AcDbEntity
  8
0
 62
     0
100
AcDbLine
 10
-82.9000000000069
 20
-215.8367910712077
 30
0.0
 11
101.9556586402504
 21
-92.60000000000037
 31
0.0
  0
LINE
  5
2725
330
2F2D
100
AcDbEntity
  8
0
 62
     0
100
AcDbLine
 10
-132.9000000000142
 20
-249.1700392870644
 30
0.0
 11
-82.9000000000069
 21
-215.8367910712077
 31
0.0
  0
LINE
  5
2726
330
2F2D
100
AcDbEntity
  8
0
 62
     0
100
AcDbLine
 10
-82.90000000000508
 20
-212.8368245357906
 30
0.0
 11
97.45569734636411
 21
-92.60000000000037
 31
0.0
  0
LINE
  5
2727
330
2F2D
100
AcDbEntity
  8
0
 62
     0
100
AcDbLine
 10
-132.9000000000123
 20
-246.1700727516472
 30
0.0
 11
-82.90000000000508
 21
-212.8368245357906
 31
0.0
  0
LINE
  5
2728
330
2F2D
100
AcDbEntity
  8
0
 62
     0
100
AcDbLine
 10
-82.90000000000508
 20
-209.8368580003735
 30
0.0
 11
92.95573605248137
 21
-92.60000000000037
 31
0.0
  0
LINE
  5
2729
330
2F2D
100
AcDbEntity
  8
0
 62
     0
100
AcDbLine
 10
-132.9000000000123
 20
-243.1701062162301
 30
0.0
 11
-82.90000000000508
 21
-209.8368580003735
 31
0.0
  0
LINE
  5
272A
330
2F2D
100
AcDbEntity
  8
0
 62
     0
100
AcDbLine
 10
-82.9000000000069
 20
-206.83689146496
 30
0.0
 11
88.45577475859135
 21
-92.60000000000401
 31
0.0
  0
LINE
  5
272B
330
2F2D
100
AcDbEntity
  8
0
 62
     0
100
AcDbLine
 10
-132.9000000000142
 20
-240.1701396808165
 30
0.0
 11
-82.9000000000069
 21
-206.83689146496
 31
0.0
  0
LINE
  5
272C
330
2F2D
100
AcDbEntity
  8
0
 62
     0
100
AcDbLine
 10
-82.90000000000508
 20
-203.8369249295429
 30
0.0
 11
83.95581346470862
 21
-92.60000000000221
 31
0.0
  0
LINE
  5
272D
330
2F2D
100
AcDbEntity
  8
0
 62
     0
100
AcDbLine
 10
-132.9000000000123
 20
-237.1701731453977
 30
0.0
 11
-82.90000000000508
 21
-203.8369249295429
 31
0.0
  0
LINE
  5
272E
330
2F2D
100
AcDbEntity
  8
0
 62
     0
100
AcDbLine
 10
-82.9000000000069
 20
-200.8369583941258
 30
0.0
 11
79.45585217082044
 21
-92.60000000000037
 31
0.0
  0
LINE
  5
272F
330
2F2D
100
AcDbEntity
  8
0
 62
     0
100
AcDbLine
 10
-132.9000000000142
 20
-234.1702066099824
 30
0.0
 11
-82.9000000000069
 21
-200.8369583941258
 31
0.0
  0
LINE
  5
2730
330
2F2D
100
AcDbEntity
  8
0
 62
     0
100
AcDbLine
 10
-82.9000000000069
 20
-197.8369918587086
 30
0.0
 11
74.9558908769377
 21
-92.59999999999854
 31
0.0
  0
LINE
  5
2731
330
2F2D
100
AcDbEntity
  8
0
 62
     0
100
AcDbLine
 10
-132.9000000000142
 20
-231.1702400745653
 30
0.0
 11
-82.9000000000069
 21
-197.8369918587086
 31
0.0
  0
LINE
  5
2732
330
2F2D
100
AcDbEntity
  8
0
 62
     0
100
AcDbLine
 10
-82.9000000000069
 20
-194.8370253232951
 30
0.0
 11
70.45592958304951
 21
-92.60000000000221
 31
0.0
  0
LINE
  5
2733
330
2F2D
100
AcDbEntity
  8
0
 62
     0
100
AcDbLine
 10
-132.9000000000142
 20
-228.17027353915
 30
0.0
 11
-82.9000000000069
 21
-194.8370253232951
 31
0.0
  0
LINE
  5
2734
330
2F2D
100
AcDbEntity
  8
0
 62
     0
100
AcDbLine
 10
-82.90000000000508
 20
-191.837058787878
 30
0.0
 11
65.95596828916679
 21
-92.60000000000221
 31
0.0
  0
LINE
  5
2735
330
2F2D
100
AcDbEntity
  8
0
 62
     0
100
AcDbLine
 10
-132.9000000000123
 20
-225.1703070037347
 30
0.0
 11
-82.90000000000508
 21
-191.837058787878
 31
0.0
  0
LINE
  5
2736
330
2F2D
100
AcDbEntity
  8
0
 62
     0
100
AcDbLine
 10
-82.90000000000324
 20
-188.8370922524608
 30
0.0
 11
61.45600699527857
 21
-92.60000000000221
 31
0.0
  0
LINE
  5
2737
330
2F2D
100
AcDbEntity
  8
0
 62
     0
100
AcDbLine
 10
-132.9000000000123
 20
-222.1703404683158
 30
0.0
 11
-82.90000000000324
 21
-188.8370922524608
 31
0.0
  0
LINE
  5
2738
330
2F2D
100
AcDbEntity
  8
0
 62
     0
100
AcDbLine
 10
-82.9000000000069
 20
-185.8371257170436
 30
0.0
 11
56.95604570139586
 21
-92.59999999999854
 31
0.0
  0
LINE
  5
2739
330
2F2D
100
AcDbEntity
  8
0
 62
     0
100
AcDbLine
 10
-132.9000000000142
 20
-219.1703739329005
 30
0.0
 11
-82.9000000000069
 21
-185.8371257170436
 31
0.0
  0
LINE
  5
273A
330
2F2D
100
AcDbEntity
  8
0
 62
     0
100
AcDbLine
 10
-82.90000000000324
 20
-182.8371591816284
 30
0.0
 11
52.45608440750948
 21
-92.60000000000037
 31
0.0
  0
LINE
  5
273B
330
2F2D
100
AcDbEntity
  8
0
 62
     0
100
AcDbLine
 10
-132.9000000000123
 20
-216.1704073974852
 30
0.0
 11
-82.9000000000069
 21
-182.8371591816303
 31
0.0
  0
LINE
  5
273C
330
2F2D
100
AcDbEntity
  8
0
 62
     0
100
AcDbLine
 10
-82.9000000000069
 20
-179.8371926462132
 30
0.0
 11
47.95612311362311
 21
-92.60000000000221
 31
0.0
  0
LINE
  5
273D
330
2F2D
100
AcDbEntity
  8
0
 62
     0
100
AcDbLine
 10
-132.9000000000142
 20
-213.1704408620699
 30
0.0
 11
-82.9000000000069
 21
-179.8371926462132
 31
0.0
  0
LINE
  5
273E
330
2F2D
100
AcDbEntity
  8
0
 62
     0
100
AcDbLine
 10
-82.90000000000508
 20
-176.8372261107961
 30
0.0
 11
43.45616181973855
 21
-92.60000000000037
 31
0.0
  0
LINE
  5
273F
330
2F2D
100
AcDbEntity
  8
0
 62
     0
100
AcDbLine
 10
-132.9000000000142
 20
-210.1704743266528
 30
0.0
 11
-82.90000000000508
 21
-176.8372261107961
 31
0.0
  0
LINE
  5
2740
330
2F2D
100
AcDbEntity
  8
0
 62
     0
100
AcDbLine
 10
-82.9000000000069
 20
-173.8372595753808
 30
0.0
 11
38.95620052585036
 21
-92.60000000000221
 31
0.0
  0
LINE
  5
2741
330
2F2D
100
AcDbEntity
  8
0
 62
     0
100
AcDbLine
 10
-132.9000000000105
 20
-207.1705077912338
 30
0.0
 11
-82.9000000000069
 21
-173.8372595753808
 31
0.0
  0
LINE
  5
2742
330
2F2D
100
AcDbEntity
  8
0
 62
     0
100
AcDbLine
 10
-82.90000000000324
 20
-170.8372930399637
 30
0.0
 11
34.45623923196763
 21
-92.60000000000037
 31
0.0
  0
LINE
  5
2743
330
2F2D
100
AcDbEntity
  8
0
 62
     0
100
AcDbLine
 10
-132.9000000000087
 20
-204.1705412558185
 30
0.0
 11
-82.90000000000324
 21
-170.8372930399637
 31
0.0
  0
LINE
  5
2744
330
2F2D
100
AcDbEntity
  8
0
 62
     0
100
AcDbLine
 10
-82.90000000000873
 20
-167.8373265045502
 30
0.0
 11
29.95627793807944
 21
-92.60000000000221
 31
0.0
  0
LINE
  5
2745
330
2F2D
100
AcDbEntity
  8
0
 62
     0
100
AcDbLine
 10
-132.9000000000123
 20
-201.1705747204051
 30
0.0
 11
-82.90000000000873
 21
-167.8373265045502
 31
0.0
  0
LINE
  5
2746
330
2F2D
100
AcDbEntity
  8
0
 62
     0
100
AcDbLine
 10
-82.90000000000508
 20
-164.8373599691313
 30
0.0
 11
25.45631664419671
 21
-92.60000000000037
 31
0.0
  0
LINE
  5
2747
330
2F2D
100
AcDbEntity
  8
0
 62
     0
100
AcDbLine
 10
-132.9000000000105
 20
-198.170608184986
 30
0.0
 11
-82.90000000000508
 21
-164.8373599691313
 31
0.0
  0
LINE
  5
2748
330
2F2D
100
AcDbEntity
  8
0
 62
     0
100
AcDbLine
 10
-82.9000000000069
 20
-161.837393433716
 30
0.0
 11
20.95635535030851
 21
-92.60000000000221
 31
0.0
  0
LINE
  5
2749
330
2F2D
100
AcDbEntity
  8
0
 62
     0
100
AcDbLine
 10
-132.9000000000087
 20
-195.170641649569
 30
0.0
 11
-82.9000000000069
 21
-161.837393433716
 31
0.0
  0
LINE
  5
274A
330
2F2D
100
AcDbEntity
  8
0
 62
     0
100
AcDbLine
 10
-82.90000000000508
 20
-158.8374268982988
 30
0.0
 11
16.45639405642396
 21
-92.60000000000037
 31
0.0
  0
LINE
  5
274B
330
2F2D
100
AcDbEntity
  8
0
 62
     0
100
AcDbLine
 10
-132.9000000000105
 20
-192.1706751141519
 30
0.0
 11
-82.90000000000508
 21
-158.8374268982988
 31
0.0
  0
LINE
  5
274C
330
2F2D
100
AcDbEntity
  8
0
 62
     0
100
AcDbLine
 10
-82.90000000000508
 20
-155.8374603628817
 30
0.0
 11
11.95643276253758
 21
-92.60000000000037
 31
0.0
  0
LINE
  5
274D
330
2F2D
100
AcDbEntity
  8
0
 62
     0
100
AcDbLine
 10
-132.9000000000105
 20
-189.1707085787364
 30
0.0
 11
-82.90000000000508
 21
-155.8374603628817
 31
0.0
  0
LINE
  5
274E
330
2F2D
100
AcDbEntity
  8
0
 62
     0
100
AcDbLine
 10
-82.90000000000508
 20
-152.8374938274683
 30
0.0
 11
7.456471468653035
 21
-92.60000000000221
 31
0.0
  0
LINE
  5
274F
330
2F2D
100
AcDbEntity
  8
0
 62
     0
100
AcDbLine
 10
-132.9000000000105
 20
-186.1707420433231
 30
0.0
 11
-82.90000000000508
 21
-152.8374938274683
 31
0.0
  0
LINE
  5
2750
330
2F2D
100
AcDbEntity
  8
0
 62
     0
100
AcDbLine
 10
-82.90000000000508
 20
-149.8375272920493
 30
0.0
 11
2.956510174768482
 21
-92.60000000000037
 31
0.0
  0
LINE
  5
2751
330
2F2D
100
AcDbEntity
  8
0
 62
     0
100
AcDbLine
 10
-132.9000000000105
 20
-183.1707755079042
 30
0.0
 11
-82.90000000000508
 21
-149.8375272920493
 31
0.0
  0
LINE
  5
2752
330
2F2D
100
AcDbEntity
  8
0
 62
     0
100
AcDbLine
 10
-82.9000000000069
 20
-146.837560756634
 30
0.0
 11
-1.543451119119708
 21
-92.60000000000037
 31
0.0
  0
LINE
  5
2753
330
2F2D
100
AcDbEntity
  8
0
 62
     0
100
AcDbLine
 10
-132.9000000000123
 20
-180.1708089724888
 30
0.0
 11
-82.9000000000069
 21
-146.837560756634
 31
0.0
  0
LINE
  5
2754
330
2F2D
100
AcDbEntity
  8
0
 62
     0
100
AcDbLine
 10
-82.90000000000508
 20
-143.8375942212187
 30
0.0
 11
-6.043412413000622
 21
-92.60000000000037
 31
0.0
  0
LINE
  5
2755
330
2F2D
100
AcDbEntity
  8
0
 62
     0
100
AcDbLine
 10
-132.9000000000105
 20
-177.1708424370717
 30
0.0
 11
-82.90000000000508
 21
-143.8375942212187
 31
0.0
  0
LINE
  5
2756
330
2F2D
100
AcDbEntity
  8
0
 62
     0
100
AcDbLine
 10
-82.90000000000508
 20
-140.8376276858034
 30
0.0
 11
-10.54337370688881
 21
-92.60000000000221
 31
0.0
  0
LINE
  5
2757
330
2F2D
100
AcDbEntity
  8
0
 62
     0
100
AcDbLine
 10
-132.9000000000069
 20
-174.1708759016565
 30
0.0
 11
-82.90000000000508
 21
-140.8376276858034
 31
0.0
  0
LINE
  5
2758
330
2F2D
100
AcDbEntity
  8
0
 62
     0
100
AcDbLine
 10
-82.90000000000508
 20
-137.8376611503863
 30
0.0
 11
-15.04333500077336
 21
-92.60000000000037
 31
0.0
  0
LINE
  5
2759
330
2F2D
100
AcDbEntity
  8
0
 62
     0
100
AcDbLine
 10
-132.9000000000105
 20
-171.1709093662393
 30
0.0
 11
-82.90000000000508
 21
-137.8376611503863
 31
0.0
  0
LINE
  5
275A
330
2F2D
100
AcDbEntity
  8
0
 62
     0
100
AcDbLine
 10
-82.90000000000508
 20
-134.8376946149674
 30
0.0
 11
-19.54329629466156
 21
-92.60000000000037
 31
0.0
  0
LINE
  5
275B
330
2F2D
100
AcDbEntity
  8
0
 62
     0
100
AcDbLine
 10
-132.9000000000087
 20
-168.1709428308222
 30
0.0
 11
-82.90000000000508
 21
-134.8376946149674
 31
0.0
  0
LINE
  5
275C
330
2F2D
100
AcDbEntity
  8
0
 62
     0
100
AcDbLine
 10
-82.90000000000508
 20
-131.8377280795539
 30
0.0
 11
-24.04325758854611
 21
-92.60000000000221
 31
0.0
  0
LINE
  5
275D
330
2F2D
100
AcDbEntity
  8
0
 62
     0
100
AcDbLine
 10
-132.9000000000105
 20
-165.1709762954087
 30
0.0
 11
-82.90000000000508
 21
-131.8377280795539
 31
0.0
  0
LINE
  5
275E
330
2F2D
100
AcDbEntity
  8
0
 62
     0
100
AcDbLine
 10
-82.90000000000508
 20
-128.8377615441386
 30
0.0
 11
-28.54321888243248
 21
-92.60000000000401
 31
0.0
  0
LINE
  5
275F
330
2F2D
100
AcDbEntity
  8
0
 62
     0
100
AcDbLine
 10
-132.9000000000087
 20
-162.1710097599916
 30
0.0
 11
-82.90000000000508
 21
-128.8377615441386
 31
0.0
  0
LINE
  5
2760
330
2F2D
100
AcDbEntity
  8
0
 62
     0
100
AcDbLine
 10
-82.9000000000069
 20
-125.8377950087215
 30
0.0
 11
-33.04318017631704
 21
-92.60000000000037
 31
0.0
  0
LINE
  5
2761
330
2F2D
100
AcDbEntity
  8
0
 62
     0
100
AcDbLine
 10
-132.9000000000123
 20
-159.1710432245763
 30
0.0
 11
-82.9000000000069
 21
-125.8377950087215
 31
0.0
  0
LINE
  5
2762
330
2F2D
100
AcDbEntity
  8
0
 62
     0
100
AcDbLine
 10
-82.90000000000508
 20
-122.8378284733044
 30
0.0
 11
-37.54314147020159
 21
-92.60000000000037
 31
0.0
  0
LINE
  5
2763
330
2F2D
100
AcDbEntity
  8
0
 62
     0
100
AcDbLine
 10
-132.9000000000087
 20
-156.1710766891574
 30
0.0
 11
-82.90000000000508
 21
-122.8378284733044
 31
0.0
  0
LINE
  5
2764
330
2F2D
100
AcDbEntity
  8
0
 62
     0
100
AcDbLine
 10
-82.90000000000508
 20
-119.8378619378873
 30
0.0
 11
-42.04310276408796
 21
-92.60000000000037
 31
0.0
  0
LINE
  5
2765
330
2F2D
100
AcDbEntity
  8
0
 62
     0
100
AcDbLine
 10
-132.9000000000105
 20
-153.1711101537421
 30
0.0
 11
-82.90000000000508
 21
-119.8378619378873
 31
0.0
  0
LINE
  5
2766
330
2F2D
100
AcDbEntity
  8
0
 62
     0
100
AcDbLine
 10
-82.9000000000069
 20
-116.837895402472
 30
0.0
 11
-46.54306405797615
 21
-92.60000000000221
 31
0.0
  0
LINE
  5
2767
330
2F2D
100
AcDbEntity
  8
0
 62
     0
100
AcDbLine
 10
-132.9000000000105
 20
-150.1711436183268
 30
0.0
 11
-82.9000000000069
 21
-116.837895402472
 31
0.0
  0
LINE
  5
2768
330
2F2D
100
AcDbEntity
  8
0
 62
     0
100
AcDbLine
 10
-82.9000000000069
 20
-113.8379288670585
 30
0.0
 11
-51.04302535185889
 21
-92.60000000000221
 31
0.0
  0
LINE
  5
2769
330
2F2D
100
AcDbEntity
  8
0
 62
     0
100
AcDbLine
 10
-132.9000000000123
 20
-147.1711770829115
 30
0.0
 11
-82.9000000000069
 21
-113.8379288670585
 31
0.0
  0
LINE
  5
276A
330
2F2D
100
AcDbEntity
  8
0
 62
     0
100
AcDbLine
 10
-82.90000000000508
 20
-110.8379623316396
 30
0.0
 11
-55.54298664574344
 21
-92.60000000000037
 31
0.0
  0
LINE
  5
276B
330
2F2D
100
AcDbEntity
  8
0
 62
     0
100
AcDbLine
 10
-132.9000000000087
 20
-144.1712105474944
 30
0.0
 11
-82.90000000000508
 21
-110.8379623316396
 31
0.0
  0
LINE
  5
276C
330
2F2D
100
AcDbEntity
  8
0
 62
     0
100
AcDbLine
 10
-82.9000000000069
 20
-107.8379957962243
 30
0.0
 11
-60.04294793963163
 21
-92.60000000000037
 31
0.0
  0
LINE
  5
276D
330
2F2D
100
AcDbEntity
  8
0
 62
     0
100
AcDbLine
 10
-132.9000000000087
 20
-141.1712440120755
 30
0.0
 11
-82.9000000000069
 21
-107.8379957962243
 31
0.0
  0
LINE
  5
276E
330
2F2D
100
AcDbEntity
  8
0
 62
     0
100
AcDbLine
 10
-82.9000000000069
 20
-104.8380292608071
 30
0.0
 11
-64.54290923351618
 21
-92.60000000000037
 31
0.0
  0
LINE
  5
276F
330
2F2D
100
AcDbEntity
  8
0
 62
     0
100
AcDbLine
 10
-132.9000000000105
 20
-138.171277476662
 30
0.0
 11
-82.9000000000069
 21
-104.8380292608071
 31
0.0
  0
LINE
  5
2770
330
2F2D
100
AcDbEntity
  8
0
 62
     0
100
AcDbLine
 10
-82.90000000000508
 20
-101.8380627253918
 30
0.0
 11
-69.04287052740073
 21
-92.60000000000221
 31
0.0
  0
LINE
  5
2771
330
2F2D
100
AcDbEntity
  8
0
 62
     0
100
AcDbLine
 10
-132.9000000000087
 20
-135.1713109412467
 30
0.0
 11
-82.90000000000508
 21
-101.8380627253918
 31
0.0
  0
LINE
  5
2772
330
2F2D
100
AcDbEntity
  8
0
 62
     0
100
AcDbLine
 10
-82.9000000000069
 20
-98.83809618997659
 30
0.0
 11
-73.5428318212871
 21
-92.60000000000221
 31
0.0
  0
LINE
  5
2773
330
2F2D
100
AcDbEntity
  8
0
 62
     0
100
AcDbLine
 10
-132.9000000000105
 20
-132.1713444058296
 30
0.0
 11
-82.9000000000069
 21
-98.83809618997659
 31
0.0
  0
LINE
  5
2774
330
2F2D
100
AcDbEntity
  8
0
 62
     0
100
AcDbLine
 10
-82.9000000000069
 20
-95.83812965455765
 30
0.0
 11
-78.0427931151753
 21
-92.60000000000221
 31
0.0
  0
LINE
  5
2775
330
2F2D
100
AcDbEntity
  8
0
 62
     0
100
AcDbLine
 10
-132.9000000000105
 20
-129.1713778704124
 30
0.0
 11
-82.9000000000069
 21
-95.83812965455765
 31
0.0
  0
LINE
  5
2776
330
2F2D
100
AcDbEntity
  8
0
 62
     0
100
AcDbLine
 10
-82.9000000000069
 20
-92.83816311914415
 30
0.0
 11
-82.54275440905804
 21
-92.60000000000037
 31
0.0
  0
LINE
  5
2777
330
2F2D
100
AcDbEntity
  8
0
 62
     0
100
AcDbLine
 10
-132.9000000000105
 20
-126.1714113349972
 30
0.0
 11
-82.9000000000069
 21
-92.83816311914415
 31
0.0
  0
LINE
  5
2778
330
2F2D
100
AcDbEntity
  8
0
 62
     0
100
AcDbLine
 10
-132.9000000000087
 20
-123.1714447995819
 30
0.0
 11
-87.04271570294258
 21
-92.60000000000221
 31
0.0
  0
LINE
  5
2779
330
2F2D
100
AcDbEntity
  8
0
 62
     0
100
AcDbLine
 10
-132.9000000000087
 20
-120.1714782641647
 30
0.0
 11
-91.54267699682714
 21
-92.60000000000037
 31
0.0
  0
LINE
  5
277A
330
2F2D
100
AcDbEntity
  8
0
 62
     0
100
AcDbLine
 10
-132.9000000000105
 20
-117.1715117287476
 30
0.0
 11
-96.04263829071717
 21
-92.60000000000221
 31
0.0
  0
LINE
  5
277B
330
2F2D
100
AcDbEntity
  8
0
 62
     0
100
AcDbLine
 10
-132.9000000000087
 20
-114.1715451933323
 30
0.0
 11
-100.542599584598
 21
-92.60000000000037
 31
0.0
  0
LINE
  5
277C
330
2F2D
100
AcDbEntity
  8
0
 62
     0
100
AcDbLine
 10
-132.9000000000105
 20
-111.1715786579152
 30
0.0
 11
-105.0425608784862
 21
-92.60000000000037
 31
0.0
  0
LINE
  5
277D
330
2F2D
100
AcDbEntity
  8
0
 62
     0
100
AcDbLine
 10
-132.9000000000105
 20
-108.1716121224998
 30
0.0
 11
-109.5425221723708
 21
-92.60000000000037
 31
0.0
  0
LINE
  5
277E
330
2F2D
100
AcDbEntity
  8
0
 62
     0
100
AcDbLine
 10
-132.9000000000105
 20
-105.1716455870846
 30
0.0
 11
-114.0424834662553
 21
-92.60000000000037
 31
0.0
  0
LINE
  5
277F
330
2F2D
100
AcDbEntity
  8
0
 62
     0
100
AcDbLine
 10
-132.9000000000087
 20
-102.1716790516657
 30
0.0
 11
-118.5424447601399
 21
-92.60000000000037
 31
0.0
  0
LINE
  5
2780
330
2F2D
100
AcDbEntity
  8
0
 62
     0
100
AcDbLine
 10
-132.9000000000087
 20
-99.17171251625042
 30
0.0
 11
-123.0424060540245
 21
-92.59999999999854
 31
0.0
  0
LINE
  5
2781
330
2F2D
100
AcDbEntity
  8
0
 62
     0
100
AcDbLine
 10
-132.9000000000105
 20
-96.17174598083513
 30
0.0
 11
-127.5423673479145
 21
-92.60000000000221
 31
0.0
  0
LINE
  5
2782
330
2F2D
100
AcDbEntity
  8
0
 62
     0
100
AcDbLine
 10
-132.9000000000105
 20
-93.17177944541979
 30
0.0
 11
-132.0423286417972
 21
-92.60000000000037
 31
0.0
  0
ENDBLK
  5
2783
330
2F2D
100
AcDbEntity
  8
0
100
AcDbBlockEnd
  0
BLOCK
  5
2F30
330
2F2F
100
AcDbEntity
  8
0
100
AcDbBlockBegin
  2
*X77
 70
     1
 10
0.0
 20
0.0
 30
0.0
  3
*X77
  1

  0
LINE
  5
2786
330
2F2F
100
AcDbEntity
  8
0
 62
     0
100
AcDbLine
 10
-132.9000000000069
 20
-319.0192890395574
 30
0.0
 11
-129.3289244405114
 21
-321.4000000000015
 31
0.0
  0
LINE
  5
2787
330
2F2F
100
AcDbEntity
  8
0
 62
     0
100
AcDbLine
 10
-132.9000000000087
 20
-316.0193225041402
 30
0.0
 11
-124.8289631466232
 21
-321.4000000000051
 31
0.0
  0
LINE
  5
2788
330
2F2F
100
AcDbEntity
  8
0
 62
     0
100
AcDbLine
 10
-132.9000000000087
 20
-313.019355968725
 30
0.0
 11
-120.3290018527404
 21
-321.4000000000032
 31
0.0
  0
LINE
  5
2789
330
2F2F
100
AcDbEntity
  8
0
 62
     0
100
AcDbLine
 10
-132.9000000000087
 20
-310.0193894333079
 30
0.0
 11
-115.8290405588541
 21
-321.4000000000051
 31
0.0
  0
LINE
  5
278A
330
2F2F
100
AcDbEntity
  8
0
 62
     0
100
AcDbLine
 10
-132.9000000000069
 20
-307.0194228978926
 30
0.0
 11
-111.3290792649695
 21
-321.4000000000015
 31
0.0
  0
LINE
  5
278B
330
2F2F
100
AcDbEntity
  8
0
 62
     0
100
AcDbLine
 10
-132.9000000000087
 20
-304.0194563624773
 30
0.0
 11
-106.829117971085
 21
-321.4000000000032
 31
0.0
  0
LINE
  5
278C
330
2F2F
100
AcDbEntity
  8
0
 62
     0
100
AcDbLine
 10
-132.9000000000087
 20
-301.0194898270602
 30
0.0
 11
-102.3291566771968
 21
-321.4000000000032
 31
0.0
  0
LINE
  5
278D
330
2F2F
100
AcDbEntity
  8
0
 62
     0
100
AcDbLine
 10
-132.9000000000069
 20
-298.0195232916449
 30
0.0
 11
-97.82919538331222
 21
-321.4000000000023
 31
0.0
  0
LINE
  5
278E
330
2F2F
100
AcDbEntity
  8
0
 62
     0
100
AcDbLine
 10
-132.9000000000087
 20
-295.0195567562277
 30
0.0
 11
-93.3292340894277
 21
-321.4000000000023
 31
0.0
  0
LINE
  5
278F
330
2F2F
100
AcDbEntity
  8
0
 62
     0
100
AcDbLine
 10
-132.9000000000087
 20
-292.0195902208125
 30
0.0
 11
-88.82927279554314
 21
-321.4000000000042
 31
0.0
  0
LINE
  5
2790
330
2F2F
100
AcDbEntity
  8
0
 62
     0
100
AcDbLine
 10
-132.9000000000087
 20
-289.0196236853952
 30
0.0
 11
-84.32931150165494
 21
-321.4000000000032
 31
0.0
  0
LINE
  5
2791
330
2F2F
100
AcDbEntity
  8
0
 62
     0
100
AcDbLine
 10
-132.9000000000069
 20
-286.01965714998
 30
0.0
 11
-79.8293502077704
 21
-321.4000000000032
 31
0.0
  0
LINE
  5
2792
330
2F2F
100
AcDbEntity
  8
0
 62
     0
100
AcDbLine
 10
-132.9000000000105
 20
-283.019690614563
 30
0.0
 11
-75.32938891388579
 21
-321.4000000000032
 31
0.0
  0
LINE
  5
2793
330
2F2F
100
AcDbEntity
  8
0
 62
     0
100
AcDbLine
 10
-132.9000000000069
 20
-280.0197240791476
 30
0.0
 11
-70.82942761999948
 21
-321.4000000000042
 31
0.0
  0
LINE
  5
2794
330
2F2F
100
AcDbEntity
  8
0
 62
     0
100
AcDbLine
 10
-132.9000000000087
 20
-277.0197575437304
 30
0.0
 11
-66.32946632611129
 21
-321.4000000000042
 31
0.0
  0
LINE
  5
2795
330
2F2F
100
AcDbEntity
  8
0
 62
     0
100
AcDbLine
 10
-132.9000000000087
 20
-274.0197910083134
 30
0.0
 11
-61.82950503222855
 21
-321.4000000000015
 31
0.0
  0
LINE
  5
2796
330
2F2F
100
AcDbEntity
  8
0
 62
     0
100
AcDbLine
 10
-132.9000000000105
 20
-271.0198244728981
 30
0.0
 11
-57.329543738344
 21
-321.4000000000032
 31
0.0
  0
LINE
  5
2797
330
2F2F
100
AcDbEntity
  8
0
 62
     0
100
AcDbLine
 10
-132.9000000000069
 20
-268.019857937481
 30
0.0
 11
-52.8295824444558
 21
-321.4000000000032
 31
0.0
  0
LINE
  5
2798
330
2F2F
100
AcDbEntity
  8
0
 62
     0
100
AcDbLine
 10
-132.9000000000087
 20
-265.0198914020657
 30
0.0
 11
-48.32962115057306
 21
-321.4000000000023
 31
0.0
  0
LINE
  5
2799
330
2F2F
100
AcDbEntity
  8
0
 62
     0
100
AcDbLine
 10
-132.9000000000087
 20
-262.0199248666504
 30
0.0
 11
-43.82965985668852
 21
-321.4000000000023
 31
0.0
  0
LINE
  5
279A
330
2F2F
100
AcDbEntity
  8
0
 62
     0
100
AcDbLine
 10
-132.9000000000087
 20
-259.0199583312351
 30
0.0
 11
-39.32969856280033
 21
-321.4000000000032
 31
0.0
  0
LINE
  5
279B
330
2F2F
100
AcDbEntity
  8
0
 62
     0
100
AcDbLine
 10
-132.9000000000069
 20
-256.019991795818
 30
0.0
 11
-34.82973726891396
 21
-321.4000000000032
 31
0.0
  0
LINE
  5
279C
330
2F2F
100
AcDbEntity
  8
0
 62
     0
100
AcDbLine
 10
-82.89999999999961
 20
-286.3532734762584
 30
0.0
 11
-82.82991003540884
 21
-286.4000000000024
 31
0.0
  0
LINE
  5
279D
330
2F2F
100
AcDbEntity
  8
0
 62
     0
100
AcDbLine
 10
-82.82991003540884
 20
-286.4000000000024
 30
0.0
 11
-30.32977597503123
 21
-321.4000000000032
 31
0.0
  0
LINE
  5
279E
330
2F2F
100
AcDbEntity
  8
0
 62
     0
100
AcDbLine
 10
-132.9000000000087
 20
-253.0200252604027
 30
0.0
 11
-82.90000000000508
 21
-286.3532734762557
 31
0.0
  0
LINE
  5
279F
330
2F2F
100
AcDbEntity
  8
0
 62
     0
100
AcDbLine
 10
-82.89999999999961
 20
-283.3533069408422
 30
0.0
 11
-78.32994874152062
 21
-286.4000000000024
 31
0.0
  0
LINE
  5
27A0
330
2F2F
100
AcDbEntity
  8
0
 62
     0
100
AcDbLine
 10
-78.32994874152062
 20
-286.4000000000024
 30
0.0
 11
-25.82981468114486
 21
-321.4000000000023
 31
0.0
  0
LINE
  5
27A1
330
2F2F
100
AcDbEntity
  8
0
 62
     0
100
AcDbLine
 10
-132.9000000000087
 20
-250.0200587249838
 30
0.0
 11
-82.90000000000324
 21
-283.3533069408385
 31
0.0
  0
LINE
  5
27A2
330
2F2F
100
AcDbEntity
  8
0
 62
     0
100
AcDbLine
 10
-82.89999999999782
 20
-280.3533404054269
 30
0.0
 11
-73.82998744763426
 21
-286.4000000000032
 31
0.0
  0
LINE
  5
27A3
330
2F2F
100
AcDbEntity
  8
0
 62
     0
100
AcDbLine
 10
-73.82998744763426
 20
-286.4000000000032
 30
0.0
 11
-21.32985338725665
 21
-321.4000000000042
 31
0.0
  0
LINE
  5
27A4
330
2F2F
100
AcDbEntity
  8
0
 62
     0
100
AcDbLine
 10
-132.9000000000069
 20
-247.0200921895703
 30
0.0
 11
-82.90000000000324
 21
-280.3533404054233
 31
0.0
  0
LINE
  5
27A5
330
2F2F
100
AcDbEntity
  8
0
 62
     0
100
AcDbLine
 10
-82.89999999999961
 20
-277.3533738700098
 30
0.0
 11
-69.33002615374971
 21
-286.4000000000032
 31
0.0
  0
LINE
  5
27A6
330
2F2F
100
AcDbEntity
  8
0
 62
     0
100
AcDbLine
 10
-69.33002615374971
 20
-286.4000000000032
 30
0.0
 11
-16.8298920933721
 21
-321.4000000000042
 31
0.0
  0
LINE
  5
27A7
330
2F2F
100
AcDbEntity
  8
0
 62
     0
100
AcDbLine
 10
-132.9000000000087
 20
-244.0201256541532
 30
0.0
 11
-82.90000000000324
 21
-277.3533738700061
 31
0.0
  0
LINE
  5
27A8
330
2F2F
100
AcDbEntity
  8
0
 62
     0
100
AcDbLine
 10
-82.89999999999961
 20
-274.3534073345945
 30
0.0
 11
-64.83006485986696
 21
-286.4000000000024
 31
0.0
  0
LINE
  5
27A9
330
2F2F
100
AcDbEntity
  8
0
 62
     0
100
AcDbLine
 10
-64.83006485986696
 20
-286.4000000000024
 30
0.0
 11
-12.32993079948937
 21
-321.4000000000032
 31
0.0
  0
LINE
  5
27AA
330
2F2F
100
AcDbEntity
  8
0
 62
     0
100
AcDbLine
 10
-132.9000000000087
 20
-241.0201591187379
 30
0.0
 11
-82.90000000000508
 21
-274.3534073345909
 31
0.0
  0
LINE
  5
27AB
330
2F2F
100
AcDbEntity
  8
0
 62
     0
100
AcDbLine
 10
-82.90000000000146
 20
-271.3534407991774
 30
0.0
 11
-60.33010356598061
 21
-286.4000000000024
 31
0.0
  0
LINE
  5
27AC
330
2F2F
100
AcDbEntity
  8
0
 62
     0
100
AcDbLine
 10
-60.33010356597697
 20
-286.4000000000042
 30
0.0
 11
-7.829969505603003
 21
-321.4000000000032
 31
0.0
  0
LINE
  5
27AD
330
2F2F
100
AcDbEntity
  8
0
 62
     0
100
AcDbLine
 10
-132.9000000000087
 20
-238.0201925833207
 30
0.0
 11
-82.90000000000324
 21
-271.3534407991756
 31
0.0
  0
LINE
  5
27AE
330
2F2F
100
AcDbEntity
  8
0
 62
     0
100
AcDbLine
 10
-82.89999999999961
 20
-268.3534742637603
 30
0.0
 11
-55.83014227209242
 21
-286.4000000000024
 31
0.0
  0
LINE
  5
27AF
330
2F2F
100
AcDbEntity
  8
0
 62
     0
100
AcDbLine
 10
-55.83014227209242
 20
-286.4000000000024
 30
0.0
 11
-3.330008211714812
 21
-321.4000000000023
 31
0.0
  0
LINE
  5
27B0
330
2F2F
100
AcDbEntity
  8
0
 62
     0
100
AcDbLine
 10
-132.9000000000069
 20
-235.0202260479036
 30
0.0
 11
-82.90000000000508
 21
-268.3534742637566
 31
0.0
  0
LINE
  5
27B1
330
2F2F
100
AcDbEntity
  8
0
 62
     0
100
AcDbLine
 10
-82.90000000000146
 20
-265.353507728345
 30
0.0
 11
-51.33018097820785
 21
-286.4000000000032
 31
0.0
  0
LINE
  5
27B2
330
2F2F
100
AcDbEntity
  8
0
 62
     0
100
AcDbLine
 10
-51.33018097820785
 20
-286.4000000000032
 30
0.0
 11
1.169953082169739
 21
-321.4000000000042
 31
0.0
  0
LINE
  5
27B3
330
2F2F
100
AcDbEntity
  8
0
 62
     0
100
AcDbLine
 10
-132.9000000000087
 20
-232.0202595124883
 30
0.0
 11
-82.90000000000508
 21
-265.3535077283414
 31
0.0
  0
LINE
  5
27B4
330
2F2F
100
AcDbEntity
  8
0
 62
     0
100
AcDbLine
 10
-82.89999999999961
 20
-262.3535411929279
 30
0.0
 11
-46.8302196843233
 21
-286.4000000000014
 31
0.0
  0
LINE
  5
27B5
330
2F2F
100
AcDbEntity
  8
0
 62
     0
100
AcDbLine
 10
-46.8302196843233
 20
-286.4000000000014
 30
0.0
 11
5.669914376054292
 21
-321.4000000000015
 31
0.0
  0
LINE
  5
27B6
330
2F2F
100
AcDbEntity
  8
0
 62
     0
100
AcDbLine
 10
-132.9000000000069
 20
-229.0202929770712
 30
0.0
 11
-82.90000000000508
 21
-262.3535411929243
 31
0.0
  0
LINE
  5
27B7
330
2F2F
100
AcDbEntity
  8
0
 62
     0
100
AcDbLine
 10
-82.89999999999961
 20
-259.3535746575124
 30
0.0
 11
-42.33025839043693
 21
-286.4000000000024
 31
0.0
  0
LINE
  5
27B8
330
2F2F
100
AcDbEntity
  8
0
 62
     0
100
AcDbLine
 10
-42.33025839043693
 20
-286.4000000000024
 30
0.0
 11
10.16987566994066
 21
-321.4000000000032
 31
0.0
  0
LINE
  5
27B9
330
2F2F
100
AcDbEntity
  8
0
 62
     0
100
AcDbLine
 10
-132.9000000000069
 20
-226.0203264416559
 30
0.0
 11
-82.90000000000324
 21
-259.3535746575089
 31
0.0
  0
LINE
  5
27BA
330
2F2F
100
AcDbEntity
  8
0
 62
     0
100
AcDbLine
 10
-82.89999999999961
 20
-256.3536081220955
 30
0.0
 11
-37.83029709655057
 21
-286.4000000000024
 31
0.0
  0
LINE
  5
27BB
330
2F2F
100
AcDbEntity
  8
0
 62
     0
100
AcDbLine
 10
-37.83029709655057
 20
-286.4000000000024
 30
0.0
 11
14.66983696382704
 21
-321.4000000000032
 31
0.0
  0
LINE
  5
27BC
330
2F2F
100
AcDbEntity
  8
0
 62
     0
100
AcDbLine
 10
-132.9000000000069
 20
-223.0203599062388
 30
0.0
 11
-82.90000000000508
 21
-256.3536081220918
 31
0.0
  0
LINE
  5
27BD
330
2F2F
100
AcDbEntity
  8
0
 62
     0
100
AcDbLine
 10
-82.90000000000146
 20
-253.3536415866802
 30
0.0
 11
-33.33033580266782
 21
-286.4000000000024
 31
0.0
  0
LINE
  5
27BE
330
2F2F
100
AcDbEntity
  8
0
 62
     0
100
AcDbLine
 10
-33.33033580266782
 20
-286.4000000000024
 30
0.0
 11
19.16979825770795
 21
-321.4000000000023
 31
0.0
  0
LINE
  5
27BF
330
2F2F
100
AcDbEntity
  8
0
 62
     0
100
AcDbLine
 10
-132.9000000000087
 20
-220.0203933708235
 30
0.0
 11
-82.90000000000508
 21
-253.3536415866783
 31
0.0
  0
LINE
  5
27C0
330
2F2F
100
AcDbEntity
  8
0
 62
     0
100
AcDbLine
 10
-82.90000000000146
 20
-250.3536750512631
 30
0.0
 11
-28.83037450878146
 21
-286.4000000000014
 31
0.0
  0
LINE
  5
27C1
330
2F2F
100
AcDbEntity
  8
0
 62
     0
100
AcDbLine
 10
-28.83037450878146
 20
-286.4000000000014
 30
0.0
 11
23.66975955159615
 21
-321.4000000000023
 31
0.0
  0
LINE
  5
27C2
330
2F2F
100
AcDbEntity
  8
0
 62
     0
100
AcDbLine
 10
-132.9000000000087
 20
-217.0204268354064
 30
0.0
 11
-82.90000000000508
 21
-250.3536750512612
 31
0.0
  0
LINE
  5
27C3
330
2F2F
100
AcDbEntity
  8
0
 62
     0
100
AcDbLine
 10
-82.89999999999961
 20
-247.3537085158477
 30
0.0
 11
-24.33041321489509
 21
-286.4000000000032
 31
0.0
  0
LINE
  5
27C4
330
2F2F
100
AcDbEntity
  8
0
 62
     0
100
AcDbLine
 10
-24.33041321489509
 20
-286.4000000000032
 30
0.0
 11
28.16972084548252
 21
-321.4000000000032
 31
0.0
  0
LINE
  5
27C5
330
2F2F
100
AcDbEntity
  8
0
 62
     0
100
AcDbLine
 10
-132.9000000000087
 20
-214.0204602999911
 30
0.0
 11
-82.90000000000324
 21
-247.3537085158459
 31
0.0
  0
LINE
  5
27C6
330
2F2F
100
AcDbEntity
  8
0
 62
     0
100
AcDbLine
 10
-82.90000000000146
 20
-244.3537419804306
 30
0.0
 11
-19.83045192100872
 21
-286.4000000000032
 31
0.0
  0
LINE
  5
27C7
330
2F2F
100
AcDbEntity
  8
0
 62
     0
100
AcDbLine
 10
-19.83045192100872
 20
-286.4000000000032
 30
0.0
 11
32.66968213936891
 21
-321.4000000000032
 31
0.0
  0
LINE
  5
27C8
330
2F2F
100
AcDbEntity
  8
0
 62
     0
100
AcDbLine
 10
-132.9000000000087
 20
-211.020493764574
 30
0.0
 11
-82.90000000000508
 21
-244.3537419804288
 31
0.0
  0
LINE
  5
27C9
330
2F2F
100
AcDbEntity
  8
0
 62
     0
100
AcDbLine
 10
-82.89999999999961
 20
-241.3537754450153
 30
0.0
 11
-15.33049062712416
 21
-286.4000000000024
 31
0.0
  0
LINE
  5
27CA
330
2F2F
100
AcDbEntity
  8
0
 62
     0
100
AcDbLine
 10
-15.33049062712416
 20
-286.4000000000024
 30
0.0
 11
37.16964343325162
 21
-321.4000000000032
 31
0.0
  0
LINE
  5
27CB
330
2F2F
100
AcDbEntity
  8
0
 62
     0
100
AcDbLine
 10
-132.900000000005
 20
-208.0205272291605
 30
0.0
 11
-82.90000000000508
 21
-241.3537754450117
 31
0.0
  0
LINE
  5
27CC
330
2F2F
100
AcDbEntity
  8
0
 62
     0
100
AcDbLine
 10
-82.89999999999961
 20
-238.3538089095982
 30
0.0
 11
-10.83052933323779
 21
-286.4000000000024
 31
0.0
  0
LINE
  5
27CD
330
2F2F
100
AcDbEntity
  8
0
 62
     0
100
AcDbLine
 10
-10.83052933323415
 20
-286.4000000000042
 30
0.0
 11
41.66960472713981
 21
-321.4000000000023
 31
0.0
  0
LINE
  5
27CE
330
2F2F
100
AcDbEntity
  8
0
 62
     0
100
AcDbLine
 10
-132.9000000000033
 20
-205.0205606937434
 30
0.0
 11
-82.90000000000324
 21
-238.3538089095964
 31
0.0
  0
LINE
  5
27CF
330
2F2F
100
AcDbEntity
  8
0
 62
     0
100
AcDbLine
 10
-82.89999999999961
 20
-235.3538423741829
 30
0.0
 11
-6.330568039353238
 21
-286.4000000000032
 31
0.0
  0
LINE
  5
27D0
330
2F2F
100
AcDbEntity
  8
0
 62
     0
100
AcDbLine
 10
-6.330568039353238
 20
-286.4000000000032
 30
0.0
 11
46.16956602102436
 21
-321.4000000000042
 31
0.0
  0
LINE
  5
27D1
330
2F2F
100
AcDbEntity
  8
0
 62
     0
100
AcDbLine
 10
-132.900000000005
 20
-202.0205941583299
 30
0.0
 11
-82.90000000000508
 21
-235.3538423741811
 31
0.0
  0
LINE
  5
27D2
330
2F2F
100
AcDbEntity
  8
0
 62
     0
100
AcDbLine
 10
-82.90000000000146
 20
-232.3538758387658
 30
0.0
 11
-1.830606745466866
 21
-286.4000000000032
 31
0.0
  0
LINE
  5
27D3
330
2F2F
100
AcDbEntity
  8
0
 62
     0
100
AcDbLine
 10
-1.830606745466866
 20
-286.4000000000032
 30
0.0
 11
50.66952731491074
 21
-321.4000000000042
 31
0.0
  0
LINE
  5
27D4
330
2F2F
100
AcDbEntity
  8
0
 62
     0
100
AcDbLine
 10
-132.900000000005
 20
-199.0206276229128
 30
0.0
 11
-82.90000000000508
 21
-232.353875838764
 31
0.0
  0
LINE
  5
27D5
330
2F2F
100
AcDbEntity
  8
0
 62
     0
100
AcDbLine
 10
-82.89999999999782
 20
-229.3539093033487
 30
0.0
 11
2.669354548417686
 21
-286.4000000000006
 31
0.0
  0
LINE
  5
27D6
330
2F2F
100
AcDbEntity
  8
0
 62
     0
100
AcDbLine
 10
2.669354548417686
 20
-286.4000000000006
 30
0.0
 11
55.16948860879529
 21
-321.4000000000015
 31
0.0
  0
LINE
  5
27D7
330
2F2F
100
AcDbEntity
  8
0
 62
     0
100
AcDbLine
 10
-132.9000000000033
 20
-196.0206610874957
 30
0.0
 11
-82.90000000000324
 21
-229.3539093033468
 31
0.0
  0
LINE
  5
27D8
330
2F2F
100
AcDbEntity
  8
0
 62
     0
100
AcDbLine
 10
-82.89999999999961
 20
-226.3539427679352
 30
0.0
 11
7.169315842304055
 21
-286.4000000000024
 31
0.0
  0
LINE
  5
27D9
330
2F2F
100
AcDbEntity
  8
0
 62
     0
100
AcDbLine
 10
7.169315842304055
 20
-286.4000000000024
 30
0.0
 11
59.66944990268165
 21
-321.4000000000032
 31
0.0
  0
LINE
  5
27DA
330
2F2F
100
AcDbEntity
  8
0
 62
     0
100
AcDbLine
 10
-132.9000000000033
 20
-193.0206945520804
 30
0.0
 11
-82.90000000000324
 21
-226.3539427679316
 31
0.0
  0
LINE
  5
27DB
330
2F2F
100
AcDbEntity
  8
0
 62
     0
100
AcDbLine
 10
-82.90000000000146
 20
-223.3539762325163
 30
0.0
 11
11.66927713618861
 21
-286.4000000000024
 31
0.0
  0
LINE
  5
27DC
330
2F2F
100
AcDbEntity
  8
0
 62
     0
100
AcDbLine
 10
11.66927713618861
 20
-286.4000000000024
 30
0.0
 11
64.16941119656621
 21
-321.4000000000023
 31
0.0
  0
LINE
  5
27DD
330
2F2F
100
AcDbEntity
  8
0
 62
     0
100
AcDbLine
 10
-132.9000000000069
 20
-190.0207280166612
 30
0.0
 11
-82.90000000000508
 21
-223.3539762325145
 31
0.0
  0
LINE
  5
27DE
330
2F2F
100
AcDbEntity
  8
0
 62
     0
100
AcDbLine
 10
-82.89999999999961
 20
-220.3540096971028
 30
0.0
 11
16.16923843007316
 21
-286.4000000000014
 31
0.0
  0
LINE
  5
27DF
330
2F2F
100
AcDbEntity
  8
0
 62
     0
100
AcDbLine
 10
16.16923843007316
 20
-286.4000000000014
 30
0.0
 11
68.66937249045077
 21
-321.4000000000023
 31
0.0
  0
LINE
  5
27E0
330
2F2F
100
AcDbEntity
  8
0
 62
     0
100
AcDbLine
 10
-132.9000000000033
 20
-187.0207614812478
 30
0.0
 11
-82.90000000000324
 21
-220.3540096970992
 31
0.0
  0
LINE
  5
27E1
330
2F2F
100
AcDbEntity
  8
0
 62
     0
100
AcDbLine
 10
-82.89999999999961
 20
-217.3540431616839
 30
0.0
 11
20.66919972395954
 21
-286.4000000000014
 31
0.0
  0
LINE
  5
27E2
330
2F2F
100
AcDbEntity
  8
0
 62
     0
100
AcDbLine
 10
20.66919972395954
 20
-286.4000000000014
 30
0.0
 11
73.16933378433714
 21
-321.4000000000015
 31
0.0
  0
LINE
  5
27E3
330
2F2F
100
AcDbEntity
  8
0
 62
     0
100
AcDbLine
 10
-132.900000000005
 20
-184.0207949458308
 30
0.0
 11
-82.90000000000324
 21
-217.354043161682
 31
0.0
  0
LINE
  5
27E4
330
2F2F
100
AcDbEntity
  8
0
 62
     0
100
AcDbLine
 10
-82.90000000000146
 20
-214.3540766262686
 30
0.0
 11
25.16916101784592
 21
-286.4000000000024
 31
0.0
  0
LINE
  5
27E5
330
2F2F
100
AcDbEntity
  8
0
 62
     0
100
AcDbLine
 10
25.16916101784592
 20
-286.4000000000024
 30
0.0
 11
77.66929507821988
 21
-321.4000000000015
 31
0.0
  0
LINE
  5
27E6
330
2F2F
100
AcDbEntity
  8
0
 62
     0
100
AcDbLine
 10
-132.900000000005
 20
-181.0208284104155
 30
0.0
 11
-82.90000000000508
 21
-214.3540766262668
 31
0.0
  0
LINE
  5
27E7
330
2F2F
100
AcDbEntity
  8
0
 62
     0
100
AcDbLine
 10
-82.89999999999961
 20
-211.3541100908533
 30
0.0
 11
29.66912231173229
 21
-286.4000000000024
 31
0.0
  0
LINE
  5
27E8
330
2F2F
100
AcDbEntity
  8
0
 62
     0
100
AcDbLine
 10
29.66912231173229
 20
-286.4000000000024
 30
0.0
 11
82.16925637210989
 21
-321.4000000000032
 31
0.0
  0
LINE
  5
27E9
330
2F2F
100
AcDbEntity
  8
0
 62
     0
100
AcDbLine
 10
-132.900000000005
 20
-178.0208618749984
 30
0.0
 11
-82.90000000000508
 21
-211.3541100908496
 31
0.0
  0
LINE
  5
27EA
330
2F2F
100
AcDbEntity
  8
0
 62
     0
100
AcDbLine
 10
-82.89999999999961
 20
-208.354143555438
 30
0.0
 11
34.16908360561683
 21
-286.4000000000024
 31
0.0
  0
LINE
  5
27EB
330
2F2F
100
AcDbEntity
  8
0
 62
     0
100
AcDbLine
 10
34.16908360561683
 20
-286.4000000000024
 30
0.0
 11
86.66921766599442
 21
-321.4000000000023
 31
0.0
  0
LINE
  5
27EC
330
2F2F
100
AcDbEntity
  8
0
 62
     0
100
AcDbLine
 10
-132.9000000000033
 20
-175.0208953395831
 30
0.0
 11
-82.90000000000324
 21
-208.3541435554344
 31
0.0
  0
LINE
  5
27ED
330
2F2F
100
AcDbEntity
  8
0
 62
     0
100
AcDbLine
 10
-82.89999999999961
 20
-205.3541770200209
 30
0.0
 11
38.66904489950138
 21
-286.4000000000014
 31
0.0
  0
LINE
  5
27EE
330
2F2F
100
AcDbEntity
  8
0
 62
     0
100
AcDbLine
 10
38.66904489950138
 20
-286.4000000000014
 30
0.0
 11
91.16917895987899
 21
-321.4000000000023
 31
0.0
  0
LINE
  5
27EF
330
2F2F
100
AcDbEntity
  8
0
 62
     0
100
AcDbLine
 10
-132.900000000005
 20
-172.020928804166
 30
0.0
 11
-82.90000000000508
 21
-205.3541770200172
 31
0.0
  0
LINE
  5
27F0
330
2F2F
100
AcDbEntity
  8
0
 62
     0
100
AcDbLine
 10
-82.90000000000146
 20
-202.3542104846056
 30
0.0
 11
43.16900619338776
 21
-286.4000000000032
 31
0.0
  0
LINE
  5
27F1
330
2F2F
100
AcDbEntity
  8
0
 62
     0
100
AcDbLine
 10
43.16900619338776
 20
-286.4000000000032
 30
0.0
 11
95.66914025376535
 21
-321.4000000000042
 31
0.0
  0
LINE
  5
27F2
330
2F2F
100
AcDbEntity
  8
0
 62
     0
100
AcDbLine
 10
-132.900000000005
 20
-169.0209622687507
 30
0.0
 11
-82.90000000000508
 21
-202.3542104846019
 31
0.0
  0
LINE
  5
27F3
330
2F2F
100
AcDbEntity
  8
0
 62
     0
100
AcDbLine
 10
-82.89999999999961
 20
-199.3542439491884
 30
0.0
 11
47.66896748727413
 21
-286.4000000000032
 31
0.0
  0
LINE
  5
27F4
330
2F2F
100
AcDbEntity
  8
0
 62
     0
100
AcDbLine
 10
47.66896748727413
 20
-286.4000000000032
 30
0.0
 11
100.1691015476517
 21
-321.4000000000032
 31
0.0
  0
LINE
  5
27F5
330
2F2F
100
AcDbEntity
  8
0
 62
     0
100
AcDbLine
 10
-132.900000000005
 20
-166.0209957333336
 30
0.0
 11
-82.90000000000508
 21
-199.3542439491848
 31
0.0
  0
LINE
  5
27F6
330
2F2F
100
AcDbEntity
  8
0
 62
     0
100
AcDbLine
 10
-82.89999999999961
 20
-196.3542774137713
 30
0.0
 11
52.16892878115864
 21
-286.4000000000024
 31
0.0
  0
LINE
  5
27F7
330
2F2F
100
AcDbEntity
  8
0
 62
     0
100
AcDbLine
 10
52.16892878115864
 20
-286.4000000000024
 30
0.0
 11
104.6690628415363
 21
-321.4000000000032
 31
0.0
  0
LINE
  5
27F8
330
2F2F
100
AcDbEntity
  8
0
 62
     0
100
AcDbLine
 10
-132.9000000000033
 20
-163.0210291979183
 30
0.0
 11
-82.90000000000324
 21
-196.3542774137694
 31
0.0
  0
LINE
  5
27F9
330
2F2F
100
AcDbEntity
  8
0
 62
     0
100
AcDbLine
 10
-82.89999999999961
 20
-193.354310878356
 30
0.0
 11
56.66889007504686
 21
-286.4000000000042
 31
0.0
  0
LINE
  5
27FA
330
2F2F
100
AcDbEntity
  8
0
 62
     0
100
AcDbLine
 10
56.66889007504686
 20
-286.4000000000042
 30
0.0
 11
109.1690241354208
 21
-321.4000000000023
 31
0.0
  0
LINE
  5
27FB
330
2F2F
100
AcDbEntity
  8
0
 62
     0
100
AcDbLine
 10
-132.900000000005
 20
-160.0210626625012
 30
0.0
 11
-82.90000000000508
 21
-193.3543108783524
 31
0.0
  0
LINE
  5
27FC
330
2F2F
100
AcDbEntity
  8
0
 62
     0
100
AcDbLine
 10
-82.89999999999961
 20
-190.3543443429389
 30
0.0
 11
61.16885136893142
 21
-286.4000000000014
 31
0.0
  0
LINE
  5
27FD
330
2F2F
100
AcDbEntity
  8
0
 62
     0
100
AcDbLine
 10
61.16885136893142
 20
-286.4000000000014
 30
0.0
 11
113.668985429309
 21
-321.4000000000023
 31
0.0
  0
LINE
  5
27FE
330
2F2F
100
AcDbEntity
  8
0
 62
     0
100
AcDbLine
 10
-132.900000000005
 20
-157.0210961270841
 30
0.0
 11
-82.90000000000324
 21
-190.3543443429371
 31
0.0
  0
LINE
  5
27FF
330
2F2F
100
AcDbEntity
  8
0
 62
     0
100
AcDbLine
 10
-82.89999999999961
 20
-187.3543778075234
 30
0.0
 11
65.6688126628178
 21
-286.4000000000032
 31
0.0
  0
LINE
  5
2800
330
2F2F
100
AcDbEntity
  8
0
 62
     0
100
AcDbLine
 10
65.6688126628178
 20
-286.4000000000032
 30
0.0
 11
118.1689467231954
 21
-321.4000000000042
 31
0.0
  0
LINE
  5
2801
330
2F2F
100
AcDbEntity
  8
0
 62
     0
100
AcDbLine
 10
-132.9000000000033
 20
-154.0211295916706
 30
0.0
 11
-82.90000000000324
 21
-187.35437780752
 31
0.0
  0
LINE
  5
2802
330
2F2F
100
AcDbEntity
  8
0
 62
     0
100
AcDbLine
 10
-82.89999999999961
 20
-184.3544112721065
 30
0.0
 11
70.16877395670054
 21
-286.4000000000006
 31
0.0
  0
LINE
  5
2803
330
2F2F
100
AcDbEntity
  8
0
 62
     0
100
AcDbLine
 10
70.16877395670054
 20
-286.4000000000006
 30
0.0
 11
122.6689080170781
 21
-321.4000000000015
 31
0.0
  0
LINE
  5
2804
330
2F2F
100
AcDbEntity
  8
0
 62
     0
100
AcDbLine
 10
-132.900000000005
 20
-151.0211630562517
 30
0.0
 11
-82.90000000000508
 21
-184.3544112721028
 31
0.0
  0
LINE
  5
2805
330
2F2F
100
AcDbEntity
  8
0
 62
     0
100
AcDbLine
 10
-82.90000000000146
 20
-181.3544447366911
 30
0.0
 11
74.6687352505851
 21
-286.4000000000024
 31
0.0
  0
LINE
  5
2806
330
2F2F
100
AcDbEntity
  8
0
 62
     0
100
AcDbLine
 10
74.6687352505851
 20
-286.4000000000024
 30
0.0
 11
127.1688693109627
 21
-321.4000000000032
 31
0.0
  0
LINE
  5
2807
330
2F2F
100
AcDbEntity
  8
0
 62
     0
100
AcDbLine
 10
-132.900000000005
 20
-148.0211965208364
 30
0.0
 11
-82.90000000000508
 21
-181.3544447366876
 31
0.0
  0
LINE
  5
2808
330
2F2F
100
AcDbEntity
  8
0
 62
     0
100
AcDbLine
 10
-82.89999999999782
 20
-178.3544782012741
 30
0.0
 11
79.16869654447509
 21
-286.4000000000024
 31
0.0
  0
LINE
  5
2809
330
2F2F
100
AcDbEntity
  8
0
 62
     0
100
AcDbLine
 10
79.16869654447509
 20
-286.4000000000024
 30
0.0
 11
131.6688306048527
 21
-321.4000000000023
 31
0.0
  0
LINE
  5
280A
330
2F2F
100
AcDbEntity
  8
0
 62
     0
100
AcDbLine
 10
-132.9000000000033
 20
-145.0212299854191
 30
0.0
 11
-82.90000000000324
 21
-178.3544782012704
 31
0.0
  0
LINE
  5
280B
330
2F2F
100
AcDbEntity
  8
0
 62
     0
100
AcDbLine
 10
-82.89999999999961
 20
-175.3545116658588
 30
0.0
 11
83.66865783835601
 21
-286.4000000000014
 31
0.0
  0
LINE
  5
280C
330
2F2F
100
AcDbEntity
  8
0
 62
     0
100
AcDbLine
 10
83.66865783835601
 20
-286.4000000000014
 30
0.0
 11
132.8999999999978
 21
-319.2208109654721
 31
0.0
  0
LINE
  5
280D
330
2F2F
100
AcDbEntity
  8
0
 62
     0
100
AcDbLine
 10
-132.9000000000033
 20
-142.0212634500039
 30
0.0
 11
-82.90000000000324
 21
-175.354511665857
 31
0.0
  0
LINE
  5
280E
330
2F2F
100
AcDbEntity
  8
0
 62
     0
100
AcDbLine
 10
-82.89999999999961
 20
-172.3545451304417
 30
0.0
 11
88.16861913224235
 21
-286.4000000000014
 31
0.0
  0
LINE
  5
280F
330
2F2F
100
AcDbEntity
  8
0
 62
     0
100
AcDbLine
 10
88.16861913224235
 20
-286.4000000000014
 30
0.0
 11
132.8999999999978
 21
-316.220844430055
 31
0.0
  0
LINE
  5
2810
330
2F2F
100
AcDbEntity
  8
0
 62
     0
100
AcDbLine
 10
-132.900000000005
 20
-139.0212969145887
 30
0.0
 11
-82.90000000000508
 21
-172.3545451304399
 31
0.0
  0
LINE
  5
2811
330
2F2F
100
AcDbEntity
  8
0
 62
     0
100
AcDbLine
 10
-82.90000000000146
 20
-169.3545785950264
 30
0.0
 11
92.66858042612877
 21
-286.4000000000032
 31
0.0
  0
LINE
  5
2812
330
2F2F
100
AcDbEntity
  8
0
 62
     0
100
AcDbLine
 10
92.66858042612877
 20
-286.4000000000032
 30
0.0
 11
132.8999999999978
 21
-313.2208778946397
 31
0.0
  0
LINE
  5
2813
330
2F2F
100
AcDbEntity
  8
0
 62
     0
100
AcDbLine
 10
-132.9000000000033
 20
-136.0213303791734
 30
0.0
 11
-82.90000000000324
 21
-169.3545785950246
 31
0.0
  0
LINE
  5
2814
330
2F2F
100
AcDbEntity
  8
0
 62
     0
100
AcDbLine
 10
-82.89999999999961
 20
-166.3546120596093
 30
0.0
 11
97.16854172001696
 21
-286.4000000000024
 31
0.0
  0
LINE
  5
2815
330
2F2F
100
AcDbEntity
  8
0
 62
     0
100
AcDbLine
 10
97.16854172001696
 20
-286.4000000000024
 30
0.0
 11
132.8999999999996
 21
-310.2209113592228
 31
0.0
  0
LINE
  5
2816
330
2F2F
100
AcDbEntity
  8
0
 62
     0
100
AcDbLine
 10
-132.9000000000033
 20
-133.0213638437562
 30
0.0
 11
-82.90000000000508
 21
-166.3546120596056
 31
0.0
  0
LINE
  5
2817
330
2F2F
100
AcDbEntity
  8
0
 62
     0
100
AcDbLine
 10
-82.90000000000146
 20
-163.354645524194
 30
0.0
 11
101.6685030138978
 21
-286.4000000000024
 31
0.0
  0
LINE
  5
2818
330
2F2F
100
AcDbEntity
  8
0
 62
     0
100
AcDbLine
 10
101.6685030138978
 20
-286.4000000000024
 30
0.0
 11
132.8999999999978
 21
-307.2209448238082
 31
0.0
  0
LINE
  5
2819
330
2F2F
100
AcDbEntity
  8
0
 62
     0
100
AcDbLine
 10
-132.9000000000033
 20
-130.0213973083409
 30
0.0
 11
-82.90000000000324
 21
-163.3546455241921
 31
0.0
  0
LINE
  5
281A
330
2F2F
100
AcDbEntity
  8
0
 62
     0
100
AcDbLine
 10
-82.89999999999961
 20
-160.3546789887768
 30
0.0
 11
106.168464307786
 21
-286.4000000000014
 31
0.0
  0
LINE
  5
281B
330
2F2F
100
AcDbEntity
  8
0
 62
     0
100
AcDbLine
 10
106.1684643077879
 20
-286.4000000000042
 30
0.0
 11
132.8999999999996
 21
-304.2209782883911
 31
0.0
  0
LINE
  5
281C
330
2F2F
100
AcDbEntity
  8
0
 62
     0
100
AcDbLine
 10
-132.9000000000033
 20
-127.0214307729238
 30
0.0
 11
-82.90000000000508
 21
-160.3546789887732
 31
0.0
  0
LINE
  5
281D
330
2F2F
100
AcDbEntity
  8
0
 62
     0
100
AcDbLine
 10
-82.89999999999961
 20
-157.3547124533615
 30
0.0
 11
110.6684256016724
 21
-286.4000000000032
 31
0.0
  0
LINE
  5
281E
330
2F2F
100
AcDbEntity
  8
0
 62
     0
100
AcDbLine
 10
110.6684256016724
 20
-286.4000000000032
 30
0.0
 11
132.8999999999996
 21
-301.2210117529757
 31
0.0
  0
LINE
  5
281F
330
2F2F
100
AcDbEntity
  8
0
 62
     0
100
AcDbLine
 10
-132.9000000000033
 20
-124.0214642375085
 30
0.0
 11
-82.90000000000324
 21
-157.3547124533597
 31
0.0
  0
LINE
  5
2820
330
2F2F
100
AcDbEntity
  8
0
 62
     0
100
AcDbLine
 10
-82.89999999999961
 20
-154.3547459179444
 30
0.0
 11
115.1683868955588
 21
-286.4000000000032
 31
0.0
  0
LINE
  5
2821
330
2F2F
100
AcDbEntity
  8
0
 62
     0
100
AcDbLine
 10
115.1683868955588
 20
-286.4000000000032
 30
0.0
 11
132.8999999999978
 21
-298.2210452175577
 31
0.0
  0
LINE
  5
2822
330
2F2F
100
AcDbEntity
  8
0
 62
     0
100
AcDbLine
 10
-132.900000000005
 20
-121.0214977020914
 30
0.0
 11
-82.90000000000508
 21
-154.3547459179426
 31
0.0
  0
LINE
  5
2823
330
2F2F
100
AcDbEntity
  8
0
 62
     0
100
AcDbLine
 10
-82.90000000000146
 20
-151.3547793825273
 30
0.0
 11
119.6683481894397
 21
-286.4000000000006
 31
0.0
  0
LINE
  5
2824
330
2F2F
100
AcDbEntity
  8
0
 62
     0
100
AcDbLine
 10
119.6683481894397
 20
-286.4000000000006
 30
0.0
 11
132.8999999999978
 21
-295.2210786821415
 31
0.0
  0
LINE
  5
2825
330
2F2F
100
AcDbEntity
  8
0
 62
     0
100
AcDbLine
 10
-132.900000000005
 20
-118.0215311666743
 30
0.0
 11
-82.90000000000508
 21
-151.3547793825254
 31
0.0
  0
LINE
  5
2826
330
2F2F
100
AcDbEntity
  8
0
 62
     0
100
AcDbLine
 10
-82.89999999999961
 20
-148.3548128471138
 30
0.0
 11
124.1683094833279
 21
-286.4000000000024
 31
0.0
  0
LINE
  5
2827
330
2F2F
100
AcDbEntity
  8
0
 62
     0
100
AcDbLine
 10
124.1683094833279
 20
-286.4000000000024
 30
0.0
 11
132.8999999999978
 21
-292.2211121467253
 31
0.0
  0
LINE
  5
2828
330
2F2F
100
AcDbEntity
  8
0
 62
     0
100
AcDbLine
 10
-132.900000000005
 20
-115.021564631259
 30
0.0
 11
-82.90000000000508
 21
-148.3548128471102
 31
0.0
  0
LINE
  5
2829
330
2F2F
100
AcDbEntity
  8
0
 62
     0
100
AcDbLine
 10
-82.89999999999961
 20
-145.3548463116967
 30
0.0
 11
128.6682707772142
 21
-286.4000000000014
 31
0.0
  0
LINE
  5
282A
330
2F2F
100
AcDbEntity
  8
0
 62
     0
100
AcDbLine
 10
128.6682707772142
 20
-286.4000000000014
 30
0.0
 11
132.8999999999996
 21
-289.2211456113091
 31
0.0
  0
LINE
  5
282B
330
2F2F
100
AcDbEntity
  8
0
 62
     0
100
AcDbLine
 10
-132.9000000000033
 20
-112.0215980958419
 30
0.0
 11
-82.90000000000324
 21
-145.3548463116931
 31
0.0
  0
LINE
  5
282C
330
2F2F
100
AcDbEntity
  8
0
 62
     0
100
AcDbLine
 10
-82.90000000000146
 20
-142.3548797762796
 30
0.0
 11
132.8999999999978
 21
-286.2211790758938
 31
0.0
  0
LINE
  5
282D
330
2F2F
100
AcDbEntity
  8
0
 62
     0
100
AcDbLine
 10
-132.900000000005
 20
-109.0216315604266
 30
0.0
 11
-82.90000000000508
 21
-142.3548797762778
 31
0.0
  0
LINE
  5
282E
330
2F2F
100
AcDbEntity
  8
0
 62
     0
100
AcDbLine
 10
-82.89999999999961
 20
-139.3549132408625
 30
0.0
 11
132.8999999999996
 21
-283.2212125404767
 31
0.0
  0
LINE
  5
282F
330
2F2F
100
AcDbEntity
  8
0
 62
     0
100
AcDbLine
 10
-132.9000000000033
 20
-106.0216650250095
 30
0.0
 11
-82.90000000000508
 21
-139.3549132408607
 31
0.0
  0
LINE
  5
2830
330
2F2F
100
AcDbEntity
  8
0
 62
     0
100
AcDbLine
 10
-82.89999999999961
 20
-136.3549467054472
 30
0.0
 11
132.8999999999996
 21
-280.2212460050614
 31
0.0
  0
LINE
  5
2831
330
2F2F
100
AcDbEntity
  8
0
 62
     0
100
AcDbLine
 10
-132.9000000000033
 20
-103.0216984895942
 30
0.0
 11
-82.90000000000324
 21
-136.3549467054454
 31
0.0
  0
LINE
  5
2832
330
2F2F
100
AcDbEntity
  8
0
 62
     0
100
AcDbLine
 10
-82.89999999999961
 20
-133.3549801700318
 30
0.0
 11
132.8999999999996
 21
-277.2212794696443
 31
0.0
  0
LINE
  5
2833
330
2F2F
100
AcDbEntity
  8
0
 62
     0
100
AcDbLine
 10
-132.9000000000033
 20
-100.0217319541771
 30
0.0
 11
-82.90000000000508
 21
-133.3549801700283
 31
0.0
  0
LINE
  5
2834
330
2F2F
100
AcDbEntity
  8
0
 62
     0
100
AcDbLine
 10
-82.90000000000146
 20
-130.3550136346166
 30
0.0
 11
132.8999999999978
 21
-274.2213129342299
 31
0.0
  0
LINE
  5
2835
330
2F2F
100
AcDbEntity
  8
0
 62
     0
100
AcDbLine
 10
-132.900000000005
 20
-97.02176541876179
 30
0.0
 11
-82.90000000000508
 21
-130.355013634613
 31
0.0
  0
LINE
  5
2836
330
2F2F
100
AcDbEntity
  8
0
 62
     0
100
AcDbLine
 10
-82.89999999999961
 20
-127.3550470991995
 30
0.0
 11
132.8999999999996
 21
-271.2213463988129
 31
0.0
  0
LINE
  5
2837
330
2F2F
100
AcDbEntity
  8
0
 62
     0
100
AcDbLine
 10
-132.9000000000033
 20
-94.02179888334648
 30
0.0
 11
-82.90000000000508
 21
-127.3550470991958
 31
0.0
  0
LINE
  5
2838
330
2F2F
100
AcDbEntity
  8
0
 62
     0
100
AcDbLine
 10
-82.89999999999961
 20
-124.3550805637842
 30
0.0
 11
132.8999999999996
 21
-268.2213798633975
 31
0.0
  0
LINE
  5
2839
330
2F2F
100
AcDbEntity
  8
0
 62
     0
100
AcDbLine
 10
-130.5327424770476
 20
-92.60000000000037
 30
0.0
 11
-82.90000000000324
 21
-124.3550805637805
 31
0.0
  0
LINE
  5
283A
330
2F2F
100
AcDbEntity
  8
0
 62
     0
100
AcDbLine
 10
-82.90000000000146
 20
-121.3551140283652
 30
0.0
 11
132.8999999999978
 21
-265.2214133279795
 31
0.0
  0
LINE
  5
283B
330
2F2F
100
AcDbEntity
  8
0
 62
     0
100
AcDbLine
 10
-126.0327811831594
 20
-92.60000000000221
 30
0.0
 11
-82.90000000000508
 21
-121.3551140283634
 31
0.0
  0
LINE
  5
283C
330
2F2F
100
AcDbEntity
  8
0
 62
     0
100
AcDbLine
 10
-82.89999999999961
 20
-118.3551474929518
 30
0.0
 11
132.8999999999978
 21
-262.2214467925642
 31
0.0
  0
LINE
  5
283D
330
2F2F
100
AcDbEntity
  8
0
 62
     0
100
AcDbLine
 10
-121.5328198892748
 20
-92.60000000000221
 30
0.0
 11
-82.90000000000324
 21
-118.3551474929481
 31
0.0
  0
LINE
  5
283E
330
2F2F
100
AcDbEntity
  8
0
 62
     0
100
AcDbLine
 10
-82.89999999999961
 20
-115.3551809575347
 30
0.0
 11
132.8999999999996
 21
-259.221480257148
 31
0.0
  0
LINE
  5
283F
330
2F2F
100
AcDbEntity
  8
0
 62
     0
100
AcDbLine
 10
-117.0328585953866
 20
-92.60000000000221
 30
0.0
 11
-82.90000000000324
 21
-115.355180957531
 31
0.0
  0
LINE
  5
2840
330
2F2F
100
AcDbEntity
  8
0
 62
     0
100
AcDbLine
 10
-82.90000000000146
 20
-112.3552144221194
 30
0.0
 11
132.8999999999978
 21
-256.2215137217326
 31
0.0
  0
LINE
  5
2841
330
2F2F
100
AcDbEntity
  8
0
 62
     0
100
AcDbLine
 10
-112.5328973015021
 20
-92.60000000000401
 30
0.0
 11
-82.90000000000508
 21
-112.3552144221157
 31
0.0
  0
LINE
  5
2842
330
2F2F
100
AcDbEntity
  8
0
 62
     0
100
AcDbLine
 10
-82.90000000000146
 20
-109.3552478867023
 30
0.0
 11
132.8999999999978
 21
-253.2215471863155
 31
0.0
  0
LINE
  5
2843
330
2F2F
100
AcDbEntity
  8
0
 62
     0
100
AcDbLine
 10
-108.0329360076175
 20
-92.60000000000221
 30
0.0
 11
-82.90000000000508
 21
-109.3552478867004
 31
0.0
  0
LINE
  5
2844
330
2F2F
100
AcDbEntity
  8
0
 62
     0
100
AcDbLine
 10
-82.89999999999961
 20
-106.3552813512851
 30
0.0
 11
132.8999999999996
 21
-250.2215806508985
 31
0.0
  0
LINE
  5
2845
330
2F2F
100
AcDbEntity
  8
0
 62
     0
100
AcDbLine
 10
-103.5329747137311
 20
-92.60000000000037
 30
0.0
 11
-82.90000000000324
 21
-106.3552813512815
 31
0.0
  0
LINE
  5
2846
330
2F2F
100
AcDbEntity
  8
0
 62
     0
100
AcDbLine
 10
-82.89999999999961
 20
-103.3553148158698
 30
0.0
 11
132.8999999999996
 21
-247.2216141154831
 31
0.0
  0
LINE
  5
2847
330
2F2F
100
AcDbEntity
  8
0
 62
     0
100
AcDbLine
 10
-99.0330134198448
 20
-92.60000000000221
 30
0.0
 11
-82.90000000000508
 21
-103.3553148158662
 31
0.0
  0
LINE
  5
2848
330
2F2F
100
AcDbEntity
  8
0
 62
     0
100
AcDbLine
 10
-82.90000000000146
 20
-100.3553482804527
 30
0.0
 11
132.8999999999978
 21
-244.2216475800651
 31
0.0
  0
LINE
  5
2849
330
2F2F
100
AcDbEntity
  8
0
 62
     0
100
AcDbLine
 10
-94.53305212596024
 20
-92.60000000000221
 30
0.0
 11
-82.90000000000508
 21
-100.3553482804491
 31
0.0
  0
LINE
  5
284A
330
2F2F
100
AcDbEntity
  8
0
 62
     0
100
AcDbLine
 10
-82.89999999999961
 20
-97.35538174503744
 30
0.0
 11
132.8999999999978
 21
-241.2216810446507
 31
0.0
  0
LINE
  5
284B
330
2F2F
100
AcDbEntity
  8
0
 62
     0
100
AcDbLine
 10
-90.03309083207568
 20
-92.60000000000221
 30
0.0
 11
-82.90000000000508
 21
-97.35538174503382
 31
0.0
  0
LINE
  5
284C
330
2F2F
100
AcDbEntity
  8
0
 62
     0
100
AcDbLine
 10
-82.90000000000146
 20
-94.35541520962031
 30
0.0
 11
132.8999999999996
 21
-238.2217145092336
 31
0.0
  0
LINE
  5
284D
330
2F2F
100
AcDbEntity
  8
0
 62
     0
100
AcDbLine
 10
-85.5331295381856
 20
-92.60000000000401
 30
0.0
 11
-82.90000000000324
 21
-94.35541520961852
 31
0.0
  0
LINE
  5
284E
330
2F2F
100
AcDbEntity
  8
0
 62
     0
100
AcDbLine
 10
-81.03316824430477
 20
-92.60000000000221
 30
0.0
 11
132.8999999999978
 21
-235.2217479738183
 31
0.0
  0
LINE
  5
284F
330
2F2F
100
AcDbEntity
  8
0
 62
     0
100
AcDbLine
 10
-76.53320695041657
 20
-92.60000000000221
 30
0.0
 11
132.8999999999996
 21
-232.2217814384012
 31
0.0
  0
LINE
  5
2850
330
2F2F
100
AcDbEntity
  8
0
 62
     0
100
AcDbLine
 10
-72.03324565653018
 20
-92.60000000000401
 30
0.0
 11
132.8999999999996
 21
-229.2218149029868
 31
0.0
  0
LINE
  5
2851
330
2F2F
100
AcDbEntity
  8
0
 62
     0
100
AcDbLine
 10
-67.53328436264382
 20
-92.60000000000401
 30
0.0
 11
132.8999999999996
 21
-226.2218483675697
 31
0.0
  0
LINE
  5
2852
330
2F2F
100
AcDbEntity
  8
0
 62
     0
100
AcDbLine
 10
-63.03332306876289
 20
-92.60000000000221
 30
0.0
 11
132.899999999996
 21
-223.2218818321535
 31
0.0
  0
LINE
  5
2853
330
2F2F
100
AcDbEntity
  8
0
 62
     0
100
AcDbLine
 10
-58.5333617748747
 20
-92.60000000000221
 30
0.0
 11
132.8999999999978
 21
-220.2219152967364
 31
0.0
  0
LINE
  5
2854
330
2F2F
100
AcDbEntity
  8
0
 62
     0
100
AcDbLine
 10
-54.03340048098834
 20
-92.60000000000401
 30
0.0
 11
132.8999999999978
 21
-217.2219487613211
 31
0.0
  0
LINE
  5
2855
330
2F2F
100
AcDbEntity
  8
0
 62
     0
100
AcDbLine
 10
-49.53343918710562
 20
-92.60000000000221
 30
0.0
 11
132.8999999999978
 21
-214.221982225904
 31
0.0
  0
LINE
  5
2856
330
2F2F
100
AcDbEntity
  8
0
 62
     0
100
AcDbLine
 10
-45.03347789321924
 20
-92.60000000000221
 30
0.0
 11
132.8999999999978
 21
-211.2220156904878
 31
0.0
  0
LINE
  5
2857
330
2F2F
100
AcDbEntity
  8
0
 62
     0
100
AcDbLine
 10
-40.53351659933102
 20
-92.60000000000401
 30
0.0
 11
132.8999999999996
 21
-208.2220491550724
 31
0.0
  0
LINE
  5
2858
330
2F2F
100
AcDbEntity
  8
0
 62
     0
100
AcDbLine
 10
-36.03355530544649
 20
-92.60000000000221
 30
0.0
 11
132.8999999999978
 21
-205.2220826196553
 31
0.0
  0
LINE
  5
2859
330
2F2F
100
AcDbEntity
  8
0
 62
     0
100
AcDbLine
 10
-31.53359401156377
 20
-92.60000000000221
 30
0.0
 11
132.8999999999978
 21
-202.22211608424
 31
0.0
  0
LINE
  5
285A
330
2F2F
100
AcDbEntity
  8
0
 62
     0
100
AcDbLine
 10
-27.03363271767557
 20
-92.60000000000221
 30
0.0
 11
132.8999999999996
 21
-199.2221495488229
 31
0.0
  0
LINE
  5
285B
330
2F2F
100
AcDbEntity
  8
0
 62
     0
100
AcDbLine
 10
-22.5336714237892
 20
-92.60000000000401
 30
0.0
 11
132.8999999999978
 21
-196.2221830134076
 31
0.0
  0
LINE
  5
285C
330
2F2F
100
AcDbEntity
  8
0
 62
     0
100
AcDbLine
 10
-18.03371012990465
 20
-92.60000000000401
 30
0.0
 11
132.8999999999978
 21
-193.2222164779904
 31
0.0
  0
LINE
  5
285D
330
2F2F
100
AcDbEntity
  8
0
 62
     0
100
AcDbLine
 10
-13.53374883602009
 20
-92.60000000000221
 30
0.0
 11
132.8999999999942
 21
-190.2222499425734
 31
0.0
  0
LINE
  5
285E
330
2F2F
100
AcDbEntity
  8
0
 62
     0
100
AcDbLine
 10
-9.033787542133724
 20
-92.60000000000221
 30
0.0
 11
132.899999999996
 21
-187.2222834071561
 31
0.0
  0
LINE
  5
285F
330
2F2F
100
AcDbEntity
  8
0
 62
     0
100
AcDbLine
 10
-4.533826248247351
 20
-92.60000000000401
 30
0.0
 11
132.8999999999942
 21
-184.2223168717409
 31
0.0
  0
LINE
  5
2860
330
2F2F
100
AcDbEntity
  8
0
 62
     0
100
AcDbLine
 10
-0.033864954360979
 20
-92.60000000000401
 30
0.0
 11
132.899999999996
 21
-181.2223503363238
 31
0.0
  0
LINE
  5
2861
330
2F2F
100
AcDbEntity
  8
0
 62
     0
100
AcDbLine
 10
4.466096339523573
 20
-92.60000000000401
 30
0.0
 11
132.8999999999978
 21
-178.2223838009095
 31
0.0
  0
LINE
  5
2862
330
2F2F
100
AcDbEntity
  8
0
 62
     0
100
AcDbLine
 10
8.966057633408127
 20
-92.60000000000221
 30
0.0
 11
132.8999999999942
 21
-175.2224172654914
 31
0.0
  0
LINE
  5
2863
330
2F2F
100
AcDbEntity
  8
0
 62
     0
100
AcDbLine
 10
13.4660189272945
 20
-92.60000000000221
 30
0.0
 11
132.8999999999942
 21
-172.2224507300743
 31
0.0
  0
LINE
  5
2864
330
2F2F
100
AcDbEntity
  8
0
 62
     0
100
AcDbLine
 10
17.96598022117722
 20
-92.60000000000221
 30
0.0
 11
132.8999999999942
 21
-169.222484194659
 31
0.0
  0
LINE
  5
2865
330
2F2F
100
AcDbEntity
  8
0
 62
     0
100
AcDbLine
 10
22.46594151506542
 20
-92.60000000000221
 30
0.0
 11
132.899999999996
 21
-166.2225176592419
 31
0.0
  0
LINE
  5
2866
330
2F2F
100
AcDbEntity
  8
0
 62
     0
100
AcDbLine
 10
26.96590280894998
 20
-92.60000000000401
 30
0.0
 11
132.8999999999942
 21
-163.2225511238266
 31
0.0
  0
LINE
  5
2867
330
2F2F
100
AcDbEntity
  8
0
 62
     0
100
AcDbLine
 10
31.46586410283817
 20
-92.60000000000221
 30
0.0
 11
132.899999999996
 21
-160.2225845884104
 31
0.0
  0
LINE
  5
2868
330
2F2F
100
AcDbEntity
  8
0
 62
     0
100
AcDbLine
 10
35.9658253967209
 20
-92.60000000000221
 30
0.0
 11
132.899999999996
 21
-157.2226180529951
 31
0.0
  0
LINE
  5
2869
330
2F2F
100
AcDbEntity
  8
0
 62
     0
100
AcDbLine
 10
40.46578669060727
 20
-92.60000000000221
 30
0.0
 11
132.8999999999942
 21
-154.2226515175771
 31
0.0
  0
LINE
  5
286A
330
2F2F
100
AcDbEntity
  8
0
 62
     0
100
AcDbLine
 10
44.96574798449183
 20
-92.60000000000401
 30
0.0
 11
132.8999999999923
 21
-151.2226849821618
 31
0.0
  0
LINE
  5
286B
330
2F2F
100
AcDbEntity
  8
0
 62
     0
100
AcDbLine
 10
49.46570927838003
 20
-92.60000000000307
 30
0.0
 11
132.8999999999942
 21
-148.2227184467447
 31
0.0
  0
LINE
  5
286C
330
2F2F
100
AcDbEntity
  8
0
 62
     0
100
AcDbLine
 10
53.96567057226275
 20
-92.60000000000307
 30
0.0
 11
132.8999999999942
 21
-145.2227519113303
 31
0.0
  0
LINE
  5
286D
330
2F2F
100
AcDbEntity
  8
0
 62
     0
100
AcDbLine
 10
58.46563186614911
 20
-92.60000000000221
 30
0.0
 11
132.8999999999942
 21
-142.2227853759132
 31
0.0
  0
LINE
  5
286E
330
2F2F
100
AcDbEntity
  8
0
 62
     0
100
AcDbLine
 10
62.96559316003549
 20
-92.60000000000401
 30
0.0
 11
132.8999999999942
 21
-139.2228188404978
 31
0.0
  0
LINE
  5
286F
330
2F2F
100
AcDbEntity
  8
0
 62
     0
100
AcDbLine
 10
67.46555445392004
 20
-92.60000000000127
 30
0.0
 11
132.899999999996
 21
-136.2228523050807
 31
0.0
  0
LINE
  5
2870
330
2F2F
100
AcDbEntity
  8
0
 62
     0
100
AcDbLine
 10
71.96551574780457
 20
-92.60000000000127
 30
0.0
 11
132.8999999999942
 21
-133.2228857696636
 31
0.0
  0
LINE
  5
2871
330
2F2F
100
AcDbEntity
  8
0
 62
     0
100
AcDbLine
 10
76.46547704169099
 20
-92.60000000000307
 30
0.0
 11
132.8999999999942
 21
-130.2229192342492
 31
0.0
  0
LINE
  5
2872
330
2F2F
100
AcDbEntity
  8
0
 62
     0
100
AcDbLine
 10
80.96543833557918
 20
-92.60000000000221
 30
0.0
 11
132.899999999996
 21
-127.2229526988312
 31
0.0
  0
LINE
  5
2873
330
2F2F
100
AcDbEntity
  8
0
 62
     0
100
AcDbLine
 10
85.46539962946189
 20
-92.60000000000221
 30
0.0
 11
132.8999999999942
 21
-124.2229861634159
 31
0.0
  0
LINE
  5
2874
330
2F2F
100
AcDbEntity
  8
0
 62
     0
100
AcDbLine
 10
89.96536092334647
 20
-92.60000000000221
 30
0.0
 11
132.8999999999942
 21
-121.2230196279988
 31
0.0
  0
LINE
  5
2875
330
2F2F
100
AcDbEntity
  8
0
 62
     0
100
AcDbLine
 10
94.46532221723463
 20
-92.60000000000307
 30
0.0
 11
132.8999999999942
 21
-118.2230530925835
 31
0.0
  0
LINE
  5
2876
330
2F2F
100
AcDbEntity
  8
0
 62
     0
100
AcDbLine
 10
98.96528351112101
 20
-92.60000000000307
 30
0.0
 11
132.899999999996
 21
-115.2230865571664
 31
0.0
  0
LINE
  5
2877
330
2F2F
100
AcDbEntity
  8
0
 62
     0
100
AcDbLine
 10
103.4652448050037
 20
-92.60000000000221
 30
0.0
 11
132.8999999999942
 21
-112.223120021752
 31
0.0
  0
LINE
  5
2878
330
2F2F
100
AcDbEntity
  8
0
 62
     0
100
AcDbLine
 10
107.9652060988937
 20
-92.60000000000401
 30
0.0
 11
132.899999999996
 21
-109.2231534863349
 31
0.0
  0
LINE
  5
2879
330
2F2F
100
AcDbEntity
  8
0
 62
     0
100
AcDbLine
 10
112.4651673927783
 20
-92.60000000000401
 30
0.0
 11
132.8999999999942
 21
-106.2231869509187
 31
0.0
  0
LINE
  5
287A
330
2F2F
100
AcDbEntity
  8
0
 62
     0
100
AcDbLine
 10
116.9651286866628
 20
-92.60000000000307
 30
0.0
 11
132.8999999999942
 21
-103.2232204155016
 31
0.0
  0
LINE
  5
287B
330
2F2F
100
AcDbEntity
  8
0
 62
     0
100
AcDbLine
 10
121.4650899805456
 20
-92.60000000000307
 30
0.0
 11
132.8999999999923
 21
-100.2232538800863
 31
0.0
  0
LINE
  5
287C
330
2F2F
100
AcDbEntity
  8
0
 62
     0
100
AcDbLine
 10
125.965051274432
 20
-92.60000000000221
 30
0.0
 11
132.8999999999942
 21
-97.22328734467009
 31
0.0
  0
LINE
  5
287D
330
2F2F
100
AcDbEntity
  8
0
 62
     0
100
AcDbLine
 10
130.4650125683183
 20
-92.60000000000221
 30
0.0
 11
132.8999999999942
 21
-94.22332080925301
 31
0.0
  0
ENDBLK
  5
287E
330
2F2F
100
AcDbEntity
  8
0
100
AcDbBlockEnd
  0
ENDSEC
  0
SECTION
  2
ENTITIES
  0
TEXT
  5
953
330
2E4D
100
AcDbEntity
  8
OUTLINE
  6
Continuous
 62
     3
100
AcDbText
 10
-418.231467
 20
13.715189
 30
0.0
 40
64.0
  1
 
 41
0.9
100
AcDbText
  0
TEXT
  5
954
330
2E4D
100
AcDbEntity
  8
OUTLINE
  6
Continuous
 62
     3
100
AcDbText
 10
-418.231467
 20
13.715189
 30
0.0
 40
64.0
  1
 
 41
0.9
100
AcDbText
  0
TEXT
  5
955
330
2E4D
100
AcDbEntity
  8
OUTLINE
  6
Continuous
 62
     3
100
AcDbText
 10
1341.41903
 20
-706.0588199999997
 30
0.0
 40
64.0
  1
 
 41
0.9
100
AcDbText
  0
TEXT
  5
956
330
2E4D
100
AcDbEntity
  8
OUTLINE
  6
Continuous
 62
     3
100
AcDbText
 10
1341.41903
 20
-706.0588199999997
 30
0.0
 40
64.0
  1
 
 41
0.9
100
AcDbText
  0
TEXT
  5
957
330
2E4D
100
AcDbEntity
  8
OUTLINE
  6
Continuous
 62
     3
100
AcDbText
 10
1341.41903
 20
-706.0588199999997
 30
0.0
 40
64.0
  1
 
 41
0.9
100
AcDbText
  0
TEXT
  5
958
330
2E4D
100
AcDbEntity
  8
OUTLINE
  6
Continuous
 62
     3
100
AcDbText
 10
1341.41903
 20
-706.0588199999997
 30
0.0
 40
64.0
  1
 
 41
0.9
100
AcDbText
  0
TEXT
  5
28E0
330
2E4D
100
AcDbEntity
  8
ETC
100
AcDbText
 10
256.2468308916503
 20
506.4536544703252
 30
0.0
 40
64.0
  1
システム部材
 41
0.9
100
AcDbText
  0
TEXT
  5
28E1
330
2E4D
100
AcDbEntity
  8
ETC
100
AcDbText
 10
262.4548288916483
 20
607.336980470325
 30
0.0
 40
64.0
  1
QW-25SDBFM_6
 41
0.9
100
AcDbText
  0
TEXT
  5
28E2
330
2E4D
100
AcDbEntity
  8
ETC
100
AcDbText
 10
256.2468308916503
 20
406.4536544703252
 30
0.0
 40
64.0
  1
QW-25SDBFM
 41
0.9
100
AcDbText
  0
LINE
  5
28E3
330
2E4D
100
AcDbEntity
  8
DETAIL
100
AcDbLine
 39
50.0
 10
147.9000000000014
 20
-66.0
 30
0.0
 11
159.5
 21
-66.0
 31
0.0
  0
LINE
  5
28E4
330
2E4D
100
AcDbEntity
  8
DETAIL
100
AcDbLine
 39
50.0
 10
-159.5
 20
-66.0
 30
0.0
 11
-147.8999999999978
 21
-66.0
 31
0.0
  0
POINT
  5
28E5
330
2E4D
100
AcDbEntity
  8
ARRANGE
100
AcDbPoint
 10
0.0
 20
0.0
 30
0.0
 39
50.0
  0
LINE
  5
28E6
330
2E4D
100
AcDbEntity
  8
DETAIL
100
AcDbLine
 10
148.5
 20
-9.999999999999991
 30
0.0
 11
148.5
 21
-66.0
 31
0.0
  0
LINE
  5
28E7
330
2E4D
100
AcDbEntity
  8
DETAIL
100
AcDbLine
 10
-148.5
 20
-9.999999999999991
 30
0.0
 11
-148.5
 21
-66.0
 31
0.0
  0
CIRCLE
  5
28E8
330
2E4D
100
AcDbEntity
  8
ARRANGE
100
AcDbCircle
 10
0.0
 20
0.0
 30
0.0
 40
40.0
  0
LINE
  5
28E9
330
2E4D
100
AcDbEntity
  8
BASIS
100
AcDbLine
 10
0.0
 20
24.99999999999995
 30
0.0
 11
0.0
 21
-373.9999999999994
 31
0.0
  0
POLYLINE
  5
28EA
330
2E4D
100
AcDbEntity
  8
DETAIL
100
AcDb2dPolyline
 66
     1
 10
0.0
 20
0.0
 30
0.0
  0
VERTEX
  5
2B51
330
28EA
100
AcDbEntity
  8
DETAIL
100
AcDbVertex
100
AcDb2dVertex
 10
-182.5
 20
0.0
 30
0.0
  0
VERTEX
  5
2B52
330
28EA
100
AcDbEntity
  8
DETAIL
100
AcDbVertex
100
AcDb2dVertex
 10
182.5
 20
0.0
 30
0.0
  0
SEQEND
  5
2B53
330
28EA
100
AcDbEntity
  8
DETAIL
  0
POLYLINE
  5
28EB
330
2E4D
100
AcDbEntity
  8
DETAIL
100
AcDb2dPolyline
 66
     1
 10
0.0
 20
0.0
 30
0.0
  0
VERTEX
  5
2B54
330
28EB
100
AcDbEntity
  8
DETAIL
100
AcDbVertex
100
AcDb2dVertex
 10
-182.5
 20
-9.999999999999991
 30
0.0
  0
VERTEX
  5
2B55
330
28EB
100
AcDbEntity
  8
DETAIL
100
AcDbVertex
100
AcDb2dVertex
 10
182.5
 20
-9.999999999999991
 30
0.0
  0
SEQEND
  5
2B56
330
28EB
100
AcDbEntity
  8
DETAIL
  0
LINE
  5
28EC
330
2E4D
100
AcDbEntity
  8
DETAIL
100
AcDbLine
 10
-182.5
 20
0.0
 30
0.0
 11
-182.5
 21
-9.999999999999991
 31
0.0
  0
LINE
  5
28ED
330
2E4D
100
AcDbEntity
  8
NOTE
100
AcDbLine
 10
-165.0
 20
-12.5
 30
0.0
 11
-165.0
 21
12.49999999999999
 31
0.0
  0
LINE
  5
28EE
330
2E4D
100
AcDbEntity
  8
NOTE
100
AcDbLine
 10
165.0
 20
12.49999999999999
 30
0.0
 11
165.0
 21
-12.5
 31
0.0
  0
LINE
  5
28EF
330
2E4D
100
AcDbEntity
  8
DETAIL
100
AcDbLine
 10
182.5
 20
0.0
 30
0.0
 11
182.5
 21
-9.999999999999991
 31
0.0
  0
LINE
  5
28F0
330
2E4D
100
AcDbEntity
  8
DETAIL
100
AcDbLine
 10
-148.5
 20
-77.0
 30
0.0
 11
148.5
 21
-77.0
 31
0.0
  0
LINE
  5
28F1
330
2E4D
100
AcDbEntity
  8
DETAIL
100
AcDbLine
 10
147.9000000000014
 20
-66.0
 30
0.0
 11
-147.8999999999978
 21
-66.0
 31
0.0
  0
LINE
  5
28F2
330
2E4D
100
AcDbEntity
  8
DETAIL
100
AcDbLine
 10
-132.9000000000014
 20
-92.59999999999985
 30
0.0
 11
132.9000000000014
 21
-92.59999999999985
 31
0.0
  0
LINE
  5
28F3
330
2E4D
100
AcDbEntity
  8
DETAIL
100
AcDbLine
 10
-132.9000000000014
 20
-321.4
 30
0.0
 11
132.9000000000014
 21
-321.4
 31
0.0
  0
LINE
  5
28F4
330
2E4D
100
AcDbEntity
  8
DETAIL
100
AcDbLine
 10
-159.5
 20
-337.0000000000004
 30
0.0
 11
159.5
 21
-337.0000000000004
 31
0.0
  0
LINE
  5
28F5
330
2E4D
100
AcDbEntity
  8
DETAIL
100
AcDbLine
 10
-148.5
 20
-348.9999999999994
 30
0.0
 11
148.5
 21
-349.0000000000005
 31
0.0
  0
LINE
  5
28F6
330
2E4D
100
AcDbEntity
  8
OUTLINE
100
AcDbLine
 10
-148.5
 20
-77.0
 30
0.0
 11
-148.5
 21
-337.0000000000004
 31
0.0
  0
LINE
  5
28F7
330
2E4D
100
AcDbEntity
  8
DETAIL
100
AcDbLine
 10
-148.5
 20
-77.0
 30
0.0
 11
-148.5
 21
-349.0000000000005
 31
0.0
  0
LINE
  5
28F8
330
2E4D
100
AcDbEntity
  8
DETAIL
100
AcDbLine
 10
-159.5
 20
-66.0
 30
0.0
 11
-159.5
 21
-337.0000000000004
 31
0.0
  0
LINE
  5
28F9
330
2E4D
100
AcDbEntity
  8
DETAIL
100
AcDbLine
 10
-132.9000000000014
 20
-92.59999999999985
 30
0.0
 11
-132.9000000000014
 21
-321.4
 31
0.0
  0
LINE
  5
28FA
330
2E4D
100
AcDbEntity
  8
DETAIL
100
AcDbLine
 10
148.5
 20
-77.0
 30
0.0
 11
148.5
 21
-349.0000000000005
 31
0.0
  0
LINE
  5
28FB
330
2E4D
100
AcDbEntity
  8
DETAIL
100
AcDbLine
 10
159.5
 20
-66.0
 30
0.0
 11
159.5
 21
-337.0000000000004
 31
0.0
  0
LINE
  5
28FC
330
2E4D
100
AcDbEntity
  8
DETAIL
100
AcDbLine
 10
132.9000000000014
 20
-92.59999999999985
 30
0.0
 11
132.9000000000014
 21
-321.4
 31
0.0
  0
LINE
  5
28FD
330
2E4D
100
AcDbEntity
  8
NOTE
100
AcDbLine
 39
50.0
 10
-177.5
 20
0.0
 30
0.0
 11
-152.5
 21
0.0
 31
0.0
  0
LINE
  5
28FE
330
2E4D
100
AcDbEntity
  8
NOTE
100
AcDbLine
 39
50.0
 10
152.5
 20
0.0
 30
0.0
 11
177.5
 21
0.0
 31
0.0
  0
INSERT
  5
28FF
330
2E4D
100
AcDbEntity
  8
0
100
AcDbBlockReference
  2
*U74
 10
0.0
 20
0.0
 30
0.0
1001
ACAD
1000
DSTYLE
1002
{
1070
    41
1040
12.0
1070
    42
1040
20.0
1070
    43
1040
200.0
1070
    44
1040
20.0
1070
    73
1070
     0
1070
    74
1070
     0
1070
    77
1070
     1
1070
    78
1070
     8
1070
   140
1040
64.0
1070
   147
1040
50.0
1070
   172
1070
     1
1070
   174
1070
     1
1070
   275
1070
     0
1070
   284
1070
     0
1070
   285
1070
     0
1070
   286
1070
     0
1070
   341
1005
0
1070
   342
1005
0
1002
}
  0
INSERT
  5
2900
330
2E4D
100
AcDbEntity
  8
0
100
AcDbBlockReference
  2
*U75
 10
0.0
 20
0.0
 30
0.0
  0
LINE
  5
2901
330
2E4D
100
AcDbEntity
  8
OUTLINE
100
AcDbLine
 39
50.0
 10
147.9000000000014
 20
-66.0
 30
0.0
 11
159.5
 21
-66.0
 31
0.0
  0
LINE
  5
2902
330
2E4D
100
AcDbEntity
  8
OUTLINE
100
AcDbLine
 39
50.0
 10
-159.5
 20
-66.0
 30
0.0
 11
-147.8999999999978
 21
-66.0
 31
0.0
  0
LINE
  5
2903
330
2E4D
100
AcDbEntity
  8
OUTLINE
100
AcDbLine
 10
148.5
 20
-9.999999999999991
 30
0.0
 11
148.5
 21
-66.0
 31
0.0
  0
POLYLINE
  5
2904
330
2E4D
100
AcDbEntity
  8
OUTLINE
100
AcDb2dPolyline
 66
     1
 10
0.0
 20
0.0
 30
0.0
  0
VERTEX
  5
2B57
330
2904
100
AcDbEntity
  8
OUTLINE
100
AcDbVertex
100
AcDb2dVertex
 10
-182.5
 20
-9.999999999999991
 30
0.0
  0
VERTEX
  5
2B58
330
2904
100
AcDbEntity
  8
OUTLINE
100
AcDbVertex
100
AcDb2dVertex
 10
182.5
 20
-9.999999999999991
 30
0.0
  0
SEQEND
  5
2B59
330
2904
100
AcDbEntity
  8
OUTLINE
  0
LINE
  5
2905
330
2E4D
100
AcDbEntity
  8
OUTLINE
100
AcDbLine
 10
-182.5
 20
0.0
 30
0.0
 11
-182.5
 21
-9.999999999999991
 31
0.0
  0
LINE
  5
2906
330
2E4D
100
AcDbEntity
  8
OUTLINE
100
AcDbLine
 10
182.5
 20
0.0
 30
0.0
 11
182.5
 21
-9.999999999999991
 31
0.0
  0
LINE
  5
2907
330
2E4D
100
AcDbEntity
  8
OUTLINE
100
AcDbLine
 10
-148.5
 20
-77.0
 30
0.0
 11
148.5
 21
-77.0
 31
0.0
  0
LINE
  5
2908
330
2E4D
100
AcDbEntity
  8
OUTLINE
100
AcDbLine
 10
147.9000000000014
 20
-66.0
 30
0.0
 11
-147.8999999999978
 21
-66.0
 31
0.0
  0
LINE
  5
2909
330
2E4D
100
AcDbEntity
  8
OUTLINE
100
AcDbLine
 10
-159.5
 20
-337.0000000000004
 30
0.0
 11
159.5
 21
-337.0000000000004
 31
0.0
  0
LINE
  5
290A
330
2E4D
100
AcDbEntity
  8
OUTLINE
100
AcDbLine
 10
-148.5
 20
-348.9999999999994
 30
0.0
 11
148.5
 21
-349.0000000000005
 31
0.0
  0
LINE
  5
290B
330
2E4D
100
AcDbEntity
  8
OUTLINE
100
AcDbLine
 10
-148.5
 20
-77.0
 30
0.0
 11
-148.5
 21
-349.0000000000005
 31
0.0
  0
LINE
  5
290C
330
2E4D
100
AcDbEntity
  8
OUTLINE
100
AcDbLine
 10
-159.5
 20
-66.0
 30
0.0
 11
-159.5
 21
-337.0000000000004
 31
0.0
  0
LINE
  5
290D
330
2E4D
100
AcDbEntity
  8
OUTLINE
100
AcDbLine
 10
148.5
 20
-77.0
 30
0.0
 11
148.5
 21
-349.0000000000005
 31
0.0
  0
LINE
  5
290E
330
2E4D
100
AcDbEntity
  8
OUTLINE
100
AcDbLine
 10
159.5
 20
-66.0
 30
0.0
 11
159.5
 21
-337.0000000000004
 31
0.0
  0
LINE
  5
290F
330
2E4D
100
AcDbEntity
  8
OUTLINE
100
AcDbLine
 39
50.0
 10
-182.5
 20
0.0
 30
0.0
 11
182.5
 21
0.0
 31
0.0
  0
LINE
  5
2910
330
2E4D
100
AcDbEntity
  8
OUTLINE
100
AcDbLine
 10
-148.5
 20
-9.999999999999991
 30
0.0
 11
-148.5
 21
-66.0
 31
0.0
  0
INSERT
  5
2911
330
2E4D
100
AcDbEntity
  8
DETAIL
  6
Continuous
100
AcDbBlockReference
  2
*X76
 10
0.0
 20
0.0
 30
0.0
1001
ACADANNOTATIVE
1000
AnnotativeData
1002
{
1070
     1
1070
     0
1002
}
1001
ACAD
1000
HATCH
1002
{
1070
    19
1000
LINE
1040
19.969
1040
0.5880014249968896
1000
R14_HATCH_DATA
1000
5833
1011
1.0
1021
0.0
1031
0.0
1011
0.0
1021
1.0
1031
0.0
1011
0.0
1021
0.0
1031
1.0
1040
0.0
1010
0.0
1020
0.0
1030
1.0
1000
LINE
1070
     0
1070
     0
1071
        2
1071
        7
1070
     0
1070
     1
1071
        6
1040
132.9000000000014
1040
-286.4000000000001
1040
-82.89999999999782
1040
-286.4000000000001
1040
-82.89999999999782
1040
-92.59999999999987
1040
-132.9000000000014
1040
-92.59999999999987
1040
-132.900000000005
1040
-321.4000000000001
1040
132.9000000000014
1040
-321.4000000000001
1071
        0
1071
       23
1070
     0
1070
     1
1071
        4
1040
132.9000000000014
1040
-92.60000000000037
1040
-82.89999999999782
1040
-92.60000000000081
1040
-82.89999999999782
1040
-286.4000000000001
1040
132.8999999999978
1040
-286.4000000000001
1071
        0
1070
     0
1070
     1
1040
0.5880014249968896
1040
19.969
1070
     0
1070
     1
1040
0.5880014249968896
1040
20309.78664191569
1040
3680.361112389203
1040
-1.384598579568018
1040
2.076903172775084
1070
     0
1040
1.068793041557356
1071
        2
1040
-11.95284125236867
1040
-307.1606853719289
1040
0.0
1040
63.48330888505007
1040
-211.3214214842228
1040
0.0
1002
}
  0
INSERT
  5
2912
330
2E4D
100
AcDbEntity
  8
DETAIL
  6
Continuous
100
AcDbBlockReference
  2
*X77
 10
0.0
 20
0.0
 30
0.0
1001
ACADANNOTATIVE
1000
AnnotativeData
1002
{
1070
     1
1070
     0
1002
}
1001
ACAD
1000
HATCH
1002
{
1070
    19
1000
LINE
1040
19.969
1040
5.695183882182695
1000
R14_HATCH_DATA
1000
5839
1011
1.0
1021
0.0
1031
0.0
1011
0.0
1021
1.0
1031
0.0
1011
0.0
1021
0.0
1031
1.0
1040
0.0
1010
0.0
1020
0.0
1030
1.0
1000
LINE
1070
     0
1070
     0
1071
        2
1071
        7
1070
     0
1070
     1
1071
        6
1040
132.9000000000014
1040
-286.3999999999992
1040
-82.89999999999782
1040
-286.4000000000001
1040
-82.89999999999782
1040
-92.60000000000037
1040
-132.9000000000014
1040
-92.59999999999987
1040
-132.900000000005
1040
-321.4000000000001
1040
132.9000000000014
1040
-321.4000000000001
1071
        0
1071
       23
1070
     0
1070
     1
1071
        4
1040
-82.90000000000146
1040
-92.60000000000081
1040
-82.90000000000146
1040
-286.4000000000001
1040
132.9000000000014
1040
-286.4000000000001
1040
132.8999999999978
1040
-92.59999999999987
1071
        0
1070
     0
1070
     1
1040
5.695183882182695
1040
19.969
1070
     0
1070
     1
1040
5.695183882182695
1040
20309.78664191569
1040
3680.361112389203
1040
1.384598579568018
1040
2.076903172775084
1070
     0
1040
0.422143423134065
1071
        2
1040
-76.87434985552319
1040
-302.073015998279
1040
0.0
1040
28.47801823268674
1040
-137.9693230282428
1040
0.0
1002
}
  0
LINE
  5
2913
330
2E4D
100
AcDbEntity
  8
DETAIL
100
AcDbLine
 10
-132.9000000000014
 20
-92.59999999999985
 30
0.0
 11
132.9000000000014
 21
-92.59999999999985
 31
0.0
  0
LINE
  5
2914
330
2E4D
100
AcDbEntity
  8
DETAIL
100
AcDbLine
 10
-132.9000000000014
 20
-321.4
 30
0.0
 11
132.9000000000014
 21
-321.4
 31
0.0
  0
LINE
  5
2915
330
2E4D
100
AcDbEntity
  8
DETAIL
100
AcDbLine
 10
-132.9000000000014
 20
-92.59999999999985
 30
0.0
 11
-132.9000000000014
 21
-321.4
 31
0.0
  0
LINE
  5
2916
330
2E4D
100
AcDbEntity
  8
DETAIL
100
AcDbLine
 10
132.9000000000014
 20
-92.59999999999985
 30
0.0
 11
132.9000000000014
 21
-321.4
 31
0.0
  0
LINE
  5
2917
330
2E4D
100
AcDbEntity
  8
SIZE
100
AcDbLine
 10
182.5
 20
19.99999999999994
 30
0.0
 11
182.5
 21
296.8865929365169
 31
0.0
  0
LINE
  5
2918
330
2E4D
100
AcDbEntity
  8
SIZE
100
AcDbLine
 10
-182.5
 20
19.99999999999994
 30
0.0
 11
-182.5
 21
296.8865929365169
 31
0.0
  0
LINE
  5
2919
330
2E4D
100
AcDbEntity
  8
SIZE
100
AcDbLine
 10
170.5
 20
276.8865929365169
 30
0.0
 11
-170.5
 21
276.8865929365169
 31
0.0
  0
INSERT
  5
291A
330
2E4D
100
AcDbEntity
  8
SIZE
100
AcDbBlockReference
  2
_DOTBLANK
 10
182.5
 20
276.8865929365169
 30
0.0
 41
12.0
 42
12.0
 43
12.0
  0
INSERT
  5
291B
330
2E4D
100
AcDbEntity
  8
SIZE
100
AcDbBlockReference
  2
_DOTBLANK
 10
-182.5
 20
276.8865929365169
 30
0.0
 41
12.0
 42
12.0
 43
12.0
 50
180.0
  0
LINE
  5
291C
330
2E4D
100
AcDbEntity
  8
SIZE
100
AcDbLine
 10
165.0
 20
32.49999999999995
 30
0.0
 11
165.0
 21
178.332091009617
 31
0.0
  0
LINE
  5
291D
330
2E4D
100
AcDbEntity
  8
SIZE
100
AcDbLine
 10
-165.0
 20
32.49999999999995
 30
0.0
 11
-165.0
 21
178.332091009617
 31
0.0
  0
LINE
  5
291E
330
2E4D
100
AcDbEntity
  8
SIZE
100
AcDbLine
 10
153.0
 20
158.3320910096171
 30
0.0
 11
-153.0
 21
158.3320910096171
 31
0.0
  0
INSERT
  5
291F
330
2E4D
100
AcDbEntity
  8
SIZE
100
AcDbBlockReference
  2
_DOTBLANK
 10
165.0
 20
158.3320910096171
 30
0.0
 41
12.0
 42
12.0
 43
12.0
  0
INSERT
  5
2920
330
2E4D
100
AcDbEntity
  8
SIZE
100
AcDbBlockReference
  2
_DOTBLANK
 10
-165.0
 20
158.3320910096171
 30
0.0
 41
12.0
 42
12.0
 43
12.0
 50
180.0
  0
LINE
  5
2921
330
2E4D
100
AcDbEntity
  8
SIZE
100
AcDbLine
 10
202.5
 20
0.0
 30
0.0
 11
304.7867348204416
 21
-0.0000000000000568
 31
0.0
  0
LINE
  5
2922
330
2E4D
100
AcDbEntity
  8
SIZE
100
AcDbLine
 10
202.5
 20
-9.999999999999991
 30
0.0
 11
304.7867348204416
 21
-10.00000000000005
 31
0.0
  0
LINE
  5
2923
330
2E4D
100
AcDbEntity
  8
SIZE
100
AcDbLine
 10
284.7867348204415
 20
11.99999999999994
 30
0.0
 11
284.7867348204415
 21
23.99999999999995
 31
0.0
  0
LINE
  5
2924
330
2E4D
100
AcDbEntity
  8
SIZE
100
AcDbLine
 10
284.7867348204415
 20
-22.00000000000005
 30
0.0
 11
284.7867348204415
 21
-136.2857142857143
 31
0.0
  0
INSERT
  5
2925
330
2E4D
100
AcDbEntity
  8
SIZE
100
AcDbBlockReference
  2
_DOTBLANK
 10
284.7867348204415
 20
-0.0000000000000568
 30
0.0
 41
12.0
 42
12.0
 43
12.0
 50
270.0
  0
INSERT
  5
2926
330
2E4D
100
AcDbEntity
  8
SIZE
100
AcDbBlockReference
  2
_DOTBLANK
 10
284.7867348204415
 20
-10.00000000000005
 30
0.0
 41
12.0
 42
12.0
 43
12.0
 50
90.0
  0
LINE
  5
2927
330
2E4D
100
AcDbEntity
  8
SIZE
100
AcDbLine
 10
-179.5
 20
-337.0000000000004
 30
0.0
 11
-343.9577573442293
 21
-337.0000000000004
 31
0.0
  0
LINE
  5
2928
330
2E4D
100
AcDbEntity
  8
SIZE
100
AcDbLine
 10
-168.5
 20
-349.0000000000005
 30
0.0
 11
-343.9577573442293
 21
-349.0000000000005
 31
0.0
  0
LINE
  5
2929
330
2E4D
100
AcDbEntity
  8
SIZE
100
AcDbLine
 10
-323.9577573442293
 20
-325.0000000000003
 30
0.0
 11
-323.9577573442293
 21
-313.0000000000006
 31
0.0
  0
LINE
  5
292A
330
2E4D
100
AcDbEntity
  8
SIZE
100
AcDbLine
 10
-323.9577573442293
 20
-361.0000000000006
 30
0.0
 11
-323.9577573442293
 21
-475.2857142857145
 31
0.0
  0
INSERT
  5
292B
330
2E4D
100
AcDbEntity
  8
SIZE
100
AcDbBlockReference
  2
_DOTBLANK
 10
-323.9577573442293
 20
-337.0000000000004
 30
0.0
 41
12.0
 42
12.0
 43
12.0
 50
270.0
  0
INSERT
  5
292C
330
2E4D
100
AcDbEntity
  8
SIZE
100
AcDbBlockReference
  2
_DOTBLANK
 10
-323.9577573442293
 20
-349.0000000000005
 30
0.0
 41
12.0
 42
12.0
 43
12.0
 50
90.0
  0
LINE
  5
292D
330
2E4D
100
AcDbEntity
  8
SIZE
100
AcDbLine
 10
-202.5
 20
0.0
 30
0.0
 11
-343.9577573442293
 21
0.000000000000057
 31
0.0
  0
LINE
  5
292E
330
2E4D
100
AcDbEntity
  8
SIZE
100
AcDbLine
 10
-179.5
 20
-337.0000000000004
 30
0.0
 11
-343.9577573442293
 21
-337.0000000000004
 31
0.0
  0
LINE
  5
292F
330
2E4D
100
AcDbEntity
  8
SIZE
100
AcDbLine
 10
-323.9577573442293
 20
-11.99999999999994
 30
0.0
 11
-323.9577573442293
 21
-325.0000000000003
 31
0.0
  0
INSERT
  5
2930
330
2E4D
100
AcDbEntity
  8
SIZE
100
AcDbBlockReference
  2
_DOTBLANK
 10
-323.9577573442293
 20
0.000000000000057
 30
0.0
 41
12.0
 42
12.0
 43
12.0
 50
90.0
  0
INSERT
  5
2931
330
2E4D
100
AcDbEntity
  8
SIZE
100
AcDbBlockReference
  2
_DOTBLANK
 10
-323.9577573442293
 20
-337.0000000000004
 30
0.0
 41
12.0
 42
12.0
 43
12.0
 50
270.0
  0
LINE
  5
2932
330
2E4D
100
AcDbEntity
  8
SIZE
100
AcDbLine
 10
159.5
 20
-357.0000000000006
 30
0.0
 11
159.5
 21
-492.1508013989762
 31
0.0
  0
LINE
  5
2933
330
2E4D
100
AcDbEntity
  8
SIZE
100
AcDbLine
 10
-159.5
 20
-357.0000000000006
 30
0.0
 11
-159.5
 21
-492.1508013989762
 31
0.0
  0
LINE
  5
2934
330
2E4D
100
AcDbEntity
  8
SIZE
100
AcDbLine
 10
147.5
 20
-472.1508013989762
 30
0.0
 11
-147.5
 21
-472.1508013989762
 31
0.0
  0
INSERT
  5
2935
330
2E4D
100
AcDbEntity
  8
SIZE
100
AcDbBlockReference
  2
_DOTBLANK
 10
159.5
 20
-472.1508013989762
 30
0.0
 41
12.0
 42
12.0
 43
12.0
  0
INSERT
  5
2936
330
2E4D
100
AcDbEntity
  8
SIZE
100
AcDbBlockReference
  2
_DOTBLANK
 10
-159.5
 20
-472.1508013989762
 30
0.0
 41
12.0
 42
12.0
 43
12.0
 50
180.0
  0
TEXT
  5
2937
330
2E4D
100
AcDbEntity
  8
SIZE
100
AcDbText
 10
-67.20000000000005
 20
-462.1508013989765
 30
0.0
 40
64.0
  1
319
 41
0.9
100
AcDbText
  0
TEXT
  5
2938
330
2E4D
100
AcDbEntity
  8
SIZE
100
AcDbText
 10
-333.9577573442293
 20
-465.2857142857143
 30
0.0
 40
64.0
  1
12
 50
90.0
 41
0.9
100
AcDbText
  0
TEXT
  5
2939
330
2E4D
100
AcDbEntity
  8
SIZE
100
AcDbText
 10
-333.9577573442293
 20
-242.557142857143
 30
0.0
 40
64.0
  1
337
 50
90.0
 41
0.9
100
AcDbText
  0
TEXT
  5
293A
330
2E4D
100
AcDbEntity
  8
SIZE
100
AcDbText
 10
-74.61302049113578
 20
168.3320910096171
 30
0.0
 40
64.0
  1
330
 41
0.9
100
AcDbText
  0
TEXT
  5
293B
330
2E4D
100
AcDbEntity
  8
SIZE
100
AcDbText
 10
-74.05714285714272
 20
286.8865929365169
 30
0.0
 40
64.0
  1
365
 41
0.9
100
AcDbText
  0
TEXT
  5
293C
330
2E4D
100
AcDbEntity
  8
SIZE
100
AcDbText
 10
274.7867348204415
 20
-126.2857142857141
 30
0.0
 40
64.0
  1
10
 50
90.0
 41
0.9
100
AcDbText
  0
ENDSEC
  0
SECTION
  2
OBJECTS
  0
DICTIONARY
  5
2DE5
330
0
100
AcDbDictionary
281
     1
  3
ACAD_2007HEADERVARS_RT
350
303C
  3
ACAD_COLOR
350
2E43
  3
ACAD_GROUP
350
2DE6
  3
ACAD_LAYOUT
350
2E42
  3
ACAD_MATERIAL
350
2DE9
  3
ACAD_MLEADERSTYLE
350
2E46
  3
ACAD_MLINESTYLE
350
2E3F
  3
ACAD_PLOTSETTINGS
350
2E41
  3
ACAD_PLOTSTYLENAME
350
2DE7
  3
ACAD_SCALELIST
350
2E13
  3
ACAD_TABLESTYLE
350
2E44
  3
ACAD_VISUALSTYLE
350
2E02
  3
ACDB_RECOMPOSE_DATA
350
303A
  3
AcDbVariableDictionary
350
3031
  3
AcmDictionary
350
2FE4
  3
AMG
350
2F31
  3
DWGPROPS
350
303B
  3
MAPISURF_MODULE
350
2FB1
  0
DICTIONARY
  5
300C
330
2E35
100
AcDbDictionary
280
     1
281
     1
  3
ADSK_XREC_LAYER_RECONCILED
360
300D
  0
DICTIONARY
  5
300E
330
2E64
100
AcDbDictionary
280
     1
281
     1
  3
ADSK_XREC_LAYER_RECONCILED
360
300F
  0
DICTIONARY
  5
3010
330
2E65
100
AcDbDictionary
280
     1
281
     1
  3
ADSK_XREC_LAYER_RECONCILED
360
3011
  0
DICTIONARY
  5
3012
330
2E66
100
AcDbDictionary
280
     1
281
     1
  3
ADSK_XREC_LAYER_RECONCILED
360
3013
  0
DICTIONARY
  5
3014
330
2E67
100
AcDbDictionary
280
     1
281
     1
  3
ADSK_XREC_LAYER_RECONCILED
360
3015
  0
DICTIONARY
  5
3016
330
2E68
100
AcDbDictionary
280
     1
281
     1
  3
ADSK_XREC_LAYER_RECONCILED
360
3017
  0
DICTIONARY
  5
3018
330
2E6A
100
AcDbDictionary
280
     1
281
     1
  3
ADSK_XREC_LAYER_RECONCILED
360
3019
  0
DICTIONARY
  5
301A
330
2E6B
100
AcDbDictionary
280
     1
281
     1
  3
ADSK_XREC_LAYER_RECONCILED
360
301B
  0
DICTIONARY
  5
301C
330
2E6C
100
AcDbDictionary
280
     1
281
     1
  3
ADSK_XREC_LAYER_RECONCILED
360
301D
  0
DICTIONARY
  5
301E
330
2E6D
100
AcDbDictionary
280
     1
281
     1
  3
ADSK_XREC_LAYER_RECONCILED
360
301F
  0
DICTIONARY
  5
3020
330
2E6E
100
AcDbDictionary
280
     1
281
     1
  3
ADSK_XREC_LAYER_RECONCILED
360
3021
  0
DICTIONARY
  5
3022
330
2E4D
100
AcDbDictionary
280
     1
281
     1
  3
ACAD_INDEX
360
3023
  0
DICTIONARY
  5
303C
102
{ACAD_REACTORS
330
2DE5
102
}
330
2DE5
100
AcDbDictionary
281
     1
  3
DIMARCSYM
350
303D
  3
DIMLTEX1
350
303F
  3
DIMLTEX2
350
3040
  3
DIMLTYPE
350
303E
  0
DICTIONARY
  5
2E43
102
{ACAD_REACTORS
330
2DE5
102
}
330
2DE5
100
AcDbDictionary
281
     1
  0
DICTIONARY
  5
2DE6
102
{ACAD_REACTORS
330
2DE5
102
}
330
2DE5
100
AcDbDictionary
281
     1
  0
DICTIONARY
  5
2E42
102
{ACAD_REACTORS
330
2DE5
102
}
330
2DE5
100
AcDbDictionary
281
     1
  3
Model
350
2E50
  3
レイアウト1
350
2E4C
  0
DICTIONARY
  5
2DE9
102
{ACAD_REACTORS
330
2DE5
102
}
330
2DE5
100
AcDbDictionary
281
     1
  3
ByBlock
350
2DF2
  3
ByLayer
350
2DEA
  3
Global
350
2DFA
  0
DICTIONARY
  5
2E46
102
{ACAD_REACTORS
330
2DE5
102
}
330
2DE5
100
AcDbDictionary
281
     1
  3
Standard
350
2E47
  0
DICTIONARY
  5
2E3F
102
{ACAD_REACTORS
330
2DE5
102
}
330
2DE5
100
AcDbDictionary
281
     1
  3
Standard
350
2E40
  0
DICTIONARY
  5
2E41
102
{ACAD_REACTORS
330
2DE5
102
}
330
2DE5
100
AcDbDictionary
281
     1
  0
ACDBDICTIONARYWDFLT
  5
2DE7
102
{ACAD_REACTORS
330
2DE5
102
}
330
2DE5
100
AcDbDictionary
281
     1
  3
Normal
350
2DE8
100
AcDbDictionaryWithDefault
340
2DE8
  0
DICTIONARY
  5
2E13
102
{ACAD_REACTORS
330
2DE5
102
}
330
2DE5
100
AcDbDictionary
281
     1
  3
A0
350
2E14
  3
A1
350
2E15
  3
A2
350
2E16
  3
A3
350
2E17
  3
A4
350
2E18
  3
A5
350
2E19
  3
A6
350
2E1A
  3
A7
350
2E1B
  3
A8
350
2E1C
  3
A9
350
2E1D
  3
B0
350
2E1E
  3
B1
350
2E1F
  3
B2
350
2E20
  3
B3
350
2E21
  3
B4
350
2E22
  3
B5
350
2E23
  3
B6
350
2E24
  3
B7
350
2E25
  3
B8
350
2E26
  3
B9
350
2E27
  3
C0
350
2E28
  3
C1
350
2E29
  3
C2
350
2E2A
  3
C3
350
2E2B
  3
C4
350
2E2C
  3
C5
350
2E2D
  3
C6
350
2E2E
  3
C7
350
2E2F
  3
C8
350
2E30
  3
C9
350
2E31
  3
D0
350
2E32
  3
D1
350
2E33
  3
D2
350
2E34
  0
DICTIONARY
  5
2E44
102
{ACAD_REACTORS
330
2DE5
102
}
330
2DE5
100
AcDbDictionary
281
     1
  3
Standard
350
2E45
  0
DICTIONARY
  5
2E02
102
{ACAD_REACTORS
330
2DE5
102
}
330
2DE5
100
AcDbDictionary
281
     1
  3
2dWireframe
350
2E08
  3
3D Hidden
350
2E0A
  3
3dWireframe
350
2E09
  3
Basic
350
2E07
  3
Brighten
350
2E0E
  3
ColorChange
350
2E12
  3
Conceptual
350
2E0B
  3
Dim
350
2E0D
  3
Facepattern
350
2E11
  3
Flat
350
2E03
  3
FlatWithEdges
350
2E04
  3
Gouraud
350
2E05
  3
GouraudWithEdges
350
2E06
  3
Linepattern
350
2E10
  3
Realistic
350
2E0C
  3
Thicken
350
2E0F
  0
XRECORD
  5
303A
102
{ACAD_REACTORS
330
2DE5
102
}
330
2DE5
100
AcDbXrecord
280
     1
 90
        1
330
2E45
  0
DICTIONARY
  5
3031
102
{ACAD_REACTORS
330
2DE5
102
}
330
2DE5
100
AcDbDictionary
281
     1
  3
CANNOSCALE
350
3034
  3
CMLEADERSTYLE
350
3033
  3
CTABLESTYLE
350
3032
  3
DIMASSOC
350
3037
  3
INDEXCTL
350
3036
  3
SORTENTS
350
3035
  0
DICTIONARY
  5
2FE4
102
{ACAD_REACTORS
330
2DE5
102
}
330
2DE5
100
AcDbDictionary
281
     1
  3
AcmStdDictionary
350
2FF2
  0
DICTIONARY
  5
2F31
102
{ACAD_REACTORS
330
2DE5
102
}
330
2DE5
100
AcDbDictionary
281
     1
  3
AcMgSettings
350
2F32
  0
XRECORD
  5
303B
102
{ACAD_REACTORS
330
2DE5
102
}
330
2DE5
100
AcDbXrecord
280
     1
  1
DWGPROPS COOKIE
  2

  3

  4

  6

  7

  8
A090053
  9

300
AmdtFileType=84
301
=
302
=
303
=
304
=
305
=
306
=
307
=
308
=
309
=
 40
1.047149756944444
 41
2452321.396199653
 42
2456212.885292558
  1

 90
        1
  0
XRECORD
  5
300D
102
{ACAD_REACTORS
330
300C
102
}
330
300C
100
AcDbXrecord
280
     1
290
     1
  0
XRECORD
  5
300F
102
{ACAD_REACTORS
330
300E
102
}
330
300E
100
AcDbXrecord
280
     1
290
     1
  0
XRECORD
  5
3011
102
{ACAD_REACTORS
330
3010
102
}
330
3010
100
AcDbXrecord
280
     1
290
     1
  0
XRECORD
  5
3013
102
{ACAD_REACTORS
330
3012
102
}
330
3012
100
AcDbXrecord
280
     1
290
     1
  0
XRECORD
  5
3015
102
{ACAD_REACTORS
330
3014
102
}
330
3014
100
AcDbXrecord
280
     1
290
     1
  0
XRECORD
  5
3017
102
{ACAD_REACTORS
330
3016
102
}
330
3016
100
AcDbXrecord
280
     1
290
     1
  0
XRECORD
  5
3019
102
{ACAD_REACTORS
330
3018
102
}
330
3018
100
AcDbXrecord
280
     1
290
     1
  0
XRECORD
  5
301B
102
{ACAD_REACTORS
330
301A
102
}
330
301A
100
AcDbXrecord
280
     1
290
     1
  0
XRECORD
  5
301D
102
{ACAD_REACTORS
330
301C
102
}
330
301C
100
AcDbXrecord
280
     1
290
     1
  0
XRECORD
  5
301F
102
{ACAD_REACTORS
330
301E
102
}
330
301E
100
AcDbXrecord
280
     1
290
     1
  0
XRECORD
  5
3021
102
{ACAD_REACTORS
330
3020
102
}
330
3020
100
AcDbXrecord
280
     1
290
     1
  0
DICTIONARY
  5
3023
102
{ACAD_REACTORS
330
3022
102
}
330
3022
100
AcDbDictionary
281
     1
  3
*A1
350
3024
  0
XRECORD
  5
303D
102
{ACAD_REACTORS
330
303C
102
}
330
303C
100
AcDbXrecord
280
     1
 70
     1
  0
XRECORD
  5
303F
102
{ACAD_REACTORS
330
303C
102
}
330
303C
100
AcDbXrecord
280
     1
340
2E3B
  0
XRECORD
  5
3040
102
{ACAD_REACTORS
330
303C
102
}
330
303C
100
AcDbXrecord
280
     1
340
2E3B
  0
XRECORD
  5
303E
102
{ACAD_REACTORS
330
303C
102
}
330
303C
100
AcDbXrecord
280
     1
340
2E3B
  0
LAYOUT
  5
2E50
102
{ACAD_XDICTIONARY
360
3047
102
}
102
{ACAD_REACTORS
330
2E42
102
}
330
2E42
100
AcDbPlotSettings
  1

  2
自動 EPSON LP-9600S (W2450527 上)
  4

  6

 40
0.0
 41
0.0
 42
0.0
 43
0.0
 44
0.0
 45
0.0
 46
0.0
 47
0.0
 48
0.0
 49
0.0
140
0.0
141
0.0
142
1.0
143
1.0
 70
  1712
 72
     0
 73
     0
 74
     0
  7

 75
     0
147
1.0
148
0.0
149
0.0
100
AcDbLayout
  1
Model
 70
     1
 71
     0
 10
0.0
 20
0.0
 11
12.0
 21
9.0
 12
0.0
 22
0.0
 32
0.0
 14
0.0
 24
0.0
 34
0.0
 15
0.0
 25
0.0
 35
0.0
146
0.0
 13
0.0
 23
0.0
 33
0.0
 16
1.0
 26
0.0
 36
0.0
 17
0.0
 27
1.0
 37
0.0
 76
     0
330
2E4D
331
2E51
  0
LAYOUT
  5
2E4C
102
{ACAD_XDICTIONARY
360
3045
102
}
102
{ACAD_REACTORS
330
2E42
102
}
330
2E42
100
AcDbPlotSettings
  1

  2
自動 EPSON LP-9600S (W2450527 上)
  4

  6

 40
0.0
 41
0.0
 42
0.0
 43
0.0
 44
0.0
 45
0.0
 46
0.0
 47
0.0
 48
0.0
 49
0.0
140
0.0
141
0.0
142
1.0
143
1.0
 70
   688
 72
     0
 73
     0
 74
     5
  7

 75
    16
147
1.0
148
0.0
149
0.0
100
AcDbLayout
  1
レイアウト1
 70
     1
 71
     1
 10
0.0
 20
0.0
 11
12.0
 21
9.0
 12
0.0
 22
0.0
 32
0.0
 14
1.000000000000000E+20
 24
1.000000000000000E+20
 34
1.000000000000000E+20
 15
-1.000000000000000E+20
 25
-1.000000000000000E+20
 35
-1.000000000000000E+20
146
0.0
 13
0.0
 23
0.0
 33
0.0
 16
1.0
 26
0.0
 36
0.0
 17
0.0
 27
1.0
 37
0.0
 76
     0
330
2E49
  0
MATERIAL
  5
2DF2
102
{ACAD_XDICTIONARY
360
2DF3
102
}
102
{ACAD_REACTORS
330
2DE9
102
}
330
2DE9
100
AcDbMaterial
  1
ByBlock
 72
     0
 43
0.0208333333333333
 43
0.0
 43
0.0
 43
0.0
 43
0.0
 43
0.0208333333333333
 43
0.0
 43
0.0
 43
0.0
 43
0.0
 43
1.0
 43
0.0
 43
0.0
 43
0.0
 43
0.0
 43
1.0
 77
     0
 47
0.0208333333333333
 47
0.0
 47
0.0
 47
0.0
 47
0.0
 47
0.0208333333333333
 47
0.0
 47
0.0
 47
0.0
 47
0.0
 47
1.0
 47
0.0
 47
0.0
 47
0.0
 47
0.0
 47
1.0
171
     0
 49
0.0208333333333333
 49
0.0
 49
0.0
 49
0.0
 49
0.0
 49
0.0208333333333333
 49
0.0
 49
0.0
 49
0.0
 49
0.0
 49
1.0
 49
0.0
 49
0.0
 49
0.0
 49
0.0
 49
1.0
175
     0
142
0.0208333333333333
142
0.0
142
0.0
142
0.0
142
0.0
142
0.0208333333333333
142
0.0
142
0.0
142
0.0
142
0.0
142
1.0
142
0.0
142
0.0
142
0.0
142
0.0
142
1.0
179
     0
144
0.0208333333333333
144
0.0
144
0.0
144
0.0
144
0.0
144
0.0208333333333333
144
0.0
144
0.0
144
0.0
144
0.0
144
1.0
144
0.0
144
0.0
144
0.0
144
0.0
144
1.0
147
0.0208333333333333
147
0.0
147
0.0
147
0.0
147
0.0
147
0.0208333333333333
147
0.0
147
0.0
147
0.0
147
0.0
147
1.0
147
0.0
147
0.0
147
0.0
147
0.0
147
1.0
  0
MATERIAL
  5
2DEA
102
{ACAD_XDICTIONARY
360
2DEB
102
}
102
{ACAD_REACTORS
330
2DE9
102
}
330
2DE9
100
AcDbMaterial
  1
ByLayer
 72
     0
 43
0.0208333333333333
 43
0.0
 43
0.0
 43
0.0
 43
0.0
 43
0.0208333333333333
 43
0.0
 43
0.0
 43
0.0
 43
0.0
 43
1.0
 43
0.0
 43
0.0
 43
0.0
 43
0.0
 43
1.0
 77
     0
 47
0.0208333333333333
 47
0.0
 47
0.0
 47
0.0
 47
0.0
 47
0.0208333333333333
 47
0.0
 47
0.0
 47
0.0
 47
0.0
 47
1.0
 47
0.0
 47
0.0
 47
0.0
 47
0.0
 47
1.0
171
     0
 49
0.0208333333333333
 49
0.0
 49
0.0
 49
0.0
 49
0.0
 49
0.0208333333333333
 49
0.0
 49
0.0
 49
0.0
 49
0.0
 49
1.0
 49
0.0
 49
0.0
 49
0.0
 49
0.0
 49
1.0
175
     0
142
0.0208333333333333
142
0.0
142
0.0
142
0.0
142
0.0
142
0.0208333333333333
142
0.0
142
0.0
142
0.0
142
0.0
142
1.0
142
0.0
142
0.0
142
0.0
142
0.0
142
1.0
179
     0
144
0.0208333333333333
144
0.0
144
0.0
144
0.0
144
0.0
144
0.0208333333333333
144
0.0
144
0.0
144
0.0
144
0.0
144
1.0
144
0.0
144
0.0
144
0.0
144
0.0
144
1.0
147
0.0208333333333333
147
0.0
147
0.0
147
0.0
147
0.0
147
0.0208333333333333
147
0.0
147
0.0
147
0.0
147
0.0
147
1.0
147
0.0
147
0.0
147
0.0
147
0.0
147
1.0
  0
MATERIAL
  5
2DFA
102
{ACAD_XDICTIONARY
360
2DFB
102
}
102
{ACAD_REACTORS
330
2DE9
102
}
330
2DE9
100
AcDbMaterial
  1
Global
 72
     0
 43
0.0208333333333333
 43
0.0
 43
0.0
 43
0.0
 43
0.0
 43
0.0208333333333333
 43
0.0
 43
0.0
 43
0.0
 43
0.0
 43
1.0
 43
0.0
 43
0.0
 43
0.0
 43
0.0
 43
1.0
 77
     0
 47
0.0208333333333333
 47
0.0
 47
0.0
 47
0.0
 47
0.0
 47
0.0208333333333333
 47
0.0
 47
0.0
 47
0.0
 47
0.0
 47
1.0
 47
0.0
 47
0.0
 47
0.0
 47
0.0
 47
1.0
171
     0
 49
0.0208333333333333
 49
0.0
 49
0.0
 49
0.0
 49
0.0
 49
0.0208333333333333
 49
0.0
 49
0.0
 49
0.0
 49
0.0
 49
1.0
 49
0.0
 49
0.0
 49
0.0
 49
0.0
 49
1.0
175
     0
142
0.0208333333333333
142
0.0
142
0.0
142
0.0
142
0.0
142
0.0208333333333333
142
0.0
142
0.0
142
0.0
142
0.0
142
1.0
142
0.0
142
0.0
142
0.0
142
0.0
142
1.0
179
     0
144
0.0208333333333333
144
0.0
144
0.0
144
0.0
144
0.0
144
0.0208333333333333
144
0.0
144
0.0
144
0.0
144
0.0
144
1.0
144
0.0
144
0.0
144
0.0
144
0.0
144
1.0
147
0.0208333333333333
147
0.0
147
0.0
147
0.0
147
0.0
147
0.0208333333333333
147
0.0
147
0.0
147
0.0
147
0.0
147
1.0
147
0.0
147
0.0
147
0.0
147
0.0
147
1.0
  0
MLEADERSTYLE
  5
2E47
102
{ACAD_REACTORS
330
2E46
102
}
330
2E46
100
AcDbMLeaderStyle
170
     2
171
     1
172
     0
 90
        2
 40
0.0
 41
0.0
173
     1
 91
-1056964608
340
2E3B
 92
       -2
290
     1
 42
0.09
291
     1
 43
0.36
  3
Standard
 44
0.18
300

342
2E36
174
     1
178
     6
175
     1
176
     0
 93
-1056964608
 45
0.18
292
     0
297
     0
 46
0.18
 94
-1056964608
 47
1.0
 49
1.0
140
1.0
293
     1
141
0.0
294
     1
177
     0
142
1.0
295
     0
296
     0
143
0.125
1001
ACAD_MLEADERVER
1070
     2
  0
MLINESTYLE
  5
2E40
102
{ACAD_REACTORS
330
2E3F
102
}
330
2E3F
100
AcDbMlineStyle
  2
STANDARD
 70
     0
  3

 62
   256
 51
90.0
 52
90.0
 71
     2
 49
0.5
 62
   256
  6
BYLAYER
 49
-0.5
 62
   256
  6
BYLAYER
  0
ACDBPLACEHOLDER
  5
2DE8
102
{ACAD_REACTORS
330
2DE7
102
}
330
2DE7
  0
SCALE
  5
2E14
102
{ACAD_REACTORS
330
2E13
102
}
330
2E13
100
AcDbScale
 70
     0
300
1:1
140
1.0
141
1.0
290
     1
  0
SCALE
  5
2E15
102
{ACAD_REACTORS
330
2E13
102
}
330
2E13
100
AcDbScale
 70
     0
300
1:2
140
1.0
141
2.0
290
     0
  0
SCALE
  5
2E16
102
{ACAD_REACTORS
330
2E13
102
}
330
2E13
100
AcDbScale
 70
     0
300
1:4
140
1.0
141
4.0
290
     0
  0
SCALE
  5
2E17
102
{ACAD_REACTORS
330
2E13
102
}
330
2E13
100
AcDbScale
 70
     0
300
1:5
140
1.0
141
5.0
290
     0
  0
SCALE
  5
2E18
102
{ACAD_REACTORS
330
2E13
102
}
330
2E13
100
AcDbScale
 70
     0
300
1:8
140
1.0
141
8.0
290
     0
  0
SCALE
  5
2E19
102
{ACAD_REACTORS
330
2E13
102
}
330
2E13
100
AcDbScale
 70
     0
300
1:10
140
1.0
141
10.0
290
     0
  0
SCALE
  5
2E1A
102
{ACAD_REACTORS
330
2E13
102
}
330
2E13
100
AcDbScale
 70
     0
300
1:16
140
1.0
141
16.0
290
     0
  0
SCALE
  5
2E1B
102
{ACAD_REACTORS
330
2E13
102
}
330
2E13
100
AcDbScale
 70
     0
300
1:20
140
1.0
141
20.0
290
     0
  0
SCALE
  5
2E1C
102
{ACAD_REACTORS
330
2E13
102
}
330
2E13
100
AcDbScale
 70
     0
300
1:30
140
1.0
141
30.0
290
     0
  0
SCALE
  5
2E1D
102
{ACAD_REACTORS
330
2E13
102
}
330
2E13
100
AcDbScale
 70
     0
300
1:40
140
1.0
141
40.0
290
     0
  0
SCALE
  5
2E1E
102
{ACAD_REACTORS
330
2E13
102
}
330
2E13
100
AcDbScale
 70
     0
300
1:50
140
1.0
141
50.0
290
     0
  0
SCALE
  5
2E1F
102
{ACAD_REACTORS
330
2E13
102
}
330
2E13
100
AcDbScale
 70
     0
300
1:100
140
1.0
141
100.0
290
     0
  0
SCALE
  5
2E20
102
{ACAD_REACTORS
330
2E13
102
}
330
2E13
100
AcDbScale
 70
     0
300
2:1
140
2.0
141
1.0
290
     0
  0
SCALE
  5
2E21
102
{ACAD_REACTORS
330
2E13
102
}
330
2E13
100
AcDbScale
 70
     0
300
4:1
140
4.0
141
1.0
290
     0
  0
SCALE
  5
2E22
102
{ACAD_REACTORS
330
2E13
102
}
330
2E13
100
AcDbScale
 70
     0
300
8:1
140
8.0
141
1.0
290
     0
  0
SCALE
  5
2E23
102
{ACAD_REACTORS
330
2E13
102
}
330
2E13
100
AcDbScale
 70
     0
300
10:1
140
10.0
141
1.0
290
     0
  0
SCALE
  5
2E24
102
{ACAD_REACTORS
330
2E13
102
}
330
2E13
100
AcDbScale
 70
     0
300
100:1
140
100.0
141
1.0
290
     0
  0
SCALE
  5
2E25
102
{ACAD_REACTORS
330
2E13
102
}
330
2E13
100
AcDbScale
 70
     0
300
1/128" = 1'-0"
140
0.0078125
141
12.0
290
     0
  0
SCALE
  5
2E26
102
{ACAD_REACTORS
330
2E13
102
}
330
2E13
100
AcDbScale
 70
     0
300
1/64" = 1'-0"
140
0.015625
141
12.0
290
     0
  0
SCALE
  5
2E27
102
{ACAD_REACTORS
330
2E13
102
}
330
2E13
100
AcDbScale
 70
     0
300
1/32" = 1'-0"
140
0.03125
141
12.0
290
     0
  0
SCALE
  5
2E28
102
{ACAD_REACTORS
330
2E13
102
}
330
2E13
100
AcDbScale
 70
     0
300
1/16" = 1'-0"
140
0.0625
141
12.0
290
     0
  0
SCALE
  5
2E29
102
{ACAD_REACTORS
330
2E13
102
}
330
2E13
100
AcDbScale
 70
     0
300
3/32" = 1'-0"
140
0.09375
141
12.0
290
     0
  0
SCALE
  5
2E2A
102
{ACAD_REACTORS
330
2E13
102
}
330
2E13
100
AcDbScale
 70
     0
300
1/8" = 1'-0"
140
0.125
141
12.0
290
     0
  0
SCALE
  5
2E2B
102
{ACAD_REACTORS
330
2E13
102
}
330
2E13
100
AcDbScale
 70
     0
300
3/16" = 1'-0"
140
0.1875
141
12.0
290
     0
  0
SCALE
  5
2E2C
102
{ACAD_REACTORS
330
2E13
102
}
330
2E13
100
AcDbScale
 70
     0
300
1/4" = 1'-0"
140
0.25
141
12.0
290
     0
  0
SCALE
  5
2E2D
102
{ACAD_REACTORS
330
2E13
102
}
330
2E13
100
AcDbScale
 70
     0
300
3/8" = 1'-0"
140
0.375
141
12.0
290
     0
  0
SCALE
  5
2E2E
102
{ACAD_REACTORS
330
2E13
102
}
330
2E13
100
AcDbScale
 70
     0
300
1/2" = 1'-0"
140
0.5
141
12.0
290
     0
  0
SCALE
  5
2E2F
102
{ACAD_REACTORS
330
2E13
102
}
330
2E13
100
AcDbScale
 70
     0
300
3/4" = 1'-0"
140
0.75
141
12.0
290
     0
  0
SCALE
  5
2E30
102
{ACAD_REACTORS
330
2E13
102
}
330
2E13
100
AcDbScale
 70
     0
300
1" = 1'-0"
140
1.0
141
12.0
290
     0
  0
SCALE
  5
2E31
102
{ACAD_REACTORS
330
2E13
102
}
330
2E13
100
AcDbScale
 70
     0
300
1-1/2" = 1'-0"
140
1.5
141
12.0
290
     0
  0
SCALE
  5
2E32
102
{ACAD_REACTORS
330
2E13
102
}
330
2E13
100
AcDbScale
 70
     0
300
3" = 1'-0"
140
3.0
141
12.0
290
     0
  0
SCALE
  5
2E33
102
{ACAD_REACTORS
330
2E13
102
}
330
2E13
100
AcDbScale
 70
     0
300
6" = 1'-0"
140
6.0
141
12.0
290
     0
  0
SCALE
  5
2E34
102
{ACAD_REACTORS
330
2E13
102
}
330
2E13
100
AcDbScale
 70
     0
300
1'-0" = 1'-0"
140
12.0
141
12.0
290
     0
  0
TABLESTYLE
  5
2E45
102
{ACAD_XDICTIONARY
360
3038
102
}
102
{ACAD_REACTORS
330
2E44
102
}
330
2E44
100
AcDbTableStyle
  3
Standard
 70
     0
 71
     0
 40
0.06
 41
0.06
280
     0
281
     0
  7
STANDARD
140
0.18
170
     2
 62
     0
 63
     7
283
     0
274
    -2
284
     1
 64
     0
275
    -2
285
     1
 65
     0
276
    -2
286
     1
 66
     0
277
    -2
287
     1
 67
     0
278
    -2
288
     1
 68
     0
279
    -2
289
     1
 69
     0
  7
STANDARD
140
0.25
170
     5
 62
     0
 63
     7
283
     0
274
    -2
284
     1
 64
     0
275
    -2
285
     1
 65
     0
276
    -2
286
     1
 66
     0
277
    -2
287
     1
 67
     0
278
    -2
288
     1
 68
     0
279
    -2
289
     1
 69
     0
  7
STANDARD
140
0.18
170
     5
 62
     0
 63
     7
283
     0
274
    -2
284
     1
 64
     0
275
    -2
285
     1
 65
     0
276
    -2
286
     1
 66
     0
277
    -2
287
     1
 67
     0
278
    -2
288
     1
 68
     0
279
    -2
289
     1
 69
     0
  0
VISUALSTYLE
  5
2E08
102
{ACAD_REACTORS
330
2E02
102
}
330
2E02
100
AcDbVisualStyle
  2
2dWireframe
 70
     4
 71
     0
 72
     2
 73
     0
 90
        0
 40
-0.6
 41
-30.0
 62
     5
 63
     7
 74
     1
 91
        4
 64
     7
 65
   257
 75
     1
175
     1
 42
1.0
 92
        0
 66
   257
 43
1.0
 76
     1
 77
     6
 78
     2
 67
     7
 79
     5
170
     0
171
     0
290
     0
174
     0
 93
        1
 44
0.0
173
     0
291
     0
 45
0.0
1001
ACAD
1000
AcDbSavedByObjectVersion
1070
     0
  0
VISUALSTYLE
  5
2E0A
102
{ACAD_REACTORS
330
2E02
102
}
330
2E02
100
AcDbVisualStyle
  2
3D Hidden
 70
     6
 71
     1
 72
     2
 73
     2
 90
        0
 40
-0.6
 41
-30.0
 62
     5
 63
     7
 74
     2
 91
        2
 64
     7
 65
   257
 75
     2
175
     1
 42
40.0
 92
        0
 66
   257
 43
1.0
 76
     1
 77
     6
 78
     2
 67
     7
 79
     3
170
     0
171
     0
290
     0
174
     0
 93
        1
 44
0.0
173
     0
291
     0
 45
0.0
1001
ACAD
1000
AcDbSavedByObjectVersion
1070
     0
  0
VISUALSTYLE
  5
2E09
102
{ACAD_REACTORS
330
2E02
102
}
330
2E02
100
AcDbVisualStyle
  2
3dWireframe
 70
     5
 71
     0
 72
     2
 73
     0
 90
        0
 40
-0.6
 41
-30.0
 62
     5
 63
     7
 74
     1
 91
        4
 64
     7
 65
   257
 75
     1
175
     1
 42
1.0
 92
        0
 66
   257
 43
1.0
 76
     1
 77
     6
 78
     2
 67
     7
 79
     5
170
     0
171
     0
290
     0
174
     0
 93
        1
 44
0.0
173
     0
291
     0
 45
0.0
1001
ACAD
1000
AcDbSavedByObjectVersion
1070
     0
  0
VISUALSTYLE
  5
2E07
102
{ACAD_REACTORS
330
2E02
102
}
330
2E02
100
AcDbVisualStyle
  2
Basic
 70
     7
 71
     1
 72
     0
 73
     1
 90
        0
 40
-0.6
 41
-30.0
 62
     5
 63
     7
 74
     0
 91
        4
 64
     7
 65
   257
 75
     1
175
     1
 42
1.0
 92
        8
 66
     7
 43
1.0
 76
     1
 77
     6
 78
     2
 67
     7
 79
     5
170
     0
171
     0
290
     0
174
     0
 93
        1
 44
0.0
173
     0
291
     1
 45
0.0
1001
ACAD
1000
AcDbSavedByObjectVersion
1070
     0
  0
VISUALSTYLE
  5
2E0E
102
{ACAD_REACTORS
330
2E02
102
}
330
2E02
100
AcDbVisualStyle
  2
Brighten
 70
    12
 71
     2
 72
     2
 73
     0
 90
        0
 40
-0.6
 41
-30.0
 62
     5
 63
     7
 74
     1
 91
        4
 64
     7
 65
   257
 75
     1
175
     1
 42
1.0
 92
        8
 66
     7
 43
1.0
 76
     1
 77
     6
 78
     2
 67
     7
 79
     5
170
     0
171
     0
290
     0
174
     0
 93
        1
 44
50.0
173
     0
291
     1
 45
0.0
1001
ACAD
1000
AcDbSavedByObjectVersion
1070
     0
  0
VISUALSTYLE
  5
2E12
102
{ACAD_REACTORS
330
2E02
102
}
330
2E02
100
AcDbVisualStyle
  2
ColorChange
 70
    16
 71
     2
 72
     2
 73
     3
 90
        0
 40
-0.6
 41
-30.0
 62
     5
 63
     8
 74
     1
 91
        4
 64
     7
 65
   257
 75
     1
175
     1
 42
1.0
 92
        8
 66
     8
 43
1.0
 76
     1
 77
     6
 78
     2
 67
     7
 79
     5
170
     0
171
     0
290
     0
174
     0
 93
        1
 44
0.0
173
     0
291
     1
 45
0.0
1001
ACAD
1000
AcDbSavedByObjectVersion
1070
     0
  0
VISUALSTYLE
  5
2E0B
102
{ACAD_REACTORS
330
2E02
102
}
330
2E02
100
AcDbVisualStyle
  2
Conceptual
 70
     9
 71
     3
 72
     2
 73
     0
 90
        0
 40
-0.6
 41
-30.0
 62
     5
 63
     7
 74
     2
 91
        2
 64
     7
 65
   257
 75
     1
175
     1
 42
40.0
 92
        8
 66
     7
 43
1.0
 76
     1
 77
     6
 78
     2
 67
     7
 79
     3
170
     0
171
     0
290
     0
174
     0
 93
        1
 44
0.0
173
     0
291
     0
 45
0.0
1001
ACAD
1000
AcDbSavedByObjectVersion
1070
     0
  0
VISUALSTYLE
  5
2E0D
102
{ACAD_REACTORS
330
2E02
102
}
330
2E02
100
AcDbVisualStyle
  2
Dim
 70
    11
 71
     2
 72
     2
 73
     0
 90
        0
 40
-0.6
 41
-30.0
 62
     5
 63
     7
 74
     1
 91
        4
 64
     7
 65
   257
 75
     1
175
     1
 42
1.0
 92
        8
 66
     7
 43
1.0
 76
     1
 77
     6
 78
     2
 67
     7
 79
     5
170
     0
171
     0
290
     0
174
     0
 93
        1
 44
-50.0
173
     0
291
     1
 45
0.0
1001
ACAD
1000
AcDbSavedByObjectVersion
1070
     0
  0
VISUALSTYLE
  5
2E11
102
{ACAD_REACTORS
330
2E02
102
}
330
2E02
100
AcDbVisualStyle
  2
Facepattern
 70
    15
 71
     2
 72
     2
 73
     0
 90
        0
 40
-0.6
 41
-30.0
 62
     5
 63
     7
 74
     1
 91
        4
 64
     7
 65
   257
 75
     1
175
     1
 42
1.0
 92
        8
 66
     7
 43
1.0
 76
     1
 77
     6
 78
     2
 67
     7
 79
     5
170
     0
171
     0
290
     0
174
     0
 93
        1
 44
0.0
173
     0
291
     1
 45
0.0
1001
ACAD
1000
AcDbSavedByObjectVersion
1070
     0
  0
VISUALSTYLE
  5
2E03
102
{ACAD_REACTORS
330
2E02
102
}
330
2E02
100
AcDbVisualStyle
  2
Flat
 70
     0
 71
     2
 72
     1
 73
     1
 90
        2
 40
-0.6
 41
30.0
 62
     5
 63
     7
 74
     0
 91
        4
 64
     7
 65
   257
 75
     1
175
     1
 42
1.0
 92
        8
 66
     7
 43
1.0
 76
     1
 77
     6
 78
     2
 67
     7
 79
     5
170
     0
171
     0
290
     0
174
     0
 93
       13
 44
0.0
173
     0
291
     1
 45
0.0
1001
ACAD
1000
AcDbSavedByObjectVersion
1070
     0
  0
VISUALSTYLE
  5
2E04
102
{ACAD_REACTORS
330
2E02
102
}
330
2E02
100
AcDbVisualStyle
  2
FlatWithEdges
 70
     1
 71
     2
 72
     1
 73
     1
 90
        2
 40
-0.6
 41
30.0
 62
     5
 63
     7
 74
     1
 91
        4
 64
     7
 65
   257
 75
     1
175
     1
 42
1.0
 92
        0
 66
   257
 43
1.0
 76
     1
 77
     6
 78
     2
 67
     7
 79
     5
170
     0
171
     0
290
     0
174
     0
 93
       13
 44
0.0
173
     0
291
     1
 45
0.0
1001
ACAD
1000
AcDbSavedByObjectVersion
1070
     0
  0
VISUALSTYLE
  5
2E05
102
{ACAD_REACTORS
330
2E02
102
}
330
2E02
100
AcDbVisualStyle
  2
Gouraud
 70
     2
 71
     2
 72
     2
 73
     1
 90
        2
 40
-0.6
 41
30.0
 62
     5
 63
     7
 74
     0
 91
        4
 64
     7
 65
   257
 75
     1
175
     1
 42
1.0
 92
        0
 66
     7
 43
1.0
 76
     1
 77
     6
 78
     2
 67
     7
 79
     5
170
     0
171
     0
290
     0
174
     0
 93
       13
 44
0.0
173
     0
291
     1
 45
0.0
1001
ACAD
1000
AcDbSavedByObjectVersion
1070
     0
  0
VISUALSTYLE
  5
2E06
102
{ACAD_REACTORS
330
2E02
102
}
330
2E02
100
AcDbVisualStyle
  2
GouraudWithEdges
 70
     3
 71
     2
 72
     2
 73
     1
 90
        2
 40
-0.6
 41
30.0
 62
     5
 63
     7
 74
     1
 91
        4
 64
     7
 65
   257
 75
     1
175
     1
 42
1.0
 92
        0
 66
   257
 43
1.0
 76
     1
 77
     6
 78
     2
 67
     7
 79
     5
170
     0
171
     0
290
     0
174
     0
 93
       13
 44
0.0
173
     0
291
     1
 45
0.0
1001
ACAD
1000
AcDbSavedByObjectVersion
1070
     0
  0
VISUALSTYLE
  5
2E10
102
{ACAD_REACTORS
330
2E02
102
}
330
2E02
100
AcDbVisualStyle
  2
Linepattern
 70
    14
 71
     2
 72
     2
 73
     0
 90
        0
 40
-0.6
 41
-30.0
 62
     5
 63
     7
 74
     1
 91
        4
 64
     7
 65
   257
 75
     7
175
     7
 42
1.0
 92
        8
 66
     7
 43
1.0
 76
     1
 77
     6
 78
     2
 67
     7
 79
     5
170
     0
171
     0
290
     0
174
     0
 93
        1
 44
0.0
173
     0
291
     1
 45
0.0
1001
ACAD
1000
AcDbSavedByObjectVersion
1070
     0
  0
VISUALSTYLE
  5
2E0C
102
{ACAD_REACTORS
330
2E02
102
}
330
2E02
100
AcDbVisualStyle
  2
Realistic
 70
     8
 71
     2
 72
     2
 73
     0
 90
        0
 40
-0.6
 41
-30.0
 62
     5
 63
     7
 74
     1
 91
        0
 64
     7
 65
   257
 75
     1
175
     1
 42
1.0
 92
        8
 66
     8
 43
1.0
 76
     1
 77
     6
 78
     2
 67
     7
 79
     5
170
     0
171
     0
290
     0
174
     0
 93
       13
 44
0.0
173
     0
291
     0
 45
0.0
1001
ACAD
1000
AcDbSavedByObjectVersion
1070
     0
  0
VISUALSTYLE
  5
2E0F
102
{ACAD_REACTORS
330
2E02
102
}
330
2E02
100
AcDbVisualStyle
  2
Thicken
 70
    13
 71
     2
 72
     2
 73
     0
 90
        0
 40
-0.6
 41
-30.0
 62
     5
 63
     7
 74
     1
 91
        4
 64
     7
 65
   257
 75
     1
175
     1
 42
1.0
 92
       12
 66
     7
 43
1.0
 76
     1
 77
     6
 78
     2
 67
     7
 79
     5
170
     0
171
     0
290
     0
174
     0
 93
        1
 44
0.0
173
     0
291
     1
 45
0.0
1001
ACAD
1000
AcDbSavedByObjectVersion
1070
     0
  0
DICTIONARYVAR
  5
3034
102
{ACAD_REACTORS
330
3031
102
}
330
3031
100
DictionaryVariables
280
     0
  1
1:1
  0
DICTIONARYVAR
  5
3033
102
{ACAD_REACTORS
330
3031
102
}
330
3031
100
DictionaryVariables
280
     0
  1
STANDARD
  0
DICTIONARYVAR
  5
3032
102
{ACAD_REACTORS
330
3031
102
}
330
3031
100
DictionaryVariables
280
     0
  1
STANDARD
  0
DICTIONARYVAR
  5
3037
102
{ACAD_REACTORS
330
3031
102
}
330
3031
100
DictionaryVariables
280
     0
  1
1
  0
DICTIONARYVAR
  5
3036
102
{ACAD_REACTORS
330
3031
102
}
330
3031
100
DictionaryVariables
280
     0
  1
1
  0
DICTIONARYVAR
  5
3035
102
{ACAD_REACTORS
330
3031
102
}
330
3031
100
DictionaryVariables
280
     0
  1
127
  0
DICTIONARY
  5
2FF2
102
{ACAD_REACTORS
330
2FE4
102
}
330
2FE4
100
AcDbDictionary
281
     1
  0
DICTIONARY
  5
2F32
102
{ACAD_REACTORS
330
2F31
102
}
330
2F31
100
AcDbDictionary
281
     1
  3
DWGSETTINGS
350
2F33
  3
TRANSSETTINGS
350
2F34
  0
LAYER_INDEX
  5
3024
102
{ACAD_REACTORS
330
3023
102
}
330
3023
100
AcDbIndex
 40
2456212.885292558
100
AcDbLayerIndex
  8
0
360
3025
 90
        2
  8
OUTLINE
360
3026
 90
       23
  8
SIZE
360
3027
 90
       38
  8
BASIS
360
3028
 90
        1
  8
DETAIL
360
3029
 90
       26
  8
ARRANGE
360
302A
 90
        2
  8
DEFPOINTS
360
302B
 90
        0
  8
ETC
360
302C
 90
        3
  8
FIX
360
302D
 90
        0
  8
NOTE
360
302E
 90
        4
  8
SERVICESPACE
360
302F
 90
        0
  8
SYMBOLLINE
360
3030
 90
        0
  0
DICTIONARY
  5
3047
330
2E50
100
AcDbDictionary
280
     1
281
     1
  3
ACAD_XREC_ROUNDTRIP
360
3048
  0
DICTIONARY
  5
3045
330
2E4C
100
AcDbDictionary
280
     1
281
     1
  3
ACAD_XREC_ROUNDTRIP
360
3046
  0
DICTIONARY
  5
2DF3
330
2DF2
100
AcDbDictionary
280
     1
281
     1
  3
ACAD_XREC_ROUNDTRIP
360
3042
  3
BUMPTILE
360
2DF5
  3
DIFFUSETILE
360
2DF4
  3
OPACITYTILE
360
2DF8
  3
REFLECTIONTILE
360
2DF7
  3
REFRACTIONTILE
360
2DF9
  3
SPECULARTILE
360
2DF6
  0
DICTIONARY
  5
2DEB
330
2DEA
100
AcDbDictionary
280
     1
281
     1
  3
ACAD_XREC_ROUNDTRIP
360
3041
  3
BUMPTILE
360
2DED
  3
DIFFUSETILE
360
2DEC
  3
OPACITYTILE
360
2DF0
  3
REFLECTIONTILE
360
2DEF
  3
REFRACTIONTILE
360
2DF1
  3
SPECULARTILE
360
2DEE
  0
DICTIONARY
  5
2DFB
330
2DFA
100
AcDbDictionary
280
     1
281
     1
  3
ACAD_XREC_ROUNDTRIP
360
3043
  3
BUMPTILE
360
2DFD
  3
DIFFUSETILE
360
2DFC
  3
OPACITYTILE
360
2E00
  3
REFLECTIONTILE
360
2DFF
  3
REFRACTIONTILE
360
2E01
  3
SPECULARTILE
360
2DFE
  0
DICTIONARY
  5
3038
330
2E45
100
AcDbDictionary
280
     1
281
     1
  3
ACAD_ROUNDTRIP_2008_TABLESTYLE_CELLSTYLEMAP
360
3039
  3
ACAD_XREC_ROUNDTRIP
360
3044
  0
IDBUFFER
  5
3025
330
0
100
AcDbIdBuffer
330
28FF
330
2900
  0
IDBUFFER
  5
3026
330
0
100
AcDbIdBuffer
330
290A
330
290B
330
290C
330
290D
330
290E
330
290F
330
2910
330
953
330
954
330
955
330
956
330
957
330
958
330
28F6
330
2901
330
2902
330
2903
330
2904
330
2905
330
2906
330
2907
330
2908
330
2909
  0
IDBUFFER
  5
3027
330
0
100
AcDbIdBuffer
330
2927
330
2928
330
2929
330
292A
330
292B
330
292C
330
292D
330
292E
330
292F
330
2930
330
2931
330
2932
330
2933
330
2934
330
2935
330
2936
330
2937
330
2938
330
2939
330
293A
330
293B
330
293C
330
2917
330
2918
330
2919
330
291A
330
291B
330
291C
330
291D
330
291E
330
291F
330
2920
330
2921
330
2922
330
2923
330
2924
330
2925
330
2926
  0
IDBUFFER
  5
3028
330
0
100
AcDbIdBuffer
330
28E9
  0
IDBUFFER
  5
3029
330
0
100
AcDbIdBuffer
330
28F9
330
28FA
330
28FB
330
28FC
330
2911
330
2912
330
2913
330
2914
330
2915
330
2916
330
28E3
330
28E4
330
28E6
330
28E7
330
28EA
330
28EB
330
28EC
330
28EF
330
28F0
330
28F1
330
28F2
330
28F3
330
28F4
330
28F5
330
28F7
330
28F8
  0
IDBUFFER
  5
302A
330
0
100
AcDbIdBuffer
330
28E5
330
28E8
  0
IDBUFFER
  5
302B
330
0
100
AcDbIdBuffer
  0
IDBUFFER
  5
302C
330
0
100
AcDbIdBuffer
330
28E0
330
28E1
330
28E2
  0
IDBUFFER
  5
302D
330
0
100
AcDbIdBuffer
  0
IDBUFFER
  5
302E
330
0
100
AcDbIdBuffer
330
28ED
330
28EE
330
28FD
330
28FE
  0
IDBUFFER
  5
302F
330
0
100
AcDbIdBuffer
  0
IDBUFFER
  5
3030
330
0
100
AcDbIdBuffer
  0
XRECORD
  5
3048
102
{ACAD_REACTORS
330
3047
102
}
330
3047
100
AcDbXrecord
280
     1
102
SHADEPLOT
 70
     0
102
SHADEPLOTRESLEVEL
 70
     2
102
SHADEPLOTCUSTOMDPI
 70
   300
  0
XRECORD
  5
3046
102
{ACAD_REACTORS
330
3045
102
}
330
3045
100
AcDbXrecord
280
     1
102
SHADEPLOT
 70
     0
102
SHADEPLOTRESLEVEL
 70
     2
102
SHADEPLOTCUSTOMDPI
 70
   300
  0
XRECORD
  5
3042
102
{ACAD_REACTORS
330
2DF3
102
}
330
2DF3
100
AcDbXrecord
280
     1
102
MATERIAL
148
0.0
149
0.0
149
0.0
 93
        0
 94
      127
282
     0
 72
     0
 77
     0
171
     0
175
     0
179
     0
273
     0
  0
XRECORD
  5
2DF5
102
{ACAD_REACTORS
330
2DF3
102
}
330
2DF3
100
AcDbXrecord
280
     1
270
     1
271
     1
  0
XRECORD
  5
2DF4
102
{ACAD_REACTORS
330
2DF3
102
}
330
2DF3
100
AcDbXrecord
280
     1
270
     1
271
     1
  0
XRECORD
  5
2DF8
102
{ACAD_REACTORS
330
2DF3
102
}
330
2DF3
100
AcDbXrecord
280
     1
270
     1
271
     1
  0
XRECORD
  5
2DF7
102
{ACAD_REACTORS
330
2DF3
102
}
330
2DF3
100
AcDbXrecord
280
     1
270
     1
271
     1
  0
XRECORD
  5
2DF9
102
{ACAD_REACTORS
330
2DF3
102
}
330
2DF3
100
AcDbXrecord
280
     1
270
     1
271
     1
  0
XRECORD
  5
2DF6
102
{ACAD_REACTORS
330
2DF3
102
}
330
2DF3
100
AcDbXrecord
280
     1
270
     1
271
     1
  0
XRECORD
  5
3041
102
{ACAD_REACTORS
330
2DEB
102
}
330
2DEB
100
AcDbXrecord
280
     1
102
MATERIAL
148
0.0
149
0.0
149
0.0
 93
        0
 94
      127
282
     0
 72
     0
 77
     0
171
     0
175
     0
179
     0
273
     0
  0
XRECORD
  5
2DED
102
{ACAD_REACTORS
330
2DEB
102
}
330
2DEB
100
AcDbXrecord
280
     1
270
     1
271
     1
  0
XRECORD
  5
2DEC
102
{ACAD_REACTORS
330
2DEB
102
}
330
2DEB
100
AcDbXrecord
280
     1
270
     1
271
     1
  0
XRECORD
  5
2DF0
102
{ACAD_REACTORS
330
2DEB
102
}
330
2DEB
100
AcDbXrecord
280
     1
270
     1
271
     1
  0
XRECORD
  5
2DEF
102
{ACAD_REACTORS
330
2DEB
102
}
330
2DEB
100
AcDbXrecord
280
     1
270
     1
271
     1
  0
XRECORD
  5
2DF1
102
{ACAD_REACTORS
330
2DEB
102
}
330
2DEB
100
AcDbXrecord
280
     1
270
     1
271
     1
  0
XRECORD
  5
2DEE
102
{ACAD_REACTORS
330
2DEB
102
}
330
2DEB
100
AcDbXrecord
280
     1
270
     1
271
     1
  0
XRECORD
  5
3043
102
{ACAD_REACTORS
330
2DFB
102
}
330
2DFB
100
AcDbXrecord
280
     1
102
MATERIAL
148
0.0
149
0.0
149
0.0
 93
        0
 94
      127
282
     0
 72
     0
 77
     0
171
     0
175
     0
179
     0
273
     0
  0
XRECORD
  5
2DFD
102
{ACAD_REACTORS
330
2DFB
102
}
330
2DFB
100
AcDbXrecord
280
     1
270
     1
271
     1
  0
XRECORD
  5
2DFC
102
{ACAD_REACTORS
330
2DFB
102
}
330
2DFB
100
AcDbXrecord
280
     1
270
     1
271
     1
  0
XRECORD
  5
2E00
102
{ACAD_REACTORS
330
2DFB
102
}
330
2DFB
100
AcDbXrecord
280
     1
270
     1
271
     1
  0
XRECORD
  5
2DFF
102
{ACAD_REACTORS
330
2DFB
102
}
330
2DFB
100
AcDbXrecord
280
     1
270
     1
271
     1
  0
XRECORD
  5
2E01
102
{ACAD_REACTORS
330
2DFB
102
}
330
2DFB
100
AcDbXrecord
280
     1
270
     1
271
     1
  0
XRECORD
  5
2DFE
102
{ACAD_REACTORS
330
2DFB
102
}
330
2DFB
100
AcDbXrecord
280
     1
270
     1
271
     1
  0
CELLSTYLEMAP
  5
3039
102
{ACAD_REACTORS
330
3038
102
}
330
3038
100
AcDbCellStyleMap
 90
        3
300
CELLSTYLE
  1
TABLEFORMAT_BEGIN
 90
        5
170
     1
 91
        0
 92
    32768
 62
   257
 93
        1
300
CONTENTFORMAT
  1
CONTENTFORMAT_BEGIN
 90
        0
 91
        0
 92
      512
 93
        0
300

 40
0.0
140
1.0
 94
        5
 62
     0
340
2E36
144
0.25
309
CONTENTFORMAT_END
171
     0
 94
        0
309
TABLEFORMAT_END
  1
CELLSTYLE_BEGIN
 90
        1
 91
        1
300
_TITLE
309
CELLSTYLE_END
300
CELLSTYLE
  1
TABLEFORMAT_BEGIN
 90
        5
170
     1
 91
        0
 92
        0
 62
   257
 93
        1
300
CONTENTFORMAT
  1
CONTENTFORMAT_BEGIN
 90
        0
 91
        0
 92
      512
 93
        0
300

 40
0.0
140
1.0
 94
        5
 62
     0
340
2E36
144
0.18
309
CONTENTFORMAT_END
171
     0
 94
        0
309
TABLEFORMAT_END
  1
CELLSTYLE_BEGIN
 90
        2
 91
        1
300
_HEADER
309
CELLSTYLE_END
300
CELLSTYLE
  1
TABLEFORMAT_BEGIN
 90
        5
170
     1
 91
        0
 92
        0
 62
   257
 93
        1
300
CONTENTFORMAT
  1
CONTENTFORMAT_BEGIN
 90
        0
 91
        0
 92
      512
 93
        0
300

 40
0.0
140
1.0
 94
        2
 62
     0
340
2E36
144
0.18
309
CONTENTFORMAT_END
171
     0
 94
        0
309
TABLEFORMAT_END
  1
CELLSTYLE_BEGIN
 90
        3
 91
        2
300
_DATA
309
CELLSTYLE_END
  0
XRECORD
  5
3044
102
{ACAD_REACTORS
330
3038
102
}
330
3038
100
AcDbXrecord
280
     1
102
ACAD_ROUNDTRIP_PRE2007_TABLESTYLE
 90
      512
 91
        0
  1

 92
      512
 93
        0
  2

 94
      512
 95
        0
  3

  0
ENDSEC
  0
EOF
