  0
SECTION
  2
HEADER
  9
$ACADVER
  1
AC1018
  9
$ACADMAINTVER
 70
   104
  9
$DWGCODEPAGE
  3
ANSI_932
  9
$LASTSAVEDBY
  1
a080061
  9
$CUSTOMPROPERTYTAG
  1
AmdtFileType
  9
$CUSTOMPROPERTY
  1
84
  9
$INSBASE
 10
0.0
 20
0.0
 30
0.0
  9
$EXTMIN
 10
-776.3076618387239
 20
2026.113689882503
 30
-0.0015257624927045
  9
$EXTMAX
 10
1047.766124873615
 20
3190.059049945576
 30
50.00152599532333
  9
$LIMMIN
 10
-2970.0
 20
-2100.0
  9
$LIMMAX
 10
2970.0
 20
2100.0
  9
$ORTHOMODE
 70
     1
  9
$REGENMODE
 70
     0
  9
$FILLMODE
 70
     1
  9
$QTEXTMODE
 70
     0
  9
$MIRRTEXT
 70
     0
  9
$LTSCALE
 40
20.0
  9
$ATTMODE
 70
     1
  9
$TEXTSIZE
 40
64.0
  9
$TRACEWID
 40
0.05
  9
$TEXTSTYLE
  7
STANDARD
  9
$CLAYER
  8
0
  9
$CELTYPE
  6
ByLayer
  9
$CECOLOR
 62
   256
  9
$CELTSCALE
 40
1.0
  9
$DISPSILH
 70
     0
  9
$DIMSCALE
 40
1.0
  9
$DIMASZ
 40
0.12
  9
$DIMEXO
 40
0.05
  9
$DIMDLI
 40
0.5
  9
$DIMRND
 40
0.0
  9
$DIMDLE
 40
0.0
  9
$DIMEXE
 40
0.1
  9
$DIMTP
 40
0.1
  9
$DIMTM
 40
0.1
  9
$DIMTXT
 40
0.12
  9
$DIMCEN
 40
0.0
  9
$DIMTSZ
 40
0.0
  9
$DIMTOL
 70
     0
  9
$DIMLIM
 70
     0
  9
$DIMTIH
 70
     1
  9
$DIMTOH
 70
     1
  9
$DIMSE1
 70
     0
  9
$DIMSE2
 70
     0
  9
$DIMTAD
 70
     0
  9
$DIMZIN
 70
     7
  9
$DIMBLK
  1

  9
$DIMASO
 70
     1
  9
$DIMSHO
 70
     0
  9
$DIMPOST
  1

  9
$DIMAPOST
  1
mm
  9
$DIMALT
 70
     0
  9
$DIMALTD
 70
     2
  9
$DIMALTF
 40
25.4
  9
$DIMLFAC
 40
1.0
  9
$DIMTOFL
 70
     0
  9
$DIMTVP
 40
0.0
  9
$DIMTIX
 70
     0
  9
$DIMSOXD
 70
     0
  9
$DIMSAH
 70
     0
  9
$DIMBLK1
  1

  9
$DIMBLK2
  1

  9
$DIMSTYLE
  2
AM_ANSI
  9
$DIMCLRD
 70
   256
  9
$DIMCLRE
 70
   256
  9
$DIMCLRT
 70
     2
  9
$DIMTFAC
 40
0.71
  9
$DIMGAP
 40
0.06
  9
$DIMJUST
 70
     0
  9
$DIMSD1
 70
     0
  9
$DIMSD2
 70
     0
  9
$DIMTOLJ
 70
     1
  9
$DIMTZIN
 70
     7
  9
$DIMALTZ
 70
     0
  9
$DIMALTTZ
 70
     0
  9
$DIMUPT
 70
     0
  9
$DIMDEC
 70
     4
  9
$DIMTDEC
 70
     4
  9
$DIMALTU
 70
     2
  9
$DIMALTTD
 70
     4
  9
$DIMTXSTY
  7
STANDARD
  9
$DIMAUNIT
 70
     0
  9
$DIMADEC
 70
     0
  9
$DIMALTRND
 40
0.0
  9
$DIMAZIN
 70
     2
  9
$DIMDSEP
 70
    46
  9
$DIMATFIT
 70
     3
  9
$DIMFRAC
 70
     0
  9
$DIMLDRBLK
  1

  9
$DIMLUNIT
 70
     2
  9
$DIMLWD
 70
    -1
  9
$DIMLWE
 70
    -1
  9
$DIMTMOVE
 70
     0
  9
$LUNITS
 70
     2
  9
$LUPREC
 70
     4
  9
$SKETCHINC
 40
0.1
  9
$FILLETRAD
 40
4.0
  9
$AUNITS
 70
     1
  9
$AUPREC
 70
     3
  9
$MENU
  1
ACAD
  9
$ELEVATION
 40
0.0
  9
$PELEVATION
 40
0.0
  9
$THICKNESS
 40
50.0
  9
$LIMCHECK
 70
     0
  9
$CHAMFERA
 40
0.0
  9
$CHAMFERB
 40
0.0
  9
$CHAMFERC
 40
0.0
  9
$CHAMFERD
 40
0.0
  9
$SKPOLY
 70
     0
  9
$TDCREATE
 40
2452321.396199653
  9
$TDUCREATE
 40
2452321.021199653
  9
$TDUPDATE
 40
2457491.618023623
  9
$TDUUPDATE
 40
2457491.243023623
  9
$TDINDWG
 40
1.0432565972
  9
$TDUSRTIMER
 40
1.0432504514
  9
$USRTIMER
 70
     1
  9
$ANGBASE
 50
0.0
  9
$ANGDIR
 70
     0
  9
$PDMODE
 70
     3
  9
$PDSIZE
 40
-2.0
  9
$PLINEWID
 40
0.0
  9
$SPLFRAME
 70
     0
  9
$SPLINETYPE
 70
     6
  9
$SPLINESEGS
 70
     8
  9
$HANDSEED
  5
3982
  9
$SURFTAB1
 70
     6
  9
$SURFTAB2
 70
     6
  9
$SURFTYPE
 70
     6
  9
$SURFU
 70
     6
  9
$SURFV
 70
     6
  9
$UCSBASE
  2

  9
$UCSNAME
  2

  9
$UCSORG
 10
0.0
 20
0.0
 30
0.0
  9
$UCSXDIR
 10
1.0
 20
0.0
 30
0.0
  9
$UCSYDIR
 10
0.0
 20
1.0
 30
0.0
  9
$UCSORTHOREF
  2

  9
$UCSORTHOVIEW
 70
     0
  9
$UCSORGTOP
 10
0.0
 20
0.0
 30
0.0
  9
$UCSORGBOTTOM
 10
0.0
 20
0.0
 30
0.0
  9
$UCSORGLEFT
 10
0.0
 20
0.0
 30
0.0
  9
$UCSORGRIGHT
 10
0.0
 20
0.0
 30
0.0
  9
$UCSORGFRONT
 10
0.0
 20
0.0
 30
0.0
  9
$UCSORGBACK
 10
0.0
 20
0.0
 30
0.0
  9
$PUCSBASE
  2

  9
$PUCSNAME
  2

  9
$PUCSORG
 10
0.0
 20
0.0
 30
0.0
  9
$PUCSXDIR
 10
1.0
 20
0.0
 30
0.0
  9
$PUCSYDIR
 10
0.0
 20
1.0
 30
0.0
  9
$PUCSORTHOREF
  2

  9
$PUCSORTHOVIEW
 70
     0
  9
$PUCSORGTOP
 10
0.0
 20
0.0
 30
0.0
  9
$PUCSORGBOTTOM
 10
0.0
 20
0.0
 30
0.0
  9
$PUCSORGLEFT
 10
0.0
 20
0.0
 30
0.0
  9
$PUCSORGRIGHT
 10
0.0
 20
0.0
 30
0.0
  9
$PUCSORGFRONT
 10
0.0
 20
0.0
 30
0.0
  9
$PUCSORGBACK
 10
0.0
 20
0.0
 30
0.0
  9
$USERI1
 70
     0
  9
$USERI2
 70
     0
  9
$USERI3
 70
     0
  9
$USERI4
 70
     0
  9
$USERI5
 70
     0
  9
$USERR1
 40
20.0
  9
$USERR2
 40
0.0
  9
$USERR3
 40
0.0
  9
$USERR4
 40
0.0
  9
$USERR5
 40
0.0
  9
$WORLDVIEW
 70
     1
  9
$SHADEDGE
 70
     3
  9
$SHADEDIF
 70
    70
  9
$TILEMODE
 70
     1
  9
$MAXACTVP
 70
    64
  9
$PINSBASE
 10
0.0
 20
0.0
 30
0.0
  9
$PLIMCHECK
 70
     0
  9
$PEXTMIN
 10
1.000000000000000E+20
 20
1.000000000000000E+20
 30
1.000000000000000E+20
  9
$PEXTMAX
 10
-1.000000000000000E+20
 20
-1.000000000000000E+20
 30
-1.000000000000000E+20
  9
$PLIMMIN
 10
0.0
 20
0.0
  9
$PLIMMAX
 10
12.0
 20
9.0
  9
$UNITMODE
 70
     0
  9
$VISRETAIN
 70
     1
  9
$PLINEGEN
 70
     0
  9
$PSLTSCALE
 70
     1
  9
$TREEDEPTH
 70
  3020
  9
$CMLSTYLE
  2
Standard
  9
$CMLJUST
 70
     0
  9
$CMLSCALE
 40
1.0
  9
$PROXYGRAPHICS
 70
     1
  9
$MEASUREMENT
 70
     0
  9
$CELWEIGHT
370
    -1
  9
$ENDCAPS
280
     0
  9
$JOINSTYLE
280
     0
  9
$LWDISPLAY
290
     0
  9
$INSUNITS
 70
     0
  9
$HYPERLINKBASE
  1

  9
$STYLESHEET
  1

  9
$XEDIT
290
     1
  9
$CEPSNTYPE
380
     0
  9
$PSTYLEMODE
290
     1
  9
$FINGERPRINTGUID
  2
{4389223C-9351-4A25-88F1-1D0EF0320F5D}
  9
$VERSIONGUID
  2
{60A2E4E5-1095-4D9D-8C23-BE8744E62859}
  9
$EXTNAMES
290
     1
  9
$PSVPSCALE
 40
0.0
  9
$OLESTARTUP
290
     0
  9
$SORTENTS
280
   127
  9
$INDEXCTL
280
     1
  9
$HIDETEXT
280
     0
  9
$XCLIPFRAME
290
     0
  9
$HALOGAP
280
     0
  9
$OBSCOLOR
 70
   257
  9
$OBSLTYPE
280
     0
  9
$INTERSECTIONDISPLAY
280
     0
  9
$INTERSECTIONCOLOR
 70
   257
  9
$DIMASSOC
280
     1
  9
$PROJECTNAME
  1

  0
ENDSEC
  0
SECTION
  2
CLASSES
  0
CLASS
  1
ACDBDICTIONARYWDFLT
  2
AcDbDictionaryWithDefault
  3
ObjectDBX Classes
 90
        0
 91
        1
280
     0
281
     0
  0
CLASS
  1
MATERIAL
  2
AcDbMaterial
  3
ObjectDBX Classes
 90
     1153
 91
        3
280
     0
281
     0
  0
CLASS
  1
VISUALSTYLE
  2
AcDbVisualStyle
  3
ObjectDBX Classes
 90
     4095
 91
       16
280
     0
281
     0
  0
CLASS
  1
SCALE
  2
AcDbScale
  3
ObjectDBX Classes
 90
     1153
 91
       33
280
     0
281
     0
  0
CLASS
  1
TABLESTYLE
  2
AcDbTableStyle
  3
ObjectDBX Classes
 90
     4095
 91
        1
280
     0
281
     0
  0
CLASS
  1
MLEADERSTYLE
  2
AcDbMLeaderStyle
  3
ACDB_MLEADERSTYLE_CLASS
 90
     4095
 91
        1
280
     0
281
     0
  0
CLASS
  1
AMGSETTINGSOBJ
  2
AmgSettingsObj
  3
"AcadM|Product Description: AutoCAD Mechanical|Company: Autodesk, Inc."
 90
     1024
 91
        2
280
     0
281
     0
  0
CLASS
  1
ACME_DOCUMENT
  2
AcMeDbDoc
  3
AcMeServices
 90
     1024
 91
        1
280
     0
281
     0
  0
CLASS
  1
ACMESCOPE
  2
AcMeScope
  3
AcMeServices
 90
     1024
 91
        1
280
     0
281
     0
  0
CLASS
  1
ACMECOMMANDHISTORY
  2
AcMeCommandHistory
  3
AcMeServices
 90
     1024
 91
        1
280
     0
281
     0
  0
CLASS
  1
ACIMSYSVARMAN
  2
AcImSysVarManager
  3
AcMeServices
 90
     1024
 91
        6
280
     0
281
     0
  0
CLASS
  1
ACIMREALSYSVAR
  2
AcImRealSysVar
  3
AcMeServices
 90
     1024
 91
       16
280
     0
281
     0
  0
CLASS
  1
ACIMINTSYSVAR
  2
AcImIntSysVar
  3
AcMeServices
 90
     1024
 91
       45
280
     0
281
     0
  0
CLASS
  1
ACMEDRAWINGMAN
  2
AcMeDrawingMan
  3
AcMeServices
 90
     1024
 91
        1
280
     0
281
     0
  0
CLASS
  1
ACMEVIEW
  2
AcMeView
  3
AcMeServices
 90
     1024
 91
        1
280
     0
281
     0
  0
CLASS
  1
ACDBENTITYCACHE
  2
AcMeEntityCache
  3
AcMeServices
 90
     1024
 91
        1
280
     0
281
     0
  0
CLASS
  1
GSMANAGER
  2
AcMeGSManager
  3
AcMeServices
 90
     1024
 91
        1
280
     0
281
     0
  0
CLASS
  1
AMDTINTERNALREACTOR
  2
AmdtInternalReactor
  3
AcMeServices
 90
     1024
 91
        2
280
     0
281
     0
  0
CLASS
  1
ACMESTATEMGR
  2
AcMeStateMgr
  3
AcMeServices
 90
     1024
 91
        1
280
     0
281
     0
  0
CLASS
  1
ACGREFMASTER
  2
AcGrefMaster
  3
AcAttribServices
 90
     1024
 91
        1
280
     0
281
     0
  0
CLASS
  1
AM_DRAWING_MGR
  2
AcDmDwgMgr
  3
AcMechDwgViewMgmt
 90
     1024
 91
        1
280
     0
281
     0
  0
CLASS
  1
AM_DWG_DOCUMENT
  2
AcDmDwgDocument
  3
AcMechDwgViewMgmt
 90
     1024
 91
        1
280
     0
281
     0
  0
CLASS
  1
AM_DWG_SHEET
  2
AcDmSheet
  3
AcMechDwgViewMgmt
 90
     1024
 91
        1
280
     0
281
     0
  0
CLASS
  1
AM_VIEWDIMPARMAP
  2
AcDmViewDimParMap
  3
AcMechDwgViewMgmt
 90
     1024
 91
        1
280
     0
281
     0
  0
CLASS
  1
AM_DWGMGR_NAME
  2
AcDmDwgMgrName
  3
AcMechDwgViewMgmt
 90
     1024
 91
        1
280
     0
281
     0
  0
CLASS
  1
ACME_DATABASE
  2
AcMeDbDatabase
  3
AcMeServices
 90
     1024
 91
        1
280
     0
281
     0
  0
CLASS
  1
ACRFINSADJUSTERMGR
  2
AcRfInsAdjusterMgr
  3
AcMeServices
 90
     1024
 91
        1
280
     0
281
     0
  0
CLASS
  1
ACGREFACADMASTER
  2
AcGrefacadMaster
  3
AcGrefServices
 90
     1024
 91
        1
280
     0
281
     0
  0
CLASS
  1
AMDTMENUSTATEMGR
  2
AmdtMenuStateMgr
  3
McadcomServices
 90
     1024
 91
        1
280
     0
281
     0
  0
CLASS
  1
AMDTMCOMMENUSTATE
  2
AmdtMcomMenuState
  3
McadcomServices
 90
     1024
 91
        1
280
     0
281
     0
  0
CLASS
  1
AMIMASTER
  2
AmiMaster
  3
AmiServices
 90
     1024
 91
        1
280
     0
281
     0
  0
CLASS
  1
ASAPP
  2
AcAsAppObject
  3
AutoSurfServices
 90
     1024
 91
        1
280
     0
281
     0
  0
CLASS
  1
IM_STATIC_MAN
  2
AcImStaticVarManager
  3
AcMeServices
 90
     1024
 91
        1
280
     0
281
     0
  0
CLASS
  1
ACIMSTRSYSVAR
  2
AcImStrSysVar
  3
AcMeServices
 90
     1024
 91
       11
280
     0
281
     0
  0
CLASS
  1
ACIMDBLSTATICVAR
  2
AcImDblStaticVar
  3
AcMeServices
 90
     1024
 91
       20
280
     0
281
     0
  0
CLASS
  1
ACIMSTRSTATICVAR
  2
AcImStrStaticVar
  3
AcMeServices
 90
     1024
 91
       12
280
     0
281
     0
  0
CLASS
  1
ACIMINTSTATICVAR
  2
AcImIntStaticVar
  3
AcMeServices
 90
     1024
 91
       17
280
     0
281
     0
  0
CLASS
  1
ACASGREFMASTER
  2
AcAsGrefMaster
  3
AutoSurfResolverServices
 90
     1024
 91
        1
280
     0
281
     0
  0
CLASS
  1
ACADGREFMODULE
  2
AcAdGrefModule
  3
AdGrefServices
 90
     1024
 91
        1
280
     0
281
     0
  0
CLASS
  1
AMDTMAPISURFMOUDULE
  2
AmdtMApiSurfModule
  3
MApiSurfServices
 90
     1024
 91
        1
280
     0
281
     0
  0
CLASS
  1
MAPIAMMOUDLE
  2
MApiAmModule
  3
MApiAmServices
 90
     1024
 91
        1
280
     0
281
     0
  0
CLASS
  1
AMDTADMENUSTATE
  2
AmdtAdMenuState
  3
DesignerServices
 90
     1024
 91
        1
280
     0
281
     0
  0
CLASS
  1
ADAPPL
  2
AcAdAppl
  3
DesignerServices
 90
     1024
 91
        1
280
     0
281
     0
  0
CLASS
  1
DEPMGR
  2
AcAdDepMgr
  3
DesignerServices
 90
     1024
 91
        1
280
     0
281
     0
  0
CLASS
  1
PARAMMGR
  2
AcAdParamMgr
  3
DesignerServices
 90
     1024
 91
        1
280
     0
281
     0
  0
CLASS
  1
PARAMSCOPE
  2
AcAdParamScope
  3
DesignerServices
 90
     1024
 91
        1
280
     0
281
     0
  0
CLASS
  1
NAMEDAPPL
  2
AcAdNamedAppl
  3
DesignerServices
 90
     1024
 91
        1
280
     0
281
     0
  0
CLASS
  1
AMDTDMMENUSTATE
  2
AmdtDmMenuState
  3
AcMechDwgViewMgmt
 90
     1024
 91
        1
280
     0
281
     0
  0
CLASS
  1
MAPIADMODULE
  2
MApiAdModule
  3
MApiAdServices
 90
     1024
 91
        1
280
     0
281
     0
  0
CLASS
  1
AMDTAMMENUSTATE
  2
AmdtAmMenuState
  3
DesignerAssemblies
 90
     1024
 91
        1
280
     0
281
     0
  0
CLASS
  1
ACAMPROJECT
  2
AcAmProject
  3
DesignerAssemblies
 90
     1024
 91
        1
280
     0
281
     0
  0
CLASS
  1
ACAMGRCOMPDEF
  2
AcAmGrCompDef
  3
DesignerAssemblies
 90
     1024
 91
        1
280
     0
281
     0
  0
CLASS
  1
ACCMCONTEXT
  2
AcCmContext
  3
DesignerAssemblies
 90
     1024
 91
        1
280
     0
281
     0
  0
CLASS
  1
ACAMCOMPDEF
  2
AcAmCompDef
  3
DesignerAssemblies
 90
     1024
 91
        1
280
     0
281
     0
  0
CLASS
  1
ACAMCOMPDEFMGR
  2
AcAmCompDefMgr
  3
DesignerAssemblies
 90
     1024
 91
        1
280
     0
281
     0
  0
CLASS
  1
AMCONTEXTMGR
  2
AcAmContextMgr
  3
DesignerAssemblies
 90
     1024
 91
        1
280
     0
281
     0
  0
CLASS
  1
ACAMCONTEXTMODELER
  2
AcAmContextModeler
  3
DesignerAssemblies
 90
     1024
 91
        1
280
     0
281
     0
  0
CLASS
  1
ACMDATADICTIONARY
  2
AcmDataDictionary
  3
"AcmSymBB|Product Description: AutoCAD Mechanical|Company: Autodesk, Inc."
 90
     1024
 91
        1
280
     0
281
     0
  0
CLASS
  1
ACMDATAENTRYBLOCK
  2
AcmDataEntryBlock
  3
AcmSymBB|Product Description: AutoCAD Mechanical|Company: Autodesk, Inc.
 90
     1024
 91
        1
280
     0
281
     0
  0
CLASS
  1
ACRFATTGENMGR
  2
AcRfAttGeneralMgr
  3
AcAttribServices
 90
     1024
 91
        1
280
     0
281
     0
  0
CLASS
  1
ACRFOBJATTMGR
  2
AcRfObjAttGroupMgr
  3
AcAttribServices
 90
     1024
 91
        1
280
     0
281
     0
  0
CLASS
  1
ACRFMCADAPIATTHOLDER
  2
AcRfMCADAPIAttHolder
  3
AcAttribServices
 90
     1024
 91
        1
280
     0
281
     0
  0
CLASS
  1
AMDTSYSATTR
  2
AmdtSystemAttribute
  3
AcAttribServices
 90
     1024
 91
        1
280
     0
281
     0
  0
CLASS
  1
CATALOGSTATE
  2
AcAmCatalogState
  3
DesignerAssemblies
 90
     1024
 91
        1
280
     0
281
     0
  0
CLASS
  1
ACAMGRCOMPDEFSET
  2
AcAmGrCompDefSet
  3
DesignerAssemblies
 90
     1024
 91
        1
280
     0
281
     0
  0
CLASS
  1
AMDTBROWSERDBTAB
  2
AmdtBrowserDbTab
  3
McadcomServices
 90
     1024
 91
        1
280
     0
281
     0
  0
CLASS
  1
CBROWSERAPPOBJECT
  2
CBrowserAppObject
  3
McadcomServices
 90
     1024
 91
        3
280
     0
281
     0
  0
CLASS
  1
DM_PLACEHOLDER
  2
AcDmSelsetPlaceholder
  3
AcMechDwgViewMgmt
 90
     1024
 91
        1
280
     0
281
     0
  0
CLASS
  1
ACMSTANDARDANSI
  2
AcmStandardANSI
  3
"Amdt_StdImp|Product Description: AutoCAD Mechanical|Company: Autodesk, Inc."
 90
     1024
 91
        1
280
     0
281
     0
  0
CLASS
  1
ACMSURFSTANDARDANSI
  2
AcmSurfTextStdANSI
  3
"Amdt_StdImp|Product Description: AutoCAD Mechanical|Company: Autodesk, Inc."
 90
     1024
 91
        1
280
     0
281
     0
  0
CLASS
  1
ACMFCFSTANDARDANSI
  2
AcmFCFStdANSI
  3
"Amdt_StdImp|Product Description: AutoCAD Mechanical|Company: Autodesk, Inc."
 90
     1024
 91
        1
280
     0
281
     0
  0
CLASS
  1
ACMWELDSTANDARDANSI
  2
AcmWeldingStdANSI
  3
"Amdt_StdImp|Product Description: AutoCAD Mechanical|Company: Autodesk, Inc."
 90
     1024
 91
        1
280
     0
281
     0
  0
CLASS
  1
ACMIDSTANDARDANSI
  2
AcmIdStdANSI
  3
"Amdt_StdImp|Product Description: AutoCAD Mechanical|Company: Autodesk, Inc."
 90
     1024
 91
        1
280
     0
281
     0
  0
CLASS
  1
ACMDATUMSTANDARDANSI
  2
AcmDatumStdANSI
  3
"Amdt_StdImp|Product Description: AutoCAD Mechanical|Company: Autodesk, Inc."
 90
     1024
 91
        1
280
     0
281
     0
  0
CLASS
  1
ACMBOMSTANDARDANSI
  2
AcmBOMStdANSI
  3
"Amdt_StdImp|Product Description: AutoCAD Mechanical|Company: Autodesk, Inc."
 90
     1024
 91
        1
280
     0
281
     0
  0
CLASS
  1
ACMDETAILSTANDARDANSI
  2
AmdtDetailSymStdANSI
  3
"Amdt_StdImp|Product Description: AutoCAD Mechanical|Company: Autodesk, Inc."
 90
     1024
 91
        1
280
     0
281
     0
  0
CLASS
  1
ACMSECTIONSTANDARDANSI
  2
AmdtSectionSymStdANSI
  3
"Amdt_StdImp|Product Description: AutoCAD Mechanical|Company: Autodesk, Inc."
 90
     1024
 91
        1
280
     0
281
     0
  0
CLASS
  1
ACMCENTERLINESTANDARDANSI
  2
AmdtCenterLineStdANSI
  3
"Amdt_StdImp|Product Description: AutoCAD Mechanical|Company: Autodesk, Inc."
 90
     1024
 91
        1
280
     0
281
     0
  0
CLASS
  1
ACMTHREADLINESTANDARDANSI
  2
AmdtThreadLineStdANSI
  3
"Amdt_StdImp|Product Description: AutoCAD Mechanical|Company: Autodesk, Inc."
 90
     1024
 91
        1
280
     0
281
     0
  0
CLASS
  1
ACMNOTESTANDARDANSI
  2
AmdtNoteStdANSI
  3
"Amdt_StdImp|Product Description: AutoCAD Mechanical|Company: Autodesk, Inc."
 90
     1024
 91
        1
280
     0
281
     0
  0
CLASS
  1
ACMTAPERSTANDARDANSI
  2
AcmTaperStdANSI
  3
"Amdt_StdImp|Product Description: AutoCAD Mechanical|Company: Autodesk, Inc."
 90
     1024
 91
        1
280
     0
281
     0
  0
CLASS
  1
ACMANOOTATIONVIEWSTANDARDANSI
  2
AmdtAnViewStdANSI
  3
"Amdt_StdImp|Product Description: AutoCAD Mechanical|Company: Autodesk, Inc."
 90
     1024
 91
        1
280
     0
281
     0
  0
CLASS
  1
ACAMGLAYSTD
  2
AcAmgLayStd
  3
"AmgLay|Product Description: AutoCAD Mechanical|Company: Autodesk, Inc."
 90
     1024
 91
        1
280
     0
281
     0
  0
CLASS
  1
ACAMGDIMSTD
  2
AcAmgDimStd
  3
"AmgDim|Product Description: AutoCAD Mechanical|Company: Autodesk, Inc."
 90
     1024
 91
        1
280
     0
281
     0
  0
CLASS
  1
ACAMGHOLECHARTSTDANSI
  2
AcAmgHoleChartStdANSI
  3
AmgDim|Product Description: AutoCAD Mechanical|Company: Autodesk, Inc.
 90
     1024
 91
        1
280
     0
281
     0
  0
CLASS
  1
AMGOBJPROPCFG
  2
AmgObjPropCfg
  3
"AmgLay|Product Description: AutoCAD Mechanical|Company: Autodesk, Inc."
 90
     1025
 91
        1
280
     0
281
     0
  0
CLASS
  1
ACAMGTITLESTD
  2
AcAmgTitleStd
  3
"AmgTitle|Product Description: AutoCAD Mechanical|Company: Autodesk, Inc."
 90
     4095
 91
        1
280
     0
281
     0
  0
CLASS
  1
AMDTNOTETEMPLATEDB
  2
AmdtNoteTemplateDB
  3
AcmSymBB|Product Description: AutoCAD Mechanical|Company: Autodesk, Inc.
 90
     1024
 91
        6
280
     0
281
     0
  0
CLASS
  1
ACAMGFILTERDAT
  2
AcAmgFilterDat
  3
"AcadM|Product Description: AutoCAD Mechanical|Company: Autodesk, Inc."
 90
     1024
 91
        6
280
     0
281
     0
  0
CLASS
  1
LAYER_INDEX
  2
AcDbLayerIndex
  3
ObjectDBX Classes
 90
        0
 91
        1
280
     0
281
     0
  0
CLASS
  1
IDBUFFER
  2
AcDbIdBuffer
  3
ObjectDBX Classes
 90
        0
 91
       12
280
     0
281
     0
  0
CLASS
  1
DICTIONARYVAR
  2
AcDbDictionaryVar
  3
ObjectDBX Classes
 90
        0
 91
       13
280
     0
281
     0
  0
CLASS
  1
CELLSTYLEMAP
  2
AcDbCellStyleMap
  3
ObjectDBX Classes
 90
     1152
 91
        2
280
     0
281
     0
  0
CLASS
  1
SORTENTSTABLE
  2
AcDbSortentsTable
  3
ObjectDBX Classes
 90
        0
 91
        0
280
     0
281
     0
  0
ENDSEC
  0
SECTION
  2
TABLES
  0
TABLE
  2
VPORT
  5
2B50
330
0
100
AcDbSymbolTable
 70
     1
  0
VPORT
  5
2BC0
330
2B50
100
AcDbSymbolTableRecord
100
AcDbViewportTableRecord
  2
*ACTIVE
 70
     0
 10
0.0
 20
0.0
 11
1.0
 21
1.0
 12
-560.988672604839
 22
-683.3284620056888
 13
0.0
 23
0.0
 14
1.0
 24
1.0
 15
0.0
 25
0.0
 16
0.0
 26
0.0
 36
1.0
 17
696.7179041222846
 27
3291.414831919728
 37
0.0
 40
1359.458874416335
 41
1.350069735006973
 42
50.0
 43
0.0
 44
0.0
 50
0.0
 51
0.0
 71
     0
 72
   100
 73
     1
 74
     0
 75
     0
 76
     0
 77
     0
 78
     0
281
     0
 65
     0
110
0.0
120
0.0
130
0.0
111
1.0
121
0.0
131
0.0
112
0.0
122
1.0
132
0.0
 79
     0
146
0.0
  0
ENDTAB
  0
TABLE
  2
LTYPE
  5
2B4D
330
0
100
AcDbSymbolTable
 70
    19
  0
LTYPE
  5
2BAA
330
2B4D
100
AcDbSymbolTableRecord
100
AcDbLinetypeTableRecord
  2
ByBlock
 70
     0
  3

 72
    65
 73
     0
 40
0.0
  0
LTYPE
  5
2BAB
330
2B4D
100
AcDbSymbolTableRecord
100
AcDbLinetypeTableRecord
  2
ByLayer
 70
     0
  3

 72
    65
 73
     0
 40
0.0
  0
LTYPE
  5
2BAC
330
2B4D
100
AcDbSymbolTableRecord
100
AcDbLinetypeTableRecord
  2
CONTINUOUS
 70
     0
  3
実線
 72
    65
 73
     0
 40
0.0
  0
LTYPE
  5
2BC1
330
2B4D
100
AcDbSymbolTableRecord
100
AcDbLinetypeTableRecord
  2
DASHDOT
 70
     0
  3
____ _ ____ _ ____ _ ____ _ ____ _ ____ _ ____
 72
    65
 73
     4
 40
5.5
 49
4.0
 74
     0
 49
-0.6
 74
     0
 49
0.3
 74
     0
 49
-0.6
 74
     0
  0
LTYPE
  5
2BC2
330
2B4D
100
AcDbSymbolTableRecord
100
AcDbLinetypeTableRecord
  2
HIDDEN
 70
     0
  3
Hidden __ __ __ __ __ __ __ __ __ __ __ __ __ _
 72
    65
 73
     2
 40
0.375
 49
0.25
 74
     0
 49
-0.125
 74
     0
  0
LTYPE
  5
2BC3
330
2B4D
100
AcDbSymbolTableRecord
100
AcDbLinetypeTableRecord
  2
PHANTOM2
 70
     0
  3
Phantom (.5x) ___ _ _ ___ _ _ ___ _ _ ___ _ _
 72
    65
 73
     6
 40
1.25
 49
0.625
 74
     0
 49
-0.125
 74
     0
 49
0.125
 74
     0
 49
-0.125
 74
     0
 49
0.125
 74
     0
 49
-0.125
 74
     0
  0
LTYPE
  5
2BC4
330
2B4D
100
AcDbSymbolTableRecord
100
AcDbLinetypeTableRecord
  2
CENTER
 70
     0
  3
Center ____ _ ____ _ ____ _ ____ _ ____ _ ____
 72
    65
 73
     4
 40
2.0
 49
1.25
 74
     0
 49
-0.25
 74
     0
 49
0.25
 74
     0
 49
-0.25
 74
     0
  0
LTYPE
  5
2BC5
330
2B4D
100
AcDbSymbolTableRecord
100
AcDbLinetypeTableRecord
  2
ASULTYPE
 70
     0
  3
実線
 72
    65
 73
     2
 40
3.0
 49
2.5
 74
     0
 49
0.5
 74
     0
  0
LTYPE
  5
2BC6
330
2B4D
100
AcDbSymbolTableRecord
100
AcDbLinetypeTableRecord
  2
ASVLTYPE
 70
     0
  3
__ __ __ __ __ __ __ __ __ __ __ __ __ __ __ __ __ __ __ __ __
 72
    65
 73
     2
 40
0.75
 49
0.5
 74
     0
 49
-0.25
 74
     0
  0
LTYPE
  5
2BC7
330
2B4D
100
AcDbSymbolTableRecord
100
AcDbLinetypeTableRecord
  2
AM_ISO02W050
 70
     0
  3
__ __ __ __ __ __ __ __ __ __ __ __ __ __ __
 72
    65
 73
     2
 40
7.5
 49
6.0
 74
     0
 49
-1.5
 74
     0
  0
LTYPE
  5
2BC8
330
2B4D
100
AcDbSymbolTableRecord
100
AcDbLinetypeTableRecord
  2
AM_ISO08W050
 70
     0
  3
____ . ____ . ____ . ____ . ____ . ____ . ____
 72
    65
 73
     4
 40
18.0
 49
12.0
 74
     0
 49
-1.5
 74
     0
 49
3.0
 74
     0
 49
-1.5
 74
     0
  0
LTYPE
  5
2BC9
330
2B4D
100
AcDbSymbolTableRecord
100
AcDbLinetypeTableRecord
  2
AM_ISO09W050
 70
     0
  3
_____ . . _____ . . _____ . . ____ .. ____
 72
    65
 73
     6
 40
22.5
 49
12.0
 74
     0
 49
-1.5
 74
     0
 49
3.0
 74
     0
 49
-1.5
 74
     0
 49
3.0
 74
     0
 49
-1.5
 74
     0
  0
LTYPE
  5
2BCA
330
2B4D
100
AcDbSymbolTableRecord
100
AcDbLinetypeTableRecord
  2
AMCONSTR
 70
     0
  3
_______________________
 72
    65
 73
     2
 40
9999.0
 49
9999.0
 74
     0
 49
0.0
 74
     0
  0
LTYPE
  5
2BCB
330
2B4D
100
AcDbSymbolTableRecord
100
AcDbLinetypeTableRecord
  2
AM_ISO08W050X2
 70
     0
  3
__ . __ . __ . __ . __ . __
 72
    65
 73
     4
 40
9.0
 49
6.0
 74
     0
 49
-0.75
 74
     0
 49
1.5
 74
     0
 49
-0.75
 74
     0
  0
LTYPE
  5
2BCC
330
2B4D
100
AcDbSymbolTableRecord
100
AcDbLinetypeTableRecord
  2
AM_ISO02W050X2
 70
     0
  3
 _ _ _ _ _ _ _ _ _ _ _ _
 72
    65
 73
     2
 40
3.75
 49
3.0
 74
     0
 49
-0.75
 74
     0
  0
LTYPE
  5
2BCD
330
2B4D
100
AcDbSymbolTableRecord
100
AcDbLinetypeTableRecord
  2
AMZIGZAG
 70
     0
  3
/\/-/\/-/\/-/\/-/\/-/\/
 72
    65
 73
     2
 40
11.0001
 49
0.0001
 74
     0
 49
-11.0
 74
     0
  0
LTYPE
  5
2BCE
330
2B4D
100
AcDbSymbolTableRecord
100
AcDbLinetypeTableRecord
  2
CENTER2
 70
     0
  3
Center (.5x) ___ _ ___ _ ___ _ ___ _ ___ _ ___
 72
    65
 73
     4
 40
1.125
 49
0.75
 74
     0
 49
-0.125
 74
     0
 49
0.125
 74
     0
 49
-0.125
 74
     0
  0
LTYPE
  5
2BCF
330
2B4D
100
AcDbSymbolTableRecord
100
AcDbLinetypeTableRecord
  2
HIDDEN2
 70
     0
  3
Hidden (.5x) _ _ _ _ _ _ _ _ _ _ _ _ _ _ _ _ _
 72
    65
 73
     2
 40
0.1875
 49
0.125
 74
     0
 49
-0.0625
 74
     0
  0
LTYPE
  5
2BD0
330
2B4D
100
AcDbSymbolTableRecord
100
AcDbLinetypeTableRecord
  2
AMZIGZAG2
 70
     0
  3
/\/-/\/-/\/-/\/-/\/-/\/
 72
    65
 73
     2
 40
0.4401
 49
0.0001
 74
     0
 49
-0.4400000000000003
 74
     0
  0
LTYPE
  5
2BD1
330
2B4D
100
AcDbSymbolTableRecord
100
AcDbLinetypeTableRecord
  2
ACANSTGB
 70
     0
  3
__ . . __ . .
 72
    65
 73
     6
 40
0.35433070866
 49
0.15748031496
 74
     0
 49
-0.03937007874
 74
     0
 49
0.03937007874
 74
     0
 49
-0.03937007874
 74
     0
 49
0.03937007874
 74
     0
 49
-0.03937007874
 74
     0
  0
LTYPE
  5
2BD2
330
2B4D
100
AcDbSymbolTableRecord
100
AcDbLinetypeTableRecord
  2
ACANSTGL
 70
     0
  3
_ _ _ _ _
 72
    65
 73
     2
 40
0.11811023622
 49
0.07874015748
 74
     0
 49
-0.03937007874
 74
     0
  0
ENDTAB
  0
TABLE
  2
LAYER
  5
2B4A
102
{ACAD_XDICTIONARY
360
2EA2
102
}
330
0
100
AcDbSymbolTable
 70
    12
  0
LAYER
  5
2BA4
102
{ACAD_XDICTIONARY
360
2D81
102
}
330
2B4A
100
AcDbSymbolTableRecord
100
AcDbLayerTableRecord
  2
0
 70
     0
 62
     7
  6
CONTINUOUS
370
    -3
390
2B57
  0
LAYER
  5
2BD3
102
{ACAD_XDICTIONARY
360
2D83
102
}
330
2B4A
100
AcDbSymbolTableRecord
100
AcDbLayerTableRecord
  2
OUTLINE
 70
     0
 62
     3
  6
CONTINUOUS
370
    -3
390
2B57
  0
LAYER
  5
2BD4
102
{ACAD_XDICTIONARY
360
2D85
102
}
330
2B4A
100
AcDbSymbolTableRecord
100
AcDbLayerTableRecord
  2
SIZE
 70
     0
 62
    30
  6
CONTINUOUS
370
    -3
390
2B57
  0
LAYER
  5
2BD5
102
{ACAD_XDICTIONARY
360
2D87
102
}
330
2B4A
100
AcDbSymbolTableRecord
100
AcDbLayerTableRecord
  2
BASIS
 70
     0
 62
     6
  6
DASHDOT
370
    -3
390
2B57
  0
LAYER
  5
2BD6
102
{ACAD_XDICTIONARY
360
2D89
102
}
330
2B4A
100
AcDbSymbolTableRecord
100
AcDbLayerTableRecord
  2
DETAIL
 70
     0
 62
     5
  6
CONTINUOUS
370
    -3
390
2B57
  0
LAYER
  5
2BD7
102
{ACAD_XDICTIONARY
360
2D8B
102
}
330
2B4A
100
AcDbSymbolTableRecord
100
AcDbLayerTableRecord
  2
ARRANGE
 70
     0
 62
     1
  6
CONTINUOUS
370
    -3
390
2B57
  0
LAYER
  5
2BD8
330
2B4A
100
AcDbSymbolTableRecord
100
AcDbLayerTableRecord
  2
DEFPOINTS
 70
     0
 62
     7
  6
CONTINUOUS
290
     0
370
    -3
390
2B57
  0
LAYER
  5
2BD9
102
{ACAD_XDICTIONARY
360
2D8D
102
}
330
2B4A
100
AcDbSymbolTableRecord
100
AcDbLayerTableRecord
  2
ETC
 70
     0
 62
    61
  6
CONTINUOUS
370
    -3
390
2B57
  0
LAYER
  5
2BDA
102
{ACAD_XDICTIONARY
360
2D8F
102
}
330
2B4A
100
AcDbSymbolTableRecord
100
AcDbLayerTableRecord
  2
FIX
 70
     0
 62
    11
  6
CONTINUOUS
370
    -3
390
2B57
  0
LAYER
  5
2BDB
102
{ACAD_XDICTIONARY
360
2D91
102
}
330
2B4A
100
AcDbSymbolTableRecord
100
AcDbLayerTableRecord
  2
NOTE
 70
     0
 62
     4
  6
CONTINUOUS
370
    -3
390
2B57
  0
LAYER
  5
2BDC
102
{ACAD_XDICTIONARY
360
2D93
102
}
330
2B4A
100
AcDbSymbolTableRecord
100
AcDbLayerTableRecord
  2
SERVICESPACE
 70
     0
 62
     2
  6
DASHDOT
370
    -3
390
2B57
  0
LAYER
  5
2BDD
102
{ACAD_XDICTIONARY
360
2D95
102
}
330
2B4A
100
AcDbSymbolTableRecord
100
AcDbLayerTableRecord
  2
SYMBOLLINE
 70
     0
 62
    15
  6
CONTINUOUS
370
    -3
390
2B57
  0
ENDTAB
  0
TABLE
  2
STYLE
  5
2B4B
330
0
100
AcDbSymbolTable
 70
     5
  0
STYLE
  5
2BA5
330
2B4B
100
AcDbSymbolTableRecord
100
AcDbTextStyleTableRecord
  2
STANDARD
 70
     0
 40
64.0
 41
0.9
 50
0.0
 71
     0
 42
64.0
  3
SIMPLEX.shx
  4
BIGFONT.shx
  0
STYLE
  5
2BA9
330
2B4B
100
AcDbSymbolTableRecord
100
AcDbTextStyleTableRecord
  2
ANNOTATIVE
 70
     0
 40
0.0
 41
1.0
 50
0.0
 71
     0
 42
0.2
  3
txt
  4

1001
ACADANNOTATIVE
1000
AnnotativeData
1002
{
1070
     1
1070
     1
1002
}
  0
STYLE
  5
2BDE
330
2B4B
100
AcDbSymbolTableRecord
100
AcDbTextStyleTableRecord
  2

 70
     1
 40
0.0
 41
1.0
 50
0.0
 71
     0
 42
64.0
  3
genltshp.shx
  4

  0
STYLE
  5
2BDF
330
2B4B
100
AcDbSymbolTableRecord
100
AcDbTextStyleTableRecord
  2
ACANSTS
 70
     0
 40
1.0
 41
1.0
 50
0.0
 71
     0
 42
64.0
  3
romans.shx
  4
extfont.shx
  0
STYLE
  5
2BE0
330
2B4B
100
AcDbSymbolTableRecord
100
AcDbTextStyleTableRecord
  2
ACANSGDT
 70
     0
 40
0.0
 41
1.0
 50
0.0
 71
     0
 42
64.0
  3
amgdt.shx
  4

  0
ENDTAB
  0
TABLE
  2
VIEW
  5
2B4E
330
0
100
AcDbSymbolTable
 70
     1
  0
VIEW
  5
2BE1
330
2B4E
100
AcDbSymbolTableRecord
100
AcDbViewTableRecord
  2
ALL
 70
     0
 40
4282.619807999997
 10
0.0
 20
41.30990399999999
 41
5940.0
 11
0.0
 21
0.0
 31
1.0
 12
0.0
 22
0.0
 32
0.0
 42
50.0
 43
0.0
 44
0.0
 50
0.0
 71
     0
281
     0
 72
     1
110
0.0
120
0.0
130
0.0
111
1.0
121
0.0
131
0.0
112
0.0
122
1.0
132
0.0
 79
     0
146
0.0
  0
ENDTAB
  0
TABLE
  2
UCS
  5
2B4F
330
0
100
AcDbSymbolTable
 70
     0
  0
ENDTAB
  0
TABLE
  2
APPID
  5
2B51
330
0
100
AcDbSymbolTable
 70
    27
  0
APPID
  5
2BA6
330
2B51
100
AcDbSymbolTableRecord
100
AcDbRegAppTableRecord
  2
ACAD
 70
     0
  0
APPID
  5
2BAD
330
2B51
100
AcDbSymbolTableRecord
100
AcDbRegAppTableRecord
  2
ACADANNOTATIVE
 70
     0
  0
APPID
  5
2BB7
330
2B51
100
AcDbSymbolTableRecord
100
AcDbRegAppTableRecord
  2
ACAD_MLEADERVER
 70
     0
  0
APPID
  5
2BE2
330
2B51
100
AcDbSymbolTableRecord
100
AcDbRegAppTableRecord
  2
GENIUS_GENDIM_13
 70
     0
  0
APPID
  5
2BE3
330
2B51
100
AcDbSymbolTableRecord
100
AcDbRegAppTableRecord
  2
GENIUS_GENDTOL_13
 70
     0
  0
APPID
  5
2BE4
330
2B51
100
AcDbSymbolTableRecord
100
AcDbRegAppTableRecord
  2
GENIUS_GE3DTOL_13
 70
     0
  0
APPID
  5
2BE5
330
2B51
100
AcDbSymbolTableRecord
100
AcDbRegAppTableRecord
  2
MCAD_NO_VIS
 70
     0
  0
APPID
  5
2BE6
330
2B51
100
AcDbSymbolTableRecord
100
AcDbRegAppTableRecord
  2
ACAD_TEMP_GRAPHIC
 70
     0
  0
APPID
  5
2BE7
330
2B51
100
AcDbSymbolTableRecord
100
AcDbRegAppTableRecord
  2
AD_DRAW
 70
     0
  0
APPID
  5
2BE8
330
2B51
100
AcDbSymbolTableRecord
100
AcDbRegAppTableRecord
  2
ACATTRIBSERVICES
 70
     0
  0
APPID
  5
2BE9
330
2B51
100
AcDbSymbolTableRecord
100
AcDbRegAppTableRecord
  2
ASURF_PCURVE_APPNAME
 70
     0
  0
APPID
  5
2BEA
330
2B51
100
AcDbSymbolTableRecord
100
AcDbRegAppTableRecord
  2
AMG_3D2D_5_0
 70
     0
  0
APPID
  5
2BEB
330
2B51
100
AcDbSymbolTableRecord
100
AcDbRegAppTableRecord
  2
DESIGNERASSEMBLIES
 70
     0
  0
APPID
  5
2BEC
330
2B51
100
AcDbSymbolTableRecord
100
AcDbRegAppTableRecord
  2
ACADM_DIM_EDIT
 70
     0
  0
APPID
  5
2BED
330
2B51
100
AcDbSymbolTableRecord
100
AcDbRegAppTableRecord
  2
AMDT_DM_ADJ
 70
     0
  0
APPID
  5
2BEE
330
2B51
100
AcDbSymbolTableRecord
100
AcDbRegAppTableRecord
  2
ACAD_DSTYLE_DIMARC_LENGTH_
 70
     0
  0
APPID
  5
2BEF
330
2B51
100
AcDbSymbolTableRecord
100
AcDbRegAppTableRecord
  2
ACAD_DSTYLE_DIMJOGGED_JOGA
 70
     0
  0
APPID
  5
2BF0
330
2B51
100
AcDbSymbolTableRecord
100
AcDbRegAppTableRecord
  2
ACAD_PSEXT
 70
     0
  0
APPID
  5
2BF1
330
2B51
100
AcDbSymbolTableRecord
100
AcDbRegAppTableRecord
  2
ACAD_EXEMPT_FROM_CAD_STANDARDS
 70
     0
  0
APPID
  5
2BF2
330
2B51
100
AcDbSymbolTableRecord
100
AcDbRegAppTableRecord
  2
ACAD_DSTYLE_DIMJAG
 70
     0
  0
APPID
  5
2BF3
330
2B51
100
AcDbSymbolTableRecord
100
AcDbRegAppTableRecord
  2
ACAD_DSTYLE_DIMTALN
 70
     0
  0
APPID
  5
2D21
330
2B51
100
AcDbSymbolTableRecord
100
AcDbRegAppTableRecord
  2
AMG_3D2D_5.0
 70
     0
  0
APPID
  5
2DBE
330
2B51
100
AcDbSymbolTableRecord
100
AcDbRegAppTableRecord
  2
ACAD_DSTYLE_DIMARC_LENGTH_SYMBOL
 70
     0
  0
APPID
  5
2DBF
330
2B51
100
AcDbSymbolTableRecord
100
AcDbRegAppTableRecord
  2
ACAD_DSTYLE_DIM_LINETYPE
 70
     0
  0
APPID
  5
2DC0
330
2B51
100
AcDbSymbolTableRecord
100
AcDbRegAppTableRecord
  2
ACAD_DSTYLE_DIM_EXT1_LINETYPE
 70
     0
  0
APPID
  5
2DC1
330
2B51
100
AcDbSymbolTableRecord
100
AcDbRegAppTableRecord
  2
ACAD_DSTYLE_DIM_EXT2_LINETYPE
 70
     0
  0
APPID
  5
2EA1
330
2B51
100
AcDbSymbolTableRecord
100
AcDbRegAppTableRecord
  2
ACAD_DSTYLE_DIMJOGGED_JOGANGLE_SYMBOL
 70
     0
  0
ENDTAB
  0
TABLE
  2
DIMSTYLE
  5
2B52
330
0
100
AcDbSymbolTable
 70
    10
100
AcDbDimStyleTable
 71
     1
340
2BF4
  0
DIMSTYLE
105
2BA7
330
2B52
100
AcDbSymbolTableRecord
100
AcDbDimStyleTableRecord
  2
STANDARD
 70
     0
 41
12.0
 42
20.0
 44
20.0
 77
     1
 78
     8
140
64.0
141
0.0
147
10.0
275
     1
279
     2
284
     7
285
     7
286
     7
340
2BA5
  0
DIMSTYLE
105
2BA8
330
2B52
100
AcDbSymbolTableRecord
100
AcDbDimStyleTableRecord
  2
ANNOTATIVE
 70
     0
275
     1
279
     2
284
     7
285
     7
286
     7
340
2BA5
1001
ACADANNOTATIVE
1000
AnnotativeData
1002
{
1070
     1
1070
     1
1002
}
  0
DIMSTYLE
105
2BF4
330
2B52
100
AcDbSymbolTableRecord
100
AcDbDimStyleTableRecord
  2
AM_ANSI
 70
     0
  4
mm
 41
0.12
 42
0.05
 43
0.5
 44
0.1
 47
0.1
 48
0.1
 78
     7
 79
     2
140
0.12
141
0.0
146
0.71
147
0.06
176
   256
177
   256
178
     2
274
     4
284
     7
340
2BA5
371
    -1
372
    -1
1001
ACAD_DSTYLE_DIMARC_LENGTH_SYMBOL
1070
   379
1070
     1
1001
ACAD_DSTYLE_DIM_LINETYPE
1070
   380
1005
2BAA
1001
ACAD_DSTYLE_DIM_EXT1_LINETYPE
1070
   381
1005
2BAA
1001
ACAD_DSTYLE_DIM_EXT2_LINETYPE
1070
   382
1005
2BAA
  0
DIMSTYLE
105
2BF5
330
2B52
100
AcDbSymbolTableRecord
100
AcDbDimStyleTableRecord
  2
AM_ANSI$3
 70
     0
  4
mm
 41
0.12
 42
0.05
 43
0.5
 44
0.1
 47
0.1
 48
0.1
 78
     7
 79
     2
140
0.12
141
0.0
146
0.71
147
0.06
176
   256
177
   256
178
     2
274
     4
284
     7
288
     1
289
     0
340
2BA5
371
    -1
372
    -1
1001
ACAD_DSTYLE_DIMARC_LENGTH_SYMBOL
1070
   379
1070
     1
1001
ACAD_DSTYLE_DIM_LINETYPE
1070
   380
1005
2BAA
1001
ACAD_DSTYLE_DIM_EXT1_LINETYPE
1070
   381
1005
2BAA
1001
ACAD_DSTYLE_DIM_EXT2_LINETYPE
1070
   382
1005
2BAA
  0
DIMSTYLE
105
2BF6
330
2B52
100
AcDbSymbolTableRecord
100
AcDbDimStyleTableRecord
  2
AM_ANSI$4
 70
     0
  4
mm
 41
0.12
 42
0.05
 43
0.5
 44
0.1
 47
0.1
 48
0.1
 78
     7
 79
     2
140
0.12
141
0.0
146
0.71
147
0.06
176
   256
177
   256
178
     2
274
     4
284
     7
340
2BA5
371
    -1
372
    -1
1001
ACAD_DSTYLE_DIMARC_LENGTH_SYMBOL
1070
   379
1070
     1
1001
ACAD_DSTYLE_DIM_LINETYPE
1070
   380
1005
2BAA
1001
ACAD_DSTYLE_DIM_EXT1_LINETYPE
1070
   381
1005
2BAA
1001
ACAD_DSTYLE_DIM_EXT2_LINETYPE
1070
   382
1005
2BAA
  0
DIMSTYLE
105
2BF7
330
2B52
100
AcDbSymbolTableRecord
100
AcDbDimStyleTableRecord
  2
AM_ANSI$7
 70
     0
  4
mm
 41
0.12
 42
0.05
 43
0.5
 44
0.1
 47
0.1
 48
0.1
 78
     7
 79
     2
140
0.12
141
0.0
146
0.71
147
0.06
176
   256
177
   256
178
     2
274
     4
284
     7
340
2BA5
371
    -1
372
    -1
1001
ACAD_DSTYLE_DIMARC_LENGTH_SYMBOL
1070
   379
1070
     1
1001
ACAD_DSTYLE_DIM_LINETYPE
1070
   380
1005
2BAA
1001
ACAD_DSTYLE_DIM_EXT1_LINETYPE
1070
   381
1005
2BAA
1001
ACAD_DSTYLE_DIM_EXT2_LINETYPE
1070
   382
1005
2BAA
  0
DIMSTYLE
105
2BF8
330
2B52
100
AcDbSymbolTableRecord
100
AcDbDimStyleTableRecord
  2
AM_ANSI$SF
 70
     0
  4
mm
 41
0.12
 42
0.05
 43
0.5
 44
0.1
 47
0.1
 48
0.1
 75
     1
 76
     1
 78
     7
 79
     2
140
0.12
141
0.0
146
0.71
147
0.06
176
   256
177
   256
178
     2
274
     4
284
     7
340
2BA5
371
    -1
372
    -1
1001
ACAD_DSTYLE_DIMARC_LENGTH_SYMBOL
1070
   379
1070
     1
1001
ACAD_DSTYLE_DIM_LINETYPE
1070
   380
1005
2BAA
1001
ACAD_DSTYLE_DIM_EXT1_LINETYPE
1070
   381
1005
2BAA
1001
ACAD_DSTYLE_DIM_EXT2_LINETYPE
1070
   382
1005
2BAA
  0
DIMSTYLE
105
2BF9
330
2B52
100
AcDbSymbolTableRecord
100
AcDbDimStyleTableRecord
  2
AM_ANSI$SH
 70
     0
  4
mm
 41
0.12
 42
0.05
 43
0.5
 44
0.1
 47
0.1
 48
0.1
 75
     1
 76
     1
 78
     7
 79
     2
140
0.12
141
0.0
146
0.71
147
0.06
173
     1
176
   256
177
   256
178
     2
274
     4
284
     7
340
2BA5
343
2C19
371
    -1
372
    -1
1001
ACAD_DSTYLE_DIMARC_LENGTH_SYMBOL
1070
   379
1070
     1
1001
ACAD_DSTYLE_DIM_LINETYPE
1070
   380
1005
2BAA
1001
ACAD_DSTYLE_DIM_EXT1_LINETYPE
1070
   381
1005
2BAA
1001
ACAD_DSTYLE_DIM_EXT2_LINETYPE
1070
   382
1005
2BAA
  0
DIMSTYLE
105
2BFA
330
2B52
100
AcDbSymbolTableRecord
100
AcDbDimStyleTableRecord
  2
STANDARD1
 70
     0
 40
6.0
 41
2.5
 42
0.625
 43
6.0
 44
1.25
 47
1.0
 48
0.5
 77
     1
 78
     8
140
2.5
141
0.0
146
0.6
147
1.0
173
     1
275
     1
279
     2
284
     7
285
     7
286
     7
340
2BA5
  0
DIMSTYLE
105
2BFB
330
2B52
100
AcDbSymbolTableRecord
100
AcDbDimStyleTableRecord
  2
STANDARD$0
 70
     0
 41
12.0
 42
20.0
 44
20.0
 73
     0
 74
     0
 77
     1
 78
     8
140
64.0
141
0.0
147
10.0
275
     1
279
     2
284
     7
285
     7
286
     7
340
2BA5
  0
ENDTAB
  0
TABLE
  2
BLOCK_RECORD
  5
2B49
330
0
100
AcDbSymbolTable
 70
    84
  0
BLOCK_RECORD
  5
2BBC
102
{ACAD_XDICTIONARY
360
2D97
102
}
330
2B49
100
AcDbSymbolTableRecord
100
AcDbBlockTableRecord
  2
*Model_Space
340
2BBF
  0
BLOCK_RECORD
  5
2BB8
330
2B49
100
AcDbSymbolTableRecord
100
AcDbBlockTableRecord
  2
*Paper_Space
340
2BBB
  0
BLOCK_RECORD
  5
2C03
330
2B49
100
AcDbSymbolTableRecord
100
AcDbBlockTableRecord
  2
$MODEL_SPACE
340
0
  0
BLOCK_RECORD
  5
2C05
330
2B49
100
AcDbSymbolTableRecord
100
AcDbBlockTableRecord
  2
$PAPER_SPACE
340
0
  0
BLOCK_RECORD
  5
2C07
330
2B49
100
AcDbSymbolTableRecord
100
AcDbBlockTableRecord
  2
_ORIGIN
340
0
  0
BLOCK_RECORD
  5
2C09
330
2B49
100
AcDbSymbolTableRecord
100
AcDbBlockTableRecord
  2
_DOTBLANK
340
0
102
{BLKREFS
331
1299
331
129A
331
11AA
331
11AB
331
E80
331
E81
331
1123
331
1124
331
11C2
331
11C3
331
11EC
331
11ED
331
11F9
331
11FA
331
1287
331
1288
331
1417
331
1418
331
1423
331
1424
331
142F
331
1430
331
143B
331
143C
331
166E
331
166F
331
1677
331
1678
331
1680
331
1681
331
1689
331
168A
331
1696
331
1697
331
16A3
331
16A4
331
16AF
331
16B0
331
16BB
331
16BC
331
16C7
331
16C8
331
16D3
331
16D4
331
1D86
331
1D87
331
1D8F
331
1D90
331
1D98
331
1D99
331
1DA1
331
1DA2
331
1DAB
331
1DAC
331
1DB5
331
1DB6
331
33B5
331
33B6
331
33BB
331
33BC
331
33C9
331
33CA
331
33DA
331
33DB
331
33E2
331
33E3
331
33EA
331
33EB
102
}
  0
BLOCK_RECORD
  5
2C0B
330
2B49
100
AcDbSymbolTableRecord
100
AcDbBlockTableRecord
  2
_OPEN30
340
0
102
{BLKREFS
331
2087
331
2173
331
227F
331
23B5
331
2519
331
27D2
331
33EF
102
}
  0
BLOCK_RECORD
  5
2C0D
330
2B49
100
AcDbSymbolTableRecord
100
AcDbBlockTableRecord
  2
*D5
340
0
  0
BLOCK_RECORD
  5
2C0F
330
2B49
100
AcDbSymbolTableRecord
100
AcDbBlockTableRecord
  2
*U6
340
0
102
{BLKREFS
331
129B
102
}
  0
BLOCK_RECORD
  5
2C11
330
2B49
100
AcDbSymbolTableRecord
100
AcDbBlockTableRecord
  2
*D7
340
0
  0
BLOCK_RECORD
  5
2C13
330
2B49
100
AcDbSymbolTableRecord
100
AcDbBlockTableRecord
  2
*U8
340
0
102
{BLKREFS
331
11AC
102
}
  0
BLOCK_RECORD
  5
2C15
330
2B49
100
AcDbSymbolTableRecord
100
AcDbBlockTableRecord
  2
*D9
340
0
  0
BLOCK_RECORD
  5
2C17
330
2B49
100
AcDbSymbolTableRecord
100
AcDbBlockTableRecord
  2
*U10
340
0
102
{BLKREFS
331
E82
102
}
  0
BLOCK_RECORD
  5
2C19
330
2B49
100
AcDbSymbolTableRecord
100
AcDbBlockTableRecord
  2
GENAXEH
340
0
  0
BLOCK_RECORD
  5
2C1B
330
2B49
100
AcDbSymbolTableRecord
100
AcDbBlockTableRecord
  2
*D12
340
0
  0
BLOCK_RECORD
  5
2C1D
330
2B49
100
AcDbSymbolTableRecord
100
AcDbBlockTableRecord
  2
*U13
340
0
102
{BLKREFS
331
1125
102
}
  0
BLOCK_RECORD
  5
2C1F
330
2B49
100
AcDbSymbolTableRecord
100
AcDbBlockTableRecord
  2
*D14
340
0
  0
BLOCK_RECORD
  5
2C21
330
2B49
100
AcDbSymbolTableRecord
100
AcDbBlockTableRecord
  2
*U15
340
0
102
{BLKREFS
331
11C4
102
}
  0
BLOCK_RECORD
  5
2C23
330
2B49
100
AcDbSymbolTableRecord
100
AcDbBlockTableRecord
  2
*D16
340
0
  0
BLOCK_RECORD
  5
2C25
330
2B49
100
AcDbSymbolTableRecord
100
AcDbBlockTableRecord
  2
*U17
340
0
102
{BLKREFS
331
11EE
102
}
  0
BLOCK_RECORD
  5
2C27
330
2B49
100
AcDbSymbolTableRecord
100
AcDbBlockTableRecord
  2
*D18
340
0
  0
BLOCK_RECORD
  5
2C29
330
2B49
100
AcDbSymbolTableRecord
100
AcDbBlockTableRecord
  2
*U19
340
0
102
{BLKREFS
331
11FB
102
}
  0
BLOCK_RECORD
  5
2C2B
330
2B49
100
AcDbSymbolTableRecord
100
AcDbBlockTableRecord
  2
*D20
340
0
  0
BLOCK_RECORD
  5
2C2D
330
2B49
100
AcDbSymbolTableRecord
100
AcDbBlockTableRecord
  2
*U21
340
0
102
{BLKREFS
331
1289
102
}
  0
BLOCK_RECORD
  5
2C2F
330
2B49
100
AcDbSymbolTableRecord
100
AcDbBlockTableRecord
  2
*D22
340
0
  0
BLOCK_RECORD
  5
2C31
330
2B49
100
AcDbSymbolTableRecord
100
AcDbBlockTableRecord
  2
*U23
340
0
102
{BLKREFS
331
1419
102
}
  0
BLOCK_RECORD
  5
2C33
330
2B49
100
AcDbSymbolTableRecord
100
AcDbBlockTableRecord
  2
*D24
340
0
  0
BLOCK_RECORD
  5
2C35
330
2B49
100
AcDbSymbolTableRecord
100
AcDbBlockTableRecord
  2
*U25
340
0
102
{BLKREFS
331
1425
102
}
  0
BLOCK_RECORD
  5
2C37
330
2B49
100
AcDbSymbolTableRecord
100
AcDbBlockTableRecord
  2
*D26
340
0
  0
BLOCK_RECORD
  5
2C39
330
2B49
100
AcDbSymbolTableRecord
100
AcDbBlockTableRecord
  2
*U27
340
0
102
{BLKREFS
331
1431
102
}
  0
BLOCK_RECORD
  5
2C3B
330
2B49
100
AcDbSymbolTableRecord
100
AcDbBlockTableRecord
  2
*D28
340
0
  0
BLOCK_RECORD
  5
2C3D
330
2B49
100
AcDbSymbolTableRecord
100
AcDbBlockTableRecord
  2
*U29
340
0
102
{BLKREFS
331
143D
102
}
  0
BLOCK_RECORD
  5
2C3F
330
2B49
100
AcDbSymbolTableRecord
100
AcDbBlockTableRecord
  2
*D30
340
0
  0
BLOCK_RECORD
  5
2C41
330
2B49
100
AcDbSymbolTableRecord
100
AcDbBlockTableRecord
  2
*U31
340
0
102
{BLKREFS
331
1670
102
}
  0
BLOCK_RECORD
  5
2C43
330
2B49
100
AcDbSymbolTableRecord
100
AcDbBlockTableRecord
  2
*D32
340
0
  0
BLOCK_RECORD
  5
2C45
330
2B49
100
AcDbSymbolTableRecord
100
AcDbBlockTableRecord
  2
*U33
340
0
102
{BLKREFS
331
1679
102
}
  0
BLOCK_RECORD
  5
2C47
330
2B49
100
AcDbSymbolTableRecord
100
AcDbBlockTableRecord
  2
*D34
340
0
  0
BLOCK_RECORD
  5
2C49
330
2B49
100
AcDbSymbolTableRecord
100
AcDbBlockTableRecord
  2
*U35
340
0
102
{BLKREFS
331
1682
102
}
  0
BLOCK_RECORD
  5
2C4B
330
2B49
100
AcDbSymbolTableRecord
100
AcDbBlockTableRecord
  2
*D36
340
0
  0
BLOCK_RECORD
  5
2C4D
330
2B49
100
AcDbSymbolTableRecord
100
AcDbBlockTableRecord
  2
*U37
340
0
102
{BLKREFS
331
168B
102
}
  0
BLOCK_RECORD
  5
2C4F
330
2B49
100
AcDbSymbolTableRecord
100
AcDbBlockTableRecord
  2
*U38
340
0
  0
BLOCK_RECORD
  5
2C51
330
2B49
100
AcDbSymbolTableRecord
100
AcDbBlockTableRecord
  2
*D39
340
0
  0
BLOCK_RECORD
  5
2C53
330
2B49
100
AcDbSymbolTableRecord
100
AcDbBlockTableRecord
  2
*U40
340
0
102
{BLKREFS
331
1698
102
}
  0
BLOCK_RECORD
  5
2C55
330
2B49
100
AcDbSymbolTableRecord
100
AcDbBlockTableRecord
  2
*D41
340
0
  0
BLOCK_RECORD
  5
2C57
330
2B49
100
AcDbSymbolTableRecord
100
AcDbBlockTableRecord
  2
*U42
340
0
102
{BLKREFS
331
16A5
102
}
  0
BLOCK_RECORD
  5
2C59
330
2B49
100
AcDbSymbolTableRecord
100
AcDbBlockTableRecord
  2
*D43
340
0
  0
BLOCK_RECORD
  5
2C5B
330
2B49
100
AcDbSymbolTableRecord
100
AcDbBlockTableRecord
  2
*U44
340
0
102
{BLKREFS
331
16B1
102
}
  0
BLOCK_RECORD
  5
2C5D
330
2B49
100
AcDbSymbolTableRecord
100
AcDbBlockTableRecord
  2
*D45
340
0
  0
BLOCK_RECORD
  5
2C5F
330
2B49
100
AcDbSymbolTableRecord
100
AcDbBlockTableRecord
  2
*U46
340
0
102
{BLKREFS
331
16BD
102
}
  0
BLOCK_RECORD
  5
2C61
330
2B49
100
AcDbSymbolTableRecord
100
AcDbBlockTableRecord
  2
*D47
340
0
  0
BLOCK_RECORD
  5
2C63
330
2B49
100
AcDbSymbolTableRecord
100
AcDbBlockTableRecord
  2
*U48
340
0
102
{BLKREFS
331
16C9
102
}
  0
BLOCK_RECORD
  5
2C65
330
2B49
100
AcDbSymbolTableRecord
100
AcDbBlockTableRecord
  2
*D49
340
0
  0
BLOCK_RECORD
  5
2C67
330
2B49
100
AcDbSymbolTableRecord
100
AcDbBlockTableRecord
  2
*U50
340
0
102
{BLKREFS
331
16D5
102
}
  0
BLOCK_RECORD
  5
2C69
330
2B49
100
AcDbSymbolTableRecord
100
AcDbBlockTableRecord
  2
*D51
340
0
  0
BLOCK_RECORD
  5
2C6B
330
2B49
100
AcDbSymbolTableRecord
100
AcDbBlockTableRecord
  2
*U52
340
0
102
{BLKREFS
331
1D88
102
}
  0
BLOCK_RECORD
  5
2C6D
330
2B49
100
AcDbSymbolTableRecord
100
AcDbBlockTableRecord
  2
*D53
340
0
  0
BLOCK_RECORD
  5
2C6F
330
2B49
100
AcDbSymbolTableRecord
100
AcDbBlockTableRecord
  2
*U54
340
0
102
{BLKREFS
331
1D91
102
}
  0
BLOCK_RECORD
  5
2C71
330
2B49
100
AcDbSymbolTableRecord
100
AcDbBlockTableRecord
  2
*D55
340
0
  0
BLOCK_RECORD
  5
2C73
330
2B49
100
AcDbSymbolTableRecord
100
AcDbBlockTableRecord
  2
*U56
340
0
102
{BLKREFS
331
1D9A
102
}
  0
BLOCK_RECORD
  5
2C75
330
2B49
100
AcDbSymbolTableRecord
100
AcDbBlockTableRecord
  2
*D57
340
0
  0
BLOCK_RECORD
  5
2C77
330
2B49
100
AcDbSymbolTableRecord
100
AcDbBlockTableRecord
  2
*U58
340
0
102
{BLKREFS
331
1DA3
102
}
  0
BLOCK_RECORD
  5
2C79
330
2B49
100
AcDbSymbolTableRecord
100
AcDbBlockTableRecord
  2
*D59
340
0
  0
BLOCK_RECORD
  5
2C7B
330
2B49
100
AcDbSymbolTableRecord
100
AcDbBlockTableRecord
  2
*U60
340
0
102
{BLKREFS
331
1DAD
102
}
  0
BLOCK_RECORD
  5
2C7D
330
2B49
100
AcDbSymbolTableRecord
100
AcDbBlockTableRecord
  2
*D61
340
0
  0
BLOCK_RECORD
  5
2C7F
330
2B49
100
AcDbSymbolTableRecord
100
AcDbBlockTableRecord
  2
*U62
340
0
102
{BLKREFS
331
1DB7
102
}
  0
BLOCK_RECORD
  5
2C81
330
2B49
100
AcDbSymbolTableRecord
100
AcDbBlockTableRecord
  2
*U63
340
0
  0
BLOCK_RECORD
  5
2C83
330
2B49
100
AcDbSymbolTableRecord
100
AcDbBlockTableRecord
  2
*U64
340
0
  0
BLOCK_RECORD
  5
2C85
330
2B49
100
AcDbSymbolTableRecord
100
AcDbBlockTableRecord
  2
*U65
340
0
  0
BLOCK_RECORD
  5
2C87
330
2B49
100
AcDbSymbolTableRecord
100
AcDbBlockTableRecord
  2
*U66
340
0
  0
BLOCK_RECORD
  5
2C89
330
2B49
100
AcDbSymbolTableRecord
100
AcDbBlockTableRecord
  2
*U67
340
0
  0
BLOCK_RECORD
  5
2C8B
330
2B49
100
AcDbSymbolTableRecord
100
AcDbBlockTableRecord
  2
*U68
340
0
  0
BLOCK_RECORD
  5
2C8D
330
2B49
100
AcDbSymbolTableRecord
100
AcDbBlockTableRecord
  2
*U69
340
0
  0
BLOCK_RECORD
  5
2C8F
330
2B49
100
AcDbSymbolTableRecord
100
AcDbBlockTableRecord
  2
*U70
340
0
  0
BLOCK_RECORD
  5
2C91
330
2B49
100
AcDbSymbolTableRecord
100
AcDbBlockTableRecord
  2
*U71
340
0
  0
BLOCK_RECORD
  5
2C93
330
2B49
100
AcDbSymbolTableRecord
100
AcDbBlockTableRecord
  2
*U72
340
0
  0
BLOCK_RECORD
  5
2C95
330
2B49
100
AcDbSymbolTableRecord
100
AcDbBlockTableRecord
  2
*U73
340
0
  0
BLOCK_RECORD
  5
2C97
330
2B49
100
AcDbSymbolTableRecord
100
AcDbBlockTableRecord
  2
*U74
340
0
  0
BLOCK_RECORD
  5
2C99
330
2B49
100
AcDbSymbolTableRecord
100
AcDbBlockTableRecord
  2
*U75
340
0
  0
BLOCK_RECORD
  5
2C9B
330
2B49
100
AcDbSymbolTableRecord
100
AcDbBlockTableRecord
  2
*X76
340
0
  0
BLOCK_RECORD
  5
2C9D
330
2B49
100
AcDbSymbolTableRecord
100
AcDbBlockTableRecord
  2
*X77
340
0
  0
BLOCK_RECORD
  5
2E71
330
2B49
100
AcDbSymbolTableRecord
100
AcDbBlockTableRecord
  2
*U78
340
0
  0
BLOCK_RECORD
  5
3122
330
2B49
100
AcDbSymbolTableRecord
100
AcDbBlockTableRecord
  2
*U79
340
0
  0
BLOCK_RECORD
  5
36A7
330
2B49
100
AcDbSymbolTableRecord
100
AcDbBlockTableRecord
  2
*U80
340
0
  0
BLOCK_RECORD
  5
3788
330
2B49
100
AcDbSymbolTableRecord
100
AcDbBlockTableRecord
  2
*U81
340
0
  0
BLOCK_RECORD
  5
3868
330
2B49
100
AcDbSymbolTableRecord
100
AcDbBlockTableRecord
  2
*U82
340
0
  0
ENDTAB
  0
ENDSEC
  0
SECTION
  2
BLOCKS
  0
BLOCK
  5
2BBD
330
2BBC
100
AcDbEntity
  8
0
100
AcDbBlockBegin
  2
*Model_Space
 70
     0
 10
0.0
 20
0.0
 30
0.0
  3
*Model_Space
  1

  0
ENDBLK
  5
2BBE
330
2BBC
100
AcDbEntity
  8
0
100
AcDbBlockEnd
  0
BLOCK
  5
2BB9
330
2BB8
100
AcDbEntity
 67
     1
  8
0
100
AcDbBlockBegin
  2
*Paper_Space
 70
     0
 10
0.0
 20
0.0
 30
0.0
  3
*Paper_Space
  1

  0
ENDBLK
  5
2BBA
330
2BB8
100
AcDbEntity
 67
     1
  8
0
100
AcDbBlockEnd
  0
BLOCK
  5
2C04
330
2C03
100
AcDbEntity
  8
0
100
AcDbBlockBegin
  2
$MODEL_SPACE
 70
     0
 10
0.0
 20
0.0
 30
0.0
  3
$MODEL_SPACE
  1

  0
ENDBLK
  5
2A1A
330
2C03
100
AcDbEntity
  8
0
100
AcDbBlockEnd
  0
BLOCK
  5
2C06
330
2C05
100
AcDbEntity
  8
0
100
AcDbBlockBegin
  2
$PAPER_SPACE
 70
     0
 10
0.0
 20
0.0
 30
0.0
  3
$PAPER_SPACE
  1

  0
ENDBLK
  5
2A16
330
2C05
100
AcDbEntity
  8
0
100
AcDbBlockEnd
  0
BLOCK
  5
2C08
330
2C07
100
AcDbEntity
  8
0
100
AcDbBlockBegin
  2
_ORIGIN
 70
     0
 10
0.0
 20
0.0
 30
0.0
  3
_ORIGIN
  1

  0
CIRCLE
  5
880
330
2C07
100
AcDbEntity
  8
0
  6
Continuous
 62
     7
100
AcDbCircle
 10
0.0
 20
0.0
 30
0.0
 40
0.5
  0
LINE
  5
881
330
2C07
100
AcDbEntity
  8
0
  6
Continuous
 62
     7
100
AcDbLine
 10
0.0
 20
0.0
 30
0.0
 11
-1.0
 21
0.0
 31
0.0
  0
ENDBLK
  5
882
330
2C07
100
AcDbEntity
  8
0
100
AcDbBlockEnd
  0
BLOCK
  5
2C0A
330
2C09
100
AcDbEntity
  8
0
 62
     1
100
AcDbBlockBegin
  2
_DOTBLANK
 70
     0
 10
0.0
 20
0.0
 30
0.0
  3
_DOTBLANK
  1

  0
CIRCLE
  5
AB3
330
2C09
100
AcDbEntity
  8
0
  6
ByBlock
 62
     0
100
AcDbCircle
 10
0.0
 20
0.0
 30
0.0
 40
0.5
  0
LINE
  5
AB4
330
2C09
100
AcDbEntity
  8
0
  6
ByBlock
 62
     0
100
AcDbLine
 10
-0.5
 20
0.0
 30
0.0
 11
-1.0
 21
0.0
 31
0.0
  0
ENDBLK
  5
AB6
330
2C09
100
AcDbEntity
  8
0
 62
     1
100
AcDbBlockEnd
  0
BLOCK
  5
2C0C
330
2C0B
100
AcDbEntity
  8
0
 62
     1
100
AcDbBlockBegin
  2
_OPEN30
 70
     0
 10
0.0
 20
0.0
 30
0.0
  3
_OPEN30
  1

  0
LINE
  5
AB8
330
2C0B
100
AcDbEntity
  8
0
  6
ByBlock
 62
     0
100
AcDbLine
 10
-1.0
 20
0.26794919
 30
0.0
 11
0.0
 21
0.0
 31
0.0
  0
LINE
  5
AB9
330
2C0B
100
AcDbEntity
  8
0
  6
ByBlock
 62
     0
100
AcDbLine
 10
0.0
 20
0.0
 30
0.0
 11
-1.0
 21
-0.26794919
 31
0.0
  0
LINE
  5
ABA
330
2C0B
100
AcDbEntity
  8
0
  6
ByBlock
 62
     0
100
AcDbLine
 10
0.0
 20
0.0
 30
0.0
 11
-1.0
 21
0.0
 31
0.0
  0
ENDBLK
  5
ABC
330
2C0B
100
AcDbEntity
  8
0
 62
     1
100
AcDbBlockEnd
  0
BLOCK
  5
2C0E
330
2C0D
100
AcDbEntity
  8
0
100
AcDbBlockBegin
  2
*D5
 70
     1
 10
0.0
 20
0.0
 30
0.0
  3
*D5
  1

  0
LINE
  5
1296
330
2C0D
100
AcDbEntity
  8
SIZE
 62
     0
100
AcDbLine
 10
-134.5
 20
-320.0
 30
0.0
 11
-134.5
 21
-468.0173952306001
 31
0.0
  0
LINE
  5
1297
330
2C0D
100
AcDbEntity
  8
SIZE
 62
     0
100
AcDbLine
 10
134.5
 20
-320.0
 30
0.0
 11
134.5
 21
-468.0173952306001
 31
0.0
  0
LINE
  5
1298
330
2C0D
100
AcDbEntity
  8
SIZE
 62
     0
100
AcDbLine
 10
-122.5
 20
-448.0173952306
 30
0.0
 11
122.5
 21
-448.0173952306
 31
0.0
  0
INSERT
  5
1299
330
2C0D
100
AcDbEntity
  8
SIZE
 62
     0
100
AcDbBlockReference
  2
_DOTBLANK
 10
-134.5
 20
-448.0173952306
 30
0.0
 41
12.0
 42
12.0
 43
12.0
 50
180.0
  0
INSERT
  5
129A
330
2C0D
100
AcDbEntity
  8
SIZE
 62
     0
100
AcDbBlockReference
  2
_DOTBLANK
 10
134.5
 20
-448.0173952306
 30
0.0
 41
12.0
 42
12.0
 43
12.0
  0
INSERT
  5
129B
330
2C0D
100
AcDbEntity
  8
0
100
AcDbBlockReference
  2
*U6
 10
0.0
 20
0.0
 30
0.0
  0
POINT
  5
129C
330
2C0D
100
AcDbEntity
  8
DEFPOINTS
 62
     0
100
AcDbPoint
 10
-134.5
 20
-300.0
 30
0.0
  0
POINT
  5
129D
330
2C0D
100
AcDbEntity
  8
DEFPOINTS
 62
     0
100
AcDbPoint
 10
134.5
 20
-300.0
 30
0.0
  0
POINT
  5
129E
330
2C0D
100
AcDbEntity
  8
DEFPOINTS
 62
     0
100
AcDbPoint
 10
134.5
 20
-448.0173952306
 30
0.0
  0
ENDBLK
  5
D72
330
2C0D
100
AcDbEntity
  8
0
100
AcDbBlockEnd
  0
BLOCK
  5
2C10
330
2C0F
100
AcDbEntity
  8
0
100
AcDbBlockBegin
  2
*U6
 70
     1
 10
0.0
 20
0.0
 30
0.0
  3
*U6
  1

  0
TEXT
  5
1EF5
330
2C0F
100
AcDbEntity
  8
SIZE
 62
     0
100
AcDbText
 10
-72.68571428571426
 20
-438.0173952305999
 30
0.0
 40
64.0
  1
269
 41
0.9
100
AcDbText
  0
ENDBLK
  5
1EF7
330
2C0F
100
AcDbEntity
  8
0
100
AcDbBlockEnd
  0
BLOCK
  5
2C12
330
2C11
100
AcDbEntity
  8
0
100
AcDbBlockBegin
  2
*D7
 70
     1
 10
0.0
 20
0.0
 30
0.0
  3
*D7
  1

  0
LINE
  5
11A7
330
2C11
100
AcDbEntity
  8
SIZE
  6
Continuous
 62
     0
100
AcDbLine
 10
143.5
 20
-300.0
 30
0.0
 11
304.6432844803791
 21
-300.0
 31
0.0
  0
LINE
  5
11A8
330
2C11
100
AcDbEntity
  8
SIZE
  6
Continuous
 62
     0
100
AcDbLine
 10
177.5
 20
-0.0000000000000057
 30
0.0
 11
304.6432844803792
 21
-0.0000000000000417
 31
0.0
  0
LINE
  5
11A9
330
2C11
100
AcDbEntity
  8
SIZE
  6
Continuous
 62
     0
100
AcDbLine
 10
284.6432844803791
 20
-288.0000000000001
 30
0.0
 11
284.6432844803792
 21
-12.00000000000003
 31
0.0
  0
INSERT
  5
11AA
330
2C11
100
AcDbEntity
  8
SIZE
  6
Continuous
 62
     0
100
AcDbBlockReference
  2
_DOTBLANK
 10
284.6432844803791
 20
-300.0
 30
0.0
 41
12.0
 42
12.0
 43
12.0
 50
270.0
  0
INSERT
  5
11AB
330
2C11
100
AcDbEntity
  8
SIZE
  6
Continuous
 62
     0
100
AcDbBlockReference
  2
_DOTBLANK
 10
284.6432844803792
 20
-0.000000000000036
 30
0.0
 41
12.0
 42
12.0
 43
12.0
 50
90.0
  0
INSERT
  5
11AC
330
2C11
100
AcDbEntity
  8
0
100
AcDbBlockReference
  2
*U8
 10
0.0
 20
0.0
 30
0.0
  0
POINT
  5
11AD
330
2C11
100
AcDbEntity
  8
DEFPOINTS
  6
Continuous
 62
     0
100
AcDbPoint
 10
123.5
 20
-300.0
 30
0.0
  0
POINT
  5
11AE
330
2C11
100
AcDbEntity
  8
DEFPOINTS
  6
Continuous
 62
     0
100
AcDbPoint
 10
157.5
 20
0.0
 30
0.0
  0
POINT
  5
11AF
330
2C11
100
AcDbEntity
  8
DEFPOINTS
  6
Continuous
 62
     0
100
AcDbPoint
 10
284.6432844803792
 20
-0.000000000000036
 30
0.0
  0
ENDBLK
  5
E11
330
2C11
100
AcDbEntity
  8
0
100
AcDbBlockEnd
  0
BLOCK
  5
2C14
330
2C13
100
AcDbEntity
  8
0
100
AcDbBlockBegin
  2
*U8
 70
     1
 10
0.0
 20
0.0
 30
0.0
  3
*U8
  1

  0
TEXT
  5
1EE1
330
2C13
100
AcDbEntity
  8
SIZE
 62
     0
100
AcDbText
 10
274.6432844803792
 20
-224.0571428571429
 30
0.0
 40
64.0
  1
300
 50
90.0
 41
0.9
100
AcDbText
  0
ENDBLK
  5
1EE3
330
2C13
100
AcDbEntity
  8
0
100
AcDbBlockEnd
  0
BLOCK
  5
2C16
330
2C15
100
AcDbEntity
  8
0
100
AcDbBlockBegin
  2
*D9
 70
     1
 10
0.0
 20
0.0
 30
0.0
  3
*D9
  1

  0
LINE
  5
E7D
330
2C15
100
AcDbEntity
  8
SIZE
 62
     0
100
AcDbLine
 10
-139.9999999999998
 20
32.46448280219375
 30
0.0
 11
-139.9999999999998
 21
136.4516878685508
 31
0.0
  0
LINE
  5
E7E
330
2C15
100
AcDbEntity
  8
SIZE
 62
     0
100
AcDbLine
 10
140.0
 20
32.46448280219375
 30
0.0
 11
140.0
 21
136.4516878685508
 31
0.0
  0
LINE
  5
E7F
330
2C15
100
AcDbEntity
  8
SIZE
 62
     0
100
AcDbLine
 10
-128.0
 20
116.4516878685508
 30
0.0
 11
128.0
 21
116.4516878685508
 31
0.0
  0
INSERT
  5
E80
330
2C15
100
AcDbEntity
  8
SIZE
 62
     0
100
AcDbBlockReference
  2
_DOTBLANK
 10
-139.9999999999998
 20
116.4516878685508
 30
0.0
 41
12.0
 42
12.0
 43
12.0
 50
180.0
  0
INSERT
  5
E81
330
2C15
100
AcDbEntity
  8
SIZE
 62
     0
100
AcDbBlockReference
  2
_DOTBLANK
 10
140.0
 20
116.4516878685508
 30
0.0
 41
12.0
 42
12.0
 43
12.0
  0
INSERT
  5
E82
330
2C15
100
AcDbEntity
  8
0
100
AcDbBlockReference
  2
*U10
 10
0.0
 20
0.0
 30
0.0
  0
POINT
  5
E83
330
2C15
100
AcDbEntity
  8
DEFPOINTS
 62
     0
100
AcDbPoint
 10
-139.9999999999998
 20
12.46448280219374
 30
0.0
  0
POINT
  5
E84
330
2C15
100
AcDbEntity
  8
DEFPOINTS
 62
     0
100
AcDbPoint
 10
140.0
 20
12.46448280219374
 30
0.0
  0
POINT
  5
E85
330
2C15
100
AcDbEntity
  8
DEFPOINTS
 62
     0
100
AcDbPoint
 10
140.0
 20
116.4516878685508
 30
0.0
  0
ENDBLK
  5
E7C
330
2C15
100
AcDbEntity
  8
0
100
AcDbBlockEnd
  0
BLOCK
  5
2C18
330
2C17
100
AcDbEntity
  8
0
100
AcDbBlockBegin
  2
*U10
 70
     1
 10
0.0
 20
0.0
 30
0.0
  3
*U10
  1

  0
TEXT
  5
1ED8
330
2C17
100
AcDbEntity
  8
SIZE
 62
     0
100
AcDbText
 10
-74.05714285714281
 20
126.4516878685508
 30
0.0
 40
64.0
  1
280
 41
0.9
100
AcDbText
  0
ENDBLK
  5
1EDA
330
2C17
100
AcDbEntity
  8
0
100
AcDbBlockEnd
  0
BLOCK
  5
2C1A
330
2C19
100
AcDbEntity
  8
0
100
AcDbBlockBegin
  2
GENAXEH
 70
     0
 10
0.0
 20
0.0
 30
0.0
  3
GENAXEH
  1

  0
LINE
  5
FDB
330
2C19
100
AcDbEntity
  8
0
100
AcDbLine
 10
-1.0
 20
0.0
 30
0.0
 11
1.0
 21
0.0
 31
0.0
  0
ENDBLK
  5
FDD
330
2C19
100
AcDbEntity
  8
0
100
AcDbBlockEnd
  0
BLOCK
  5
2C1C
330
2C1B
100
AcDbEntity
  8
0
100
AcDbBlockBegin
  2
*D12
 70
     1
 10
0.0
 20
0.0
 30
0.0
  3
*D12
  1

  0
LINE
  5
1120
330
2C1B
100
AcDbEntity
  8
SIZE
 62
     0
100
AcDbLine
 10
-157.5
 20
20.0
 30
0.0
 11
-157.5
 21
245.5794621189598
 31
0.0
  0
LINE
  5
1121
330
2C1B
100
AcDbEntity
  8
SIZE
 62
     0
100
AcDbLine
 10
157.5
 20
20.0
 30
0.0
 11
157.5
 21
245.5794621189598
 31
0.0
  0
LINE
  5
1122
330
2C1B
100
AcDbEntity
  8
SIZE
 62
     0
100
AcDbLine
 10
-145.5
 20
225.5794621189598
 30
0.0
 11
145.5
 21
225.5794621189598
 31
0.0
  0
INSERT
  5
1123
330
2C1B
100
AcDbEntity
  8
SIZE
 62
     0
100
AcDbBlockReference
  2
_DOTBLANK
 10
-157.5
 20
225.5794621189598
 30
0.0
 41
12.0
 42
12.0
 43
12.0
 50
180.0
  0
INSERT
  5
1124
330
2C1B
100
AcDbEntity
  8
SIZE
 62
     0
100
AcDbBlockReference
  2
_DOTBLANK
 10
157.5
 20
225.5794621189598
 30
0.0
 41
12.0
 42
12.0
 43
12.0
  0
INSERT
  5
1125
330
2C1B
100
AcDbEntity
  8
0
100
AcDbBlockReference
  2
*U13
 10
0.0
 20
0.0
 30
0.0
  0
POINT
  5
1126
330
2C1B
100
AcDbEntity
  8
DEFPOINTS
 62
     0
100
AcDbPoint
 10
-157.5
 20
0.0
 30
0.0
  0
POINT
  5
1127
330
2C1B
100
AcDbEntity
  8
DEFPOINTS
 62
     0
100
AcDbPoint
 10
157.5
 20
0.0
 30
0.0
  0
POINT
  5
1128
330
2C1B
100
AcDbEntity
  8
DEFPOINTS
 62
     0
100
AcDbPoint
 10
157.5
 20
225.5794621189598
 30
0.0
  0
ENDBLK
  5
111F
330
2C1B
100
AcDbEntity
  8
0
100
AcDbBlockEnd
  0
BLOCK
  5
2C1E
330
2C1D
100
AcDbEntity
  8
0
100
AcDbBlockBegin
  2
*U13
 70
     1
 10
0.0
 20
0.0
 30
0.0
  3
*U13
  1

  0
TEXT
  5
1EDD
330
2C1D
100
AcDbEntity
  8
SIZE
 62
     0
100
AcDbText
 10
-68.57142857142857
 20
235.5794621189599
 30
0.0
 40
64.0
  1
315
 41
0.9
100
AcDbText
  0
ENDBLK
  5
1EDF
330
2C1D
100
AcDbEntity
  8
0
100
AcDbBlockEnd
  0
BLOCK
  5
2C20
330
2C1F
100
AcDbEntity
  8
0
100
AcDbBlockBegin
  2
*D14
 70
     1
 10
0.0
 20
0.0
 30
0.0
  3
*D14
  1

  0
LINE
  5
11BD
330
2C1F
100
AcDbEntity
  8
NOTE
 62
     0
100
AcDbLine
 10
-123.4999999999999
 20
-320.0
 30
0.0
 11
-123.4999999999999
 21
-354.9529861856111
 31
0.0
  0
LINE
  5
11BE
330
2C1F
100
AcDbEntity
  8
NOTE
 62
     0
100
AcDbLine
 10
-133.4999999999998
 20
-331.2126909923287
 30
0.0
 11
-133.4999999999998
 21
-354.9529861856111
 31
0.0
  0
LINE
  5
11BF
330
2C1F
100
AcDbEntity
  8
NOTE
 62
     0
100
AcDbLine
 10
-111.4999999999999
 20
-334.9529861856112
 30
0.0
 11
-99.4999999999999
 21
-334.9529861856112
 31
0.0
  0
LINE
  5
11C0
330
2C1F
100
AcDbEntity
  8
NOTE
 62
     0
100
AcDbLine
 10
-145.4999999999998
 20
-334.9529861856112
 30
0.0
 11
-157.4999999999998
 21
-334.9529861856112
 31
0.0
  0
LINE
  5
11C1
330
2C1F
100
AcDbEntity
  8
NOTE
 62
     0
100
AcDbLine
 10
-123.4999999999999
 20
-334.9529861856112
 30
0.0
 11
-133.4999999999998
 21
-334.9529861856112
 31
0.0
  0
INSERT
  5
11C2
330
2C1F
100
AcDbEntity
  8
NOTE
 62
     0
100
AcDbBlockReference
  2
_DOTBLANK
 10
-123.4999999999999
 20
-334.9529861856112
 30
0.0
 41
12.0
 42
12.0
 43
12.0
 50
180.0
  0
INSERT
  5
11C3
330
2C1F
100
AcDbEntity
  8
NOTE
 62
     0
100
AcDbBlockReference
  2
_DOTBLANK
 10
-133.4999999999998
 20
-334.9529861856112
 30
0.0
 41
12.0
 42
12.0
 43
12.0
  0
INSERT
  5
11C4
330
2C1F
100
AcDbEntity
  8
0
100
AcDbBlockReference
  2
*U15
 10
0.0
 20
0.0
 30
0.0
  0
POINT
  5
11C5
330
2C1F
100
AcDbEntity
  8
DEFPOINTS
 62
     0
100
AcDbPoint
 10
-123.4999999999999
 20
-300.0
 30
0.0
  0
POINT
  5
11C6
330
2C1F
100
AcDbEntity
  8
DEFPOINTS
 62
     0
100
AcDbPoint
 10
-133.4999999999998
 20
-311.2126909923287
 30
0.0
  0
POINT
  5
11C7
330
2C1F
100
AcDbEntity
  8
DEFPOINTS
 62
     0
100
AcDbPoint
 10
-133.4999999999998
 20
-334.9529861856112
 30
0.0
  0
ENDBLK
  5
11BC
330
2C1F
100
AcDbEntity
  8
0
100
AcDbBlockEnd
  0
BLOCK
  5
2C22
330
2C21
100
AcDbEntity
  8
0
100
AcDbBlockBegin
  2
*U15
 70
     1
 10
0.0
 20
0.0
 30
0.0
  3
*U15
  1

  0
TEXT
  5
1EE5
330
2C21
100
AcDbEntity
  8
NOTE
 62
     0
100
AcDbText
 10
-169.642857142857
 20
-324.9529861856112
 30
0.0
 40
64.0
  1
10
 41
0.9
100
AcDbText
  0
ENDBLK
  5
1EE7
330
2C21
100
AcDbEntity
  8
0
100
AcDbBlockEnd
  0
BLOCK
  5
2C24
330
2C23
100
AcDbEntity
  8
0
100
AcDbBlockBegin
  2
*D16
 70
     1
 10
0.0
 20
0.0
 30
0.0
  3
*D16
  1

  0
LINE
  5
11E7
330
2C23
100
AcDbEntity
  8
NOTE
 62
     0
100
AcDbLine
 10
-135.5
 20
-333.2126909923287
 30
0.0
 11
-135.5
 21
-386.2569421441843
 31
0.0
  0
LINE
  5
11E8
330
2C23
100
AcDbEntity
  8
NOTE
 62
     0
100
AcDbLine
 10
-123.4999999999999
 20
-320.0
 30
0.0
 11
-123.4999999999999
 21
-386.2569421441843
 31
0.0
  0
LINE
  5
11E9
330
2C23
100
AcDbEntity
  8
NOTE
 62
     0
100
AcDbLine
 10
-147.5
 20
-366.2569421441844
 30
0.0
 11
-159.5
 21
-366.2569421441844
 31
0.0
  0
LINE
  5
11EA
330
2C23
100
AcDbEntity
  8
NOTE
 62
     0
100
AcDbLine
 10
-111.4999999999999
 20
-366.2569421441844
 30
0.0
 11
-99.4999999999999
 21
-366.2569421441844
 31
0.0
  0
LINE
  5
11EB
330
2C23
100
AcDbEntity
  8
NOTE
 62
     0
100
AcDbLine
 10
-135.5
 20
-366.2569421441844
 30
0.0
 11
-123.4999999999999
 21
-366.2569421441844
 31
0.0
  0
INSERT
  5
11EC
330
2C23
100
AcDbEntity
  8
NOTE
 62
     0
100
AcDbBlockReference
  2
_DOTBLANK
 10
-135.5
 20
-366.2569421441844
 30
0.0
 41
12.0
 42
12.0
 43
12.0
  0
INSERT
  5
11ED
330
2C23
100
AcDbEntity
  8
NOTE
 62
     0
100
AcDbBlockReference
  2
_DOTBLANK
 10
-123.4999999999999
 20
-366.2569421441844
 30
0.0
 41
12.0
 42
12.0
 43
12.0
 50
180.0
  0
INSERT
  5
11EE
330
2C23
100
AcDbEntity
  8
0
100
AcDbBlockReference
  2
*U17
 10
0.0
 20
0.0
 30
0.0
  0
POINT
  5
11EF
330
2C23
100
AcDbEntity
  8
DEFPOINTS
 62
     0
100
AcDbPoint
 10
-135.5
 20
-313.2126909923287
 30
0.0
  0
POINT
  5
11F0
330
2C23
100
AcDbEntity
  8
DEFPOINTS
 62
     0
100
AcDbPoint
 10
-123.4999999999999
 20
-300.0
 30
0.0
  0
POINT
  5
11F1
330
2C23
100
AcDbEntity
  8
DEFPOINTS
 62
     0
100
AcDbPoint
 10
-123.4999999999999
 20
-366.2569421441844
 30
0.0
  0
ENDBLK
  5
11E6
330
2C23
100
AcDbEntity
  8
0
100
AcDbBlockEnd
  0
BLOCK
  5
2C26
330
2C25
100
AcDbEntity
  8
0
100
AcDbBlockBegin
  2
*U17
 70
     1
 10
0.0
 20
0.0
 30
0.0
  3
*U17
  1

  0
TEXT
  5
1EE9
330
2C25
100
AcDbEntity
  8
NOTE
 62
     0
100
AcDbText
 10
-170.642857142857
 20
-356.2569421441843
 30
0.0
 40
64.0
  1
12
 41
0.9
100
AcDbText
  0
ENDBLK
  5
1EEB
330
2C25
100
AcDbEntity
  8
0
100
AcDbBlockEnd
  0
BLOCK
  5
2C28
330
2C27
100
AcDbEntity
  8
0
100
AcDbBlockBegin
  2
*D18
 70
     1
 10
0.0
 20
0.0
 30
0.0
  3
*D18
  1

  0
LINE
  5
11F6
330
2C27
100
AcDbEntity
  8
NOTE
 62
     0
100
AcDbLine
 10
-123.4999999999999
 20
-320.0
 30
0.0
 11
-123.4999999999999
 21
-583.8286022818904
 31
0.0
  0
LINE
  5
11F7
330
2C27
100
AcDbEntity
  8
NOTE
 62
     0
100
AcDbLine
 10
123.5
 20
-320.0
 30
0.0
 11
123.5
 21
-583.8286022818904
 31
0.0
  0
LINE
  5
11F8
330
2C27
100
AcDbEntity
  8
NOTE
 62
     0
100
AcDbLine
 10
-111.4999999999999
 20
-563.8286022818904
 30
0.0
 11
111.5
 21
-563.8286022818904
 31
0.0
  0
INSERT
  5
11F9
330
2C27
100
AcDbEntity
  8
NOTE
 62
     0
100
AcDbBlockReference
  2
_DOTBLANK
 10
-123.4999999999999
 20
-563.8286022818904
 30
0.0
 41
12.0
 42
12.0
 43
12.0
 50
180.0
  0
INSERT
  5
11FA
330
2C27
100
AcDbEntity
  8
NOTE
 62
     0
100
AcDbBlockReference
  2
_DOTBLANK
 10
123.5
 20
-563.8286022818904
 30
0.0
 41
12.0
 42
12.0
 43
12.0
  0
INSERT
  5
11FB
330
2C27
100
AcDbEntity
  8
0
100
AcDbBlockReference
  2
*U19
 10
0.0
 20
0.0
 30
0.0
  0
POINT
  5
11FC
330
2C27
100
AcDbEntity
  8
DEFPOINTS
 62
     0
100
AcDbPoint
 10
-123.4999999999999
 20
-300.0
 30
0.0
  0
POINT
  5
11FD
330
2C27
100
AcDbEntity
  8
DEFPOINTS
 62
     0
100
AcDbPoint
 10
123.5
 20
-300.0
 30
0.0
  0
POINT
  5
11FE
330
2C27
100
AcDbEntity
  8
DEFPOINTS
 62
     0
100
AcDbPoint
 10
123.5
 20
-563.8286022818904
 30
0.0
  0
ENDBLK
  5
11F5
330
2C27
100
AcDbEntity
  8
0
100
AcDbBlockEnd
  0
BLOCK
  5
2C2A
330
2C29
100
AcDbEntity
  8
0
100
AcDbBlockBegin
  2
*U19
 70
     1
 10
0.0
 20
0.0
 30
0.0
  3
*U19
  1

  0
TEXT
  5
1EED
330
2C29
100
AcDbEntity
  8
NOTE
 62
     0
100
AcDbText
 10
-74.05714285714281
 20
-553.8286022818904
 30
0.0
 40
64.0
  1
247
 41
0.9
100
AcDbText
  0
ENDBLK
  5
1EEF
330
2C29
100
AcDbEntity
  8
0
100
AcDbBlockEnd
  0
BLOCK
  5
2C2C
330
2C2B
100
AcDbEntity
  8
0
100
AcDbBlockBegin
  2
*D20
 70
     1
 10
0.0
 20
0.0
 30
0.0
  3
*D20
  1

  0
LINE
  5
1284
330
2C2B
100
AcDbEntity
  8
NOTE
 62
     0
100
AcDbLine
 10
-123.5
 20
12.0
 30
0.0
 11
-123.5
 21
71.83630134534229
 31
0.0
  0
LINE
  5
1285
330
2C2B
100
AcDbEntity
  8
NOTE
 62
     0
100
AcDbLine
 10
123.5
 20
12.0
 30
0.0
 11
123.5
 21
71.83630134534229
 31
0.0
  0
LINE
  5
1286
330
2C2B
100
AcDbEntity
  8
NOTE
 62
     0
100
AcDbLine
 10
-111.5
 20
51.83630134534229
 30
0.0
 11
111.5
 21
51.83630134534229
 31
0.0
  0
INSERT
  5
1287
330
2C2B
100
AcDbEntity
  8
NOTE
 62
     0
100
AcDbBlockReference
  2
_DOTBLANK
 10
-123.5
 20
51.83630134534229
 30
0.0
 41
12.0
 42
12.0
 43
12.0
 50
180.0
  0
INSERT
  5
1288
330
2C2B
100
AcDbEntity
  8
NOTE
 62
     0
100
AcDbBlockReference
  2
_DOTBLANK
 10
123.5
 20
51.83630134534229
 30
0.0
 41
12.0
 42
12.0
 43
12.0
  0
INSERT
  5
1289
330
2C2B
100
AcDbEntity
  8
0
100
AcDbBlockReference
  2
*U21
 10
0.0
 20
0.0
 30
0.0
  0
POINT
  5
128A
330
2C2B
100
AcDbEntity
  8
DEFPOINTS
 62
     0
100
AcDbPoint
 10
-123.5
 20
-8.0
 30
0.0
  0
POINT
  5
128B
330
2C2B
100
AcDbEntity
  8
DEFPOINTS
 62
     0
100
AcDbPoint
 10
123.5
 20
-8.0
 30
0.0
  0
POINT
  5
128C
330
2C2B
100
AcDbEntity
  8
DEFPOINTS
 62
     0
100
AcDbPoint
 10
123.5
 20
51.83630134534229
 30
0.0
  0
ENDBLK
  5
1283
330
2C2B
100
AcDbEntity
  8
0
100
AcDbBlockEnd
  0
BLOCK
  5
2C2E
330
2C2D
100
AcDbEntity
  8
0
100
AcDbBlockBegin
  2
*U21
 70
     1
 10
0.0
 20
0.0
 30
0.0
  3
*U21
  1

  0
TEXT
  5
1EF1
330
2C2D
100
AcDbEntity
  8
NOTE
 62
     0
100
AcDbText
 10
-74.05714285714283
 20
61.83630134534229
 30
0.0
 40
64.0
  1
247
 41
0.9
100
AcDbText
  0
ENDBLK
  5
1EF3
330
2C2D
100
AcDbEntity
  8
0
100
AcDbBlockEnd
  0
BLOCK
  5
2C30
330
2C2F
100
AcDbEntity
  8
0
100
AcDbBlockBegin
  2
*D22
 70
     1
 10
0.0
 20
0.0
 30
0.0
  3
*D22
  1

  0
LINE
  5
1414
330
2C2F
100
AcDbEntity
  8
SIZE
 62
     0
100
AcDbLine
 10
-22313.11521613997
 20
7365.702971374808
 30
0.0
 11
-22313.11521613997
 21
7217.685576144207
 31
0.0
  0
LINE
  5
1415
330
2C2F
100
AcDbEntity
  8
SIZE
 62
     0
100
AcDbLine
 10
-22044.11521613997
 20
7365.702971374808
 30
0.0
 11
-22044.11521613997
 21
7217.685576144207
 31
0.0
  0
LINE
  5
1416
330
2C2F
100
AcDbEntity
  8
SIZE
 62
     0
100
AcDbLine
 10
-22301.11521613997
 20
7237.685576144207
 30
0.0
 11
-22056.11521613997
 21
7237.685576144207
 31
0.0
  0
INSERT
  5
1417
330
2C2F
100
AcDbEntity
  8
SIZE
 62
     0
100
AcDbBlockReference
  2
_DOTBLANK
 10
-22313.11521613997
 20
7237.685576144207
 30
0.0
 41
12.0
 42
12.0
 43
12.0
 50
180.0
  0
INSERT
  5
1418
330
2C2F
100
AcDbEntity
  8
SIZE
 62
     0
100
AcDbBlockReference
  2
_DOTBLANK
 10
-22044.11521613997
 20
7237.685576144207
 30
0.0
 41
12.0
 42
12.0
 43
12.0
  0
INSERT
  5
1419
330
2C2F
100
AcDbEntity
  8
0
100
AcDbBlockReference
  2
*U23
 10
0.0
 20
0.0
 30
0.0
  0
POINT
  5
141A
330
2C2F
100
AcDbEntity
  8
DEFPOINTS
 62
     0
100
AcDbPoint
 10
-22313.11521613997
 20
7385.702971374808
 30
0.0
  0
POINT
  5
141B
330
2C2F
100
AcDbEntity
  8
DEFPOINTS
 62
     0
100
AcDbPoint
 10
-22044.11521613997
 20
7385.702971374808
 30
0.0
  0
POINT
  5
141C
330
2C2F
100
AcDbEntity
  8
DEFPOINTS
 62
     0
100
AcDbPoint
 10
-22044.11521613997
 20
7237.685576144207
 30
0.0
  0
ENDBLK
  5
141D
330
2C2F
100
AcDbEntity
  8
0
100
AcDbBlockEnd
  0
BLOCK
  5
2C32
330
2C31
100
AcDbEntity
  8
0
100
AcDbBlockBegin
  2
*U23
 70
     1
 10
0.0
 20
0.0
 30
0.0
  3
*U23
  1

  0
TEXT
  5
1EF9
330
2C31
100
AcDbEntity
  8
SIZE
 62
     0
100
AcDbText
 10
-22251.30093042568
 20
7247.685576144205
 30
0.0
 40
64.0
  1
269
 41
0.9
100
AcDbText
  0
ENDBLK
  5
1EFB
330
2C31
100
AcDbEntity
  8
0
100
AcDbBlockEnd
  0
BLOCK
  5
2C34
330
2C33
100
AcDbEntity
  8
0
100
AcDbBlockBegin
  2
*D24
 70
     1
 10
0.0
 20
0.0
 30
0.0
  3
*D24
  1

  0
LINE
  5
1420
330
2C33
100
AcDbEntity
  8
SIZE
  6
Continuous
 62
     0
100
AcDbLine
 10
-22035.11521613997
 20
7385.702971374808
 30
0.0
 11
-21873.97193165959
 21
7385.702971374808
 31
0.0
  0
LINE
  5
1421
330
2C33
100
AcDbEntity
  8
SIZE
  6
Continuous
 62
     0
100
AcDbLine
 10
-22001.11521613997
 20
7685.702971374808
 30
0.0
 11
-21873.97193165959
 21
7685.702971374808
 31
0.0
  0
LINE
  5
1422
330
2C33
100
AcDbEntity
  8
SIZE
  6
Continuous
 62
     0
100
AcDbLine
 10
-21893.97193165959
 20
7397.702971374808
 30
0.0
 11
-21893.97193165959
 21
7673.702971374808
 31
0.0
  0
INSERT
  5
1423
330
2C33
100
AcDbEntity
  8
SIZE
  6
Continuous
 62
     0
100
AcDbBlockReference
  2
_DOTBLANK
 10
-21893.97193165959
 20
7385.702971374808
 30
0.0
 41
12.0
 42
12.0
 43
12.0
 50
270.0
  0
INSERT
  5
1424
330
2C33
100
AcDbEntity
  8
SIZE
  6
Continuous
 62
     0
100
AcDbBlockReference
  2
_DOTBLANK
 10
-21893.97193165959
 20
7685.702971374808
 30
0.0
 41
12.0
 42
12.0
 43
12.0
 50
90.0
  0
INSERT
  5
1425
330
2C33
100
AcDbEntity
  8
0
100
AcDbBlockReference
  2
*U25
 10
0.0
 20
0.0
 30
0.0
  0
POINT
  5
1426
330
2C33
100
AcDbEntity
  8
DEFPOINTS
  6
Continuous
 62
     0
100
AcDbPoint
 10
-22055.11521613997
 20
7385.702971374808
 30
0.0
  0
POINT
  5
1427
330
2C33
100
AcDbEntity
  8
DEFPOINTS
  6
Continuous
 62
     0
100
AcDbPoint
 10
-22021.11521613997
 20
7685.702971374808
 30
0.0
  0
POINT
  5
1428
330
2C33
100
AcDbEntity
  8
DEFPOINTS
  6
Continuous
 62
     0
100
AcDbPoint
 10
-21893.97193165959
 20
7685.702971374808
 30
0.0
  0
ENDBLK
  5
1429
330
2C33
100
AcDbEntity
  8
0
100
AcDbBlockEnd
  0
BLOCK
  5
2C36
330
2C35
100
AcDbEntity
  8
0
100
AcDbBlockBegin
  2
*U25
 70
     1
 10
0.0
 20
0.0
 30
0.0
  3
*U25
  1

  0
TEXT
  5
1EFD
330
2C35
100
AcDbEntity
  8
SIZE
 62
     0
100
AcDbText
 10
-21903.97193165959
 20
7461.645828517662
 30
0.0
 40
64.0
  1
300
 50
90.0
 41
0.9
100
AcDbText
  0
ENDBLK
  5
1EFF
330
2C35
100
AcDbEntity
  8
0
100
AcDbBlockEnd
  0
BLOCK
  5
2C38
330
2C37
100
AcDbEntity
  8
0
100
AcDbBlockBegin
  2
*D26
 70
     1
 10
0.0
 20
0.0
 30
0.0
  3
*D26
  1

  0
LINE
  5
142C
330
2C37
100
AcDbEntity
  8
SIZE
 62
     0
100
AcDbLine
 10
-22318.61521613997
 20
7718.167454177002
 30
0.0
 11
-22318.61521613997
 21
7822.154659243358
 31
0.0
  0
LINE
  5
142D
330
2C37
100
AcDbEntity
  8
SIZE
 62
     0
100
AcDbLine
 10
-22038.61521613997
 20
7718.167454177002
 30
0.0
 11
-22038.61521613997
 21
7822.154659243358
 31
0.0
  0
LINE
  5
142E
330
2C37
100
AcDbEntity
  8
SIZE
 62
     0
100
AcDbLine
 10
-22306.61521613997
 20
7802.154659243358
 30
0.0
 11
-22050.61521613997
 21
7802.154659243358
 31
0.0
  0
INSERT
  5
142F
330
2C37
100
AcDbEntity
  8
SIZE
 62
     0
100
AcDbBlockReference
  2
_DOTBLANK
 10
-22318.61521613997
 20
7802.154659243358
 30
0.0
 41
12.0
 42
12.0
 43
12.0
 50
180.0
  0
INSERT
  5
1430
330
2C37
100
AcDbEntity
  8
SIZE
 62
     0
100
AcDbBlockReference
  2
_DOTBLANK
 10
-22038.61521613997
 20
7802.154659243358
 30
0.0
 41
12.0
 42
12.0
 43
12.0
  0
INSERT
  5
1431
330
2C37
100
AcDbEntity
  8
0
100
AcDbBlockReference
  2
*U27
 10
0.0
 20
0.0
 30
0.0
  0
POINT
  5
1432
330
2C37
100
AcDbEntity
  8
DEFPOINTS
 62
     0
100
AcDbPoint
 10
-22318.61521613997
 20
7698.167454177002
 30
0.0
  0
POINT
  5
1433
330
2C37
100
AcDbEntity
  8
DEFPOINTS
 62
     0
100
AcDbPoint
 10
-22038.61521613997
 20
7698.167454177002
 30
0.0
  0
POINT
  5
1434
330
2C37
100
AcDbEntity
  8
DEFPOINTS
 62
     0
100
AcDbPoint
 10
-22038.61521613997
 20
7802.154659243358
 30
0.0
  0
ENDBLK
  5
1435
330
2C37
100
AcDbEntity
  8
0
100
AcDbBlockEnd
  0
BLOCK
  5
2C3A
330
2C39
100
AcDbEntity
  8
0
100
AcDbBlockBegin
  2
*U27
 70
     1
 10
0.0
 20
0.0
 30
0.0
  3
*U27
  1

  0
TEXT
  5
1F01
330
2C39
100
AcDbEntity
  8
SIZE
 62
     0
100
AcDbText
 10
-22252.6723589971
 20
7812.154659243358
 30
0.0
 40
64.0
  1
280
 41
0.9
100
AcDbText
  0
ENDBLK
  5
1F03
330
2C39
100
AcDbEntity
  8
0
100
AcDbBlockEnd
  0
BLOCK
  5
2C3C
330
2C3B
100
AcDbEntity
  8
0
100
AcDbBlockBegin
  2
*D28
 70
     1
 10
0.0
 20
0.0
 30
0.0
  3
*D28
  1

  0
LINE
  5
1438
330
2C3B
100
AcDbEntity
  8
SIZE
 62
     0
100
AcDbLine
 10
-22336.11521613997
 20
7705.702971374808
 30
0.0
 11
-22336.11521613997
 21
7931.282433493766
 31
0.0
  0
LINE
  5
1439
330
2C3B
100
AcDbEntity
  8
SIZE
 62
     0
100
AcDbLine
 10
-22021.11521613997
 20
7705.702971374808
 30
0.0
 11
-22021.11521613997
 21
7931.282433493766
 31
0.0
  0
LINE
  5
143A
330
2C3B
100
AcDbEntity
  8
SIZE
 62
     0
100
AcDbLine
 10
-22324.11521613997
 20
7911.282433493766
 30
0.0
 11
-22033.11521613997
 21
7911.282433493766
 31
0.0
  0
INSERT
  5
143B
330
2C3B
100
AcDbEntity
  8
SIZE
 62
     0
100
AcDbBlockReference
  2
_DOTBLANK
 10
-22336.11521613997
 20
7911.282433493766
 30
0.0
 41
12.0
 42
12.0
 43
12.0
 50
180.0
  0
INSERT
  5
143C
330
2C3B
100
AcDbEntity
  8
SIZE
 62
     0
100
AcDbBlockReference
  2
_DOTBLANK
 10
-22021.11521613997
 20
7911.282433493766
 30
0.0
 41
12.0
 42
12.0
 43
12.0
  0
INSERT
  5
143D
330
2C3B
100
AcDbEntity
  8
0
100
AcDbBlockReference
  2
*U29
 10
0.0
 20
0.0
 30
0.0
  0
POINT
  5
143E
330
2C3B
100
AcDbEntity
  8
DEFPOINTS
 62
     0
100
AcDbPoint
 10
-22336.11521613997
 20
7685.702971374808
 30
0.0
  0
POINT
  5
143F
330
2C3B
100
AcDbEntity
  8
DEFPOINTS
 62
     0
100
AcDbPoint
 10
-22021.11521613997
 20
7685.702971374808
 30
0.0
  0
POINT
  5
1440
330
2C3B
100
AcDbEntity
  8
DEFPOINTS
 62
     0
100
AcDbPoint
 10
-22021.11521613997
 20
7911.282433493766
 30
0.0
  0
ENDBLK
  5
1441
330
2C3B
100
AcDbEntity
  8
0
100
AcDbBlockEnd
  0
BLOCK
  5
2C3E
330
2C3D
100
AcDbEntity
  8
0
100
AcDbBlockBegin
  2
*U29
 70
     1
 10
0.0
 20
0.0
 30
0.0
  3
*U29
  1

  0
TEXT
  5
1F05
330
2C3D
100
AcDbEntity
  8
SIZE
 62
     0
100
AcDbText
 10
-22247.18664471139
 20
7921.282433493766
 30
0.0
 40
64.0
  1
315
 41
0.9
100
AcDbText
  0
ENDBLK
  5
1F07
330
2C3D
100
AcDbEntity
  8
0
100
AcDbBlockEnd
  0
BLOCK
  5
2C40
330
2C3F
100
AcDbEntity
  8
0
100
AcDbBlockBegin
  2
*D30
 70
     1
 10
0.0
 20
0.0
 30
0.0
  3
*D30
  1

  0
LINE
  5
166B
330
2C3F
100
AcDbEntity
  8
SIZE
 62
     0
100
AcDbLine
 10
-134.5
 20
-320.0
 30
0.0
 11
-134.5
 21
-468.0173952306001
 31
0.0
  0
LINE
  5
166C
330
2C3F
100
AcDbEntity
  8
SIZE
 62
     0
100
AcDbLine
 10
134.5
 20
-320.0
 30
0.0
 11
134.5
 21
-468.0173952306001
 31
0.0
  0
LINE
  5
166D
330
2C3F
100
AcDbEntity
  8
SIZE
 62
     0
100
AcDbLine
 10
-122.5
 20
-448.0173952306
 30
0.0
 11
122.5
 21
-448.0173952306
 31
0.0
  0
INSERT
  5
166E
330
2C3F
100
AcDbEntity
  8
SIZE
 62
     0
100
AcDbBlockReference
  2
_DOTBLANK
 10
-134.5
 20
-448.0173952306
 30
0.0
 41
12.0
 42
12.0
 43
12.0
 50
180.0
  0
INSERT
  5
166F
330
2C3F
100
AcDbEntity
  8
SIZE
 62
     0
100
AcDbBlockReference
  2
_DOTBLANK
 10
134.5
 20
-448.0173952306
 30
0.0
 41
12.0
 42
12.0
 43
12.0
  0
INSERT
  5
1670
330
2C3F
100
AcDbEntity
  8
0
100
AcDbBlockReference
  2
*U31
 10
0.0
 20
0.0
 30
0.0
  0
POINT
  5
1671
330
2C3F
100
AcDbEntity
  8
DEFPOINTS
 62
     0
100
AcDbPoint
 10
-134.5
 20
-300.0
 30
0.0
  0
POINT
  5
1672
330
2C3F
100
AcDbEntity
  8
DEFPOINTS
 62
     0
100
AcDbPoint
 10
134.5
 20
-300.0
 30
0.0
  0
POINT
  5
1673
330
2C3F
100
AcDbEntity
  8
DEFPOINTS
 62
     0
100
AcDbPoint
 10
134.5
 20
-448.0173952306
 30
0.0
  0
ENDBLK
  5
14A7
330
2C3F
100
AcDbEntity
  8
0
100
AcDbBlockEnd
  0
BLOCK
  5
2C42
330
2C41
100
AcDbEntity
  8
0
100
AcDbBlockBegin
  2
*U31
 70
     1
 10
0.0
 20
0.0
 30
0.0
  3
*U31
  1

  0
TEXT
  5
1F09
330
2C41
100
AcDbEntity
  8
SIZE
 62
     0
100
AcDbText
 10
-72.68571428571426
 20
-438.0173952306002
 30
0.0
 40
64.0
  1
269
 41
0.9
100
AcDbText
  0
ENDBLK
  5
1F0B
330
2C41
100
AcDbEntity
  8
0
100
AcDbBlockEnd
  0
BLOCK
  5
2C44
330
2C43
100
AcDbEntity
  8
0
100
AcDbBlockBegin
  2
*D32
 70
     1
 10
0.0
 20
0.0
 30
0.0
  3
*D32
  1

  0
LINE
  5
1674
330
2C43
100
AcDbEntity
  8
SIZE
  6
Continuous
 62
     0
100
AcDbLine
 10
143.5
 20
-300.0
 30
0.0
 11
304.6432844803784
 21
-300.0
 31
0.0
  0
LINE
  5
1675
330
2C43
100
AcDbEntity
  8
SIZE
  6
Continuous
 62
     0
100
AcDbLine
 10
177.5
 20
-0.0000000000000057
 30
0.0
 11
304.6432844803785
 21
-0.0000000000000417
 31
0.0
  0
LINE
  5
1676
330
2C43
100
AcDbEntity
  8
SIZE
  6
Continuous
 62
     0
100
AcDbLine
 10
284.6432844803784
 20
-288.0000000000001
 30
0.0
 11
284.6432844803785
 21
-12.00000000000003
 31
0.0
  0
INSERT
  5
1677
330
2C43
100
AcDbEntity
  8
SIZE
  6
Continuous
 62
     0
100
AcDbBlockReference
  2
_DOTBLANK
 10
284.6432844803784
 20
-300.0
 30
0.0
 41
12.0
 42
12.0
 43
12.0
 50
270.0
  0
INSERT
  5
1678
330
2C43
100
AcDbEntity
  8
SIZE
  6
Continuous
 62
     0
100
AcDbBlockReference
  2
_DOTBLANK
 10
284.6432844803785
 20
-0.000000000000036
 30
0.0
 41
12.0
 42
12.0
 43
12.0
 50
90.0
  0
INSERT
  5
1679
330
2C43
100
AcDbEntity
  8
0
100
AcDbBlockReference
  2
*U33
 10
0.0
 20
0.0
 30
0.0
  0
POINT
  5
167A
330
2C43
100
AcDbEntity
  8
DEFPOINTS
  6
Continuous
 62
     0
100
AcDbPoint
 10
123.5
 20
-300.0
 30
0.0
  0
POINT
  5
167B
330
2C43
100
AcDbEntity
  8
DEFPOINTS
  6
Continuous
 62
     0
100
AcDbPoint
 10
157.5
 20
0.0
 30
0.0
  0
POINT
  5
167C
330
2C43
100
AcDbEntity
  8
DEFPOINTS
  6
Continuous
 62
     0
100
AcDbPoint
 10
284.6432844803785
 20
-0.000000000000036
 30
0.0
  0
ENDBLK
  5
14B3
330
2C43
100
AcDbEntity
  8
0
100
AcDbBlockEnd
  0
BLOCK
  5
2C46
330
2C45
100
AcDbEntity
  8
0
100
AcDbBlockBegin
  2
*U33
 70
     1
 10
0.0
 20
0.0
 30
0.0
  3
*U33
  1

  0
TEXT
  5
1F0D
330
2C45
100
AcDbEntity
  8
SIZE
 62
     0
100
AcDbText
 10
274.6432844803785
 20
-224.0571428571429
 30
0.0
 40
64.0
  1
300
 50
90.0
 41
0.9
100
AcDbText
  0
ENDBLK
  5
1F0F
330
2C45
100
AcDbEntity
  8
0
100
AcDbBlockEnd
  0
BLOCK
  5
2C48
330
2C47
100
AcDbEntity
  8
0
100
AcDbBlockBegin
  2
*D34
 70
     1
 10
0.0
 20
0.0
 30
0.0
  3
*D34
  1

  0
LINE
  5
167D
330
2C47
100
AcDbEntity
  8
SIZE
 62
     0
100
AcDbLine
 10
-140.0
 20
32.46448280219375
 30
0.0
 11
-140.0
 21
136.4516878685507
 31
0.0
  0
LINE
  5
167E
330
2C47
100
AcDbEntity
  8
SIZE
 62
     0
100
AcDbLine
 10
140.0
 20
32.46448280219375
 30
0.0
 11
140.0
 21
136.4516878685507
 31
0.0
  0
LINE
  5
167F
330
2C47
100
AcDbEntity
  8
SIZE
 62
     0
100
AcDbLine
 10
-128.0
 20
116.4516878685508
 30
0.0
 11
128.0
 21
116.4516878685508
 31
0.0
  0
INSERT
  5
1680
330
2C47
100
AcDbEntity
  8
SIZE
 62
     0
100
AcDbBlockReference
  2
_DOTBLANK
 10
-140.0
 20
116.4516878685508
 30
0.0
 41
12.0
 42
12.0
 43
12.0
 50
180.0
  0
INSERT
  5
1681
330
2C47
100
AcDbEntity
  8
SIZE
 62
     0
100
AcDbBlockReference
  2
_DOTBLANK
 10
140.0
 20
116.4516878685508
 30
0.0
 41
12.0
 42
12.0
 43
12.0
  0
INSERT
  5
1682
330
2C47
100
AcDbEntity
  8
0
100
AcDbBlockReference
  2
*U35
 10
0.0
 20
0.0
 30
0.0
  0
POINT
  5
1683
330
2C47
100
AcDbEntity
  8
DEFPOINTS
 62
     0
100
AcDbPoint
 10
-140.0
 20
12.46448280219374
 30
0.0
  0
POINT
  5
1684
330
2C47
100
AcDbEntity
  8
DEFPOINTS
 62
     0
100
AcDbPoint
 10
140.0
 20
12.46448280219374
 30
0.0
  0
POINT
  5
1685
330
2C47
100
AcDbEntity
  8
DEFPOINTS
 62
     0
100
AcDbPoint
 10
140.0
 20
116.4516878685508
 30
0.0
  0
ENDBLK
  5
14BF
330
2C47
100
AcDbEntity
  8
0
100
AcDbBlockEnd
  0
BLOCK
  5
2C4A
330
2C49
100
AcDbEntity
  8
0
100
AcDbBlockBegin
  2
*U35
 70
     1
 10
0.0
 20
0.0
 30
0.0
  3
*U35
  1

  0
TEXT
  5
1F11
330
2C49
100
AcDbEntity
  8
SIZE
 62
     0
100
AcDbText
 10
-74.05714285714283
 20
126.4516878685507
 30
0.0
 40
64.0
  1
280
 41
0.9
100
AcDbText
  0
ENDBLK
  5
1F13
330
2C49
100
AcDbEntity
  8
0
100
AcDbBlockEnd
  0
BLOCK
  5
2C4C
330
2C4B
100
AcDbEntity
  8
0
100
AcDbBlockBegin
  2
*D36
 70
     1
 10
0.0
 20
0.0
 30
0.0
  3
*D36
  1

  0
LINE
  5
1686
330
2C4B
100
AcDbEntity
  8
SIZE
 62
     0
100
AcDbLine
 10
-157.5
 20
20.0
 30
0.0
 11
-157.5
 21
245.5794621189598
 31
0.0
  0
LINE
  5
1687
330
2C4B
100
AcDbEntity
  8
SIZE
 62
     0
100
AcDbLine
 10
157.5
 20
20.0
 30
0.0
 11
157.5
 21
245.5794621189598
 31
0.0
  0
LINE
  5
1688
330
2C4B
100
AcDbEntity
  8
SIZE
 62
     0
100
AcDbLine
 10
-145.5
 20
225.5794621189598
 30
0.0
 11
145.5
 21
225.5794621189598
 31
0.0
  0
INSERT
  5
1689
330
2C4B
100
AcDbEntity
  8
SIZE
 62
     0
100
AcDbBlockReference
  2
_DOTBLANK
 10
-157.5
 20
225.5794621189598
 30
0.0
 41
12.0
 42
12.0
 43
12.0
 50
180.0
  0
INSERT
  5
168A
330
2C4B
100
AcDbEntity
  8
SIZE
 62
     0
100
AcDbBlockReference
  2
_DOTBLANK
 10
157.5
 20
225.5794621189598
 30
0.0
 41
12.0
 42
12.0
 43
12.0
  0
INSERT
  5
168B
330
2C4B
100
AcDbEntity
  8
0
100
AcDbBlockReference
  2
*U37
 10
0.0
 20
0.0
 30
0.0
  0
POINT
  5
168C
330
2C4B
100
AcDbEntity
  8
DEFPOINTS
 62
     0
100
AcDbPoint
 10
-157.5
 20
0.0
 30
0.0
  0
POINT
  5
168D
330
2C4B
100
AcDbEntity
  8
DEFPOINTS
 62
     0
100
AcDbPoint
 10
157.5
 20
0.0
 30
0.0
  0
POINT
  5
168E
330
2C4B
100
AcDbEntity
  8
DEFPOINTS
 62
     0
100
AcDbPoint
 10
157.5
 20
225.5794621189598
 30
0.0
  0
ENDBLK
  5
14CB
330
2C4B
100
AcDbEntity
  8
0
100
AcDbBlockEnd
  0
BLOCK
  5
2C4E
330
2C4D
100
AcDbEntity
  8
0
100
AcDbBlockBegin
  2
*U37
 70
     1
 10
0.0
 20
0.0
 30
0.0
  3
*U37
  1

  0
TEXT
  5
1F15
330
2C4D
100
AcDbEntity
  8
SIZE
 62
     0
100
AcDbText
 10
-68.57142857142857
 20
235.5794621189598
 30
0.0
 40
64.0
  1
315
 41
0.9
100
AcDbText
  0
ENDBLK
  5
1F17
330
2C4D
100
AcDbEntity
  8
0
100
AcDbBlockEnd
  0
BLOCK
  5
2C50
330
2C4F
100
AcDbEntity
  8
0
100
AcDbBlockBegin
  2
*U38
 70
     1
 10
0.0
 20
0.0
 30
0.0
  3
*U38
  1

  0
ENDBLK
  5
15CF
330
2C4F
100
AcDbEntity
  8
0
100
AcDbBlockEnd
  0
BLOCK
  5
2C52
330
2C51
100
AcDbEntity
  8
0
100
AcDbBlockBegin
  2
*D39
 70
     1
 10
0.0
 20
0.0
 30
0.0
  3
*D39
  1

  0
LINE
  5
1692
330
2C51
100
AcDbEntity
  8
SIZE
 62
     0
100
AcDbLine
 10
-25844.51823276502
 20
7685.702971374808
 30
0.0
 11
-25981.04465488371
 21
7685.702971374808
 31
0.0
  0
LINE
  5
1693
330
2C51
100
AcDbEntity
  8
SIZE
 62
     0
100
AcDbLine
 10
-25844.51823276502
 20
7677.702971374808
 30
0.0
 11
-25981.04465488371
 21
7677.702971374808
 31
0.0
  0
LINE
  5
1694
330
2C51
100
AcDbEntity
  8
SIZE
 62
     0
100
AcDbLine
 10
-25961.04465488371
 20
7697.702971374808
 30
0.0
 11
-25961.04465488371
 21
7709.702971374809
 31
0.0
  0
LINE
  5
1695
330
2C51
100
AcDbEntity
  8
SIZE
 62
     0
100
AcDbLine
 10
-25961.04465488371
 20
7665.70297137481
 30
0.0
 11
-25961.04465488371
 21
7595.302971374808
 31
0.0
  0
INSERT
  5
1696
330
2C51
100
AcDbEntity
  8
SIZE
 62
     0
100
AcDbBlockReference
  2
_DOTBLANK
 10
-25961.04465488371
 20
7685.702971374808
 30
0.0
 41
12.0
 42
12.0
 43
12.0
 50
270.0
  0
INSERT
  5
1697
330
2C51
100
AcDbEntity
  8
SIZE
 62
     0
100
AcDbBlockReference
  2
_DOTBLANK
 10
-25961.04465488371
 20
7677.702971374808
 30
0.0
 41
12.0
 42
12.0
 43
12.0
 50
90.0
  0
INSERT
  5
1698
330
2C51
100
AcDbEntity
  8
0
100
AcDbBlockReference
  2
*U40
 10
0.0
 20
0.0
 30
0.0
  0
POINT
  5
1699
330
2C51
100
AcDbEntity
  8
DEFPOINTS
 62
     0
100
AcDbPoint
 10
-25824.51823276501
 20
7685.702971374808
 30
0.0
  0
POINT
  5
169A
330
2C51
100
AcDbEntity
  8
DEFPOINTS
 62
     0
100
AcDbPoint
 10
-25824.51823276501
 20
7677.702971374808
 30
0.0
  0
POINT
  5
169B
330
2C51
100
AcDbEntity
  8
DEFPOINTS
 62
     0
100
AcDbPoint
 10
-25961.04465488371
 20
7677.702971374808
 30
0.0
  0
ENDBLK
  5
169C
330
2C51
100
AcDbEntity
  8
0
100
AcDbBlockEnd
  0
BLOCK
  5
2C54
330
2C53
100
AcDbEntity
  8
0
100
AcDbBlockBegin
  2
*U40
 70
     1
 10
0.0
 20
0.0
 30
0.0
  3
*U40
  1

  0
TEXT
  5
1F19
330
2C53
100
AcDbEntity
  8
SIZE
 62
     0
100
AcDbText
 10
-25971.04465488371
 20
7605.302971374804
 30
0.0
 40
64.0
  1
8
 50
90.0
 41
0.9
100
AcDbText
  0
ENDBLK
  5
1F1B
330
2C53
100
AcDbEntity
  8
0
100
AcDbBlockEnd
  0
BLOCK
  5
2C56
330
2C55
100
AcDbEntity
  8
0
100
AcDbBlockBegin
  2
*D41
 70
     1
 10
0.0
 20
0.0
 30
0.0
  3
*D41
  1

  0
LINE
  5
169F
330
2C55
100
AcDbEntity
  8
SIZE
 62
     0
100
AcDbLine
 10
-25512.51823276502
 20
7385.702971374808
 30
0.0
 11
-25362.37494828464
 21
7385.702971374808
 31
0.0
  0
LINE
  5
16A0
330
2C55
100
AcDbEntity
  8
SIZE
 62
     0
100
AcDbLine
 10
-25523.51823276501
 20
7373.702971374808
 30
0.0
 11
-25362.37494828464
 21
7373.702971374808
 31
0.0
  0
LINE
  5
16A1
330
2C55
100
AcDbEntity
  8
SIZE
 62
     0
100
AcDbLine
 10
-25382.37494828464
 20
7397.702971374808
 30
0.0
 11
-25382.37494828464
 21
7409.70297137481
 31
0.0
  0
LINE
  5
16A2
330
2C55
100
AcDbEntity
  8
SIZE
 62
     0
100
AcDbLine
 10
-25382.37494828464
 20
7361.702971374808
 30
0.0
 11
-25382.37494828464
 21
7244.674399946238
 31
0.0
  0
INSERT
  5
16A3
330
2C55
100
AcDbEntity
  8
SIZE
 62
     0
100
AcDbBlockReference
  2
_DOTBLANK
 10
-25382.37494828464
 20
7385.702971374808
 30
0.0
 41
12.0
 42
12.0
 43
12.0
 50
270.0
  0
INSERT
  5
16A4
330
2C55
100
AcDbEntity
  8
SIZE
 62
     0
100
AcDbBlockReference
  2
_DOTBLANK
 10
-25382.37494828464
 20
7373.702971374808
 30
0.0
 41
12.0
 42
12.0
 43
12.0
 50
90.0
  0
INSERT
  5
16A5
330
2C55
100
AcDbEntity
  8
0
100
AcDbBlockReference
  2
*U42
 10
0.0
 20
0.0
 30
0.0
  0
POINT
  5
16A6
330
2C55
100
AcDbEntity
  8
DEFPOINTS
 62
     0
100
AcDbPoint
 10
-25532.51823276502
 20
7385.702971374808
 30
0.0
  0
POINT
  5
16A7
330
2C55
100
AcDbEntity
  8
DEFPOINTS
 62
     0
100
AcDbPoint
 10
-25543.51823276502
 20
7373.702971374808
 30
0.0
  0
POINT
  5
16A8
330
2C55
100
AcDbEntity
  8
DEFPOINTS
 62
     0
100
AcDbPoint
 10
-25382.37494828464
 20
7373.702971374808
 30
0.0
  0
ENDBLK
  5
16A9
330
2C55
100
AcDbEntity
  8
0
100
AcDbBlockEnd
  0
BLOCK
  5
2C58
330
2C57
100
AcDbEntity
  8
0
100
AcDbBlockBegin
  2
*U42
 70
     1
 10
0.0
 20
0.0
 30
0.0
  3
*U42
  1

  0
TEXT
  5
1F1D
330
2C57
100
AcDbEntity
  8
SIZE
 62
     0
100
AcDbText
 10
-25392.37494828464
 20
7256.045828517662
 30
0.0
 40
64.0
  1
12
 50
90.0
 41
0.9
100
AcDbText
  0
ENDBLK
  5
1F1F
330
2C57
100
AcDbEntity
  8
0
100
AcDbBlockEnd
  0
BLOCK
  5
2C5A
330
2C59
100
AcDbEntity
  8
0
100
AcDbBlockBegin
  2
*D43
 70
     1
 10
0.0
 20
0.0
 30
0.0
  3
*D43
  1

  0
LINE
  5
16AC
330
2C59
100
AcDbEntity
  8
SIZE
 62
     0
100
AcDbLine
 10
-25801.51823276501
 20
7365.702971374808
 30
0.0
 11
-25801.51823276501
 21
7217.685576144207
 31
0.0
  0
LINE
  5
16AD
330
2C59
100
AcDbEntity
  8
SIZE
 62
     0
100
AcDbLine
 10
-25532.51823276502
 20
7365.702971374808
 30
0.0
 11
-25532.51823276502
 21
7217.685576144207
 31
0.0
  0
LINE
  5
16AE
330
2C59
100
AcDbEntity
  8
SIZE
 62
     0
100
AcDbLine
 10
-25789.51823276502
 20
7237.685576144207
 30
0.0
 11
-25544.51823276501
 21
7237.685576144207
 31
0.0
  0
INSERT
  5
16AF
330
2C59
100
AcDbEntity
  8
SIZE
 62
     0
100
AcDbBlockReference
  2
_DOTBLANK
 10
-25801.51823276501
 20
7237.685576144207
 30
0.0
 41
12.0
 42
12.0
 43
12.0
 50
180.0
  0
INSERT
  5
16B0
330
2C59
100
AcDbEntity
  8
SIZE
 62
     0
100
AcDbBlockReference
  2
_DOTBLANK
 10
-25532.51823276502
 20
7237.685576144207
 30
0.0
 41
12.0
 42
12.0
 43
12.0
  0
INSERT
  5
16B1
330
2C59
100
AcDbEntity
  8
0
100
AcDbBlockReference
  2
*U44
 10
0.0
 20
0.0
 30
0.0
  0
POINT
  5
16B2
330
2C59
100
AcDbEntity
  8
DEFPOINTS
 62
     0
100
AcDbPoint
 10
-25801.51823276501
 20
7385.702971374808
 30
0.0
  0
POINT
  5
16B3
330
2C59
100
AcDbEntity
  8
DEFPOINTS
 62
     0
100
AcDbPoint
 10
-25532.51823276502
 20
7385.702971374808
 30
0.0
  0
POINT
  5
16B4
330
2C59
100
AcDbEntity
  8
DEFPOINTS
 62
     0
100
AcDbPoint
 10
-25532.51823276502
 20
7237.685576144207
 30
0.0
  0
ENDBLK
  5
16B5
330
2C59
100
AcDbEntity
  8
0
100
AcDbBlockEnd
  0
BLOCK
  5
2C5C
330
2C5B
100
AcDbEntity
  8
0
100
AcDbBlockBegin
  2
*U44
 70
     1
 10
0.0
 20
0.0
 30
0.0
  3
*U44
  1

  0
TEXT
  5
1F21
330
2C5B
100
AcDbEntity
  8
SIZE
 62
     0
100
AcDbText
 10
-25739.70394705074
 20
7247.685576144205
 30
0.0
 40
64.0
  1
269
 41
0.9
100
AcDbText
  0
ENDBLK
  5
1F23
330
2C5B
100
AcDbEntity
  8
0
100
AcDbBlockEnd
  0
BLOCK
  5
2C5E
330
2C5D
100
AcDbEntity
  8
0
100
AcDbBlockBegin
  2
*D45
 70
     1
 10
0.0
 20
0.0
 30
0.0
  3
*D45
  1

  0
LINE
  5
16B8
330
2C5D
100
AcDbEntity
  8
SIZE
 62
     0
100
AcDbLine
 10
-25512.51823276502
 20
7385.702971374808
 30
0.0
 11
-25362.37494828464
 21
7385.702971374808
 31
0.0
  0
LINE
  5
16B9
330
2C5D
100
AcDbEntity
  8
SIZE
 62
     0
100
AcDbLine
 10
-25489.51823276501
 20
7685.702971374808
 30
0.0
 11
-25362.37494828464
 21
7685.702971374808
 31
0.0
  0
LINE
  5
16BA
330
2C5D
100
AcDbEntity
  8
SIZE
 62
     0
100
AcDbLine
 10
-25382.37494828464
 20
7397.702971374808
 30
0.0
 11
-25382.37494828464
 21
7673.702971374808
 31
0.0
  0
INSERT
  5
16BB
330
2C5D
100
AcDbEntity
  8
SIZE
 62
     0
100
AcDbBlockReference
  2
_DOTBLANK
 10
-25382.37494828464
 20
7385.702971374808
 30
0.0
 41
12.0
 42
12.0
 43
12.0
 50
270.0
  0
INSERT
  5
16BC
330
2C5D
100
AcDbEntity
  8
SIZE
 62
     0
100
AcDbBlockReference
  2
_DOTBLANK
 10
-25382.37494828464
 20
7685.702971374808
 30
0.0
 41
12.0
 42
12.0
 43
12.0
 50
90.0
  0
INSERT
  5
16BD
330
2C5D
100
AcDbEntity
  8
0
100
AcDbBlockReference
  2
*U46
 10
0.0
 20
0.0
 30
0.0
  0
POINT
  5
16BE
330
2C5D
100
AcDbEntity
  8
DEFPOINTS
 62
     0
100
AcDbPoint
 10
-25532.51823276502
 20
7385.702971374808
 30
0.0
  0
POINT
  5
16BF
330
2C5D
100
AcDbEntity
  8
DEFPOINTS
 62
     0
100
AcDbPoint
 10
-25509.51823276502
 20
7685.702971374808
 30
0.0
  0
POINT
  5
16C0
330
2C5D
100
AcDbEntity
  8
DEFPOINTS
 62
     0
100
AcDbPoint
 10
-25382.37494828464
 20
7685.702971374808
 30
0.0
  0
ENDBLK
  5
16C1
330
2C5D
100
AcDbEntity
  8
0
100
AcDbBlockEnd
  0
BLOCK
  5
2C60
330
2C5F
100
AcDbEntity
  8
0
100
AcDbBlockBegin
  2
*U46
 70
     1
 10
0.0
 20
0.0
 30
0.0
  3
*U46
  1

  0
TEXT
  5
1F25
330
2C5F
100
AcDbEntity
  8
SIZE
 62
     0
100
AcDbText
 10
-25392.37494828464
 20
7461.645828517662
 30
0.0
 40
64.0
  1
300
 50
90.0
 41
0.9
100
AcDbText
  0
ENDBLK
  5
1F27
330
2C5F
100
AcDbEntity
  8
0
100
AcDbBlockEnd
  0
BLOCK
  5
2C62
330
2C61
100
AcDbEntity
  8
0
100
AcDbBlockBegin
  2
*D47
 70
     1
 10
0.0
 20
0.0
 30
0.0
  3
*D47
  1

  0
LINE
  5
16C4
330
2C61
100
AcDbEntity
  8
SIZE
 62
     0
100
AcDbLine
 10
-25807.01823276501
 20
7718.167454177002
 30
0.0
 11
-25807.01823276501
 21
7822.154659243358
 31
0.0
  0
LINE
  5
16C5
330
2C61
100
AcDbEntity
  8
SIZE
 62
     0
100
AcDbLine
 10
-25527.01823276501
 20
7718.167454177002
 30
0.0
 11
-25527.01823276501
 21
7822.154659243358
 31
0.0
  0
LINE
  5
16C6
330
2C61
100
AcDbEntity
  8
SIZE
 62
     0
100
AcDbLine
 10
-25795.01823276502
 20
7802.154659243358
 30
0.0
 11
-25539.01823276501
 21
7802.154659243358
 31
0.0
  0
INSERT
  5
16C7
330
2C61
100
AcDbEntity
  8
SIZE
 62
     0
100
AcDbBlockReference
  2
_DOTBLANK
 10
-25807.01823276501
 20
7802.154659243358
 30
0.0
 41
12.0
 42
12.0
 43
12.0
 50
180.0
  0
INSERT
  5
16C8
330
2C61
100
AcDbEntity
  8
SIZE
 62
     0
100
AcDbBlockReference
  2
_DOTBLANK
 10
-25527.01823276501
 20
7802.154659243358
 30
0.0
 41
12.0
 42
12.0
 43
12.0
  0
INSERT
  5
16C9
330
2C61
100
AcDbEntity
  8
0
100
AcDbBlockReference
  2
*U48
 10
0.0
 20
0.0
 30
0.0
  0
POINT
  5
16CA
330
2C61
100
AcDbEntity
  8
DEFPOINTS
 62
     0
100
AcDbPoint
 10
-25807.01823276501
 20
7698.167454177002
 30
0.0
  0
POINT
  5
16CB
330
2C61
100
AcDbEntity
  8
DEFPOINTS
 62
     0
100
AcDbPoint
 10
-25527.01823276501
 20
7698.167454177002
 30
0.0
  0
POINT
  5
16CC
330
2C61
100
AcDbEntity
  8
DEFPOINTS
 62
     0
100
AcDbPoint
 10
-25527.01823276501
 20
7802.154659243358
 30
0.0
  0
ENDBLK
  5
16CD
330
2C61
100
AcDbEntity
  8
0
100
AcDbBlockEnd
  0
BLOCK
  5
2C64
330
2C63
100
AcDbEntity
  8
0
100
AcDbBlockBegin
  2
*U48
 70
     1
 10
0.0
 20
0.0
 30
0.0
  3
*U48
  1

  0
TEXT
  5
1F29
330
2C63
100
AcDbEntity
  8
SIZE
 62
     0
100
AcDbText
 10
-25741.07537562216
 20
7812.154659243358
 30
0.0
 40
64.0
  1
280
 41
0.9
100
AcDbText
  0
ENDBLK
  5
1F2B
330
2C63
100
AcDbEntity
  8
0
100
AcDbBlockEnd
  0
BLOCK
  5
2C66
330
2C65
100
AcDbEntity
  8
0
100
AcDbBlockBegin
  2
*D49
 70
     1
 10
0.0
 20
0.0
 30
0.0
  3
*D49
  1

  0
LINE
  5
16D0
330
2C65
100
AcDbEntity
  8
SIZE
 62
     0
100
AcDbLine
 10
-25824.51823276501
 20
7705.702971374808
 30
0.0
 11
-25824.51823276501
 21
7931.282433493766
 31
0.0
  0
LINE
  5
16D1
330
2C65
100
AcDbEntity
  8
SIZE
 62
     0
100
AcDbLine
 10
-25509.51823276502
 20
7705.702971374808
 30
0.0
 11
-25509.51823276502
 21
7931.282433493766
 31
0.0
  0
LINE
  5
16D2
330
2C65
100
AcDbEntity
  8
SIZE
 62
     0
100
AcDbLine
 10
-25812.51823276502
 20
7911.282433493766
 30
0.0
 11
-25521.51823276501
 21
7911.282433493766
 31
0.0
  0
INSERT
  5
16D3
330
2C65
100
AcDbEntity
  8
SIZE
 62
     0
100
AcDbBlockReference
  2
_DOTBLANK
 10
-25824.51823276501
 20
7911.282433493766
 30
0.0
 41
12.0
 42
12.0
 43
12.0
 50
180.0
  0
INSERT
  5
16D4
330
2C65
100
AcDbEntity
  8
SIZE
 62
     0
100
AcDbBlockReference
  2
_DOTBLANK
 10
-25509.51823276502
 20
7911.282433493766
 30
0.0
 41
12.0
 42
12.0
 43
12.0
  0
INSERT
  5
16D5
330
2C65
100
AcDbEntity
  8
0
100
AcDbBlockReference
  2
*U50
 10
0.0
 20
0.0
 30
0.0
  0
POINT
  5
16D6
330
2C65
100
AcDbEntity
  8
DEFPOINTS
 62
     0
100
AcDbPoint
 10
-25824.51823276501
 20
7685.702971374808
 30
0.0
  0
POINT
  5
16D7
330
2C65
100
AcDbEntity
  8
DEFPOINTS
 62
     0
100
AcDbPoint
 10
-25509.51823276502
 20
7685.702971374808
 30
0.0
  0
POINT
  5
16D8
330
2C65
100
AcDbEntity
  8
DEFPOINTS
 62
     0
100
AcDbPoint
 10
-25509.51823276502
 20
7911.282433493766
 30
0.0
  0
ENDBLK
  5
16D9
330
2C65
100
AcDbEntity
  8
0
100
AcDbBlockEnd
  0
BLOCK
  5
2C68
330
2C67
100
AcDbEntity
  8
0
100
AcDbBlockBegin
  2
*U50
 70
     1
 10
0.0
 20
0.0
 30
0.0
  3
*U50
  1

  0
TEXT
  5
1F2D
330
2C67
100
AcDbEntity
  8
SIZE
 62
     0
100
AcDbText
 10
-25735.58966133645
 20
7921.282433493766
 30
0.0
 40
64.0
  1
315
 41
0.9
100
AcDbText
  0
ENDBLK
  5
1F2F
330
2C67
100
AcDbEntity
  8
0
100
AcDbBlockEnd
  0
BLOCK
  5
2C6A
330
2C69
100
AcDbEntity
  8
0
100
AcDbBlockBegin
  2
*D51
 70
     1
 10
0.0
 20
0.0
 30
0.0
  3
*D51
  1

  0
LINE
  5
1D83
330
2C69
100
AcDbEntity
  8
SIZE
 62
     0
100
AcDbLine
 10
-134.5
 20
-320.0
 30
0.0
 11
-134.5
 21
-468.0173952306001
 31
0.0
  0
LINE
  5
1D84
330
2C69
100
AcDbEntity
  8
SIZE
 62
     0
100
AcDbLine
 10
134.5
 20
-320.0
 30
0.0
 11
134.5
 21
-468.0173952306001
 31
0.0
  0
LINE
  5
1D85
330
2C69
100
AcDbEntity
  8
SIZE
 62
     0
100
AcDbLine
 10
-122.5
 20
-448.0173952306
 30
0.0
 11
122.5
 21
-448.0173952306
 31
0.0
  0
INSERT
  5
1D86
330
2C69
100
AcDbEntity
  8
SIZE
 62
     0
100
AcDbBlockReference
  2
_DOTBLANK
 10
-134.5
 20
-448.0173952306
 30
0.0
 41
12.0
 42
12.0
 43
12.0
 50
180.0
  0
INSERT
  5
1D87
330
2C69
100
AcDbEntity
  8
SIZE
 62
     0
100
AcDbBlockReference
  2
_DOTBLANK
 10
134.5
 20
-448.0173952306
 30
0.0
 41
12.0
 42
12.0
 43
12.0
  0
INSERT
  5
1D88
330
2C69
100
AcDbEntity
  8
0
100
AcDbBlockReference
  2
*U52
 10
0.0
 20
0.0
 30
0.0
  0
POINT
  5
1D89
330
2C69
100
AcDbEntity
  8
DEFPOINTS
 62
     0
100
AcDbPoint
 10
-134.5
 20
-300.0
 30
0.0
  0
POINT
  5
1D8A
330
2C69
100
AcDbEntity
  8
DEFPOINTS
 62
     0
100
AcDbPoint
 10
134.5
 20
-300.0
 30
0.0
  0
POINT
  5
1D8B
330
2C69
100
AcDbEntity
  8
DEFPOINTS
 62
     0
100
AcDbPoint
 10
134.5
 20
-448.0173952306
 30
0.0
  0
ENDBLK
  5
173D
330
2C69
100
AcDbEntity
  8
0
100
AcDbBlockEnd
  0
BLOCK
  5
2C6C
330
2C6B
100
AcDbEntity
  8
0
100
AcDbBlockBegin
  2
*U52
 70
     1
 10
0.0
 20
0.0
 30
0.0
  3
*U52
  1

  0
TEXT
  5
1F31
330
2C6B
100
AcDbEntity
  8
SIZE
 62
     0
100
AcDbText
 10
-72.68571428571426
 20
-438.0173952306003
 30
0.0
 40
64.0
  1
269
 41
0.9
100
AcDbText
  0
ENDBLK
  5
1F33
330
2C6B
100
AcDbEntity
  8
0
100
AcDbBlockEnd
  0
BLOCK
  5
2C6E
330
2C6D
100
AcDbEntity
  8
0
100
AcDbBlockBegin
  2
*D53
 70
     1
 10
0.0
 20
0.0
 30
0.0
  3
*D53
  1

  0
LINE
  5
1D8C
330
2C6D
100
AcDbEntity
  8
SIZE
 62
     0
100
AcDbLine
 10
154.5
 20
-300.0
 30
0.0
 11
304.6432844803784
 21
-300.0
 31
0.0
  0
LINE
  5
1D8D
330
2C6D
100
AcDbEntity
  8
SIZE
 62
     0
100
AcDbLine
 10
177.5
 20
-0.0000000000000057
 30
0.0
 11
304.6432844803785
 21
-0.0000000000000417
 31
0.0
  0
LINE
  5
1D8E
330
2C6D
100
AcDbEntity
  8
SIZE
 62
     0
100
AcDbLine
 10
284.6432844803784
 20
-288.0
 30
0.0
 11
284.6432844803785
 21
-12.00000000000003
 31
0.0
  0
INSERT
  5
1D8F
330
2C6D
100
AcDbEntity
  8
SIZE
 62
     0
100
AcDbBlockReference
  2
_DOTBLANK
 10
284.6432844803784
 20
-300.0
 30
0.0
 41
12.0
 42
12.0
 43
12.0
 50
270.0
  0
INSERT
  5
1D90
330
2C6D
100
AcDbEntity
  8
SIZE
 62
     0
100
AcDbBlockReference
  2
_DOTBLANK
 10
284.6432844803785
 20
-0.000000000000036
 30
0.0
 41
12.0
 42
12.0
 43
12.0
 50
90.0
  0
INSERT
  5
1D91
330
2C6D
100
AcDbEntity
  8
0
100
AcDbBlockReference
  2
*U54
 10
0.0
 20
0.0
 30
0.0
  0
POINT
  5
1D92
330
2C6D
100
AcDbEntity
  8
DEFPOINTS
 62
     0
100
AcDbPoint
 10
134.5
 20
-300.0
 30
0.0
  0
POINT
  5
1D93
330
2C6D
100
AcDbEntity
  8
DEFPOINTS
 62
     0
100
AcDbPoint
 10
157.5
 20
0.0
 30
0.0
  0
POINT
  5
1D94
330
2C6D
100
AcDbEntity
  8
DEFPOINTS
 62
     0
100
AcDbPoint
 10
284.6432844803785
 20
-0.000000000000036
 30
0.0
  0
ENDBLK
  5
1749
330
2C6D
100
AcDbEntity
  8
0
100
AcDbBlockEnd
  0
BLOCK
  5
2C70
330
2C6F
100
AcDbEntity
  8
0
100
AcDbBlockBegin
  2
*U54
 70
     1
 10
0.0
 20
0.0
 30
0.0
  3
*U54
  1

  0
TEXT
  5
1F35
330
2C6F
100
AcDbEntity
  8
SIZE
 62
     0
100
AcDbText
 10
274.6432844803785
 20
-224.0571428571429
 30
0.0
 40
64.0
  1
300
 50
90.0
 41
0.9
100
AcDbText
  0
ENDBLK
  5
1F37
330
2C6F
100
AcDbEntity
  8
0
100
AcDbBlockEnd
  0
BLOCK
  5
2C72
330
2C71
100
AcDbEntity
  8
0
100
AcDbBlockBegin
  2
*D55
 70
     1
 10
0.0
 20
0.0
 30
0.0
  3
*D55
  1

  0
LINE
  5
1D95
330
2C71
100
AcDbEntity
  8
SIZE
 62
     0
100
AcDbLine
 10
-140.0
 20
32.46448280219375
 30
0.0
 11
-140.0
 21
136.4516878685508
 31
0.0
  0
LINE
  5
1D96
330
2C71
100
AcDbEntity
  8
SIZE
 62
     0
100
AcDbLine
 10
140.0
 20
32.46448280219375
 30
0.0
 11
140.0
 21
136.4516878685508
 31
0.0
  0
LINE
  5
1D97
330
2C71
100
AcDbEntity
  8
SIZE
 62
     0
100
AcDbLine
 10
-128.0
 20
116.4516878685508
 30
0.0
 11
128.0
 21
116.4516878685508
 31
0.0
  0
INSERT
  5
1D98
330
2C71
100
AcDbEntity
  8
SIZE
 62
     0
100
AcDbBlockReference
  2
_DOTBLANK
 10
-140.0
 20
116.4516878685508
 30
0.0
 41
12.0
 42
12.0
 43
12.0
 50
180.0
  0
INSERT
  5
1D99
330
2C71
100
AcDbEntity
  8
SIZE
 62
     0
100
AcDbBlockReference
  2
_DOTBLANK
 10
140.0
 20
116.4516878685508
 30
0.0
 41
12.0
 42
12.0
 43
12.0
  0
INSERT
  5
1D9A
330
2C71
100
AcDbEntity
  8
0
100
AcDbBlockReference
  2
*U56
 10
0.0
 20
0.0
 30
0.0
  0
POINT
  5
1D9B
330
2C71
100
AcDbEntity
  8
DEFPOINTS
 62
     0
100
AcDbPoint
 10
-140.0
 20
12.46448280219374
 30
0.0
  0
POINT
  5
1D9C
330
2C71
100
AcDbEntity
  8
DEFPOINTS
 62
     0
100
AcDbPoint
 10
140.0
 20
12.46448280219374
 30
0.0
  0
POINT
  5
1D9D
330
2C71
100
AcDbEntity
  8
DEFPOINTS
 62
     0
100
AcDbPoint
 10
140.0
 20
116.4516878685508
 30
0.0
  0
ENDBLK
  5
1755
330
2C71
100
AcDbEntity
  8
0
100
AcDbBlockEnd
  0
BLOCK
  5
2C74
330
2C73
100
AcDbEntity
  8
0
100
AcDbBlockBegin
  2
*U56
 70
     1
 10
0.0
 20
0.0
 30
0.0
  3
*U56
  1

  0
TEXT
  5
1F39
330
2C73
100
AcDbEntity
  8
SIZE
 62
     0
100
AcDbText
 10
-74.05714285714283
 20
126.4516878685508
 30
0.0
 40
64.0
  1
280
 41
0.9
100
AcDbText
  0
ENDBLK
  5
1F3B
330
2C73
100
AcDbEntity
  8
0
100
AcDbBlockEnd
  0
BLOCK
  5
2C76
330
2C75
100
AcDbEntity
  8
0
100
AcDbBlockBegin
  2
*D57
 70
     1
 10
0.0
 20
0.0
 30
0.0
  3
*D57
  1

  0
LINE
  5
1D9E
330
2C75
100
AcDbEntity
  8
SIZE
 62
     0
100
AcDbLine
 10
-157.5
 20
20.0
 30
0.0
 11
-157.5
 21
245.5794621189598
 31
0.0
  0
LINE
  5
1D9F
330
2C75
100
AcDbEntity
  8
SIZE
 62
     0
100
AcDbLine
 10
157.5
 20
20.0
 30
0.0
 11
157.5
 21
245.5794621189598
 31
0.0
  0
LINE
  5
1DA0
330
2C75
100
AcDbEntity
  8
SIZE
 62
     0
100
AcDbLine
 10
-145.5
 20
225.5794621189598
 30
0.0
 11
145.5
 21
225.5794621189598
 31
0.0
  0
INSERT
  5
1DA1
330
2C75
100
AcDbEntity
  8
SIZE
 62
     0
100
AcDbBlockReference
  2
_DOTBLANK
 10
-157.5
 20
225.5794621189598
 30
0.0
 41
12.0
 42
12.0
 43
12.0
 50
180.0
  0
INSERT
  5
1DA2
330
2C75
100
AcDbEntity
  8
SIZE
 62
     0
100
AcDbBlockReference
  2
_DOTBLANK
 10
157.5
 20
225.5794621189598
 30
0.0
 41
12.0
 42
12.0
 43
12.0
  0
INSERT
  5
1DA3
330
2C75
100
AcDbEntity
  8
0
100
AcDbBlockReference
  2
*U58
 10
0.0
 20
0.0
 30
0.0
  0
POINT
  5
1DA4
330
2C75
100
AcDbEntity
  8
DEFPOINTS
 62
     0
100
AcDbPoint
 10
-157.5
 20
0.0
 30
0.0
  0
POINT
  5
1DA5
330
2C75
100
AcDbEntity
  8
DEFPOINTS
 62
     0
100
AcDbPoint
 10
157.5
 20
0.0
 30
0.0
  0
POINT
  5
1DA6
330
2C75
100
AcDbEntity
  8
DEFPOINTS
 62
     0
100
AcDbPoint
 10
157.5
 20
225.5794621189598
 30
0.0
  0
ENDBLK
  5
1761
330
2C75
100
AcDbEntity
  8
0
100
AcDbBlockEnd
  0
BLOCK
  5
2C78
330
2C77
100
AcDbEntity
  8
0
100
AcDbBlockBegin
  2
*U58
 70
     1
 10
0.0
 20
0.0
 30
0.0
  3
*U58
  1

  0
TEXT
  5
1F3D
330
2C77
100
AcDbEntity
  8
SIZE
 62
     0
100
AcDbText
 10
-68.57142857142857
 20
235.5794621189599
 30
0.0
 40
64.0
  1
315
 41
0.9
100
AcDbText
  0
ENDBLK
  5
1F3F
330
2C77
100
AcDbEntity
  8
0
100
AcDbBlockEnd
  0
BLOCK
  5
2C7A
330
2C79
100
AcDbEntity
  8
0
100
AcDbBlockBegin
  2
*D59
 70
     1
 10
0.0
 20
0.0
 30
0.0
  3
*D59
  1

  0
LINE
  5
1DA7
330
2C79
100
AcDbEntity
  8
SIZE
 62
     0
100
AcDbLine
 10
-177.5
 20
0.0000000000000057
 30
0.0
 11
-314.0264221186908
 21
0.0000000000000443
 31
0.0
  0
LINE
  5
1DA8
330
2C79
100
AcDbEntity
  8
SIZE
 62
     0
100
AcDbLine
 10
-177.5
 20
-7.999999999999992
 30
0.0
 11
-314.0264221186908
 21
-7.999999999999957
 31
0.0
  0
LINE
  5
1DA9
330
2C79
100
AcDbEntity
  8
SIZE
 62
     0
100
AcDbLine
 10
-294.0264221186908
 20
12.00000000000003
 30
0.0
 11
-294.0264221186908
 21
24.00000000000004
 31
0.0
  0
LINE
  5
1DAA
330
2C79
100
AcDbEntity
  8
SIZE
 62
     0
100
AcDbLine
 10
-294.0264221186908
 20
-19.99999999999996
 30
0.0
 11
-294.0264221186908
 21
-90.39999999999997
 31
0.0
  0
INSERT
  5
1DAB
330
2C79
100
AcDbEntity
  8
SIZE
 62
     0
100
AcDbBlockReference
  2
_DOTBLANK
 10
-294.0264221186908
 20
0.0000000000000387
 30
0.0
 41
12.0
 42
12.0
 43
12.0
 50
270.0
  0
INSERT
  5
1DAC
330
2C79
100
AcDbEntity
  8
SIZE
 62
     0
100
AcDbBlockReference
  2
_DOTBLANK
 10
-294.0264221186908
 20
-7.999999999999959
 30
0.0
 41
12.0
 42
12.0
 43
12.0
 50
90.0
  0
INSERT
  5
1DAD
330
2C79
100
AcDbEntity
  8
0
100
AcDbBlockReference
  2
*U60
 10
0.0
 20
0.0
 30
0.0
  0
POINT
  5
1DAE
330
2C79
100
AcDbEntity
  8
DEFPOINTS
 62
     0
100
AcDbPoint
 10
-157.5
 20
0.0
 30
0.0
  0
POINT
  5
1DAF
330
2C79
100
AcDbEntity
  8
DEFPOINTS
 62
     0
100
AcDbPoint
 10
-157.5
 20
-8.000000000000001
 30
0.0
  0
POINT
  5
1DB0
330
2C79
100
AcDbEntity
  8
DEFPOINTS
 62
     0
100
AcDbPoint
 10
-294.0264221186908
 20
-7.999999999999959
 30
0.0
  0
ENDBLK
  5
176D
330
2C79
100
AcDbEntity
  8
0
100
AcDbBlockEnd
  0
BLOCK
  5
2C7C
330
2C7B
100
AcDbEntity
  8
0
100
AcDbBlockBegin
  2
*U60
 70
     1
 10
0.0
 20
0.0
 30
0.0
  3
*U60
  1

  0
TEXT
  5
1F41
330
2C7B
100
AcDbEntity
  8
SIZE
 62
     0
100
AcDbText
 10
-304.0264221186908
 20
-80.4
 30
0.0
 40
64.0
  1
8
 50
90.0
 41
0.9
100
AcDbText
  0
ENDBLK
  5
1F43
330
2C7B
100
AcDbEntity
  8
0
100
AcDbBlockEnd
  0
BLOCK
  5
2C7E
330
2C7D
100
AcDbEntity
  8
0
100
AcDbBlockBegin
  2
*D61
 70
     1
 10
0.0
 20
0.0
 30
0.0
  3
*D61
  1

  0
LINE
  5
1DB1
330
2C7D
100
AcDbEntity
  8
SIZE
 62
     0
100
AcDbLine
 10
154.5
 20
-300.0
 30
0.0
 11
304.6432844803785
 21
-300.0
 31
0.0
  0
LINE
  5
1DB2
330
2C7D
100
AcDbEntity
  8
SIZE
 62
     0
100
AcDbLine
 10
143.5
 20
-312.0
 30
0.0
 11
304.6432844803785
 21
-312.0
 31
0.0
  0
LINE
  5
1DB3
330
2C7D
100
AcDbEntity
  8
SIZE
 62
     0
100
AcDbLine
 10
284.6432844803785
 20
-288.0
 30
0.0
 11
284.6432844803785
 21
-276.0
 31
0.0
  0
LINE
  5
1DB4
330
2C7D
100
AcDbEntity
  8
SIZE
 62
     0
100
AcDbLine
 10
284.6432844803785
 20
-324.0000000000001
 30
0.0
 11
284.6432844803784
 21
-438.2857142857143
 31
0.0
  0
INSERT
  5
1DB5
330
2C7D
100
AcDbEntity
  8
SIZE
 62
     0
100
AcDbBlockReference
  2
_DOTBLANK
 10
284.6432844803785
 20
-300.0
 30
0.0
 41
12.0
 42
12.0
 43
12.0
 50
270.0
  0
INSERT
  5
1DB6
330
2C7D
100
AcDbEntity
  8
SIZE
 62
     0
100
AcDbBlockReference
  2
_DOTBLANK
 10
284.6432844803785
 20
-312.0
 30
0.0
 41
12.0
 42
12.0
 43
12.0
 50
90.0
  0
INSERT
  5
1DB7
330
2C7D
100
AcDbEntity
  8
0
100
AcDbBlockReference
  2
*U62
 10
0.0
 20
0.0
 30
0.0
  0
POINT
  5
1DB8
330
2C7D
100
AcDbEntity
  8
DEFPOINTS
 62
     0
100
AcDbPoint
 10
134.5
 20
-300.0
 30
0.0
  0
POINT
  5
1DB9
330
2C7D
100
AcDbEntity
  8
DEFPOINTS
 62
     0
100
AcDbPoint
 10
123.5
 20
-312.0
 30
0.0
  0
POINT
  5
1DBA
330
2C7D
100
AcDbEntity
  8
DEFPOINTS
 62
     0
100
AcDbPoint
 10
284.6432844803785
 20
-312.0
 30
0.0
  0
ENDBLK
  5
177B
330
2C7D
100
AcDbEntity
  8
0
100
AcDbBlockEnd
  0
BLOCK
  5
2C80
330
2C7F
100
AcDbEntity
  8
0
100
AcDbBlockBegin
  2
*U62
 70
     1
 10
0.0
 20
0.0
 30
0.0
  3
*U62
  1

  0
TEXT
  5
1F45
330
2C7F
100
AcDbEntity
  8
SIZE
 62
     0
100
AcDbText
 10
274.6432844803785
 20
-428.2857142857142
 30
0.0
 40
64.0
  1
12
 50
90.0
 41
0.9
100
AcDbText
  0
ENDBLK
  5
1F47
330
2C7F
100
AcDbEntity
  8
0
100
AcDbBlockEnd
  0
BLOCK
  5
2C82
330
2C81
100
AcDbEntity
  8
0
100
AcDbBlockBegin
  2
*U63
 70
     1
 10
0.0
 20
0.0
 30
0.0
  3
*U63
  1

  0
ENDBLK
  5
1D57
330
2C81
100
AcDbEntity
  8
0
100
AcDbBlockEnd
  0
BLOCK
  5
2C84
330
2C83
100
AcDbEntity
  8
0
100
AcDbBlockBegin
  2
*U64
 70
     1
 10
0.0
 20
0.0
 30
0.0
  3
*U64
  1

  0
INSERT
  5
2087
330
2C83
100
AcDbEntity
  8
NOTE
100
AcDbBlockReference
  2
_OPEN30
 10
-165.0
 20
0.0
 30
0.0
 41
12.0
 42
12.0
 43
12.0
 50
312.6090116116894
  0
POLYLINE
  5
2088
330
2C83
100
AcDbEntity
  8
NOTE
100
AcDb2dPolyline
 66
     1
 10
0.0
 20
0.0
 30
0.0
  0
VERTEX
  5
2B1C
330
2088
100
AcDbEntity
  8
NOTE
100
AcDbVertex
100
AcDb2dVertex
 10
-173.1239008361894
 20
8.831887408915473
 30
0.0
  0
VERTEX
  5
2B1D
330
2088
100
AcDbEntity
  8
NOTE
100
AcDbVertex
100
AcDb2dVertex
 10
-252.8693999922543
 20
95.52709505801338
 30
0.0
  0
VERTEX
  5
2B1E
330
2088
100
AcDbEntity
  8
NOTE
100
AcDbVertex
100
AcDb2dVertex
 10
-798.7093999922541
 20
95.52709505801338
 30
0.0
  0
SEQEND
  5
2B1F
330
2088
100
AcDbEntity
  8
NOTE
  0
ENDBLK
  5
2089
330
2C83
100
AcDbEntity
  8
0
100
AcDbBlockEnd
  0
BLOCK
  5
2C86
330
2C85
100
AcDbEntity
  8
0
100
AcDbBlockBegin
  2
*U65
 70
     1
 10
0.0
 20
0.0
 30
0.0
  3
*U65
  1

  0
TEXT
  5
208C
330
2C85
100
AcDbEntity
  8
NOTE
100
AcDbText
 10
-798.7093999922541
 20
113.5270950580134
 30
0.0
 40
64.0
  1
4×φ10取付穴
 41
0.9
100
AcDbText
  0
ENDBLK
  5
208D
330
2C85
100
AcDbEntity
  8
0
100
AcDbBlockEnd
  0
BLOCK
  5
2C88
330
2C87
100
AcDbEntity
  8
0
100
AcDbBlockBegin
  2
*U66
 70
     1
 10
0.0
 20
0.0
 30
0.0
  3
*U66
  1

  0
INSERT
  5
2173
330
2C87
100
AcDbEntity
  8
NOTE
100
AcDbBlockReference
  2
_OPEN30
 10
165.0
 20
165.0
 30
0.0
 41
12.0
 42
12.0
 43
12.0
 50
230.7091310502216
  0
POLYLINE
  5
2174
330
2C87
100
AcDbEntity
  8
NOTE
100
AcDb2dPolyline
 66
     1
 10
0.0
 20
0.0
 30
0.0
  0
VERTEX
  5
2B20
330
2174
100
AcDbEntity
  8
NOTE
100
AcDbVertex
100
AcDb2dVertex
 10
172.599090480922
 20
174.2872936780722
 30
0.0
  0
VERTEX
  5
2B21
330
2174
100
AcDbEntity
  8
NOTE
100
AcDbVertex
100
AcDb2dVertex
 10
228.4345623698611
 20
242.5270950580133
 30
0.0
  0
VERTEX
  5
2B22
330
2174
100
AcDbEntity
  8
NOTE
100
AcDbVertex
100
AcDb2dVertex
 10
774.2745623698612
 20
242.5270950580133
 30
0.0
  0
SEQEND
  5
2B23
330
2174
100
AcDbEntity
  8
NOTE
  0
ENDBLK
  5
2175
330
2C87
100
AcDbEntity
  8
0
100
AcDbBlockEnd
  0
BLOCK
  5
2C8A
330
2C89
100
AcDbEntity
  8
0
100
AcDbBlockBegin
  2
*U67
 70
     1
 10
0.0
 20
0.0
 30
0.0
  3
*U67
  1

  0
TEXT
  5
2178
330
2C89
100
AcDbEntity
  8
NOTE
100
AcDbText
 10
290.4345623698611
 20
260.5270950580133
 30
0.0
 40
64.0
  1
4×φ10取付穴
 41
0.9
100
AcDbText
  0
ENDBLK
  5
2179
330
2C89
100
AcDbEntity
  8
0
100
AcDbBlockEnd
  0
BLOCK
  5
2C8C
330
2C8B
100
AcDbEntity
  8
0
100
AcDbBlockBegin
  2
*U68
 70
     1
 10
0.0
 20
0.0
 30
0.0
  3
*U68
  1

  0
INSERT
  5
227F
330
2C8B
100
AcDbEntity
  8
NOTE
100
AcDbBlockReference
  2
_OPEN30
 10
164.9999998782508
 20
164.9999999999991
 30
0.0
 41
12.0
 42
12.0
 43
12.0
 50
232.3258907693334
  0
POLYLINE
  5
2280
330
2C8B
100
AcDbEntity
  8
NOTE
100
AcDb2dPolyline
 66
     1
 10
0.0
 20
0.0
 30
0.0
  0
VERTEX
  5
2B24
330
2280
100
AcDbEntity
  8
NOTE
100
AcDbVertex
100
AcDb2dVertex
 10
172.3340331621957
 20
174.4979974620954
 30
0.0
  0
VERTEX
  5
2B25
330
2280
100
AcDbEntity
  8
NOTE
100
AcDbVertex
100
AcDb2dVertex
 10
238.7628006654591
 20
260.5270950580116
 30
0.0
  0
VERTEX
  5
2B26
330
2280
100
AcDbEntity
  8
NOTE
100
AcDbVertex
100
AcDb2dVertex
 10
784.6028006654592
 20
260.5270950580116
 30
0.0
  0
SEQEND
  5
2B27
330
2280
100
AcDbEntity
  8
NOTE
  0
ENDBLK
  5
2281
330
2C8B
100
AcDbEntity
  8
0
100
AcDbBlockEnd
  0
BLOCK
  5
2C8E
330
2C8D
100
AcDbEntity
  8
0
100
AcDbBlockBegin
  2
*U69
 70
     1
 10
0.0
 20
0.0
 30
0.0
  3
*U69
  1

  0
TEXT
  5
2284
330
2C8D
100
AcDbEntity
  8
NOTE
100
AcDbText
 10
300.7628006654591
 20
278.5270950580116
 30
0.0
 40
64.0
  1
4×φ10取付穴
 41
0.9
100
AcDbText
  0
ENDBLK
  5
2285
330
2C8D
100
AcDbEntity
  8
0
100
AcDbBlockEnd
  0
BLOCK
  5
2C90
330
2C8F
100
AcDbEntity
  8
0
100
AcDbBlockBegin
  2
*U70
 70
     1
 10
0.0
 20
0.0
 30
0.0
  3
*U70
  1

  0
INSERT
  5
23B5
330
2C8F
100
AcDbEntity
  8
NOTE
100
AcDbBlockReference
  2
_OPEN30
 10
0.0
 20
165.0
 30
0.0
 41
12.0
 42
12.0
 43
12.0
 50
312.6090116116895
  0
POLYLINE
  5
23B6
330
2C8F
100
AcDbEntity
  8
NOTE
100
AcDb2dPolyline
 66
     1
 10
0.0
 20
0.0
 30
0.0
  0
VERTEX
  5
2B28
330
23B6
100
AcDbEntity
  8
NOTE
100
AcDbVertex
100
AcDb2dVertex
 10
-8.123900836189513
 20
173.8318874089154
 30
0.0
  0
VERTEX
  5
2B29
330
23B6
100
AcDbEntity
  8
NOTE
100
AcDbVertex
100
AcDb2dVertex
 10
-87.86939999225436
 20
260.527095058013
 30
0.0
  0
VERTEX
  5
2B2A
330
23B6
100
AcDbEntity
  8
NOTE
100
AcDbVertex
100
AcDb2dVertex
 10
-633.7093999922545
 20
260.527095058013
 30
0.0
  0
SEQEND
  5
2B2B
330
23B6
100
AcDbEntity
  8
NOTE
  0
ENDBLK
  5
23B7
330
2C8F
100
AcDbEntity
  8
0
100
AcDbBlockEnd
  0
BLOCK
  5
2C92
330
2C91
100
AcDbEntity
  8
0
100
AcDbBlockBegin
  2
*U71
 70
     1
 10
0.0
 20
0.0
 30
0.0
  3
*U71
  1

  0
TEXT
  5
23BA
330
2C91
100
AcDbEntity
  8
NOTE
100
AcDbText
 10
-633.7093999922545
 20
278.5270950580129
 30
0.0
 40
64.0
  1
4×φ10取付穴
 41
0.9
100
AcDbText
  0
ENDBLK
  5
23BB
330
2C91
100
AcDbEntity
  8
0
100
AcDbBlockEnd
  0
BLOCK
  5
2C94
330
2C93
100
AcDbEntity
  8
0
100
AcDbBlockBegin
  2
*U72
 70
     1
 10
0.0
 20
0.0
 30
0.0
  3
*U72
  1

  0
INSERT
  5
2519
330
2C93
100
AcDbEntity
  8
NOTE
100
AcDbBlockReference
  2
_OPEN30
 10
0.0
 20
165.0
 30
0.0
 41
12.0
 42
12.0
 43
12.0
 50
227.3909883883105
  0
POLYLINE
  5
251A
330
2C93
100
AcDbEntity
  8
NOTE
100
AcDb2dPolyline
 66
     1
 10
0.0
 20
0.0
 30
0.0
  0
VERTEX
  5
2B2C
330
251A
100
AcDbEntity
  8
NOTE
100
AcDbVertex
100
AcDb2dVertex
 10
8.123900836189513
 20
173.8318874089154
 30
0.0
  0
VERTEX
  5
2B2D
330
251A
100
AcDbEntity
  8
NOTE
100
AcDbVertex
100
AcDb2dVertex
 10
87.86939999225436
 20
260.527095058013
 30
0.0
  0
VERTEX
  5
2B2E
330
251A
100
AcDbEntity
  8
NOTE
100
AcDbVertex
100
AcDb2dVertex
 10
633.7093999922545
 20
260.527095058013
 30
0.0
  0
SEQEND
  5
2B2F
330
251A
100
AcDbEntity
  8
NOTE
  0
ENDBLK
  5
251B
330
2C93
100
AcDbEntity
  8
0
100
AcDbBlockEnd
  0
BLOCK
  5
2C96
330
2C95
100
AcDbEntity
  8
0
100
AcDbBlockBegin
  2
*U73
 70
     1
 10
0.0
 20
0.0
 30
0.0
  3
*U73
  1

  0
TEXT
  5
251E
330
2C95
100
AcDbEntity
  8
NOTE
100
AcDbText
 10
149.8693999922543
 20
278.5270950580129
 30
0.0
 40
64.0
  1
4×φ10取付穴
 41
0.9
100
AcDbText
  0
ENDBLK
  5
251F
330
2C95
100
AcDbEntity
  8
0
100
AcDbBlockEnd
  0
BLOCK
  5
2C98
330
2C97
100
AcDbEntity
  8
0
100
AcDbBlockBegin
  2
*U74
 70
     1
 10
0.0
 20
0.0
 30
0.0
  3
*U74
  1

  0
INSERT
  5
27D2
330
2C97
100
AcDbEntity
  8
NOTE
100
AcDbBlockReference
  2
_OPEN30
 10
-165.0
 20
0.0
 30
0.0
 41
12.0
 42
12.0
 43
12.0
 50
312.6090116116894
  0
POLYLINE
  5
27D3
330
2C97
100
AcDbEntity
  8
NOTE
100
AcDb2dPolyline
 66
     1
 10
0.0
 20
0.0
 30
0.0
  0
VERTEX
  5
2B30
330
27D3
100
AcDbEntity
  8
NOTE
100
AcDbVertex
100
AcDb2dVertex
 10
-173.1239008361894
 20
8.831887408915473
 30
0.0
  0
VERTEX
  5
2B31
330
27D3
100
AcDbEntity
  8
NOTE
100
AcDbVertex
100
AcDb2dVertex
 10
-252.8693999922543
 20
95.52709505801338
 30
0.0
  0
VERTEX
  5
2B32
330
27D3
100
AcDbEntity
  8
NOTE
100
AcDbVertex
100
AcDb2dVertex
 10
-798.7093999922541
 20
95.52709505801338
 30
0.0
  0
SEQEND
  5
2B33
330
27D3
100
AcDbEntity
  8
NOTE
  0
ENDBLK
  5
27D4
330
2C97
100
AcDbEntity
  8
0
100
AcDbBlockEnd
  0
BLOCK
  5
2C9A
330
2C99
100
AcDbEntity
  8
0
100
AcDbBlockBegin
  2
*U75
 70
     1
 10
0.0
 20
0.0
 30
0.0
  3
*U75
  1

  0
TEXT
  5
27D7
330
2C99
100
AcDbEntity
  8
NOTE
100
AcDbText
 10
-798.7093999922541
 20
113.5270950580134
 30
0.0
 40
64.0
  1
4×φ10取付穴
 41
0.9
100
AcDbText
  0
ENDBLK
  5
27D8
330
2C99
100
AcDbEntity
  8
0
100
AcDbBlockEnd
  0
BLOCK
  5
2C9C
330
2C9B
100
AcDbEntity
  8
0
100
AcDbBlockBegin
  2
*X76
 70
     1
 10
0.0
 20
0.0
 30
0.0
  3
*X76
  1

  0
LINE
  5
27DB
330
2C9B
100
AcDbEntity
  8
0
 62
     0
100
AcDbLine
 10
-132.9000000000069
 20
-317.1144716994941
 30
0.0
 11
-123.900385822997
 21
-321.3999999999996
 31
0.0
  0
LINE
  5
27DC
330
2C9B
100
AcDbEntity
  8
0
 62
     0
100
AcDbLine
 10
-132.9000000000087
 20
-307.1145199553584
 30
0.0
 11
-102.9004760860043
 21
-321.3999999999996
 31
0.0
  0
LINE
  5
27DD
330
2C9B
100
AcDbEntity
  8
0
 62
     0
100
AcDbLine
 10
-132.9000000000087
 20
-297.1145682112247
 30
0.0
 11
-81.90056634901884
 21
-321.3999999999978
 31
0.0
  0
LINE
  5
27DE
330
2C9B
100
AcDbEntity
  8
0
 62
     0
100
AcDbLine
 10
-132.9000000000087
 20
-287.1146164670908
 30
0.0
 11
-60.90065661202607
 21
-321.3999999999996
 31
0.0
  0
LINE
  5
27DF
330
2C9B
100
AcDbEntity
  8
0
 62
     0
100
AcDbLine
 10
-132.9000000000069
 20
-277.1146647229571
 30
0.0
 11
-39.90074687503511
 21
-321.3999999999996
 31
0.0
  0
LINE
  5
27E0
330
2C9B
100
AcDbEntity
  8
0
 62
     0
100
AcDbLine
 10
-132.9000000000087
 20
-267.1147129788214
 30
0.0
 11
-18.90083713804413
 21
-321.3999999999996
 31
0.0
  0
LINE
  5
27E1
330
2C9B
100
AcDbEntity
  8
0
 62
     0
100
AcDbLine
 10
-82.90000000000508
 20
-280.9242724882533
 30
0.0
 11
-71.40096616131995
 21
-286.3999999999996
 31
0.0
  0
LINE
  5
27E2
330
2C9B
100
AcDbEntity
  8
0
 62
     0
100
AcDbLine
 10
-71.40096616131995
 20
-286.3999999999996
 30
0.0
 11
2.099072598946803
 21
-321.3999999999996
 31
0.0
  0
LINE
  5
27E3
330
2C9B
100
AcDbEntity
  8
0
 62
     0
100
AcDbLine
 10
-132.9000000000069
 20
-257.1147612346877
 30
0.0
 11
-82.90000000000508
 21
-280.9242724882533
 31
0.0
  0
LINE
  5
27E4
330
2C9B
100
AcDbEntity
  8
0
 62
     0
100
AcDbLine
 10
-82.9000000000069
 20
-270.9243207441177
 30
0.0
 11
-50.40105642432901
 21
-286.3999999999987
 31
0.0
  0
LINE
  5
27E5
330
2C9B
100
AcDbEntity
  8
0
 62
     0
100
AcDbLine
 10
-50.40105642432901
 20
-286.3999999999987
 30
0.0
 11
23.09898233593776
 21
-321.3999999999987
 31
0.0
  0
LINE
  5
27E6
330
2C9B
100
AcDbEntity
  8
0
 62
     0
100
AcDbLine
 10
-132.9000000000087
 20
-247.114809490552
 30
0.0
 11
-82.9000000000069
 21
-270.9243207441177
 31
0.0
  0
LINE
  5
27E7
330
2C9B
100
AcDbEntity
  8
0
 62
     0
100
AcDbLine
 10
-82.90000000000873
 20
-260.9243689999821
 30
0.0
 11
-29.40114668733804
 21
-286.3999999999987
 31
0.0
  0
LINE
  5
27E8
330
2C9B
100
AcDbEntity
  8
0
 62
     0
100
AcDbLine
 10
-29.40114668733804
 20
-286.3999999999987
 30
0.0
 11
44.09889207292871
 21
-321.3999999999987
 31
0.0
  0
LINE
  5
27E9
330
2C9B
100
AcDbEntity
  8
0
 62
     0
100
AcDbLine
 10
-132.9000000000105
 20
-237.1148577464164
 30
0.0
 11
-82.90000000000873
 21
-260.9243689999821
 31
0.0
  0
LINE
  5
27EA
330
2C9B
100
AcDbEntity
  8
0
 62
     0
100
AcDbLine
 10
-82.9000000000069
 20
-250.9244172558501
 30
0.0
 11
-8.401236950348902
 21
-286.3999999999996
 31
0.0
  0
LINE
  5
27EB
330
2C9B
100
AcDbEntity
  8
0
 62
     0
100
AcDbLine
 10
-8.401236950348902
 20
-286.3999999999996
 30
0.0
 11
65.09880180991604
 21
-321.3999999999996
 31
0.0
  0
LINE
  5
27EC
330
2C9B
100
AcDbEntity
  8
0
 62
     0
100
AcDbLine
 10
-132.9000000000087
 20
-227.1149060022844
 30
0.0
 11
-82.9000000000069
 21
-250.9244172558501
 31
0.0
  0
LINE
  5
27ED
330
2C9B
100
AcDbEntity
  8
0
 62
     0
100
AcDbLine
 10
-82.9000000000069
 20
-240.9244655117145
 30
0.0
 11
12.59867278664205
 21
-286.3999999999987
 31
0.0
  0
LINE
  5
27EE
330
2C9B
100
AcDbEntity
  8
0
 62
     0
100
AcDbLine
 10
12.59867278664205
 20
-286.3999999999987
 30
0.0
 11
86.09871154690882
 21
-321.3999999999987
 31
0.0
  0
LINE
  5
27EF
330
2C9B
100
AcDbEntity
  8
0
 62
     0
100
AcDbLine
 10
-132.9000000000087
 20
-217.1149542581497
 30
0.0
 11
-82.9000000000069
 21
-240.9244655117145
 31
0.0
  0
LINE
  5
27F0
330
2C9B
100
AcDbEntity
  8
0
 62
     0
100
AcDbLine
 10
-82.9000000000069
 20
-230.9245137675807
 30
0.0
 11
33.59858252362939
 21
-286.3999999999978
 31
0.0
  0
LINE
  5
27F1
330
2C9B
100
AcDbEntity
  8
0
 62
     0
100
AcDbLine
 10
33.5985825236312
 20
-286.3999999999987
 30
0.0
 11
107.0986212838979
 21
-321.3999999999987
 31
0.0
  0
LINE
  5
27F2
330
2C9B
100
AcDbEntity
  8
0
 62
     0
100
AcDbLine
 10
-132.9000000000087
 20
-207.115002514015
 30
0.0
 11
-82.9000000000069
 21
-230.9245137675807
 31
0.0
  0
LINE
  5
27F3
330
2C9B
100
AcDbEntity
  8
0
 62
     0
100
AcDbLine
 10
-82.9000000000069
 20
-220.9245620234451
 30
0.0
 11
54.59849226062215
 21
-286.3999999999968
 31
0.0
  0
LINE
  5
27F4
330
2C9B
100
AcDbEntity
  8
0
 62
     0
100
AcDbLine
 10
54.59849226062579
 20
-286.3999999999987
 30
0.0
 11
128.0985310208925
 21
-321.3999999999987
 31
0.0
  0
LINE
  5
27F5
330
2C9B
100
AcDbEntity
  8
0
 62
     0
100
AcDbLine
 10
-132.9000000000105
 20
-197.1150507698784
 30
0.0
 11
-82.9000000000069
 21
-220.9245620234451
 31
0.0
  0
LINE
  5
27F6
330
2C9B
100
AcDbEntity
  8
0
 62
     0
100
AcDbLine
 10
-82.90000000000508
 20
-210.9246102793113
 30
0.0
 11
75.59840199761129
 21
-286.3999999999968
 31
0.0
  0
LINE
  5
27F7
330
2C9B
100
AcDbEntity
  8
0
 62
     0
100
AcDbLine
 10
75.59840199761129
 20
-286.3999999999968
 30
0.0
 11
132.899999999996
 21
-313.6864608496972
 31
0.0
  0
LINE
  5
27F8
330
2C9B
100
AcDbEntity
  8
0
 62
     0
100
AcDbLine
 10
-132.9000000000105
 20
-187.1150990257447
 30
0.0
 11
-82.90000000000508
 21
-210.9246102793113
 31
0.0
  0
LINE
  5
27F9
330
2C9B
100
AcDbEntity
  8
0
 62
     0
100
AcDbLine
 10
-82.90000000000873
 20
-200.9246585351776
 30
0.0
 11
96.59831173460226
 21
-286.3999999999987
 31
0.0
  0
LINE
  5
27FA
330
2C9B
100
AcDbEntity
  8
0
 62
     0
100
AcDbLine
 10
96.59831173460226
 20
-286.3999999999987
 30
0.0
 11
132.8999999999905
 21
-303.6865091055616
 31
0.0
  0
LINE
  5
27FB
330
2C9B
100
AcDbEntity
  8
0
 62
     0
100
AcDbLine
 10
-132.9000000000142
 20
-177.1151472816108
 30
0.0
 11
-82.90000000000873
 21
-200.9246585351776
 31
0.0
  0
LINE
  5
27FC
330
2C9B
100
AcDbEntity
  8
0
 62
     0
100
AcDbLine
 10
-82.90000000000324
 20
-190.9247067910437
 30
0.0
 11
117.598221471595
 21
-286.3999999999987
 31
0.0
  0
LINE
  5
27FD
330
2C9B
100
AcDbEntity
  8
0
 62
     0
100
AcDbLine
 10
117.598221471595
 20
-286.3999999999987
 30
0.0
 11
132.8999999999942
 21
-293.6865573614277
 31
0.0
  0
LINE
  5
27FE
330
2C9B
100
AcDbEntity
  8
0
 62
     0
100
AcDbLine
 10
-132.9000000000123
 20
-167.1151955374753
 30
0.0
 11
-82.90000000000324
 21
-190.9247067910437
 31
0.0
  0
LINE
  5
27FF
330
2C9B
100
AcDbEntity
  8
0
 62
     0
100
AcDbLine
 10
-82.9000000000069
 20
-180.924755046909
 30
0.0
 11
132.8999999999942
 21
-283.6866056172939
 31
0.0
  0
LINE
  5
2800
330
2C9B
100
AcDbEntity
  8
0
 62
     0
100
AcDbLine
 10
-132.9000000000123
 20
-157.1152437933415
 30
0.0
 11
-82.90000000001056
 21
-180.9247550469072
 31
0.0
  0
LINE
  5
2801
330
2C9B
100
AcDbEntity
  8
0
 62
     0
100
AcDbLine
 10
-82.9000000000069
 20
-170.9248033027734
 30
0.0
 11
132.899999999996
 21
-273.6866538731602
 31
0.0
  0
LINE
  5
2802
330
2C9B
100
AcDbEntity
  8
0
 62
     0
100
AcDbLine
 10
-132.9000000000123
 20
-147.1152920492058
 30
0.0
 11
-82.90000000001056
 21
-170.9248033027716
 31
0.0
  0
LINE
  5
2803
330
2C9B
100
AcDbEntity
  8
0
 62
     0
100
AcDbLine
 10
-82.90000000000508
 20
-160.9248515586396
 30
0.0
 11
132.899999999996
 21
-263.6867021290245
 31
0.0
  0
LINE
  5
2804
330
2C9B
100
AcDbEntity
  8
0
 62
     0
100
AcDbLine
 10
-132.9000000000105
 20
-137.1153403050721
 30
0.0
 11
-82.90000000000873
 21
-160.9248515586378
 31
0.0
  0
LINE
  5
2805
330
2C9B
100
AcDbEntity
  8
0
 62
     0
100
AcDbLine
 10
-82.90000000000873
 20
-150.9248998145058
 30
0.0
 11
132.899999999996
 21
-253.6867503848926
 31
0.0
  0
LINE
  5
2806
330
2C9B
100
AcDbEntity
  8
0
 62
     0
100
AcDbLine
 10
-132.9000000000142
 20
-127.1153885609383
 30
0.0
 11
-82.90000000001056
 21
-150.924899814504
 31
0.0
  0
LINE
  5
2807
330
2C9B
100
AcDbEntity
  8
0
 62
     0
100
AcDbLine
 10
-82.90000000000508
 20
-140.924948070372
 30
0.0
 11
132.899999999996
 21
-243.6867986407569
 31
0.0
  0
LINE
  5
2808
330
2C9B
100
AcDbEntity
  8
0
 62
     0
100
AcDbLine
 10
-132.9000000000105
 20
-117.1154368168045
 30
0.0
 11
-82.90000000000873
 21
-140.9249480703702
 31
0.0
  0
LINE
  5
2809
330
2C9B
100
AcDbEntity
  8
0
 62
     0
100
AcDbLine
 10
-82.9000000000069
 20
-130.9249963262364
 30
0.0
 11
132.8999999999942
 21
-233.6868468966213
 31
0.0
  0
LINE
  5
280A
330
2C9B
100
AcDbEntity
  8
0
 62
     0
100
AcDbLine
 10
-132.9000000000123
 20
-107.1154850726689
 30
0.0
 11
-82.90000000001056
 21
-130.9249963262345
 31
0.0
  0
LINE
  5
280B
330
2C9B
100
AcDbEntity
  8
0
 62
     0
100
AcDbLine
 10
-82.9000000000069
 20
-120.9250445821026
 30
0.0
 11
132.8999999999942
 21
-223.6868951524875
 31
0.0
  0
LINE
  5
280C
330
2C9B
100
AcDbEntity
  8
0
 62
     0
100
AcDbLine
 10
-132.9000000000105
 20
-97.11553332853508
 30
0.0
 11
-82.90000000000873
 21
-120.9250445821008
 31
0.0
  0
LINE
  5
280D
330
2C9B
100
AcDbEntity
  8
0
 62
     0
100
AcDbLine
 10
-82.9000000000069
 20
-110.925092837967
 30
0.0
 11
132.8999999999942
 21
-213.6869434083519
 31
0.0
  0
LINE
  5
280E
330
2C9B
100
AcDbEntity
  8
0
 62
     0
100
AcDbLine
 10
-121.3827152536105
 20
-92.59999999999854
 30
0.0
 11
-82.90000000001056
 21
-110.9250928379651
 31
0.0
  0
LINE
  5
280F
330
2C9B
100
AcDbEntity
  8
0
 62
     0
100
AcDbLine
 10
-82.90000000000508
 20
-100.9251410938332
 30
0.0
 11
132.899999999996
 21
-203.6869916642181
 31
0.0
  0
LINE
  5
2810
330
2C9B
100
AcDbEntity
  8
0
 62
     0
100
AcDbLine
 10
-100.3828055166195
 20
-92.59999999999854
 30
0.0
 11
-82.90000000000873
 21
-100.9251410938313
 31
0.0
  0
LINE
  5
2811
330
2C9B
100
AcDbEntity
  8
0
 62
     0
100
AcDbLine
 10
-79.38289577963222
 20
-92.59999999999854
 30
0.0
 11
132.8999999999942
 21
-193.6870399200842
 31
0.0
  0
LINE
  5
2812
330
2C9B
100
AcDbEntity
  8
0
 62
     0
100
AcDbLine
 10
-58.38298604264128
 20
-92.59999999999854
 30
0.0
 11
132.899999999996
 21
-183.6870881759504
 31
0.0
  0
LINE
  5
2813
330
2C9B
100
AcDbEntity
  8
0
 62
     0
100
AcDbLine
 10
-37.38307630564849
 20
-92.59999999999854
 30
0.0
 11
132.899999999996
 21
-173.6871364318158
 31
0.0
  0
LINE
  5
2814
330
2C9B
100
AcDbEntity
  8
0
 62
     0
100
AcDbLine
 10
-16.38316656865936
 20
-92.59999999999854
 30
0.0
 11
132.899999999996
 21
-163.6871846876811
 31
0.0
  0
LINE
  5
2815
330
2C9B
100
AcDbEntity
  8
0
 62
     0
100
AcDbLine
 10
4.616743168333414
 20
-92.59999999999854
 30
0.0
 11
132.899999999996
 21
-153.6872329435464
 31
0.0
  0
LINE
  5
2816
330
2C9B
100
AcDbEntity
  8
0
 62
     0
100
AcDbLine
 10
25.61665290532437
 20
-92.60000000000037
 30
0.0
 11
132.8999999999942
 21
-143.6872811994126
 31
0.0
  0
LINE
  5
2817
330
2C9B
100
AcDbEntity
  8
0
 62
     0
100
AcDbLine
 10
46.61656264231533
 20
-92.60000000000037
 30
0.0
 11
132.899999999996
 21
-133.6873294552788
 31
0.0
  0
LINE
  5
2818
330
2C9B
100
AcDbEntity
  8
0
 62
     0
100
AcDbLine
 10
67.61647237930811
 20
-92.59999999999944
 30
0.0
 11
132.899999999996
 21
-123.6873777111432
 31
0.0
  0
LINE
  5
2819
330
2C9B
100
AcDbEntity
  8
0
 62
     0
100
AcDbLine
 10
88.61638211629722
 20
-92.59999999999944
 30
0.0
 11
132.899999999996
 21
-113.6874259670094
 31
0.0
  0
LINE
  5
281A
330
2C9B
100
AcDbEntity
  8
0
 62
     0
100
AcDbLine
 10
109.6162918532864
 20
-92.59999999999763
 30
0.0
 11
132.8999999999942
 21
-103.6874742228738
 31
0.0
  0
LINE
  5
281B
330
2C9B
100
AcDbEntity
  8
0
 62
     0
100
AcDbLine
 10
130.6162015902773
 20
-92.59999999999763
 30
0.0
 11
132.8999999999978
 21
-93.68752247874001
 31
0.0
  0
ENDBLK
  5
281C
330
2C9B
100
AcDbEntity
  8
0
100
AcDbBlockEnd
  0
BLOCK
  5
2C9E
330
2C9D
100
AcDbEntity
  8
0
100
AcDbBlockBegin
  2
*X77
 70
     1
 10
0.0
 20
0.0
 30
0.0
  3
*X77
  1

  0
LINE
  5
281F
330
2C9D
100
AcDbEntity
  8
0
 62
     0
100
AcDbLine
 10
129.7842420880042
 20
-321.3999999999978
 30
0.0
 11
132.9000000000014
 21
-319.9163065386165
 31
0.0
  0
LINE
  5
2820
330
2C9D
100
AcDbEntity
  8
0
 62
     0
100
AcDbLine
 10
108.7843323510133
 20
-321.3999999999996
 30
0.0
 11
132.900000000005
 21
-309.9163547944827
 31
0.0
  0
LINE
  5
2821
330
2C9D
100
AcDbEntity
  8
0
 62
     0
100
AcDbLine
 10
87.78442261402597
 20
-321.3999999999996
 30
0.0
 11
132.900000000005
 21
-299.9164030503489
 31
0.0
  0
LINE
  5
2822
330
2C9D
100
AcDbEntity
  8
0
 62
     0
100
AcDbLine
 10
66.78451287703501
 20
-321.3999999999978
 30
0.0
 11
132.9000000000014
 21
-289.9164513062133
 31
0.0
  0
LINE
  5
2823
330
2C9D
100
AcDbEntity
  8
0
 62
     0
100
AcDbLine
 10
119.2846419003108
 20
-286.3999999999978
 30
0.0
 11
132.9000000000014
 21
-279.9164995620795
 31
0.0
  0
LINE
  5
2824
330
2C9D
100
AcDbEntity
  8
0
 62
     0
100
AcDbLine
 10
45.78460314004405
 20
-321.3999999999978
 30
0.0
 11
119.2846419003108
 21
-286.3999999999978
 31
0.0
  0
LINE
  5
2825
330
2C9D
100
AcDbEntity
  8
0
 62
     0
100
AcDbLine
 10
98.28473216331623
 20
-286.3999999999978
 30
0.0
 11
132.9000000000014
 21
-269.9165478179438
 31
0.0
  0
LINE
  5
2826
330
2C9D
100
AcDbEntity
  8
0
 62
     0
100
AcDbLine
 10
24.78469340304946
 20
-321.3999999999978
 30
0.0
 11
98.28473216331623
 21
-286.3999999999978
 31
0.0
  0
LINE
  5
2827
330
2C9D
100
AcDbEntity
  8
0
 62
     0
100
AcDbLine
 10
77.2848224263289
 20
-286.3999999999996
 30
0.0
 11
132.9000000000014
 21
-259.9165960738119
 31
0.0
  0
LINE
  5
2828
330
2C9D
100
AcDbEntity
  8
0
 62
     0
100
AcDbLine
 10
3.784783666062137
 20
-321.3999999999996
 30
0.0
 11
77.2848224263289
 21
-286.3999999999996
 31
0.0
  0
LINE
  5
2829
330
2C9D
100
AcDbEntity
  8
0
 62
     0
100
AcDbLine
 10
56.28491268933794
 20
-286.3999999999996
 30
0.0
 11
132.900000000005
 21
-249.9166443296763
 31
0.0
  0
LINE
  5
282A
330
2C9D
100
AcDbEntity
  8
0
 62
     0
100
AcDbLine
 10
-17.21512607092882
 20
-321.3999999999996
 30
0.0
 11
56.28491268933794
 21
-286.3999999999996
 31
0.0
  0
LINE
  5
282B
330
2C9D
100
AcDbEntity
  8
0
 62
     0
100
AcDbLine
 10
35.28500295234699
 20
-286.3999999999978
 30
0.0
 11
132.9000000000014
 21
-239.9166925855424
 31
0.0
  0
LINE
  5
282C
330
2C9D
100
AcDbEntity
  8
0
 62
     0
100
AcDbLine
 10
-38.21503580792342
 20
-321.3999999999996
 30
0.0
 11
35.28500295234699
 21
-286.3999999999978
 31
0.0
  0
LINE
  5
282D
330
2C9D
100
AcDbEntity
  8
0
 62
     0
100
AcDbLine
 10
14.28509321535603
 20
-286.3999999999978
 30
0.0
 11
132.9000000000014
 21
-229.9167408414068
 31
0.0
  0
LINE
  5
282E
330
2C9D
100
AcDbEntity
  8
0
 62
     0
100
AcDbLine
 10
-59.21494554491072
 20
-321.3999999999996
 30
0.0
 11
14.28509321535603
 21
-286.3999999999978
 31
0.0
  0
LINE
  5
282F
330
2C9D
100
AcDbEntity
  8
0
 62
     0
100
AcDbLine
 10
-6.714816521631287
 20
-286.3999999999978
 30
0.0
 11
132.9000000000014
 21
-219.9167890972731
 31
0.0
  0
LINE
  5
2830
330
2C9D
100
AcDbEntity
  8
0
 62
     0
100
AcDbLine
 10
-80.2148552819017
 20
-321.3999999999996
 30
0.0
 11
-6.714816521631287
 21
-286.3999999999978
 31
0.0
  0
LINE
  5
2831
330
2C9D
100
AcDbEntity
  8
0
 62
     0
100
AcDbLine
 10
-27.71472625862589
 20
-286.3999999999978
 30
0.0
 11
132.9000000000014
 21
-209.9168373531393
 31
0.0
  0
LINE
  5
2832
330
2C9D
100
AcDbEntity
  8
0
 62
     0
100
AcDbLine
 10
-101.2147650188963
 20
-321.3999999999996
 30
0.0
 11
-27.71472625862589
 21
-286.3999999999978
 31
0.0
  0
LINE
  5
2833
330
2C9D
100
AcDbEntity
  8
0
 62
     0
100
AcDbLine
 10
-48.71463599561685
 20
-286.3999999999996
 30
0.0
 11
132.900000000005
 21
-199.9168856090055
 31
0.0
  0
LINE
  5
2834
330
2C9D
100
AcDbEntity
  8
0
 62
     0
100
AcDbLine
 10
-122.2146747558836
 20
-321.4000000000015
 30
0.0
 11
-48.71463599561685
 21
-286.3999999999996
 31
0.0
  0
LINE
  5
2835
330
2C9D
100
AcDbEntity
  8
0
 62
     0
100
AcDbLine
 10
-69.71454573260053
 20
-286.3999999999978
 30
0.0
 11
132.9000000000014
 21
-189.9169338648716
 31
0.0
  0
LINE
  5
2836
330
2C9D
100
AcDbEntity
  8
0
 62
     0
100
AcDbLine
 10
-132.9000000000014
 20
-316.4882956888232
 30
0.0
 11
-69.71454573260416
 21
-286.3999999999996
 31
0.0
  0
LINE
  5
2837
330
2C9D
100
AcDbEntity
  8
0
 62
     0
100
AcDbLine
 10
-82.89999999999782
 20
-282.6788326911209
 30
0.0
 11
132.9000000000014
 21
-179.916982120736
 31
0.0
  0
LINE
  5
2838
330
2C9D
100
AcDbEntity
  8
0
 62
     0
100
AcDbLine
 10
-132.9000000000087
 20
-306.4883439446894
 30
0.0
 11
-82.90000000000508
 21
-282.6788326911246
 31
0.0
  0
LINE
  5
2839
330
2C9D
100
AcDbEntity
  8
0
 62
     0
100
AcDbLine
 10
-82.89999999999782
 20
-272.6788809469872
 30
0.0
 11
132.9000000000014
 21
-169.9170303766022
 31
0.0
  0
LINE
  5
283A
330
2C9D
100
AcDbEntity
  8
0
 62
     0
100
AcDbLine
 10
-132.900000000005
 20
-296.4883922005537
 30
0.0
 11
-82.90000000000146
 21
-272.678880946989
 31
0.0
  0
LINE
  5
283B
330
2C9D
100
AcDbEntity
  8
0
 62
     0
100
AcDbLine
 10
-82.90000000000146
 20
-262.6789292028516
 30
0.0
 11
132.9000000000014
 21
-159.9170786324666
 31
0.0
  0
LINE
  5
283C
330
2C9D
100
AcDbEntity
  8
0
 62
     0
100
AcDbLine
 10
-132.9000000000087
 20
-286.48844045642
 30
0.0
 11
-82.90000000000508
 21
-262.6789292028552
 31
0.0
  0
LINE
  5
283D
330
2C9D
100
AcDbEntity
  8
0
 62
     0
100
AcDbLine
 10
-82.90000000000146
 20
-252.6789774587196
 30
0.0
 11
132.9000000000014
 21
-149.9171268883346
 31
0.0
  0
LINE
  5
283E
330
2C9D
100
AcDbEntity
  8
0
 62
     0
100
AcDbLine
 10
-132.900000000005
 20
-276.4884887122862
 30
0.0
 11
-82.90000000000508
 21
-252.6789774587214
 31
0.0
  0
LINE
  5
283F
330
2C9D
100
AcDbEntity
  8
0
 62
     0
100
AcDbLine
 10
-82.89999999999782
 20
-242.679025714584
 30
0.0
 11
132.9000000000014
 21
-139.917175144199
 31
0.0
  0
LINE
  5
2840
330
2C9D
100
AcDbEntity
  8
0
 62
     0
100
AcDbLine
 10
-132.9000000000014
 20
-266.4885369681506
 30
0.0
 11
-82.90000000000146
 21
-242.6790257145858
 31
0.0
  0
LINE
  5
2841
330
2C9D
100
AcDbEntity
  8
0
 62
     0
100
AcDbLine
 10
-82.89999999999782
 20
-232.6790739704502
 30
0.0
 11
132.9000000000014
 21
-129.9172234000652
 31
0.0
  0
LINE
  5
2842
330
2C9D
100
AcDbEntity
  8
0
 62
     0
100
AcDbLine
 10
-132.900000000005
 20
-256.4885852240168
 30
0.0
 11
-82.89999999999782
 21
-232.6790739704502
 31
0.0
  0
LINE
  5
2843
330
2C9D
100
AcDbEntity
  8
0
 62
     0
100
AcDbLine
 10
-82.89999999999782
 20
-222.6791222263146
 30
0.0
 11
132.9000000000014
 21
-119.9172716559296
 31
0.0
  0
LINE
  5
2844
330
2C9D
100
AcDbEntity
  8
0
 62
     0
100
AcDbLine
 10
-132.900000000005
 20
-246.4886334798812
 30
0.0
 11
-82.89999999999782
 21
-222.6791222263146
 31
0.0
  0
LINE
  5
2845
330
2C9D
100
AcDbEntity
  8
0
 62
     0
100
AcDbLine
 10
-82.90000000000146
 20
-212.6791704821808
 30
0.0
 11
132.900000000005
 21
-109.917319911794
 31
0.0
  0
LINE
  5
2846
330
2C9D
100
AcDbEntity
  8
0
 62
     0
100
AcDbLine
 10
-132.900000000005
 20
-236.4886817357474
 30
0.0
 11
-82.90000000000146
 21
-212.6791704821808
 31
0.0
  0
LINE
  5
2847
330
2C9D
100
AcDbEntity
  8
0
 62
     0
100
AcDbLine
 10
-82.90000000000146
 20
-202.679218738047
 30
0.0
 11
132.9000000000014
 21
-99.91736816766206
 31
0.0
  0
LINE
  5
2848
330
2C9D
100
AcDbEntity
  8
0
 62
     0
100
AcDbLine
 10
-132.900000000005
 20
-226.4887299916136
 30
0.0
 11
-82.90000000000146
 21
-202.679218738047
 31
0.0
  0
LINE
  5
2849
330
2C9D
100
AcDbEntity
  8
0
 62
     0
100
AcDbLine
 10
-82.89999999999782
 20
-192.6792669939113
 30
0.0
 11
127.2665715186194
 21
-92.60000000000037
 31
0.0
  0
LINE
  5
284A
330
2C9D
100
AcDbEntity
  8
0
 62
     0
100
AcDbLine
 10
-132.900000000005
 20
-216.4887782474798
 30
0.0
 11
-82.90000000000146
 21
-192.6792669939132
 31
0.0
  0
LINE
  5
284B
330
2C9D
100
AcDbEntity
  8
0
 62
     0
100
AcDbLine
 10
-82.89999999999782
 20
-182.6793152497776
 30
0.0
 11
106.2666617816285
 21
-92.59999999999854
 31
0.0
  0
LINE
  5
284C
330
2C9D
100
AcDbEntity
  8
0
 62
     0
100
AcDbLine
 10
-132.9000000000014
 20
-206.4888265033442
 30
0.0
 11
-82.90000000000146
 21
-182.6793152497792
 31
0.0
  0
LINE
  5
284D
330
2C9D
100
AcDbEntity
  8
0
 62
     0
100
AcDbLine
 10
-82.89999999999782
 20
-172.6793635056419
 30
0.0
 11
85.26675204463391
 21
-92.59999999999854
 31
0.0
  0
LINE
  5
284E
330
2C9D
100
AcDbEntity
  8
0
 62
     0
100
AcDbLine
 10
-132.9000000000014
 20
-196.4888747592085
 30
0.0
 11
-82.90000000000146
 21
-172.6793635056438
 31
0.0
  0
LINE
  5
284F
330
2C9D
100
AcDbEntity
  8
0
 62
     0
100
AcDbLine
 10
-82.90000000000146
 20
-162.6794117615081
 30
0.0
 11
64.26684230764658
 21
-92.59999999999854
 31
0.0
  0
LINE
  5
2850
330
2C9D
100
AcDbEntity
  8
0
 62
     0
100
AcDbLine
 10
-132.9000000000014
 20
-186.4889230150747
 30
0.0
 11
-82.90000000000508
 21
-162.67941176151
 31
0.0
  0
LINE
  5
2851
330
2C9D
100
AcDbEntity
  8
0
 62
     0
100
AcDbLine
 10
-82.89999999999782
 20
-152.6794600173724
 30
0.0
 11
43.26693257065561
 21
-92.59999999999854
 31
0.0
  0
LINE
  5
2852
330
2C9D
100
AcDbEntity
  8
0
 62
     0
100
AcDbLine
 10
-132.8999999999978
 20
-176.4889712709391
 30
0.0
 11
-82.90000000000146
 21
-152.6794600173744
 31
0.0
  0
LINE
  5
2853
330
2C9D
100
AcDbEntity
  8
0
 62
     0
100
AcDbLine
 10
-82.90000000000146
 20
-142.6795082732406
 30
0.0
 11
22.26702283366103
 21
-92.60000000000037
 31
0.0
  0
LINE
  5
2854
330
2C9D
100
AcDbEntity
  8
0
 62
     0
100
AcDbLine
 10
-132.900000000005
 20
-166.4890195268071
 30
0.0
 11
-82.90000000000508
 21
-142.6795082732424
 31
0.0
  0
LINE
  5
2855
330
2C9D
100
AcDbEntity
  8
0
 62
     0
100
AcDbLine
 10
-82.89999999999421
 20
-132.6795565291031
 30
0.0
 11
1.267113096673706
 21
-92.60000000000037
 31
0.0
  0
LINE
  5
2856
330
2C9D
100
AcDbEntity
  8
0
 62
     0
100
AcDbLine
 10
-132.9000000000014
 20
-156.4890677826715
 30
0.0
 11
-82.90000000000146
 21
-132.6795565291067
 31
0.0
  0
LINE
  5
2857
330
2C9D
100
AcDbEntity
  8
0
 62
     0
100
AcDbLine
 10
-82.89999999999421
 20
-122.6796047849675
 30
0.0
 11
-19.73279664031725
 21
-92.60000000000037
 31
0.0
  0
LINE
  5
2858
330
2C9D
100
AcDbEntity
  8
0
 62
     0
100
AcDbLine
 10
-132.9000000000014
 20
-146.4891160385377
 30
0.0
 11
-82.90000000000146
 21
-122.6796047849729
 31
0.0
  0
LINE
  5
2859
330
2C9D
100
AcDbEntity
  8
0
 62
     0
100
AcDbLine
 10
-82.89999999999782
 20
-112.6796530408337
 30
0.0
 11
-40.73270637731184
 21
-92.60000000000037
 31
0.0
  0
LINE
  5
285A
330
2C9D
100
AcDbEntity
  8
0
 62
     0
100
AcDbLine
 10
-132.9000000000014
 20
-136.4891642944021
 30
0.0
 11
-82.90000000000508
 21
-112.6796530408373
 31
0.0
  0
LINE
  5
285B
330
2C9D
100
AcDbEntity
  8
0
 62
     0
100
AcDbLine
 10
-82.89999999999421
 20
-102.6797012966981
 30
0.0
 11
-61.73261611429914
 21
-92.59999999999854
 31
0.0
  0
LINE
  5
285C
330
2C9D
100
AcDbEntity
  8
0
 62
     0
100
AcDbLine
 10
-132.8999999999978
 20
-126.4892125502665
 30
0.0
 11
-82.90000000000508
 21
-102.6797012967035
 31
0.0
  0
LINE
  5
285D
330
2C9D
100
AcDbEntity
  8
0
 62
     0
100
AcDbLine
 10
-82.89999999999782
 20
-92.67974955256612
 30
0.0
 11
-82.73252585128648
 21
-92.59999999999854
 31
0.0
  0
LINE
  5
285E
330
2C9D
100
AcDbEntity
  8
0
 62
     0
100
AcDbLine
 10
-132.900000000005
 20
-116.4892608061345
 30
0.0
 11
-82.90000000000508
 21
-92.67974955256979
 31
0.0
  0
LINE
  5
285F
330
2C9D
100
AcDbEntity
  8
0
 62
     0
100
AcDbLine
 10
-132.9000000000014
 20
-106.4893090619989
 30
0.0
 11
-103.7324355882774
 21
-92.59999999999854
 31
0.0
  0
LINE
  5
2860
330
2C9D
100
AcDbEntity
  8
0
 62
     0
100
AcDbLine
 10
-132.9000000000014
 20
-96.48935731786515
 30
0.0
 11
-124.732345325272
 21
-92.60000000000037
 31
0.0
  0
ENDBLK
  5
2861
330
2C9D
100
AcDbEntity
  8
0
100
AcDbBlockEnd
  0
BLOCK
  5
2E72
330
2E71
100
AcDbEntity
  8
0
100
AcDbBlockBegin
  2
*U78
 70
     1
 10
0.0
 20
0.0
 30
0.0
  3
*U78
  1

  0
ENDBLK
  5
2E73
330
2E71
100
AcDbEntity
  8
0
100
AcDbBlockEnd
  0
BLOCK
  5
3123
330
3122
100
AcDbEntity
  8
0
100
AcDbBlockBegin
  2
*U79
 70
     1
 10
0.0
 20
0.0
 30
0.0
  3
*U79
  1

  0
ENDBLK
  5
3124
330
3122
100
AcDbEntity
  8
0
100
AcDbBlockEnd
  0
BLOCK
  5
36A8
330
36A7
100
AcDbEntity
  8
0
100
AcDbBlockBegin
  2
*U80
 70
     1
 10
0.0
 20
0.0
 30
0.0
  3
*U80
  1

  0
ENDBLK
  5
36A9
330
36A7
100
AcDbEntity
  8
0
100
AcDbBlockEnd
  0
BLOCK
  5
3789
330
3788
100
AcDbEntity
  8
0
100
AcDbBlockBegin
  2
*U81
 70
     1
 10
0.0
 20
0.0
 30
0.0
  3
*U81
  1

  0
ENDBLK
  5
378A
330
3788
100
AcDbEntity
  8
0
100
AcDbBlockEnd
  0
BLOCK
  5
3869
330
3868
100
AcDbEntity
  8
0
100
AcDbBlockBegin
  2
*U82
 70
     1
 10
0.0
 20
0.0
 30
0.0
  3
*U82
  1

  0
ENDBLK
  5
386A
330
3868
100
AcDbEntity
  8
0
100
AcDbBlockEnd
  0
ENDSEC
  0
SECTION
  2
ENTITIES
  0
TEXT
  5
953
330
2BBC
100
AcDbEntity
  8
OUTLINE
  6
Continuous
 62
     3
100
AcDbText
 10
-418.231467
 20
13.715189
 30
0.0
 40
64.0
  1
 
 41
0.9
100
AcDbText
  0
TEXT
  5
954
330
2BBC
100
AcDbEntity
  8
OUTLINE
  6
Continuous
 62
     3
100
AcDbText
 10
-418.231467
 20
13.715189
 30
0.0
 40
64.0
  1
 
 41
0.9
100
AcDbText
  0
TEXT
  5
955
330
2BBC
100
AcDbEntity
  8
OUTLINE
  6
Continuous
 62
     3
100
AcDbText
 10
1341.41903
 20
-706.0588199999997
 30
0.0
 40
64.0
  1
 
 41
0.9
100
AcDbText
  0
TEXT
  5
956
330
2BBC
100
AcDbEntity
  8
OUTLINE
  6
Continuous
 62
     3
100
AcDbText
 10
1341.41903
 20
-706.0588199999997
 30
0.0
 40
64.0
  1
 
 41
0.9
100
AcDbText
  0
TEXT
  5
957
330
2BBC
100
AcDbEntity
  8
OUTLINE
  6
Continuous
 62
     3
100
AcDbText
 10
1341.41903
 20
-706.0588199999997
 30
0.0
 40
64.0
  1
 
 41
0.9
100
AcDbText
  0
TEXT
  5
958
330
2BBC
100
AcDbEntity
  8
OUTLINE
  6
Continuous
 62
     3
100
AcDbText
 10
1341.41903
 20
-706.0588199999997
 30
0.0
 40
64.0
  1
 
 41
0.9
100
AcDbText
  0
TEXT
  5
33A8
330
2BBC
100
AcDbEntity
  8
ETC
100
AcDbText
 10
289.9226051396847
 20
3025.01427676552
 30
0.0
 40
64.0
  1
システム部材
 41
0.9
100
AcDbText
  0
TEXT
  5
33A9
330
2BBC
100
AcDbEntity
  8
ETC
100
AcDbText
 10
296.1306031396828
 20
3125.897602765519
 30
0.0
 40
64.0
  1
QW-25SDCFCM_6
 41
0.9
100
AcDbText
  0
TEXT
  5
33AA
330
2BBC
100
AcDbEntity
  8
ETC
100
AcDbText
 10
289.9226051396847
 20
2925.01427676552
 30
0.0
 40
64.0
  1
QW-25SDCFCM
 41
0.9
100
AcDbText
  0
LINE
  5
33AB
330
2BBC
100
AcDbEntity
  8
DETAIL
100
AcDbLine
 39
50.0
 10
181.5757742480355
 20
2452.560622295195
 30
0.0
 11
193.1757742480342
 21
2452.560622295195
 31
0.0
  0
LINE
  5
33AC
330
2BBC
100
AcDbEntity
  8
DETAIL
100
AcDbLine
 39
50.0
 10
-125.8242257519657
 20
2452.560622295195
 30
0.0
 11
-114.2242257519635
 21
2452.560622295195
 31
0.0
  0
POINT
  5
33AD
330
2BBC
100
AcDbEntity
  8
ARRANGE
100
AcDbPoint
 10
33.67577424803427
 20
2518.560622295194
 30
0.0
 39
50.0
  0
LINE
  5
33AE
330
2BBC
100
AcDbEntity
  8
DETAIL
100
AcDbLine
 10
182.1757742480341
 20
2506.560622295194
 30
0.0
 11
182.1757742480341
 21
2452.560622295195
 31
0.0
  0
LINE
  5
33AF
330
2BBC
100
AcDbEntity
  8
DETAIL
100
AcDbLine
 10
-114.8242257519657
 20
2506.560622295194
 30
0.0
 11
-114.8242257519657
 21
2452.560622295195
 31
0.0
  0
CIRCLE
  5
33B0
330
2BBC
100
AcDbEntity
  8
ARRANGE
100
AcDbCircle
 10
33.67577424803427
 20
2519.160622196521
 30
0.0
 40
40.0
  0
LINE
  5
33B1
330
2BBC
100
AcDbEntity
  8
BASIS
100
AcDbLine
 10
33.67577424803427
 20
2543.560622295194
 30
0.0
 11
33.67577424803427
 21
2144.560622295195
 31
0.0
  0
LINE
  5
33B2
330
2BBC
100
AcDbEntity
  8
SIZE
100
AcDbLine
 10
198.6757742480341
 20
2551.060622295195
 30
0.0
 11
198.6757742480341
 21
2696.892713304812
 31
0.0
  0
LINE
  5
33B3
330
2BBC
100
AcDbEntity
  8
SIZE
100
AcDbLine
 10
-131.3242257519657
 20
2551.060622295195
 30
0.0
 11
-131.3242257519657
 21
2696.892713304812
 31
0.0
  0
LINE
  5
33B4
330
2BBC
100
AcDbEntity
  8
SIZE
100
AcDbLine
 10
186.6757742480342
 20
2676.892713304812
 30
0.0
 11
-119.3242257519657
 21
2676.892713304812
 31
0.0
  0
INSERT
  5
33B5
330
2BBC
100
AcDbEntity
  8
SIZE
100
AcDbBlockReference
  2
_DOTBLANK
 10
198.6757742480341
 20
2676.892713304812
 30
0.0
 41
12.0
 42
12.0
 43
12.0
  0
INSERT
  5
33B6
330
2BBC
100
AcDbEntity
  8
SIZE
100
AcDbBlockReference
  2
_DOTBLANK
 10
-131.3242257519657
 20
2676.892713304812
 30
0.0
 41
12.0
 42
12.0
 43
12.0
 50
180.0
  0
MTEXT
  5
33B7
330
2BBC
100
AcDbEntity
  8
SIZE
100
AcDbMText
 10
33.11989661404118
 20
2718.892713304811
 30
0.0
 40
64.0
 41
0.0
 71
     5
 72
     1
  1
\A1;330
 73
     1
 44
1.0
  0
LINE
  5
33B8
330
2BBC
100
AcDbEntity
  8
SIZE
100
AcDbLine
 10
211.1757742480342
 20
2538.560622295194
 30
0.0
 11
211.1757742480342
 21
2815.447215231711
 31
0.0
  0
LINE
  5
33B9
330
2BBC
100
AcDbEntity
  8
SIZE
100
AcDbLine
 10
-143.8242257519657
 20
2538.560622295194
 30
0.0
 11
-143.8242257519657
 21
2815.447215231711
 31
0.0
  0
LINE
  5
33BA
330
2BBC
100
AcDbEntity
  8
SIZE
100
AcDbLine
 10
199.1757742480342
 20
2795.447215231711
 30
0.0
 11
-131.8242257519657
 21
2795.447215231711
 31
0.0
  0
INSERT
  5
33BB
330
2BBC
100
AcDbEntity
  8
SIZE
100
AcDbBlockReference
  2
_DOTBLANK
 10
211.1757742480342
 20
2795.447215231711
 30
0.0
 41
12.0
 42
12.0
 43
12.0
  0
INSERT
  5
33BC
330
2BBC
100
AcDbEntity
  8
SIZE
100
AcDbBlockReference
  2
_DOTBLANK
 10
-143.8242257519657
 20
2795.447215231711
 30
0.0
 41
12.0
 42
12.0
 43
12.0
 50
180.0
  0
MTEXT
  5
33BD
330
2BBC
100
AcDbEntity
  8
SIZE
100
AcDbMText
 10
33.67577424803427
 20
2837.447215231711
 30
0.0
 40
64.0
 41
0.0
 71
     5
 72
     1
  1
\A1;355
 73
     1
 44
1.0
  0
LINE
  5
33BE
330
2BBC
100
AcDbEntity
  8
DETAIL
100
AcDbLine
 10
-143.8242257519657
 20
2518.560622295194
 30
0.0
 11
211.1757742480342
 21
2518.560622295194
 31
0.0
  0
LINE
  5
33BF
330
2BBC
100
AcDbEntity
  8
DETAIL
100
AcDbLine
 10
-143.8242257519657
 20
2506.560622295194
 30
0.0
 11
211.1757742480342
 21
2506.560622295194
 31
0.0
  0
LINE
  5
33C0
330
2BBC
100
AcDbEntity
  8
DETAIL
100
AcDbLine
 10
-143.8242257519657
 20
2518.560622295194
 30
0.0
 11
-143.8242257519657
 21
2506.560622295194
 31
0.0
  0
LINE
  5
33C1
330
2BBC
100
AcDbEntity
  8
NOTE
100
AcDbLine
 10
-131.3242257519657
 20
2506.060622295195
 30
0.0
 11
-131.3242257519657
 21
2531.060622295195
 31
0.0
  0
LINE
  5
33C2
330
2BBC
100
AcDbEntity
  8
NOTE
100
AcDbLine
 10
198.6757742480341
 20
2531.060622295195
 30
0.0
 11
198.6757742480341
 21
2506.060622295195
 31
0.0
  0
LINE
  5
33C3
330
2BBC
100
AcDbEntity
  8
DETAIL
100
AcDbLine
 10
211.1757742480342
 20
2518.560622295194
 30
0.0
 11
211.1757742480342
 21
2506.560622295194
 31
0.0
  0
LINE
  5
33C4
330
2BBC
100
AcDbEntity
  8
DETAIL
100
AcDbLine
 10
-114.8242257519657
 20
2441.560622295194
 30
0.0
 11
182.1757742480341
 21
2441.560622295194
 31
0.0
  0
LINE
  5
33C5
330
2BBC
100
AcDbEntity
  8
DETAIL
100
AcDbLine
 10
181.5757742480355
 20
2452.560622295195
 30
0.0
 11
-114.2242257519635
 21
2452.560622295195
 31
0.0
  0
LINE
  5
33C6
330
2BBC
100
AcDbEntity
  8
SIZE
100
AcDbLine
 10
193.1757742480342
 20
2161.560622295194
 30
0.0
 11
193.1757742480342
 21
2026.409820896218
 31
0.0
  0
LINE
  5
33C7
330
2BBC
100
AcDbEntity
  8
SIZE
100
AcDbLine
 10
-125.8242257519657
 20
2161.560622295194
 30
0.0
 11
-125.8242257519657
 21
2026.409820896218
 31
0.0
  0
LINE
  5
33C8
330
2BBC
100
AcDbEntity
  8
SIZE
100
AcDbLine
 10
181.1757742480341
 20
2046.409820896218
 30
0.0
 11
-113.8242257519657
 21
2046.409820896218
 31
0.0
  0
INSERT
  5
33C9
330
2BBC
100
AcDbEntity
  8
SIZE
100
AcDbBlockReference
  2
_DOTBLANK
 10
193.1757742480342
 20
2046.409820896218
 30
0.0
 41
12.0
 42
12.0
 43
12.0
  0
INSERT
  5
33CA
330
2BBC
100
AcDbEntity
  8
SIZE
100
AcDbBlockReference
  2
_DOTBLANK
 10
-125.8242257519657
 20
2046.409820896218
 30
0.0
 41
12.0
 42
12.0
 43
12.0
 50
180.0
  0
MTEXT
  5
33CB
330
2BBC
100
AcDbEntity
  8
SIZE
100
AcDbMText
 10
33.67577424803427
 20
2088.409820896218
 30
0.0
 40
64.0
 41
0.0
 71
     5
 72
     1
  1
\A1;319
 73
     1
 44
1.0
  0
LINE
  5
33CC
330
2BBC
100
AcDbEntity
  8
DETAIL
100
AcDbLine
 10
-99.22422575196719
 20
2425.960622295195
 30
0.0
 11
166.5757742480357
 21
2425.960622295195
 31
0.0
  0
LINE
  5
33CD
330
2BBC
100
AcDbEntity
  8
DETAIL
100
AcDbLine
 10
-99.22422575196719
 20
2197.160622295194
 30
0.0
 11
166.5757742480357
 21
2197.160622295194
 31
0.0
  0
LINE
  5
33CE
330
2BBC
100
AcDbEntity
  8
DETAIL
100
AcDbLine
 10
-125.8242257519657
 20
2181.560622295194
 30
0.0
 11
193.1757742480342
 21
2181.560622295194
 31
0.0
  0
LINE
  5
33CF
330
2BBC
100
AcDbEntity
  8
DETAIL
100
AcDbLine
 10
-114.8242257519657
 20
2169.560622295195
 30
0.0
 11
182.1757742480341
 21
2169.560622295194
 31
0.0
  0
LINE
  5
33D0
330
2BBC
100
AcDbEntity
  8
OUTLINE
100
AcDbLine
 10
-114.8242257519657
 20
2441.560622295194
 30
0.0
 11
-114.8242257519657
 21
2181.560622295194
 31
0.0
  0
LINE
  5
33D1
330
2BBC
100
AcDbEntity
  8
DETAIL
100
AcDbLine
 10
-114.8242257519657
 20
2441.560622295194
 30
0.0
 11
-114.8242257519657
 21
2169.560622295194
 31
0.0
  0
LINE
  5
33D2
330
2BBC
100
AcDbEntity
  8
DETAIL
100
AcDbLine
 10
-125.8242257519657
 20
2452.560622295195
 30
0.0
 11
-125.8242257519657
 21
2181.560622295194
 31
0.0
  0
LINE
  5
33D3
330
2BBC
100
AcDbEntity
  8
DETAIL
100
AcDbLine
 10
-99.22422575196719
 20
2425.960622295195
 30
0.0
 11
-99.22422575196719
 21
2197.160622295194
 31
0.0
  0
LINE
  5
33D4
330
2BBC
100
AcDbEntity
  8
DETAIL
100
AcDbLine
 10
182.1757742480341
 20
2441.560622295194
 30
0.0
 11
182.1757742480341
 21
2169.560622295194
 31
0.0
  0
LINE
  5
33D5
330
2BBC
100
AcDbEntity
  8
DETAIL
100
AcDbLine
 10
193.1757742480342
 20
2452.560622295195
 30
0.0
 11
193.1757742480342
 21
2181.560622295194
 31
0.0
  0
LINE
  5
33D6
330
2BBC
100
AcDbEntity
  8
DETAIL
100
AcDbLine
 10
166.5757742480357
 20
2425.960622295195
 30
0.0
 11
166.5757742480357
 21
2197.160622295194
 31
0.0
  0
LINE
  5
33D7
330
2BBC
100
AcDbEntity
  8
SIZE
100
AcDbLine
 10
-168.8242257519657
 20
2518.560622295195
 30
0.0
 11
-310.2819830961951
 21
2518.560622295195
 31
0.0
  0
LINE
  5
33D8
330
2BBC
100
AcDbEntity
  8
SIZE
100
AcDbLine
 10
-145.8242257519657
 20
2181.560622295194
 30
0.0
 11
-310.2819830961951
 21
2181.560622295194
 31
0.0
  0
LINE
  5
33D9
330
2BBC
100
AcDbEntity
  8
SIZE
100
AcDbLine
 10
-290.2819830961951
 20
2506.560622295195
 30
0.0
 11
-290.2819830961951
 21
2193.560622295194
 31
0.0
  0
INSERT
  5
33DA
330
2BBC
100
AcDbEntity
  8
SIZE
100
AcDbBlockReference
  2
_DOTBLANK
 10
-290.2819830961951
 20
2518.560622295195
 30
0.0
 41
12.0
 42
12.0
 43
12.0
 50
90.0
  0
INSERT
  5
33DB
330
2BBC
100
AcDbEntity
  8
SIZE
100
AcDbBlockReference
  2
_DOTBLANK
 10
-290.2819830961951
 20
2181.560622295194
 30
0.0
 41
12.0
 42
12.0
 43
12.0
 50
270.0
  0
MTEXT
  5
33DC
330
2BBC
100
AcDbEntity
  8
SIZE
100
AcDbMText
 10
-332.2819830961951
 20
2350.060622295191
 30
0.0
 40
64.0
 41
0.0
 71
     5
 72
     1
  1
\A1;337
 11
0.0000000000000001
 21
1.0
 31
0.0
 73
     1
 44
1.0
  0
LINE
  5
33DD
330
2BBC
100
AcDbEntity
  8
SIZE
100
AcDbLine
 10
-145.8242257519657
 20
2181.560622295194
 30
0.0
 11
-310.2819830961951
 21
2181.560622295194
 31
0.0
  0
LINE
  5
33DE
330
2BBC
100
AcDbEntity
  8
SIZE
100
AcDbLine
 10
-134.8242257519657
 20
2169.560622295194
 30
0.0
 11
-310.2819830961951
 21
2169.560622295194
 31
0.0
  0
LINE
  5
33DF
330
2BBC
100
AcDbEntity
  8
SIZE
100
AcDbLine
 10
-290.2819830961951
 20
2193.560622295194
 30
0.0
 11
-290.2819830961951
 21
2205.560622295195
 31
0.0
  0
LINE
  5
33E0
330
2BBC
100
AcDbEntity
  8
SIZE
100
AcDbLine
 10
-290.2819830961951
 20
2157.560622295195
 30
0.0
 11
-290.2819830961951
 21
2040.532050866623
 31
0.0
  0
LINE
  5
33E1
330
2BBC
100
AcDbEntity
  8
SIZE
100
AcDbLine
 10
-290.2819830961951
 20
2181.560622295194
 30
0.0
 11
-290.2819830961951
 21
2169.560622295194
 31
0.0
  0
INSERT
  5
33E2
330
2BBC
100
AcDbEntity
  8
SIZE
100
AcDbBlockReference
  2
_DOTBLANK
 10
-290.2819830961951
 20
2181.560622295194
 30
0.0
 41
12.0
 42
12.0
 43
12.0
 50
270.0
  0
INSERT
  5
33E3
330
2BBC
100
AcDbEntity
  8
SIZE
100
AcDbBlockReference
  2
_DOTBLANK
 10
-290.2819830961951
 20
2169.560622295194
 30
0.0
 41
12.0
 42
12.0
 43
12.0
 50
90.0
  0
MTEXT
  5
33E4
330
2BBC
100
AcDbEntity
  8
SIZE
100
AcDbMText
 10
-332.2819830961951
 20
2093.046336580906
 30
0.0
 40
64.0
 41
0.0
 71
     5
 72
     1
  1
\A1;12
 11
0.0000000000000001
 21
1.0
 31
0.0
 73
     1
 44
1.0
  0
LINE
  5
33E5
330
2BBC
100
AcDbEntity
  8
SIZE
100
AcDbLine
 10
231.1757742480343
 20
2518.560622295194
 30
0.0
 11
338.462509068476
 21
2518.560622295194
 31
0.0
  0
LINE
  5
33E6
330
2BBC
100
AcDbEntity
  8
SIZE
100
AcDbLine
 10
231.1757742480343
 20
2506.560622295194
 30
0.0
 11
338.462509068476
 21
2506.560622295194
 31
0.0
  0
LINE
  5
33E7
330
2BBC
100
AcDbEntity
  8
SIZE
100
AcDbLine
 10
318.4625090684761
 20
2530.560622295194
 30
0.0
 11
318.4625090684761
 21
2542.560622295194
 31
0.0
  0
LINE
  5
33E8
330
2BBC
100
AcDbEntity
  8
SIZE
100
AcDbLine
 10
318.4625090684761
 20
2494.560622295194
 30
0.0
 11
318.4625090684761
 21
2377.532050866623
 31
0.0
  0
LINE
  5
33E9
330
2BBC
100
AcDbEntity
  8
SIZE
100
AcDbLine
 10
318.4625090684761
 20
2518.560622295194
 30
0.0
 11
318.4625090684761
 21
2506.560622295194
 31
0.0
  0
INSERT
  5
33EA
330
2BBC
100
AcDbEntity
  8
SIZE
100
AcDbBlockReference
  2
_DOTBLANK
 10
318.4625090684761
 20
2518.560622295194
 30
0.0
 41
12.0
 42
12.0
 43
12.0
 50
270.0
  0
INSERT
  5
33EB
330
2BBC
100
AcDbEntity
  8
SIZE
100
AcDbBlockReference
  2
_DOTBLANK
 10
318.4625090684761
 20
2506.560622295194
 30
0.0
 41
12.0
 42
12.0
 43
12.0
 50
90.0
  0
MTEXT
  5
33EC
330
2BBC
100
AcDbEntity
  8
SIZE
100
AcDbMText
 10
276.462509068476
 20
2430.046336580906
 30
0.0
 40
64.0
 41
0.0
 71
     5
 72
     1
  1
\A1;12
 11
0.0000000000000001
 21
1.0
 31
0.0
 73
     1
 44
1.0
  0
LINE
  5
33ED
330
2BBC
100
AcDbEntity
  8
NOTE
100
AcDbLine
 39
50.0
 10
-143.8242257519657
 20
2518.560622295194
 30
0.0
 11
-118.8242257519657
 21
2518.560622295194
 31
0.0
  0
LINE
  5
33EE
330
2BBC
100
AcDbEntity
  8
NOTE
100
AcDbLine
 39
50.0
 10
186.1757742480341
 20
2518.560622295194
 30
0.0
 11
211.1757742480342
 21
2518.560622295194
 31
0.0
  0
INSERT
  5
33EF
330
2BBC
100
AcDbEntity
  8
NOTE
100
AcDbBlockReference
  2
_OPEN30
 10
-131.3242257519657
 20
2518.560622295194
 30
0.0
 41
11.99999999999906
 42
12.0
 43
12.0
 50
312.6090116116846
1001
ACAD
1000
DSTYLE
1002
{
1070
    41
1040
12.0
1070
    42
1040
20.0
1070
    43
1040
200.0
1070
    44
1040
20.0
1070
    73
1070
     0
1070
    74
1070
     0
1070
    77
1070
     1
1070
    78
1070
     8
1070
   140
1040
64.0
1070
   147
1040
50.0
1070
   172
1070
     1
1070
   174
1070
     1
1070
   275
1070
     0
1070
   284
1070
     0
1070
   285
1070
     0
1070
   286
1070
     0
1070
   341
1005
2C0B
1070
   342
1005
2C09
1002
}
  0
LWPOLYLINE
  5
33F0
330
2BBC
100
AcDbEntity
  8
NOTE
100
AcDbPolyline
 90
        3
 70
     0
 43
0.0
 10
-139.4481265881538
 20
2527.39250970411
 10
-219.19362574422
 20
2614.087717353207
 10
-767.776482887077
 20
2614.087717353207
1001
ACAD
1000
DSTYLE
1002
{
1070
    41
1040
12.0
1070
    42
1040
20.0
1070
    43
1040
200.0
1070
    44
1040
20.0
1070
    73
1070
     0
1070
    74
1070
     0
1070
    77
1070
     1
1070
    78
1070
     8
1070
   140
1040
64.0
1070
   147
1040
50.0
1070
   172
1070
     1
1070
   174
1070
     1
1070
   275
1070
     0
1070
   284
1070
     0
1070
   285
1070
     0
1070
   286
1070
     0
1070
   341
1005
2C0B
1070
   342
1005
2C09
1002
}
  0
TEXT
  5
33F1
330
2BBC
100
AcDbEntity
  8
NOTE
100
AcDbText
 10
-776.0050543156491
 20
2632.087717353208
 30
0.0
 40
64.0
  1
4×φ10取付穴
 41
0.9
100
AcDbText
  0
LINE
  5
33F2
330
2BBC
100
AcDbEntity
  8
OUTLINE
100
AcDbLine
 39
50.0
 10
181.5757742480355
 20
2452.560622295195
 30
0.0
 11
193.1757742480342
 21
2452.560622295195
 31
0.0
  0
LINE
  5
33F3
330
2BBC
100
AcDbEntity
  8
OUTLINE
100
AcDbLine
 39
50.0
 10
-125.8242257519657
 20
2452.560622295195
 30
0.0
 11
-114.2242257519635
 21
2452.560622295195
 31
0.0
  0
LINE
  5
33F4
330
2BBC
100
AcDbEntity
  8
OUTLINE
100
AcDbLine
 10
182.1757742480341
 20
2506.560622295194
 30
0.0
 11
182.1757742480341
 21
2452.560622295195
 31
0.0
  0
LINE
  5
33F5
330
2BBC
100
AcDbEntity
  8
OUTLINE
100
AcDbLine
 10
-143.8242257519657
 20
2506.560622295194
 30
0.0
 11
211.1757742480342
 21
2506.560622295194
 31
0.0
  0
LINE
  5
33F6
330
2BBC
100
AcDbEntity
  8
OUTLINE
100
AcDbLine
 10
-143.8242257519657
 20
2518.560622295194
 30
0.0
 11
-143.8242257519657
 21
2506.560622295194
 31
0.0
  0
LINE
  5
33F7
330
2BBC
100
AcDbEntity
  8
OUTLINE
100
AcDbLine
 10
211.1757742480342
 20
2518.560622295194
 30
0.0
 11
211.1757742480342
 21
2506.560622295194
 31
0.0
  0
LINE
  5
33F8
330
2BBC
100
AcDbEntity
  8
OUTLINE
100
AcDbLine
 10
-114.8242257519657
 20
2441.560622295194
 30
0.0
 11
182.1757742480341
 21
2441.560622295194
 31
0.0
  0
LINE
  5
33F9
330
2BBC
100
AcDbEntity
  8
OUTLINE
100
AcDbLine
 10
181.5757742480355
 20
2452.560622295195
 30
0.0
 11
-114.2242257519635
 21
2452.560622295195
 31
0.0
  0
LINE
  5
33FA
330
2BBC
100
AcDbEntity
  8
OUTLINE
100
AcDbLine
 10
-125.8242257519657
 20
2181.560622295194
 30
0.0
 11
193.1757742480342
 21
2181.560622295194
 31
0.0
  0
LINE
  5
33FB
330
2BBC
100
AcDbEntity
  8
OUTLINE
100
AcDbLine
 10
-114.8242257519657
 20
2169.560622295195
 30
0.0
 11
182.1757742480341
 21
2169.560622295194
 31
0.0
  0
LINE
  5
33FC
330
2BBC
100
AcDbEntity
  8
OUTLINE
100
AcDbLine
 10
-114.8242257519657
 20
2441.560622295194
 30
0.0
 11
-114.8242257519657
 21
2169.560622295194
 31
0.0
  0
LINE
  5
33FD
330
2BBC
100
AcDbEntity
  8
OUTLINE
100
AcDbLine
 10
-125.8242257519657
 20
2452.560622295195
 30
0.0
 11
-125.8242257519657
 21
2181.560622295194
 31
0.0
  0
LINE
  5
33FE
330
2BBC
100
AcDbEntity
  8
OUTLINE
100
AcDbLine
 10
182.1757742480341
 20
2441.560622295194
 30
0.0
 11
182.1757742480341
 21
2169.560622295194
 31
0.0
  0
LINE
  5
33FF
330
2BBC
100
AcDbEntity
  8
OUTLINE
100
AcDbLine
 10
193.1757742480342
 20
2452.560622295195
 30
0.0
 11
193.1757742480342
 21
2181.560622295194
 31
0.0
  0
LINE
  5
3400
330
2BBC
100
AcDbEntity
  8
OUTLINE
100
AcDbLine
 39
50.0
 10
-143.8242257519657
 20
2518.560622295194
 30
0.0
 11
211.1757742480342
 21
2518.560622295194
 31
0.0
  0
LINE
  5
3401
330
2BBC
100
AcDbEntity
  8
OUTLINE
100
AcDbLine
 10
-114.8242257519657
 20
2506.560622295194
 30
0.0
 11
-114.8242257519657
 21
2452.560622295195
 31
0.0
  0
LINE
  5
3402
330
2BBC
100
AcDbEntity
  8
DETAIL
100
AcDbLine
 10
-99.22422575197449
 20
2425.388842849781
 30
0.0
 11
-98.36655439377388
 21
2425.960622295193
 31
0.0
1001
ACAD
1010
0.0
1020
0.0
1030
0.0
1001
ACADANNOTATIVE
1000
AnnotativeData
1002
{
1070
     1
1070
     1
1002
}
  0
LINE
  5
3403
330
2BBC
100
AcDbEntity
  8
DETAIL
100
AcDbLine
 10
-99.22422575197813
 20
2422.388876314367
 30
0.0
 11
-93.86659309988932
 21
2425.960622295193
 31
0.0
1001
ACAD
1010
0.0
1020
0.0
1030
0.0
1001
ACADANNOTATIVE
1000
AnnotativeData
1002
{
1070
     1
1070
     1
1002
}
  0
LINE
  5
3404
330
2BBC
100
AcDbEntity
  8
DETAIL
100
AcDbLine
 10
-99.22422575197449
 20
2419.388909778951
 30
0.0
 11
-89.36663180600111
 21
2425.960622295193
 31
0.0
1001
ACAD
1010
0.0
1020
0.0
1030
0.0
1001
ACADANNOTATIVE
1000
AnnotativeData
1002
{
1070
     1
1070
     1
1002
}
  0
LINE
  5
3405
330
2BBC
100
AcDbEntity
  8
DETAIL
100
AcDbLine
 10
-99.22422575197813
 20
2416.388943243533
 30
0.0
 11
-84.8666705121202
 21
2425.960622295192
 31
0.0
1001
ACAD
1010
0.0
1020
0.0
1030
0.0
1001
ACADANNOTATIVE
1000
AnnotativeData
1002
{
1070
     1
1070
     1
1002
}
  0
LINE
  5
3406
330
2BBC
100
AcDbEntity
  8
DETAIL
100
AcDbLine
 10
-99.22422575197813
 20
2413.388976708115
 30
0.0
 11
-80.36670921823201
 21
2425.960622295192
 31
0.0
1001
ACAD
1010
0.0
1020
0.0
1030
0.0
1001
ACADANNOTATIVE
1000
AnnotativeData
1002
{
1070
     1
1070
     1
1002
}
  0
LINE
  5
3407
330
2BBC
100
AcDbEntity
  8
DETAIL
100
AcDbLine
 10
-99.22422575197813
 20
2410.389010172699
 30
0.0
 11
-75.86674792435109
 21
2425.960622295192
 31
0.0
1001
ACAD
1010
0.0
1020
0.0
1030
0.0
1001
ACADANNOTATIVE
1000
AnnotativeData
1002
{
1070
     1
1070
     1
1002
}
  0
LINE
  5
3408
330
2BBC
100
AcDbEntity
  8
DETAIL
100
AcDbLine
 10
-99.22422575197813
 20
2407.389043637284
 30
0.0
 11
-71.36678663045926
 21
2425.960622295195
 31
0.0
1001
ACAD
1010
0.0
1020
0.0
1030
0.0
1001
ACADANNOTATIVE
1000
AnnotativeData
1002
{
1070
     1
1070
     1
1002
}
  0
LINE
  5
3409
330
2BBC
100
AcDbEntity
  8
DETAIL
100
AcDbLine
 10
-99.22422575197813
 20
2404.389077101867
 30
0.0
 11
-66.86682533657472
 21
2425.960622295192
 31
0.0
1001
ACAD
1010
0.0
1020
0.0
1030
0.0
1001
ACADANNOTATIVE
1000
AnnotativeData
1002
{
1070
     1
1070
     1
1002
}
  0
LINE
  5
340A
330
2BBC
100
AcDbEntity
  8
DETAIL
100
AcDbLine
 10
-99.22422575197813
 20
2401.38911056645
 30
0.0
 11
-62.36686404269017
 21
2425.960622295192
 31
0.0
1001
ACAD
1010
0.0
1020
0.0
1030
0.0
1001
ACADANNOTATIVE
1000
AnnotativeData
1002
{
1070
     1
1070
     1
1002
}
  0
LINE
  5
340B
330
2BBC
100
AcDbEntity
  8
DETAIL
100
AcDbLine
 10
-99.22422575197449
 20
2398.389144031036
 30
0.0
 11
-57.86690274880561
 21
2425.960622295192
 31
0.0
1001
ACAD
1010
0.0
1020
0.0
1030
0.0
1001
ACADANNOTATIVE
1000
AnnotativeData
1002
{
1070
     1
1070
     1
1002
}
  0
LINE
  5
340C
330
2BBC
100
AcDbEntity
  8
DETAIL
100
AcDbLine
 10
-99.22422575197813
 20
2395.389177495619
 30
0.0
 11
-53.36694145492106
 21
2425.960622295193
 31
0.0
1001
ACAD
1010
0.0
1020
0.0
1030
0.0
1001
ACADANNOTATIVE
1000
AnnotativeData
1002
{
1070
     1
1070
     1
1002
}
  0
LINE
  5
340D
330
2BBC
100
AcDbEntity
  8
DETAIL
100
AcDbLine
 10
-99.22422575197813
 20
2392.389210960202
 30
0.0
 11
-49.22422575197082
 21
2425.722459176059
 31
0.0
1001
ACAD
1010
0.0
1020
0.0
1030
0.0
1001
ACADANNOTATIVE
1000
AnnotativeData
1002
{
1070
     1
1070
     1
1002
}
  0
LINE
  5
340E
330
2BBC
100
AcDbEntity
  8
DETAIL
100
AcDbLine
 10
-49.22422575197082
 20
2425.722459176059
 30
0.0
 11
-48.8669801610365
 21
2425.960622295192
 31
0.0
1001
ACAD
1010
0.0
1020
0.0
1030
0.0
1001
ACADANNOTATIVE
1000
AnnotativeData
1002
{
1070
     1
1070
     1
1002
}
  0
LINE
  5
340F
330
2BBC
100
AcDbEntity
  8
DETAIL
100
AcDbLine
 10
-99.22422575197813
 20
2389.389244424785
 30
0.0
 11
-49.22422575197447
 21
2422.72249264064
 31
0.0
1001
ACAD
1010
0.0
1020
0.0
1030
0.0
1001
ACADANNOTATIVE
1000
AnnotativeData
1002
{
1070
     1
1070
     1
1002
}
  0
LINE
  5
3410
330
2BBC
100
AcDbEntity
  8
DETAIL
100
AcDbLine
 10
-49.22422575197447
 20
2422.72249264064
 30
0.0
 11
-44.36701886715195
 21
2425.96062229519
 31
0.0
1001
ACAD
1010
0.0
1020
0.0
1030
0.0
1001
ACADANNOTATIVE
1000
AnnotativeData
1002
{
1070
     1
1070
     1
1002
}
  0
LINE
  5
3411
330
2BBC
100
AcDbEntity
  8
DETAIL
100
AcDbLine
 10
-99.22422575197813
 20
2386.38927788937
 30
0.0
 11
-49.22422575197447
 21
2419.722526105225
 31
0.0
1001
ACAD
1010
0.0
1020
0.0
1030
0.0
1001
ACADANNOTATIVE
1000
AnnotativeData
1002
{
1070
     1
1070
     1
1002
}
  0
LINE
  5
3412
330
2BBC
100
AcDbEntity
  8
DETAIL
100
AcDbLine
 10
-49.22422575197447
 20
2419.722526105225
 30
0.0
 11
-39.86705757326376
 21
2425.960622295192
 31
0.0
1001
ACAD
1010
0.0
1020
0.0
1030
0.0
1001
ACADANNOTATIVE
1000
AnnotativeData
1002
{
1070
     1
1070
     1
1002
}
  0
LINE
  5
3413
330
2BBC
100
AcDbEntity
  8
DETAIL
100
AcDbLine
 10
-99.22422575197813
 20
2383.389311353957
 30
0.0
 11
-49.22422575197082
 21
2416.722559569809
 31
0.0
1001
ACAD
1010
0.0
1020
0.0
1030
0.0
1001
ACADANNOTATIVE
1000
AnnotativeData
1002
{
1070
     1
1070
     1
1002
}
  0
LINE
  5
3414
330
2BBC
100
AcDbEntity
  8
DETAIL
100
AcDbLine
 10
-49.22422575197082
 20
2416.722559569809
 30
0.0
 11
-35.36709627937921
 21
2425.960622295192
 31
0.0
1001
ACAD
1010
0.0
1020
0.0
1030
0.0
1001
ACADANNOTATIVE
1000
AnnotativeData
1002
{
1070
     1
1070
     1
1002
}
  0
LINE
  5
3415
330
2BBC
100
AcDbEntity
  8
DETAIL
100
AcDbLine
 10
-99.22422575197813
 20
2380.389344818537
 30
0.0
 11
-49.22422575197447
 21
2413.722593034392
 31
0.0
1001
ACAD
1010
0.0
1020
0.0
1030
0.0
1001
ACADANNOTATIVE
1000
AnnotativeData
1002
{
1070
     1
1070
     1
1002
}
  0
LINE
  5
3416
330
2BBC
100
AcDbEntity
  8
DETAIL
100
AcDbLine
 10
-49.22422575197447
 20
2413.722593034392
 30
0.0
 11
-30.86713498549466
 21
2425.960622295192
 31
0.0
1001
ACAD
1010
0.0
1020
0.0
1030
0.0
1001
ACADANNOTATIVE
1000
AnnotativeData
1002
{
1070
     1
1070
     1
1002
}
  0
LINE
  5
3417
330
2BBC
100
AcDbEntity
  8
DETAIL
100
AcDbLine
 10
-99.22422575197813
 20
2377.389378283122
 30
0.0
 11
-49.22422575197082
 21
2410.722626498977
 31
0.0
1001
ACAD
1010
0.0
1020
0.0
1030
0.0
1001
ACADANNOTATIVE
1000
AnnotativeData
1002
{
1070
     1
1070
     1
1002
}
  0
LINE
  5
3418
330
2BBC
100
AcDbEntity
  8
DETAIL
100
AcDbLine
 10
-49.22422575197082
 20
2410.722626498977
 30
0.0
 11
-26.36717369160647
 21
2425.960622295192
 31
0.0
1001
ACAD
1010
0.0
1020
0.0
1030
0.0
1001
ACADANNOTATIVE
1000
AnnotativeData
1002
{
1070
     1
1070
     1
1002
}
  0
LINE
  5
3419
330
2BBC
100
AcDbEntity
  8
DETAIL
100
AcDbLine
 10
-99.22422575197813
 20
2374.389411747703
 30
0.0
 11
-49.22422575197447
 21
2407.722659963559
 31
0.0
1001
ACAD
1010
0.0
1020
0.0
1030
0.0
1001
ACADANNOTATIVE
1000
AnnotativeData
1002
{
1070
     1
1070
     1
1002
}
  0
LINE
  5
341A
330
2BBC
100
AcDbEntity
  8
DETAIL
100
AcDbLine
 10
-49.22422575197447
 20
2407.722659963559
 30
0.0
 11
-21.86721239772191
 21
2425.96062229519
 31
0.0
1001
ACAD
1010
0.0
1020
0.0
1030
0.0
1001
ACADANNOTATIVE
1000
AnnotativeData
1002
{
1070
     1
1070
     1
1002
}
  0
LINE
  5
341B
330
2BBC
100
AcDbEntity
  8
DETAIL
100
AcDbLine
 10
-99.22422575197813
 20
2371.38944521229
 30
0.0
 11
-49.22422575197082
 21
2404.722693428146
 31
0.0
1001
ACAD
1010
0.0
1020
0.0
1030
0.0
1001
ACADANNOTATIVE
1000
AnnotativeData
1002
{
1070
     1
1070
     1
1002
}
  0
LINE
  5
341C
330
2BBC
100
AcDbEntity
  8
DETAIL
100
AcDbLine
 10
-49.22422575197082
 20
2404.722693428146
 30
0.0
 11
-17.36725110383735
 21
2425.96062229519
 31
0.0
1001
ACAD
1010
0.0
1020
0.0
1030
0.0
1001
ACADANNOTATIVE
1000
AnnotativeData
1002
{
1070
     1
1070
     1
1002
}
  0
LINE
  5
341D
330
2BBC
100
AcDbEntity
  8
DETAIL
100
AcDbLine
 10
-99.22422575197813
 20
2368.389478676874
 30
0.0
 11
-49.22422575197447
 21
2401.722726892727
 31
0.0
1001
ACAD
1010
0.0
1020
0.0
1030
0.0
1001
ACADANNOTATIVE
1000
AnnotativeData
1002
{
1070
     1
1070
     1
1002
}
  0
LINE
  5
341E
330
2BBC
100
AcDbEntity
  8
DETAIL
100
AcDbLine
 10
-49.22422575197447
 20
2401.722726892727
 30
0.0
 11
-12.86728980995281
 21
2425.960622295192
 31
0.0
1001
ACAD
1010
0.0
1020
0.0
1030
0.0
1001
ACADANNOTATIVE
1000
AnnotativeData
1002
{
1070
     1
1070
     1
1002
}
  0
LINE
  5
341F
330
2BBC
100
AcDbEntity
  8
DETAIL
100
AcDbLine
 10
-99.22422575197449
 20
2365.389512141457
 30
0.0
 11
-49.22422575197082
 21
2398.722760357312
 31
0.0
1001
ACAD
1010
0.0
1020
0.0
1030
0.0
1001
ACADANNOTATIVE
1000
AnnotativeData
1002
{
1070
     1
1070
     1
1002
}
  0
LINE
  5
3420
330
2BBC
100
AcDbEntity
  8
DETAIL
100
AcDbLine
 10
-49.22422575197082
 20
2398.722760357312
 30
0.0
 11
-8.367328516068255
 21
2425.960622295192
 31
0.0
1001
ACAD
1010
0.0
1020
0.0
1030
0.0
1001
ACADANNOTATIVE
1000
AnnotativeData
1002
{
1070
     1
1070
     1
1002
}
  0
LINE
  5
3421
330
2BBC
100
AcDbEntity
  8
DETAIL
100
AcDbLine
 10
-99.22422575197813
 20
2362.38954560604
 30
0.0
 11
-49.22422575197447
 21
2395.722793821895
 31
0.0
1001
ACAD
1010
0.0
1020
0.0
1030
0.0
1001
ACADANNOTATIVE
1000
AnnotativeData
1002
{
1070
     1
1070
     1
1002
}
  0
LINE
  5
3422
330
2BBC
100
AcDbEntity
  8
DETAIL
100
AcDbLine
 10
-49.22422575197447
 20
2395.722793821895
 30
0.0
 11
-3.867367222180062
 21
2425.960622295192
 31
0.0
1001
ACAD
1010
0.0
1020
0.0
1030
0.0
1001
ACADANNOTATIVE
1000
AnnotativeData
1002
{
1070
     1
1070
     1
1002
}
  0
LINE
  5
3423
330
2BBC
100
AcDbEntity
  8
DETAIL
100
AcDbLine
 10
-99.22422575197813
 20
2359.389579070623
 30
0.0
 11
-49.22422575197082
 21
2392.72282728648
 31
0.0
1001
ACAD
1010
0.0
1020
0.0
1030
0.0
1001
ACADANNOTATIVE
1000
AnnotativeData
1002
{
1070
     1
1070
     1
1002
}
  0
LINE
  5
3424
330
2BBC
100
AcDbEntity
  8
DETAIL
100
AcDbLine
 10
-49.22422575197082
 20
2392.72282728648
 30
0.0
 11
0.6325940717044887
 21
2425.96062229519
 31
0.0
1001
ACAD
1010
0.0
1020
0.0
1030
0.0
1001
ACADANNOTATIVE
1000
AnnotativeData
1002
{
1070
     1
1070
     1
1002
}
  0
LINE
  5
3425
330
2BBC
100
AcDbEntity
  8
DETAIL
100
AcDbLine
 10
-99.22422575197813
 20
2356.38961253521
 30
0.0
 11
-49.22422575197082
 21
2389.722860751064
 31
0.0
1001
ACAD
1010
0.0
1020
0.0
1030
0.0
1001
ACADANNOTATIVE
1000
AnnotativeData
1002
{
1070
     1
1070
     1
1002
}
  0
LINE
  5
3426
330
2BBC
100
AcDbEntity
  8
DETAIL
100
AcDbLine
 10
-49.22422575197082
 20
2389.722860751064
 30
0.0
 11
5.132555365592676
 21
2425.960622295193
 31
0.0
1001
ACAD
1010
0.0
1020
0.0
1030
0.0
1001
ACADANNOTATIVE
1000
AnnotativeData
1002
{
1070
     1
1070
     1
1002
}
  0
LINE
  5
3427
330
2BBC
100
AcDbEntity
  8
DETAIL
100
AcDbLine
 10
-99.22422575197813
 20
2353.389645999792
 30
0.0
 11
-49.22422575197447
 21
2386.722894215646
 31
0.0
1001
ACAD
1010
0.0
1020
0.0
1030
0.0
1001
ACADANNOTATIVE
1000
AnnotativeData
1002
{
1070
     1
1070
     1
1002
}
  0
LINE
  5
3428
330
2BBC
100
AcDbEntity
  8
DETAIL
100
AcDbLine
 10
-49.22422575197447
 20
2386.722894215646
 30
0.0
 11
9.632516659477232
 21
2425.960622295192
 31
0.0
1001
ACAD
1010
0.0
1020
0.0
1030
0.0
1001
ACADANNOTATIVE
1000
AnnotativeData
1002
{
1070
     1
1070
     1
1002
}
  0
LINE
  5
3429
330
2BBC
100
AcDbEntity
  8
DETAIL
100
AcDbLine
 10
-99.22422575197449
 20
2350.389679464375
 30
0.0
 11
-49.22422575197082
 21
2383.72292768023
 31
0.0
1001
ACAD
1010
0.0
1020
0.0
1030
0.0
1001
ACADANNOTATIVE
1000
AnnotativeData
1002
{
1070
     1
1070
     1
1002
}
  0
LINE
  5
342A
330
2BBC
100
AcDbEntity
  8
DETAIL
100
AcDbLine
 10
-49.22422575197082
 20
2383.72292768023
 30
0.0
 11
14.13247795336178
 21
2425.960622295192
 31
0.0
1001
ACAD
1010
0.0
1020
0.0
1030
0.0
1001
ACADANNOTATIVE
1000
AnnotativeData
1002
{
1070
     1
1070
     1
1002
}
  0
LINE
  5
342B
330
2BBC
100
AcDbEntity
  8
DETAIL
100
AcDbLine
 10
-99.22422575197813
 20
2347.38971292896
 30
0.0
 11
-49.22422575197447
 21
2380.722961144813
 31
0.0
1001
ACAD
1010
0.0
1020
0.0
1030
0.0
1001
ACADANNOTATIVE
1000
AnnotativeData
1002
{
1070
     1
1070
     1
1002
}
  0
LINE
  5
342C
330
2BBC
100
AcDbEntity
  8
DETAIL
100
AcDbLine
 10
-49.22422575197447
 20
2380.722961144813
 30
0.0
 11
18.63243924724634
 21
2425.960622295192
 31
0.0
1001
ACAD
1010
0.0
1020
0.0
1030
0.0
1001
ACADANNOTATIVE
1000
AnnotativeData
1002
{
1070
     1
1070
     1
1002
}
  0
LINE
  5
342D
330
2BBC
100
AcDbEntity
  8
DETAIL
100
AcDbLine
 10
-99.22422575197449
 20
2344.389746393545
 30
0.0
 11
-49.22422575197082
 21
2377.722994609399
 31
0.0
1001
ACAD
1010
0.0
1020
0.0
1030
0.0
1001
ACADANNOTATIVE
1000
AnnotativeData
1002
{
1070
     1
1070
     1
1002
}
  0
LINE
  5
342E
330
2BBC
100
AcDbEntity
  8
DETAIL
100
AcDbLine
 10
-49.22422575197082
 20
2377.722994609399
 30
0.0
 11
23.13240054113089
 21
2425.960622295192
 31
0.0
1001
ACAD
1010
0.0
1020
0.0
1030
0.0
1001
ACADANNOTATIVE
1000
AnnotativeData
1002
{
1070
     1
1070
     1
1002
}
  0
LINE
  5
342F
330
2BBC
100
AcDbEntity
  8
DETAIL
100
AcDbLine
 10
-99.22422575197813
 20
2341.389779858127
 30
0.0
 11
-49.22422575197447
 21
2374.723028073983
 31
0.0
1001
ACAD
1010
0.0
1020
0.0
1030
0.0
1001
ACADANNOTATIVE
1000
AnnotativeData
1002
{
1070
     1
1070
     1
1002
}
  0
LINE
  5
3430
330
2BBC
100
AcDbEntity
  8
DETAIL
100
AcDbLine
 10
-49.22422575197447
 20
2374.723028073983
 30
0.0
 11
27.63236183501908
 21
2425.960622295192
 31
0.0
1001
ACAD
1010
0.0
1020
0.0
1030
0.0
1001
ACADANNOTATIVE
1000
AnnotativeData
1002
{
1070
     1
1070
     1
1002
}
  0
LINE
  5
3431
330
2BBC
100
AcDbEntity
  8
DETAIL
100
AcDbLine
 10
-99.22422575198178
 20
2338.389813322709
 30
0.0
 11
-49.22422575197082
 21
2371.723061538565
 31
0.0
1001
ACAD
1010
0.0
1020
0.0
1030
0.0
1001
ACADANNOTATIVE
1000
AnnotativeData
1002
{
1070
     1
1070
     1
1002
}
  0
LINE
  5
3432
330
2BBC
100
AcDbEntity
  8
DETAIL
100
AcDbLine
 10
-49.22422575197082
 20
2371.723061538565
 30
0.0
 11
32.1323231289
 21
2425.96062229519
 31
0.0
1001
ACAD
1010
0.0
1020
0.0
1030
0.0
1001
ACADANNOTATIVE
1000
AnnotativeData
1002
{
1070
     1
1070
     1
1002
}
  0
LINE
  5
3433
330
2BBC
100
AcDbEntity
  8
DETAIL
100
AcDbLine
 10
-99.22422575197449
 20
2335.389846787293
 30
0.0
 11
-49.22422575197447
 21
2368.723095003148
 31
0.0
1001
ACAD
1010
0.0
1020
0.0
1030
0.0
1001
ACADANNOTATIVE
1000
AnnotativeData
1002
{
1070
     1
1070
     1
1002
}
  0
LINE
  5
3434
330
2BBC
100
AcDbEntity
  8
DETAIL
100
AcDbLine
 10
-49.22422575197447
 20
2368.723095003148
 30
0.0
 11
36.63228442279183
 21
2425.96062229519
 31
0.0
1001
ACAD
1010
0.0
1020
0.0
1030
0.0
1001
ACADANNOTATIVE
1000
AnnotativeData
1002
{
1070
     1
1070
     1
1002
}
  0
LINE
  5
3435
330
2BBC
100
AcDbEntity
  8
DETAIL
100
AcDbLine
 10
-99.22422575197813
 20
2332.389880251878
 30
0.0
 11
-49.22422575197447
 21
2365.723128467731
 31
0.0
1001
ACAD
1010
0.0
1020
0.0
1030
0.0
1001
ACADANNOTATIVE
1000
AnnotativeData
1002
{
1070
     1
1070
     1
1002
}
  0
LINE
  5
3436
330
2BBC
100
AcDbEntity
  8
DETAIL
100
AcDbLine
 10
-49.22422575197447
 20
2365.723128467731
 30
0.0
 11
41.13224571667638
 21
2425.960622295192
 31
0.0
1001
ACAD
1010
0.0
1020
0.0
1030
0.0
1001
ACADANNOTATIVE
1000
AnnotativeData
1002
{
1070
     1
1070
     1
1002
}
  0
LINE
  5
3437
330
2BBC
100
AcDbEntity
  8
DETAIL
100
AcDbLine
 10
-99.22422575197449
 20
2329.389913716463
 30
0.0
 11
-49.22422575197447
 21
2362.723161932318
 31
0.0
1001
ACAD
1010
0.0
1020
0.0
1030
0.0
1001
ACADANNOTATIVE
1000
AnnotativeData
1002
{
1070
     1
1070
     1
1002
}
  0
LINE
  5
3438
330
2BBC
100
AcDbEntity
  8
DETAIL
100
AcDbLine
 10
-49.22422575197447
 20
2362.723161932318
 30
0.0
 11
45.63220701056093
 21
2425.960622295192
 31
0.0
1001
ACAD
1010
0.0
1020
0.0
1030
0.0
1001
ACADANNOTATIVE
1000
AnnotativeData
1002
{
1070
     1
1070
     1
1002
}
  0
LINE
  5
3439
330
2BBC
100
AcDbEntity
  8
DETAIL
100
AcDbLine
 10
-99.22422575197813
 20
2326.389947181045
 30
0.0
 11
-49.22422575197447
 21
2359.723195396901
 31
0.0
1001
ACAD
1010
0.0
1020
0.0
1030
0.0
1001
ACADANNOTATIVE
1000
AnnotativeData
1002
{
1070
     1
1070
     1
1002
}
  0
LINE
  5
343A
330
2BBC
100
AcDbEntity
  8
DETAIL
100
AcDbLine
 10
-49.22422575197447
 20
2359.723195396901
 30
0.0
 11
50.13216830444548
 21
2425.96062229519
 31
0.0
1001
ACAD
1010
0.0
1020
0.0
1030
0.0
1001
ACADANNOTATIVE
1000
AnnotativeData
1002
{
1070
     1
1070
     1
1002
}
  0
LINE
  5
343B
330
2BBC
100
AcDbEntity
  8
DETAIL
100
AcDbLine
 10
-99.22422575197449
 20
2323.389980645631
 30
0.0
 11
-49.22422575197447
 21
2356.723228861483
 31
0.0
1001
ACAD
1010
0.0
1020
0.0
1030
0.0
1001
ACADANNOTATIVE
1000
AnnotativeData
1002
{
1070
     1
1070
     1
1002
}
  0
LINE
  5
343C
330
2BBC
100
AcDbEntity
  8
DETAIL
100
AcDbLine
 10
-49.22422575197447
 20
2356.723228861483
 30
0.0
 11
54.63212959833367
 21
2425.960622295192
 31
0.0
1001
ACAD
1010
0.0
1020
0.0
1030
0.0
1001
ACADANNOTATIVE
1000
AnnotativeData
1002
{
1070
     1
1070
     1
1002
}
  0
LINE
  5
343D
330
2BBC
100
AcDbEntity
  8
DETAIL
100
AcDbLine
 10
-99.22422575197813
 20
2320.390014110213
 30
0.0
 11
-49.22422575197447
 21
2353.723262326068
 31
0.0
1001
ACAD
1010
0.0
1020
0.0
1030
0.0
1001
ACADANNOTATIVE
1000
AnnotativeData
1002
{
1070
     1
1070
     1
1002
}
  0
LINE
  5
343E
330
2BBC
100
AcDbEntity
  8
DETAIL
100
AcDbLine
 10
-49.22422575197447
 20
2353.723262326068
 30
0.0
 11
59.13209089221822
 21
2425.960622295192
 31
0.0
1001
ACAD
1010
0.0
1020
0.0
1030
0.0
1001
ACADANNOTATIVE
1000
AnnotativeData
1002
{
1070
     1
1070
     1
1002
}
  0
LINE
  5
343F
330
2BBC
100
AcDbEntity
  8
DETAIL
100
AcDbLine
 10
-99.22422575197449
 20
2317.3900475748
 30
0.0
 11
-49.22422575197082
 21
2350.723295790653
 31
0.0
1001
ACAD
1010
0.0
1020
0.0
1030
0.0
1001
ACADANNOTATIVE
1000
AnnotativeData
1002
{
1070
     1
1070
     1
1002
}
  0
LINE
  5
3440
330
2BBC
100
AcDbEntity
  8
DETAIL
100
AcDbLine
 10
-49.22422575197082
 20
2350.723295790653
 30
0.0
 11
63.63205218610278
 21
2425.960622295193
 31
0.0
1001
ACAD
1010
0.0
1020
0.0
1030
0.0
1001
ACADANNOTATIVE
1000
AnnotativeData
1002
{
1070
     1
1070
     1
1002
}
  0
LINE
  5
3441
330
2BBC
100
AcDbEntity
  8
DETAIL
100
AcDbLine
 10
-99.22422575197813
 20
2314.39008103938
 30
0.0
 11
-49.22422575197447
 21
2347.723329255236
 31
0.0
1001
ACAD
1010
0.0
1020
0.0
1030
0.0
1001
ACADANNOTATIVE
1000
AnnotativeData
1002
{
1070
     1
1070
     1
1002
}
  0
LINE
  5
3442
330
2BBC
100
AcDbEntity
  8
DETAIL
100
AcDbLine
 10
-49.22422575197447
 20
2347.723329255236
 30
0.0
 11
68.13201347998735
 21
2425.96062229519
 31
0.0
1001
ACAD
1010
0.0
1020
0.0
1030
0.0
1001
ACADANNOTATIVE
1000
AnnotativeData
1002
{
1070
     1
1070
     1
1002
}
  0
LINE
  5
3443
330
2BBC
100
AcDbEntity
  8
DETAIL
100
AcDbLine
 10
-99.22422575197449
 20
2311.390114503966
 30
0.0
 11
-49.22422575197447
 21
2344.723362719818
 31
0.0
1001
ACAD
1010
0.0
1020
0.0
1030
0.0
1001
ACADANNOTATIVE
1000
AnnotativeData
1002
{
1070
     1
1070
     1
1002
}
  0
LINE
  5
3444
330
2BBC
100
AcDbEntity
  8
DETAIL
100
AcDbLine
 10
-49.22422575197447
 20
2344.723362719818
 30
0.0
 11
72.63197477387189
 21
2425.96062229519
 31
0.0
1001
ACAD
1010
0.0
1020
0.0
1030
0.0
1001
ACADANNOTATIVE
1000
AnnotativeData
1002
{
1070
     1
1070
     1
1002
}
  0
LINE
  5
3445
330
2BBC
100
AcDbEntity
  8
DETAIL
100
AcDbLine
 10
-99.22422575197813
 20
2308.390147968548
 30
0.0
 11
-49.22422575197447
 21
2341.723396184403
 31
0.0
1001
ACAD
1010
0.0
1020
0.0
1030
0.0
1001
ACADANNOTATIVE
1000
AnnotativeData
1002
{
1070
     1
1070
     1
1002
}
  0
LINE
  5
3446
330
2BBC
100
AcDbEntity
  8
DETAIL
100
AcDbLine
 10
-49.22422575197447
 20
2341.723396184403
 30
0.0
 11
77.13193606776008
 21
2425.960622295192
 31
0.0
1001
ACAD
1010
0.0
1020
0.0
1030
0.0
1001
ACADANNOTATIVE
1000
AnnotativeData
1002
{
1070
     1
1070
     1
1002
}
  0
LINE
  5
3447
330
2BBC
100
AcDbEntity
  8
DETAIL
100
AcDbLine
 10
-99.22422575197813
 20
2305.390181433133
 30
0.0
 11
-49.22422575197447
 21
2338.723429648988
 31
0.0
1001
ACAD
1010
0.0
1020
0.0
1030
0.0
1001
ACADANNOTATIVE
1000
AnnotativeData
1002
{
1070
     1
1070
     1
1002
}
  0
LINE
  5
3448
330
2BBC
100
AcDbEntity
  8
DETAIL
100
AcDbLine
 10
-49.22422575197447
 20
2338.723429648988
 30
0.0
 11
81.6318973616446
 21
2425.960622295192
 31
0.0
1001
ACAD
1010
0.0
1020
0.0
1030
0.0
1001
ACADANNOTATIVE
1000
AnnotativeData
1002
{
1070
     1
1070
     1
1002
}
  0
LINE
  5
3449
330
2BBC
100
AcDbEntity
  8
DETAIL
100
AcDbLine
 10
-99.22422575197813
 20
2302.390214897718
 30
0.0
 11
-49.22422575197447
 21
2335.723463113571
 31
0.0
1001
ACAD
1010
0.0
1020
0.0
1030
0.0
1001
ACADANNOTATIVE
1000
AnnotativeData
1002
{
1070
     1
1070
     1
1002
}
  0
LINE
  5
344A
330
2BBC
100
AcDbEntity
  8
DETAIL
100
AcDbLine
 10
-49.22422575197447
 20
2335.723463113571
 30
0.0
 11
86.13185865552919
 21
2425.960622295192
 31
0.0
1001
ACAD
1010
0.0
1020
0.0
1030
0.0
1001
ACADANNOTATIVE
1000
AnnotativeData
1002
{
1070
     1
1070
     1
1002
}
  0
LINE
  5
344B
330
2BBC
100
AcDbEntity
  8
DETAIL
100
AcDbLine
 10
-99.22422575197813
 20
2299.390248362299
 30
0.0
 11
-49.22422575197447
 21
2332.723496578154
 31
0.0
1001
ACAD
1010
0.0
1020
0.0
1030
0.0
1001
ACADANNOTATIVE
1000
AnnotativeData
1002
{
1070
     1
1070
     1
1002
}
  0
LINE
  5
344C
330
2BBC
100
AcDbEntity
  8
DETAIL
100
AcDbLine
 10
-49.22422575197447
 20
2332.723496578154
 30
0.0
 11
90.63181994941372
 21
2425.96062229519
 31
0.0
1001
ACAD
1010
0.0
1020
0.0
1030
0.0
1001
ACADANNOTATIVE
1000
AnnotativeData
1002
{
1070
     1
1070
     1
1002
}
  0
LINE
  5
344D
330
2BBC
100
AcDbEntity
  8
DETAIL
100
AcDbLine
 10
-99.22422575197813
 20
2296.390281826884
 30
0.0
 11
-49.22422575197082
 21
2329.723530042739
 31
0.0
1001
ACAD
1010
0.0
1020
0.0
1030
0.0
1001
ACADANNOTATIVE
1000
AnnotativeData
1002
{
1070
     1
1070
     1
1002
}
  0
LINE
  5
344E
330
2BBC
100
AcDbEntity
  8
DETAIL
100
AcDbLine
 10
-49.22422575197082
 20
2329.723530042739
 30
0.0
 11
95.13178124330194
 21
2425.96062229519
 31
0.0
1001
ACAD
1010
0.0
1020
0.0
1030
0.0
1001
ACADANNOTATIVE
1000
AnnotativeData
1002
{
1070
     1
1070
     1
1002
}
  0
LINE
  5
344F
330
2BBC
100
AcDbEntity
  8
DETAIL
100
AcDbLine
 10
-99.22422575197813
 20
2293.390315291466
 30
0.0
 11
-49.22422575197447
 21
2326.723563507322
 31
0.0
1001
ACAD
1010
0.0
1020
0.0
1030
0.0
1001
ACADANNOTATIVE
1000
AnnotativeData
1002
{
1070
     1
1070
     1
1002
}
  0
LINE
  5
3450
330
2BBC
100
AcDbEntity
  8
DETAIL
100
AcDbLine
 10
-49.22422575197447
 20
2326.723563507322
 30
0.0
 11
99.63174253718648
 21
2425.96062229519
 31
0.0
1001
ACAD
1010
0.0
1020
0.0
1030
0.0
1001
ACADANNOTATIVE
1000
AnnotativeData
1002
{
1070
     1
1070
     1
1002
}
  0
LINE
  5
3451
330
2BBC
100
AcDbEntity
  8
DETAIL
100
AcDbLine
 10
-99.22422575197813
 20
2290.390348756053
 30
0.0
 11
-49.22422575197082
 21
2323.723596971908
 31
0.0
1001
ACAD
1010
0.0
1020
0.0
1030
0.0
1001
ACADANNOTATIVE
1000
AnnotativeData
1002
{
1070
     1
1070
     1
1002
}
  0
LINE
  5
3452
330
2BBC
100
AcDbEntity
  8
DETAIL
100
AcDbLine
 10
-49.22422575197082
 20
2323.723596971908
 30
0.0
 11
104.1317038310747
 21
2425.960622295193
 31
0.0
1001
ACAD
1010
0.0
1020
0.0
1030
0.0
1001
ACADANNOTATIVE
1000
AnnotativeData
1002
{
1070
     1
1070
     1
1002
}
  0
LINE
  5
3453
330
2BBC
100
AcDbEntity
  8
DETAIL
100
AcDbLine
 10
-99.22422575197813
 20
2287.390382220636
 30
0.0
 11
-49.22422575197447
 21
2320.723630436489
 31
0.0
1001
ACAD
1010
0.0
1020
0.0
1030
0.0
1001
ACADANNOTATIVE
1000
AnnotativeData
1002
{
1070
     1
1070
     1
1002
}
  0
LINE
  5
3454
330
2BBC
100
AcDbEntity
  8
DETAIL
100
AcDbLine
 10
-49.22422575197447
 20
2320.723630436489
 30
0.0
 11
108.6316651249592
 21
2425.960622295192
 31
0.0
1001
ACAD
1010
0.0
1020
0.0
1030
0.0
1001
ACADANNOTATIVE
1000
AnnotativeData
1002
{
1070
     1
1070
     1
1002
}
  0
LINE
  5
3455
330
2BBC
100
AcDbEntity
  8
DETAIL
100
AcDbLine
 10
-99.22422575197813
 20
2284.390415685217
 30
0.0
 11
-49.22422575197082
 21
2317.723663901074
 31
0.0
1001
ACAD
1010
0.0
1020
0.0
1030
0.0
1001
ACADANNOTATIVE
1000
AnnotativeData
1002
{
1070
     1
1070
     1
1002
}
  0
LINE
  5
3456
330
2BBC
100
AcDbEntity
  8
DETAIL
100
AcDbLine
 10
-49.22422575197082
 20
2317.723663901074
 30
0.0
 11
113.1316264188438
 21
2425.96062229519
 31
0.0
1001
ACAD
1010
0.0
1020
0.0
1030
0.0
1001
ACADANNOTATIVE
1000
AnnotativeData
1002
{
1070
     1
1070
     1
1002
}
  0
LINE
  5
3457
330
2BBC
100
AcDbEntity
  8
DETAIL
100
AcDbLine
 10
-99.22422575197813
 20
2281.390449149803
 30
0.0
 11
-49.22422575197082
 21
2314.723697365658
 31
0.0
1001
ACAD
1010
0.0
1020
0.0
1030
0.0
1001
ACADANNOTATIVE
1000
AnnotativeData
1002
{
1070
     1
1070
     1
1002
}
  0
LINE
  5
3458
330
2BBC
100
AcDbEntity
  8
DETAIL
100
AcDbLine
 10
-49.22422575197082
 20
2314.723697365658
 30
0.0
 11
117.6315877127283
 21
2425.96062229519
 31
0.0
1001
ACAD
1010
0.0
1020
0.0
1030
0.0
1001
ACADANNOTATIVE
1000
AnnotativeData
1002
{
1070
     1
1070
     1
1002
}
  0
LINE
  5
3459
330
2BBC
100
AcDbEntity
  8
DETAIL
100
AcDbLine
 10
-99.22422575197813
 20
2278.390482614387
 30
0.0
 11
-49.22422575197447
 21
2311.723730830241
 31
0.0
1001
ACAD
1010
0.0
1020
0.0
1030
0.0
1001
ACADANNOTATIVE
1000
AnnotativeData
1002
{
1070
     1
1070
     1
1002
}
  0
LINE
  5
345A
330
2BBC
100
AcDbEntity
  8
DETAIL
100
AcDbLine
 10
-49.22422575197447
 20
2311.723730830241
 30
0.0
 11
122.1315490066201
 21
2425.960622295193
 31
0.0
1001
ACAD
1010
0.0
1020
0.0
1030
0.0
1001
ACADANNOTATIVE
1000
AnnotativeData
1002
{
1070
     1
1070
     1
1002
}
  0
LINE
  5
345B
330
2BBC
100
AcDbEntity
  8
DETAIL
100
AcDbLine
 10
-99.22422575197813
 20
2275.390516078971
 30
0.0
 11
-49.22422575197082
 21
2308.723764294827
 31
0.0
1001
ACAD
1010
0.0
1020
0.0
1030
0.0
1001
ACADANNOTATIVE
1000
AnnotativeData
1002
{
1070
     1
1070
     1
1002
}
  0
LINE
  5
345C
330
2BBC
100
AcDbEntity
  8
DETAIL
100
AcDbLine
 10
-49.22422575197082
 20
2308.723764294827
 30
0.0
 11
126.6315103005011
 21
2425.960622295192
 31
0.0
1001
ACAD
1010
0.0
1020
0.0
1030
0.0
1001
ACADANNOTATIVE
1000
AnnotativeData
1002
{
1070
     1
1070
     1
1002
}
  0
LINE
  5
345D
330
2BBC
100
AcDbEntity
  8
DETAIL
100
AcDbLine
 10
-99.22422575197813
 20
2272.390549543554
 30
0.0
 11
-49.22422575197447
 21
2305.723797759407
 31
0.0
1001
ACAD
1010
0.0
1020
0.0
1030
0.0
1001
ACADANNOTATIVE
1000
AnnotativeData
1002
{
1070
     1
1070
     1
1002
}
  0
LINE
  5
345E
330
2BBC
100
AcDbEntity
  8
DETAIL
100
AcDbLine
 10
-49.22422575197447
 20
2305.723797759407
 30
0.0
 11
131.1314715943892
 21
2425.960622295192
 31
0.0
1001
ACAD
1010
0.0
1020
0.0
1030
0.0
1001
ACADANNOTATIVE
1000
AnnotativeData
1002
{
1070
     1
1070
     1
1002
}
  0
LINE
  5
345F
330
2BBC
100
AcDbEntity
  8
DETAIL
100
AcDbLine
 10
-99.22422575197813
 20
2269.390583008139
 30
0.0
 11
-49.22422575197082
 21
2302.723831223993
 31
0.0
1001
ACAD
1010
0.0
1020
0.0
1030
0.0
1001
ACADANNOTATIVE
1000
AnnotativeData
1002
{
1070
     1
1070
     1
1002
}
  0
LINE
  5
3460
330
2BBC
100
AcDbEntity
  8
DETAIL
100
AcDbLine
 10
-49.22422575197082
 20
2302.723831223993
 30
0.0
 11
135.6314328882701
 21
2425.96062229519
 31
0.0
1001
ACAD
1010
0.0
1020
0.0
1030
0.0
1001
ACADANNOTATIVE
1000
AnnotativeData
1002
{
1070
     1
1070
     1
1002
}
  0
LINE
  5
3461
330
2BBC
100
AcDbEntity
  8
DETAIL
100
AcDbLine
 10
-99.22422575197813
 20
2266.390616472723
 30
0.0
 11
-49.22422575197447
 21
2299.723864688578
 31
0.0
1001
ACAD
1010
0.0
1020
0.0
1030
0.0
1001
ACADANNOTATIVE
1000
AnnotativeData
1002
{
1070
     1
1070
     1
1002
}
  0
LINE
  5
3462
330
2BBC
100
AcDbEntity
  8
DETAIL
100
AcDbLine
 10
-49.22422575197447
 20
2299.723864688578
 30
0.0
 11
140.1313941821584
 21
2425.960622295192
 31
0.0
1001
ACAD
1010
0.0
1020
0.0
1030
0.0
1001
ACADANNOTATIVE
1000
AnnotativeData
1002
{
1070
     1
1070
     1
1002
}
  0
LINE
  5
3463
330
2BBC
100
AcDbEntity
  8
DETAIL
100
AcDbLine
 10
-99.22422575197813
 20
2263.390649937305
 30
0.0
 11
-49.22422575197082
 21
2296.723898153161
 31
0.0
1001
ACAD
1010
0.0
1020
0.0
1030
0.0
1001
ACADANNOTATIVE
1000
AnnotativeData
1002
{
1070
     1
1070
     1
1002
}
  0
LINE
  5
3464
330
2BBC
100
AcDbEntity
  8
DETAIL
100
AcDbLine
 10
-49.22422575197082
 20
2296.723898153161
 30
0.0
 11
144.6313554760429
 21
2425.960622295192
 31
0.0
1001
ACAD
1010
0.0
1020
0.0
1030
0.0
1001
ACADANNOTATIVE
1000
AnnotativeData
1002
{
1070
     1
1070
     1
1002
}
  0
LINE
  5
3465
330
2BBC
100
AcDbEntity
  8
DETAIL
100
AcDbLine
 10
-99.22422575197813
 20
2260.390683401889
 30
0.0
 11
-49.22422575197447
 21
2293.723931617744
 31
0.0
1001
ACAD
1010
0.0
1020
0.0
1030
0.0
1001
ACADANNOTATIVE
1000
AnnotativeData
1002
{
1070
     1
1070
     1
1002
}
  0
LINE
  5
3466
330
2BBC
100
AcDbEntity
  8
DETAIL
100
AcDbLine
 10
-49.22422575197447
 20
2293.723931617744
 30
0.0
 11
149.1313167699274
 21
2425.96062229519
 31
0.0
1001
ACAD
1010
0.0
1020
0.0
1030
0.0
1001
ACADANNOTATIVE
1000
AnnotativeData
1002
{
1070
     1
1070
     1
1002
}
  0
LINE
  5
3467
330
2BBC
100
AcDbEntity
  8
DETAIL
100
AcDbLine
 10
-99.22422575197813
 20
2257.390716866472
 30
0.0
 11
-49.22422575197447
 21
2290.723965082325
 31
0.0
1001
ACAD
1010
0.0
1020
0.0
1030
0.0
1001
ACADANNOTATIVE
1000
AnnotativeData
1002
{
1070
     1
1070
     1
1002
}
  0
LINE
  5
3468
330
2BBC
100
AcDbEntity
  8
DETAIL
100
AcDbLine
 10
-49.22422575197447
 20
2290.723965082325
 30
0.0
 11
153.6312780638156
 21
2425.960622295192
 31
0.0
1001
ACAD
1010
0.0
1020
0.0
1030
0.0
1001
ACADANNOTATIVE
1000
AnnotativeData
1002
{
1070
     1
1070
     1
1002
}
  0
LINE
  5
3469
330
2BBC
100
AcDbEntity
  8
DETAIL
100
AcDbLine
 10
-99.22422575197813
 20
2254.390750331057
 30
0.0
 11
-49.22422575197447
 21
2287.723998546911
 31
0.0
1001
ACAD
1010
0.0
1020
0.0
1030
0.0
1001
ACADANNOTATIVE
1000
AnnotativeData
1002
{
1070
     1
1070
     1
1002
}
  0
LINE
  5
346A
330
2BBC
100
AcDbEntity
  8
DETAIL
100
AcDbLine
 10
-49.22422575197447
 20
2287.723998546911
 30
0.0
 11
158.1312393577002
 21
2425.96062229519
 31
0.0
1001
ACAD
1010
0.0
1020
0.0
1030
0.0
1001
ACADANNOTATIVE
1000
AnnotativeData
1002
{
1070
     1
1070
     1
1002
}
  0
LINE
  5
346B
330
2BBC
100
AcDbEntity
  8
DETAIL
100
AcDbLine
 10
-99.22422575197813
 20
2251.390783795641
 30
0.0
 11
-49.22422575197447
 21
2284.724032011494
 31
0.0
1001
ACAD
1010
0.0
1020
0.0
1030
0.0
1001
ACADANNOTATIVE
1000
AnnotativeData
1002
{
1070
     1
1070
     1
1002
}
  0
LINE
  5
346C
330
2BBC
100
AcDbEntity
  8
DETAIL
100
AcDbLine
 10
-49.22422575197447
 20
2284.724032011494
 30
0.0
 11
162.6312006515848
 21
2425.960622295192
 31
0.0
1001
ACAD
1010
0.0
1020
0.0
1030
0.0
1001
ACADANNOTATIVE
1000
AnnotativeData
1002
{
1070
     1
1070
     1
1002
}
  0
LINE
  5
346D
330
2BBC
100
AcDbEntity
  8
DETAIL
100
AcDbLine
 10
-99.22422575197813
 20
2248.390817260224
 30
0.0
 11
-49.22422575197447
 21
2281.724065476079
 31
0.0
1001
ACAD
1010
0.0
1020
0.0
1030
0.0
1001
ACADANNOTATIVE
1000
AnnotativeData
1002
{
1070
     1
1070
     1
1002
}
  0
LINE
  5
346E
330
2BBC
100
AcDbEntity
  8
DETAIL
100
AcDbLine
 10
-49.22422575197447
 20
2281.724065476079
 30
0.0
 11
166.5757742480284
 21
2425.590364775693
 31
0.0
1001
ACAD
1010
0.0
1020
0.0
1030
0.0
1001
ACADANNOTATIVE
1000
AnnotativeData
1002
{
1070
     1
1070
     1
1002
}
  0
LINE
  5
346F
330
2BBC
100
AcDbEntity
  8
DETAIL
100
AcDbLine
 10
-99.22422575197813
 20
2245.390850724807
 30
0.0
 11
-49.22422575197447
 21
2278.724098940662
 31
0.0
1001
ACAD
1010
0.0
1020
0.0
1030
0.0
1001
ACADANNOTATIVE
1000
AnnotativeData
1002
{
1070
     1
1070
     1
1002
}
  0
LINE
  5
3470
330
2BBC
100
AcDbEntity
  8
DETAIL
100
AcDbLine
 10
-49.22422575197447
 20
2278.724098940662
 30
0.0
 11
166.5757742480248
 21
2422.590398240274
 31
0.0
1001
ACAD
1010
0.0
1020
0.0
1030
0.0
1001
ACADANNOTATIVE
1000
AnnotativeData
1002
{
1070
     1
1070
     1
1002
}
  0
LINE
  5
3471
330
2BBC
100
AcDbEntity
  8
DETAIL
100
AcDbLine
 10
-99.22422575197449
 20
2242.390884189394
 30
0.0
 11
-49.22422575197447
 21
2275.724132405247
 31
0.0
1001
ACAD
1010
0.0
1020
0.0
1030
0.0
1001
ACADANNOTATIVE
1000
AnnotativeData
1002
{
1070
     1
1070
     1
1002
}
  0
LINE
  5
3472
330
2BBC
100
AcDbEntity
  8
DETAIL
100
AcDbLine
 10
-49.22422575197447
 20
2275.724132405247
 30
0.0
 11
166.5757742480284
 21
2419.590431704861
 31
0.0
1001
ACAD
1010
0.0
1020
0.0
1030
0.0
1001
ACADANNOTATIVE
1000
AnnotativeData
1002
{
1070
     1
1070
     1
1002
}
  0
LINE
  5
3473
330
2BBC
100
AcDbEntity
  8
DETAIL
100
AcDbLine
 10
-99.22422575197813
 20
2239.390917653977
 30
0.0
 11
-49.22422575197447
 21
2272.724165869831
 31
0.0
1001
ACAD
1010
0.0
1020
0.0
1030
0.0
1001
ACADANNOTATIVE
1000
AnnotativeData
1002
{
1070
     1
1070
     1
1002
}
  0
LINE
  5
3474
330
2BBC
100
AcDbEntity
  8
DETAIL
100
AcDbLine
 10
-49.22422575197447
 20
2272.724165869831
 30
0.0
 11
166.5757742480248
 21
2416.590465169445
 31
0.0
1001
ACAD
1010
0.0
1020
0.0
1030
0.0
1001
ACADANNOTATIVE
1000
AnnotativeData
1002
{
1070
     1
1070
     1
1002
}
  0
LINE
  5
3475
330
2BBC
100
AcDbEntity
  8
DETAIL
100
AcDbLine
 10
-99.22422575197449
 20
2236.390951118561
 30
0.0
 11
-49.22422575197082
 21
2269.724199334416
 31
0.0
1001
ACAD
1010
0.0
1020
0.0
1030
0.0
1001
ACADANNOTATIVE
1000
AnnotativeData
1002
{
1070
     1
1070
     1
1002
}
  0
LINE
  5
3476
330
2BBC
100
AcDbEntity
  8
DETAIL
100
AcDbLine
 10
-49.22422575197082
 20
2269.724199334416
 30
0.0
 11
166.5757742480284
 21
2413.590498634028
 31
0.0
1001
ACAD
1010
0.0
1020
0.0
1030
0.0
1001
ACADANNOTATIVE
1000
AnnotativeData
1002
{
1070
     1
1070
     1
1002
}
  0
LINE
  5
3477
330
2BBC
100
AcDbEntity
  8
DETAIL
100
AcDbLine
 10
-99.22422575197813
 20
2233.390984583142
 30
0.0
 11
-49.22422575197447
 21
2266.724232798997
 31
0.0
1001
ACAD
1010
0.0
1020
0.0
1030
0.0
1001
ACADANNOTATIVE
1000
AnnotativeData
1002
{
1070
     1
1070
     1
1002
}
  0
LINE
  5
3478
330
2BBC
100
AcDbEntity
  8
DETAIL
100
AcDbLine
 10
-49.22422575197447
 20
2266.724232798997
 30
0.0
 11
166.5757742480248
 21
2410.590532098611
 31
0.0
1001
ACAD
1010
0.0
1020
0.0
1030
0.0
1001
ACADANNOTATIVE
1000
AnnotativeData
1002
{
1070
     1
1070
     1
1002
}
  0
LINE
  5
3479
330
2BBC
100
AcDbEntity
  8
DETAIL
100
AcDbLine
 10
-99.22422575198178
 20
2230.391018047727
 30
0.0
 11
-49.22422575197082
 21
2263.724266263583
 31
0.0
1001
ACAD
1010
0.0
1020
0.0
1030
0.0
1001
ACADANNOTATIVE
1000
AnnotativeData
1002
{
1070
     1
1070
     1
1002
}
  0
LINE
  5
347A
330
2BBC
100
AcDbEntity
  8
DETAIL
100
AcDbLine
 10
-49.22422575197082
 20
2263.724266263583
 30
0.0
 11
166.5757742480248
 21
2407.590565563194
 31
0.0
1001
ACAD
1010
0.0
1020
0.0
1030
0.0
1001
ACADANNOTATIVE
1000
AnnotativeData
1002
{
1070
     1
1070
     1
1002
}
  0
LINE
  5
347B
330
2BBC
100
AcDbEntity
  8
DETAIL
100
AcDbLine
 10
-99.22422575197449
 20
2227.391051512313
 30
0.0
 11
-49.22422575197447
 21
2260.724299728167
 31
0.0
1001
ACAD
1010
0.0
1020
0.0
1030
0.0
1001
ACADANNOTATIVE
1000
AnnotativeData
1002
{
1070
     1
1070
     1
1002
}
  0
LINE
  5
347C
330
2BBC
100
AcDbEntity
  8
DETAIL
100
AcDbLine
 10
-49.22422575197447
 20
2260.724299728167
 30
0.0
 11
166.5757742480284
 21
2404.590599027781
 31
0.0
1001
ACAD
1010
0.0
1020
0.0
1030
0.0
1001
ACADANNOTATIVE
1000
AnnotativeData
1002
{
1070
     1
1070
     1
1002
}
  0
LINE
  5
347D
330
2BBC
100
AcDbEntity
  8
DETAIL
100
AcDbLine
 10
-99.22422575197813
 20
2224.391084976895
 30
0.0
 11
-49.22422575197447
 21
2257.724333192749
 31
0.0
1001
ACAD
1010
0.0
1020
0.0
1030
0.0
1001
ACADANNOTATIVE
1000
AnnotativeData
1002
{
1070
     1
1070
     1
1002
}
  0
LINE
  5
347E
330
2BBC
100
AcDbEntity
  8
DETAIL
100
AcDbLine
 10
-49.22422575197447
 20
2257.724333192749
 30
0.0
 11
166.5757742480248
 21
2401.590632492363
 31
0.0
1001
ACAD
1010
0.0
1020
0.0
1030
0.0
1001
ACADANNOTATIVE
1000
AnnotativeData
1002
{
1070
     1
1070
     1
1002
}
  0
LINE
  5
347F
330
2BBC
100
AcDbEntity
  8
DETAIL
100
AcDbLine
 10
-99.22422575197449
 20
2221.391118441479
 30
0.0
 11
-49.22422575197447
 21
2254.724366657332
 31
0.0
1001
ACAD
1010
0.0
1020
0.0
1030
0.0
1001
ACADANNOTATIVE
1000
AnnotativeData
1002
{
1070
     1
1070
     1
1002
}
  0
LINE
  5
3480
330
2BBC
100
AcDbEntity
  8
DETAIL
100
AcDbLine
 10
-49.22422575197447
 20
2254.724366657332
 30
0.0
 11
166.5757742480284
 21
2398.590665956946
 31
0.0
1001
ACAD
1010
0.0
1020
0.0
1030
0.0
1001
ACADANNOTATIVE
1000
AnnotativeData
1002
{
1070
     1
1070
     1
1002
}
  0
LINE
  5
3481
330
2BBC
100
AcDbEntity
  8
DETAIL
100
AcDbLine
 10
-99.22422575197813
 20
2218.391151906061
 30
0.0
 11
-49.22422575197447
 21
2251.724400121915
 31
0.0
1001
ACAD
1010
0.0
1020
0.0
1030
0.0
1001
ACADANNOTATIVE
1000
AnnotativeData
1002
{
1070
     1
1070
     1
1002
}
  0
LINE
  5
3482
330
2BBC
100
AcDbEntity
  8
DETAIL
100
AcDbLine
 10
-49.22422575197447
 20
2251.724400121915
 30
0.0
 11
166.5757742480248
 21
2395.590699421529
 31
0.0
1001
ACAD
1010
0.0
1020
0.0
1030
0.0
1001
ACADANNOTATIVE
1000
AnnotativeData
1002
{
1070
     1
1070
     1
1002
}
  0
LINE
  5
3483
330
2BBC
100
AcDbEntity
  8
DETAIL
100
AcDbLine
 10
-99.22422575197449
 20
2215.391185370647
 30
0.0
 11
-49.22422575197447
 21
2248.724433586502
 31
0.0
1001
ACAD
1010
0.0
1020
0.0
1030
0.0
1001
ACADANNOTATIVE
1000
AnnotativeData
1002
{
1070
     1
1070
     1
1002
}
  0
LINE
  5
3484
330
2BBC
100
AcDbEntity
  8
DETAIL
100
AcDbLine
 10
-49.22422575197447
 20
2248.724433586502
 30
0.0
 11
166.5757742480284
 21
2392.590732886114
 31
0.0
1001
ACAD
1010
0.0
1020
0.0
1030
0.0
1001
ACADANNOTATIVE
1000
AnnotativeData
1002
{
1070
     1
1070
     1
1002
}
  0
LINE
  5
3485
330
2BBC
100
AcDbEntity
  8
DETAIL
100
AcDbLine
 10
-99.22422575197813
 20
2212.391218835231
 30
0.0
 11
-49.22422575197447
 21
2245.724467051084
 31
0.0
1001
ACAD
1010
0.0
1020
0.0
1030
0.0
1001
ACADANNOTATIVE
1000
AnnotativeData
1002
{
1070
     1
1070
     1
1002
}
  0
LINE
  5
3486
330
2BBC
100
AcDbEntity
  8
DETAIL
100
AcDbLine
 10
-49.22422575197447
 20
2245.724467051084
 30
0.0
 11
166.5757742480284
 21
2389.590766350699
 31
0.0
1001
ACAD
1010
0.0
1020
0.0
1030
0.0
1001
ACADANNOTATIVE
1000
AnnotativeData
1002
{
1070
     1
1070
     1
1002
}
  0
LINE
  5
3487
330
2BBC
100
AcDbEntity
  8
DETAIL
100
AcDbLine
 10
-99.22422575197813
 20
2209.391252299813
 30
0.0
 11
-49.22422575197082
 21
2242.724500515669
 31
0.0
1001
ACAD
1010
0.0
1020
0.0
1030
0.0
1001
ACADANNOTATIVE
1000
AnnotativeData
1002
{
1070
     1
1070
     1
1002
}
  0
LINE
  5
3488
330
2BBC
100
AcDbEntity
  8
DETAIL
100
AcDbLine
 10
-49.22422575197082
 20
2242.724500515669
 30
0.0
 11
166.5757742480284
 21
2386.590799815284
 31
0.0
1001
ACAD
1010
0.0
1020
0.0
1030
0.0
1001
ACADANNOTATIVE
1000
AnnotativeData
1002
{
1070
     1
1070
     1
1002
}
  0
LINE
  5
3489
330
2BBC
100
AcDbEntity
  8
DETAIL
100
AcDbLine
 10
-99.22422575197813
 20
2206.391285764397
 30
0.0
 11
-49.22422575197447
 21
2239.72453398025
 31
0.0
1001
ACAD
1010
0.0
1020
0.0
1030
0.0
1001
ACADANNOTATIVE
1000
AnnotativeData
1002
{
1070
     1
1070
     1
1002
}
  0
LINE
  5
348A
330
2BBC
100
AcDbEntity
  8
DETAIL
100
AcDbLine
 10
-49.22422575197447
 20
2239.72453398025
 30
0.0
 11
166.5757742480284
 21
2383.590833279864
 31
0.0
1001
ACAD
1010
0.0
1020
0.0
1030
0.0
1001
ACADANNOTATIVE
1000
AnnotativeData
1002
{
1070
     1
1070
     1
1002
}
  0
LINE
  5
348B
330
2BBC
100
AcDbEntity
  8
DETAIL
100
AcDbLine
 10
-99.22422575197813
 20
2203.39131922898
 30
0.0
 11
-49.22422575197447
 21
2236.724567444835
 31
0.0
1001
ACAD
1010
0.0
1020
0.0
1030
0.0
1001
ACADANNOTATIVE
1000
AnnotativeData
1002
{
1070
     1
1070
     1
1002
}
  0
LINE
  5
348C
330
2BBC
100
AcDbEntity
  8
DETAIL
100
AcDbLine
 10
-49.22422575197447
 20
2236.724567444835
 30
0.0
 11
166.5757742480248
 21
2380.590866744449
 31
0.0
1001
ACAD
1010
0.0
1020
0.0
1030
0.0
1001
ACADANNOTATIVE
1000
AnnotativeData
1002
{
1070
     1
1070
     1
1002
}
  0
LINE
  5
348D
330
2BBC
100
AcDbEntity
  8
DETAIL
100
AcDbLine
 10
-99.22422575197813
 20
2200.391352693567
 30
0.0
 11
-49.22422575197447
 21
2233.724600909422
 31
0.0
1001
ACAD
1010
0.0
1020
0.0
1030
0.0
1001
ACADANNOTATIVE
1000
AnnotativeData
1002
{
1070
     1
1070
     1
1002
}
  0
LINE
  5
348E
330
2BBC
100
AcDbEntity
  8
DETAIL
100
AcDbLine
 10
-49.22422575197447
 20
2233.724600909422
 30
0.0
 11
166.5757742480284
 21
2377.590900209034
 31
0.0
1001
ACAD
1010
0.0
1020
0.0
1030
0.0
1001
ACADANNOTATIVE
1000
AnnotativeData
1002
{
1070
     1
1070
     1
1002
}
  0
LINE
  5
348F
330
2BBC
100
AcDbEntity
  8
DETAIL
100
AcDbLine
 10
-99.22422575197813
 20
2197.391386158148
 30
0.0
 11
-47.07023836993061
 21
2232.160622295191
 31
0.0
1001
ACAD
1010
0.0
1020
0.0
1030
0.0
1001
ACADANNOTATIVE
1000
AnnotativeData
1002
{
1070
     1
1070
     1
1002
}
  0
LINE
  5
3490
330
2BBC
100
AcDbEntity
  8
DETAIL
100
AcDbLine
 10
-47.07023836993061
 20
2232.160622295191
 30
0.0
 11
166.5757742480248
 21
2374.590933673617
 31
0.0
1001
ACAD
1010
0.0
1020
0.0
1030
0.0
1001
ACADANNOTATIVE
1000
AnnotativeData
1002
{
1070
     1
1070
     1
1002
}
  0
LINE
  5
3491
330
2BBC
100
AcDbEntity
  8
DETAIL
100
AcDbLine
 10
-95.07041113642369
 20
2197.160622295191
 30
0.0
 11
-42.57027707604605
 21
2232.160622295191
 31
0.0
1001
ACAD
1010
0.0
1020
0.0
1030
0.0
1001
ACADANNOTATIVE
1000
AnnotativeData
1002
{
1070
     1
1070
     1
1002
}
  0
LINE
  5
3492
330
2BBC
100
AcDbEntity
  8
DETAIL
100
AcDbLine
 10
-42.57027707604605
 20
2232.160622295191
 30
0.0
 11
166.5757742480284
 21
2371.590967138201
 31
0.0
1001
ACAD
1010
0.0
1020
0.0
1030
0.0
1001
ACADANNOTATIVE
1000
AnnotativeData
1002
{
1070
     1
1070
     1
1002
}
  0
LINE
  5
3493
330
2BBC
100
AcDbEntity
  8
DETAIL
100
AcDbLine
 10
-90.57044984253911
 20
2197.160622295192
 30
0.0
 11
-38.07031578216152
 21
2232.160622295193
 31
0.0
1001
ACAD
1010
0.0
1020
0.0
1030
0.0
1001
ACADANNOTATIVE
1000
AnnotativeData
1002
{
1070
     1
1070
     1
1002
}
  0
LINE
  5
3494
330
2BBC
100
AcDbEntity
  8
DETAIL
100
AcDbLine
 10
-38.07031578216152
 20
2232.160622295193
 30
0.0
 11
166.5757742480284
 21
2368.591000602784
 31
0.0
1001
ACAD
1010
0.0
1020
0.0
1030
0.0
1001
ACADANNOTATIVE
1000
AnnotativeData
1002
{
1070
     1
1070
     1
1002
}
  0
LINE
  5
3495
330
2BBC
100
AcDbEntity
  8
DETAIL
100
AcDbLine
 10
-86.07048854865455
 20
2197.160622295191
 30
0.0
 11
-33.57035448827696
 21
2232.160622295193
 31
0.0
1001
ACAD
1010
0.0
1020
0.0
1030
0.0
1001
ACADANNOTATIVE
1000
AnnotativeData
1002
{
1070
     1
1070
     1
1002
}
  0
LINE
  5
3496
330
2BBC
100
AcDbEntity
  8
DETAIL
100
AcDbLine
 10
-33.57035448827696
 20
2232.160622295193
 30
0.0
 11
166.5757742480284
 21
2365.591034067371
 31
0.0
1001
ACAD
1010
0.0
1020
0.0
1030
0.0
1001
ACADANNOTATIVE
1000
AnnotativeData
1002
{
1070
     1
1070
     1
1002
}
  0
LINE
  5
3497
330
2BBC
100
AcDbEntity
  8
DETAIL
100
AcDbLine
 10
-81.57052725476637
 20
2197.160622295191
 30
0.0
 11
-29.07039319439241
 21
2232.160622295193
 31
0.0
1001
ACAD
1010
0.0
1020
0.0
1030
0.0
1001
ACADANNOTATIVE
1000
AnnotativeData
1002
{
1070
     1
1070
     1
1002
}
  0
LINE
  5
3498
330
2BBC
100
AcDbEntity
  8
DETAIL
100
AcDbLine
 10
-29.07039319439241
 20
2232.160622295193
 30
0.0
 11
166.5757742480284
 21
2362.591067531952
 31
0.0
1001
ACAD
1010
0.0
1020
0.0
1030
0.0
1001
ACADANNOTATIVE
1000
AnnotativeData
1002
{
1070
     1
1070
     1
1002
}
  0
LINE
  5
3499
330
2BBC
100
AcDbEntity
  8
DETAIL
100
AcDbLine
 10
-77.07056596088181
 20
2197.160622295191
 30
0.0
 11
-24.57043190050422
 21
2232.160622295191
 31
0.0
1001
ACAD
1010
0.0
1020
0.0
1030
0.0
1001
ACADANNOTATIVE
1000
AnnotativeData
1002
{
1070
     1
1070
     1
1002
}
  0
LINE
  5
349A
330
2BBC
100
AcDbEntity
  8
DETAIL
100
AcDbLine
 10
-24.57043190050422
 20
2232.160622295191
 30
0.0
 11
166.5757742480248
 21
2359.591100996535
 31
0.0
1001
ACAD
1010
0.0
1020
0.0
1030
0.0
1001
ACADANNOTATIVE
1000
AnnotativeData
1002
{
1070
     1
1070
     1
1002
}
  0
LINE
  5
349B
330
2BBC
100
AcDbEntity
  8
DETAIL
100
AcDbLine
 10
-72.57060466699363
 20
2197.160622295191
 30
0.0
 11
-20.07047060661603
 21
2232.160622295191
 31
0.0
1001
ACAD
1010
0.0
1020
0.0
1030
0.0
1001
ACADANNOTATIVE
1000
AnnotativeData
1002
{
1070
     1
1070
     1
1002
}
  0
LINE
  5
349C
330
2BBC
100
AcDbEntity
  8
DETAIL
100
AcDbLine
 10
-20.07047060661603
 20
2232.160622295191
 30
0.0
 11
166.5757742480284
 21
2356.591134461119
 31
0.0
1001
ACAD
1010
0.0
1020
0.0
1030
0.0
1001
ACADANNOTATIVE
1000
AnnotativeData
1002
{
1070
     1
1070
     1
1002
}
  0
LINE
  5
349D
330
2BBC
100
AcDbEntity
  8
DETAIL
100
AcDbLine
 10
-68.07064337310908
 20
2197.160622295191
 30
0.0
 11
-15.57050931273147
 21
2232.160622295191
 31
0.0
1001
ACAD
1010
0.0
1020
0.0
1030
0.0
1001
ACADANNOTATIVE
1000
AnnotativeData
1002
{
1070
     1
1070
     1
1002
}
  0
LINE
  5
349E
330
2BBC
100
AcDbEntity
  8
DETAIL
100
AcDbLine
 10
-15.57050931273147
 20
2232.160622295191
 30
0.0
 11
166.5757742480284
 21
2353.591167925702
 31
0.0
1001
ACAD
1010
0.0
1020
0.0
1030
0.0
1001
ACADANNOTATIVE
1000
AnnotativeData
1002
{
1070
     1
1070
     1
1002
}
  0
LINE
  5
349F
330
2BBC
100
AcDbEntity
  8
DETAIL
100
AcDbLine
 10
-63.57068207922089
 20
2197.160622295194
 30
0.0
 11
-11.07054801884692
 21
2232.160622295193
 31
0.0
1001
ACAD
1010
0.0
1020
0.0
1030
0.0
1001
ACADANNOTATIVE
1000
AnnotativeData
1002
{
1070
     1
1070
     1
1002
}
  0
LINE
  5
34A0
330
2BBC
100
AcDbEntity
  8
DETAIL
100
AcDbLine
 10
-11.07054801884692
 20
2232.160622295193
 30
0.0
 11
166.5757742480284
 21
2350.591201390289
 31
0.0
1001
ACAD
1010
0.0
1020
0.0
1030
0.0
1001
ACADANNOTATIVE
1000
AnnotativeData
1002
{
1070
     1
1070
     1
1002
}
  0
LINE
  5
34A1
330
2BBC
100
AcDbEntity
  8
DETAIL
100
AcDbLine
 10
-59.07072078533996
 20
2197.160622295191
 30
0.0
 11
-6.570586724962367
 21
2232.160622295193
 31
0.0
1001
ACAD
1010
0.0
1020
0.0
1030
0.0
1001
ACADANNOTATIVE
1000
AnnotativeData
1002
{
1070
     1
1070
     1
1002
}
  0
LINE
  5
34A2
330
2BBC
100
AcDbEntity
  8
DETAIL
100
AcDbLine
 10
-6.570586724962367
 20
2232.160622295193
 30
0.0
 11
166.5757742480284
 21
2347.59123485487
 31
0.0
1001
ACAD
1010
0.0
1020
0.0
1030
0.0
1001
ACADANNOTATIVE
1000
AnnotativeData
1002
{
1070
     1
1070
     1
1002
}
  0
LINE
  5
34A3
330
2BBC
100
AcDbEntity
  8
DETAIL
100
AcDbLine
 10
-54.57075949145178
 20
2197.160622295191
 30
0.0
 11
-2.070625431074176
 21
2232.160622295191
 31
0.0
1001
ACAD
1010
0.0
1020
0.0
1030
0.0
1001
ACADANNOTATIVE
1000
AnnotativeData
1002
{
1070
     1
1070
     1
1002
}
  0
LINE
  5
34A4
330
2BBC
100
AcDbEntity
  8
DETAIL
100
AcDbLine
 10
-2.070625431074176
 20
2232.160622295191
 30
0.0
 11
166.5757742480284
 21
2344.591268319454
 31
0.0
1001
ACAD
1010
0.0
1020
0.0
1030
0.0
1001
ACADANNOTATIVE
1000
AnnotativeData
1002
{
1070
     1
1070
     1
1002
}
  0
LINE
  5
34A5
330
2BBC
100
AcDbEntity
  8
DETAIL
100
AcDbLine
 10
-50.07079819757087
 20
2197.160622295191
 30
0.0
 11
2.429335862806738
 21
2232.160622295191
 31
0.0
1001
ACAD
1010
0.0
1020
0.0
1030
0.0
1001
ACADANNOTATIVE
1000
AnnotativeData
1002
{
1070
     1
1070
     1
1002
}
  0
LINE
  5
34A6
330
2BBC
100
AcDbEntity
  8
DETAIL
100
AcDbLine
 10
2.429335862806738
 20
2232.160622295191
 30
0.0
 11
166.5757742480284
 21
2341.591301784038
 31
0.0
1001
ACAD
1010
0.0
1020
0.0
1030
0.0
1001
ACADANNOTATIVE
1000
AnnotativeData
1002
{
1070
     1
1070
     1
1002
}
  0
LINE
  5
34A7
330
2BBC
100
AcDbEntity
  8
DETAIL
100
AcDbLine
 10
-45.57083690368265
 20
2197.160622295192
 30
0.0
 11
6.929297156694927
 21
2232.160622295193
 31
0.0
1001
ACAD
1010
0.0
1020
0.0
1030
0.0
1001
ACADANNOTATIVE
1000
AnnotativeData
1002
{
1070
     1
1070
     1
1002
}
  0
LINE
  5
34A8
330
2BBC
100
AcDbEntity
  8
DETAIL
100
AcDbLine
 10
6.929297156694927
 20
2232.160622295193
 30
0.0
 11
166.5757742480248
 21
2338.591335248622
 31
0.0
1001
ACAD
1010
0.0
1020
0.0
1030
0.0
1001
ACADANNOTATIVE
1000
AnnotativeData
1002
{
1070
     1
1070
     1
1002
}
  0
LINE
  5
34A9
330
2BBC
100
AcDbEntity
  8
DETAIL
100
AcDbLine
 10
-41.07087560979445
 20
2197.160622295192
 30
0.0
 11
11.42925845058312
 21
2232.160622295193
 31
0.0
1001
ACAD
1010
0.0
1020
0.0
1030
0.0
1001
ACADANNOTATIVE
1000
AnnotativeData
1002
{
1070
     1
1070
     1
1002
}
  0
LINE
  5
34AA
330
2BBC
100
AcDbEntity
  8
DETAIL
100
AcDbLine
 10
11.42925845058312
 20
2232.160622295193
 30
0.0
 11
166.5757742480284
 21
2335.591368713207
 31
0.0
1001
ACAD
1010
0.0
1020
0.0
1030
0.0
1001
ACADANNOTATIVE
1000
AnnotativeData
1002
{
1070
     1
1070
     1
1002
}
  0
LINE
  5
34AB
330
2BBC
100
AcDbEntity
  8
DETAIL
100
AcDbLine
 10
-36.57091431590993
 20
2197.160622295189
 30
0.0
 11
15.92921974446767
 21
2232.160622295191
 31
0.0
1001
ACAD
1010
0.0
1020
0.0
1030
0.0
1001
ACADANNOTATIVE
1000
AnnotativeData
1002
{
1070
     1
1070
     1
1002
}
  0
LINE
  5
34AC
330
2BBC
100
AcDbEntity
  8
DETAIL
100
AcDbLine
 10
15.92921974446767
 20
2232.160622295191
 30
0.0
 11
166.5757742480248
 21
2332.591402177788
 31
0.0
1001
ACAD
1010
0.0
1020
0.0
1030
0.0
1001
ACADANNOTATIVE
1000
AnnotativeData
1002
{
1070
     1
1070
     1
1002
}
  0
LINE
  5
34AD
330
2BBC
100
AcDbEntity
  8
DETAIL
100
AcDbLine
 10
-32.07095302202538
 20
2197.160622295191
 30
0.0
 11
20.42918103835223
 21
2232.160622295191
 31
0.0
1001
ACAD
1010
0.0
1020
0.0
1030
0.0
1001
ACADANNOTATIVE
1000
AnnotativeData
1002
{
1070
     1
1070
     1
1002
}
  0
LINE
  5
34AE
330
2BBC
100
AcDbEntity
  8
DETAIL
100
AcDbLine
 10
20.42918103835223
 20
2232.160622295191
 30
0.0
 11
166.5757742480284
 21
2329.591435642375
 31
0.0
1001
ACAD
1010
0.0
1020
0.0
1030
0.0
1001
ACADANNOTATIVE
1000
AnnotativeData
1002
{
1070
     1
1070
     1
1002
}
  0
LINE
  5
34AF
330
2BBC
100
AcDbEntity
  8
DETAIL
100
AcDbLine
 10
-27.57099172814083
 20
2197.160622295192
 30
0.0
 11
24.92914233223678
 21
2232.160622295193
 31
0.0
1001
ACAD
1010
0.0
1020
0.0
1030
0.0
1001
ACADANNOTATIVE
1000
AnnotativeData
1002
{
1070
     1
1070
     1
1002
}
  0
LINE
  5
34B0
330
2BBC
100
AcDbEntity
  8
DETAIL
100
AcDbLine
 10
24.92914233223678
 20
2232.160622295193
 30
0.0
 11
166.5757742480248
 21
2326.591469106958
 31
0.0
1001
ACAD
1010
0.0
1020
0.0
1030
0.0
1001
ACADANNOTATIVE
1000
AnnotativeData
1002
{
1070
     1
1070
     1
1002
}
  0
LINE
  5
34B1
330
2BBC
100
AcDbEntity
  8
DETAIL
100
AcDbLine
 10
-23.07103043425263
 20
2197.160622295192
 30
0.0
 11
29.42910362612497
 21
2232.160622295193
 31
0.0
1001
ACAD
1010
0.0
1020
0.0
1030
0.0
1001
ACADANNOTATIVE
1000
AnnotativeData
1002
{
1070
     1
1070
     1
1002
}
  0
LINE
  5
34B2
330
2BBC
100
AcDbEntity
  8
DETAIL
100
AcDbLine
 10
29.42910362612497
 20
2232.160622295193
 30
0.0
 11
166.5757742480284
 21
2323.591502571542
 31
0.0
1001
ACAD
1010
0.0
1020
0.0
1030
0.0
1001
ACADANNOTATIVE
1000
AnnotativeData
1002
{
1070
     1
1070
     1
1002
}
  0
LINE
  5
34B3
330
2BBC
100
AcDbEntity
  8
DETAIL
100
AcDbLine
 10
-18.57106914037172
 20
2197.160622295189
 30
0.0
 11
33.9290649200059
 21
2232.160622295191
 31
0.0
1001
ACAD
1010
0.0
1020
0.0
1030
0.0
1001
ACADANNOTATIVE
1000
AnnotativeData
1002
{
1070
     1
1070
     1
1002
}
  0
LINE
  5
34B4
330
2BBC
100
AcDbEntity
  8
DETAIL
100
AcDbLine
 10
33.9290649200059
 20
2232.160622295191
 30
0.0
 11
166.5757742480248
 21
2320.591536036125
 31
0.0
1001
ACAD
1010
0.0
1020
0.0
1030
0.0
1001
ACADANNOTATIVE
1000
AnnotativeData
1002
{
1070
     1
1070
     1
1002
}
  0
LINE
  5
34B5
330
2BBC
100
AcDbEntity
  8
DETAIL
100
AcDbLine
 10
-14.07110784647989
 20
2197.160622295191
 30
0.0
 11
38.42902621389408
 21
2232.160622295191
 31
0.0
1001
ACAD
1010
0.0
1020
0.0
1030
0.0
1001
ACADANNOTATIVE
1000
AnnotativeData
1002
{
1070
     1
1070
     1
1002
}
  0
LINE
  5
34B6
330
2BBC
100
AcDbEntity
  8
DETAIL
100
AcDbLine
 10
38.42902621389408
 20
2232.160622295191
 30
0.0
 11
166.5757742480248
 21
2317.591569500706
 31
0.0
1001
ACAD
1010
0.0
1020
0.0
1030
0.0
1001
ACADANNOTATIVE
1000
AnnotativeData
1002
{
1070
     1
1070
     1
1002
}
  0
LINE
  5
34B7
330
2BBC
100
AcDbEntity
  8
DETAIL
100
AcDbLine
 10
-9.571146552598976
 20
2197.160622295191
 30
0.0
 11
42.92898750777863
 21
2232.160622295191
 31
0.0
1001
ACAD
1010
0.0
1020
0.0
1030
0.0
1001
ACADANNOTATIVE
1000
AnnotativeData
1002
{
1070
     1
1070
     1
1002
}
  0
LINE
  5
34B8
330
2BBC
100
AcDbEntity
  8
DETAIL
100
AcDbLine
 10
42.92898750777863
 20
2232.160622295191
 30
0.0
 11
166.5757742480248
 21
2314.591602965293
 31
0.0
1001
ACAD
1010
0.0
1020
0.0
1030
0.0
1001
ACADANNOTATIVE
1000
AnnotativeData
1002
{
1070
     1
1070
     1
1002
}
  0
LINE
  5
34B9
330
2BBC
100
AcDbEntity
  8
DETAIL
100
AcDbLine
 10
-5.071185258710784
 20
2197.160622295192
 30
0.0
 11
47.42894880166682
 21
2232.160622295193
 31
0.0
1001
ACAD
1010
0.0
1020
0.0
1030
0.0
1001
ACADANNOTATIVE
1000
AnnotativeData
1002
{
1070
     1
1070
     1
1002
}
  0
LINE
  5
34BA
330
2BBC
100
AcDbEntity
  8
DETAIL
100
AcDbLine
 10
47.42894880166682
 20
2232.160622295193
 30
0.0
 11
166.5757742480248
 21
2311.591636429875
 31
0.0
1001
ACAD
1010
0.0
1020
0.0
1030
0.0
1001
ACADANNOTATIVE
1000
AnnotativeData
1002
{
1070
     1
1070
     1
1002
}
  0
LINE
  5
34BB
330
2BBC
100
AcDbEntity
  8
DETAIL
100
AcDbLine
 10
-0.5712239648298692
 20
2197.160622295191
 30
0.0
 11
51.92891009554774
 21
2232.160622295191
 31
0.0
1001
ACAD
1010
0.0
1020
0.0
1030
0.0
1001
ACADANNOTATIVE
1000
AnnotativeData
1002
{
1070
     1
1070
     1
1002
}
  0
LINE
  5
34BC
330
2BBC
100
AcDbEntity
  8
DETAIL
100
AcDbLine
 10
51.92891009554774
 20
2232.160622295191
 30
0.0
 11
166.5757742480248
 21
2308.59166989446
 31
0.0
1001
ACAD
1010
0.0
1020
0.0
1030
0.0
1001
ACADANNOTATIVE
1000
AnnotativeData
1002
{
1070
     1
1070
     1
1002
}
  0
LINE
  5
34BD
330
2BBC
100
AcDbEntity
  8
DETAIL
100
AcDbLine
 10
3.928737329061958
 20
2197.160622295192
 30
0.0
 11
56.42887138943592
 21
2232.160622295191
 31
0.0
1001
ACAD
1010
0.0
1020
0.0
1030
0.0
1001
ACADANNOTATIVE
1000
AnnotativeData
1002
{
1070
     1
1070
     1
1002
}
  0
LINE
  5
34BE
330
2BBC
100
AcDbEntity
  8
DETAIL
100
AcDbLine
 10
56.42887138943592
 20
2232.160622295193
 30
0.0
 11
166.5757742480248
 21
2305.591703359043
 31
0.0
1001
ACAD
1010
0.0
1020
0.0
1030
0.0
1001
ACADANNOTATIVE
1000
AnnotativeData
1002
{
1070
     1
1070
     1
1002
}
  0
LINE
  5
34BF
330
2BBC
100
AcDbEntity
  8
DETAIL
100
AcDbLine
 10
8.428698622942874
 20
2197.160622295191
 30
0.0
 11
60.92883268332046
 21
2232.160622295193
 31
0.0
1001
ACAD
1010
0.0
1020
0.0
1030
0.0
1001
ACADANNOTATIVE
1000
AnnotativeData
1002
{
1070
     1
1070
     1
1002
}
  0
LINE
  5
34C0
330
2BBC
100
AcDbEntity
  8
DETAIL
100
AcDbLine
 10
60.92883268332046
 20
2232.160622295193
 30
0.0
 11
166.5757742480248
 21
2302.591736823628
 31
0.0
1001
ACAD
1010
0.0
1020
0.0
1030
0.0
1001
ACADANNOTATIVE
1000
AnnotativeData
1002
{
1070
     1
1070
     1
1002
}
  0
LINE
  5
34C1
330
2BBC
100
AcDbEntity
  8
DETAIL
100
AcDbLine
 10
12.92865991683106
 20
2197.160622295192
 30
0.0
 11
65.42879397720867
 21
2232.160622295193
 31
0.0
1001
ACAD
1010
0.0
1020
0.0
1030
0.0
1001
ACADANNOTATIVE
1000
AnnotativeData
1002
{
1070
     1
1070
     1
1002
}
  0
LINE
  5
34C2
330
2BBC
100
AcDbEntity
  8
DETAIL
100
AcDbLine
 10
65.42879397720867
 20
2232.160622295193
 30
0.0
 11
166.5757742480248
 21
2299.591770288213
 31
0.0
1001
ACAD
1010
0.0
1020
0.0
1030
0.0
1001
ACADANNOTATIVE
1000
AnnotativeData
1002
{
1070
     1
1070
     1
1002
}
  0
LINE
  5
34C3
330
2BBC
100
AcDbEntity
  8
DETAIL
100
AcDbLine
 10
17.42862121071198
 20
2197.160622295191
 30
0.0
 11
69.92875527108958
 21
2232.160622295191
 31
0.0
1001
ACAD
1010
0.0
1020
0.0
1030
0.0
1001
ACADANNOTATIVE
1000
AnnotativeData
1002
{
1070
     1
1070
     1
1002
}
  0
LINE
  5
34C4
330
2BBC
100
AcDbEntity
  8
DETAIL
100
AcDbLine
 10
69.92875527108958
 20
2232.160622295191
 30
0.0
 11
166.5757742480284
 21
2296.591803752795
 31
0.0
1001
ACAD
1010
0.0
1020
0.0
1030
0.0
1001
ACADANNOTATIVE
1000
AnnotativeData
1002
{
1070
     1
1070
     1
1002
}
  0
LINE
  5
34C5
330
2BBC
100
AcDbEntity
  8
DETAIL
100
AcDbLine
 10
21.92858250460017
 20
2197.160622295191
 30
0.0
 11
74.42871656497778
 21
2232.160622295191
 31
0.0
1001
ACAD
1010
0.0
1020
0.0
1030
0.0
1001
ACADANNOTATIVE
1000
AnnotativeData
1002
{
1070
     1
1070
     1
1002
}
  0
LINE
  5
34C6
330
2BBC
100
AcDbEntity
  8
DETAIL
100
AcDbLine
 10
74.42871656497778
 20
2232.160622295191
 30
0.0
 11
166.5757742480248
 21
2293.591837217379
 31
0.0
1001
ACAD
1010
0.0
1020
0.0
1030
0.0
1001
ACADANNOTATIVE
1000
AnnotativeData
1002
{
1070
     1
1070
     1
1002
}
  0
LINE
  5
34C7
330
2BBC
100
AcDbEntity
  8
DETAIL
100
AcDbLine
 10
26.42854379848837
 20
2197.160622295192
 30
0.0
 11
78.92867785886597
 21
2232.160622295193
 31
0.0
1001
ACAD
1010
0.0
1020
0.0
1030
0.0
1001
ACADANNOTATIVE
1000
AnnotativeData
1002
{
1070
     1
1070
     1
1002
}
  0
LINE
  5
34C8
330
2BBC
100
AcDbEntity
  8
DETAIL
100
AcDbLine
 10
78.92867785886597
 20
2232.160622295193
 30
0.0
 11
166.5757742480284
 21
2290.591870681965
 31
0.0
1001
ACAD
1010
0.0
1020
0.0
1030
0.0
1001
ACADANNOTATIVE
1000
AnnotativeData
1002
{
1070
     1
1070
     1
1002
}
  0
LINE
  5
34C9
330
2BBC
100
AcDbEntity
  8
DETAIL
100
AcDbLine
 10
30.92850509236928
 20
2197.160622295191
 30
0.0
 11
83.42863915274689
 21
2232.160622295193
 31
0.0
1001
ACAD
1010
0.0
1020
0.0
1030
0.0
1001
ACADANNOTATIVE
1000
AnnotativeData
1002
{
1070
     1
1070
     1
1002
}
  0
LINE
  5
34CA
330
2BBC
100
AcDbEntity
  8
DETAIL
100
AcDbLine
 10
83.42863915274689
 20
2232.160622295193
 30
0.0
 11
166.5757742480248
 21
2287.591904146548
 31
0.0
1001
ACAD
1010
0.0
1020
0.0
1030
0.0
1001
ACADANNOTATIVE
1000
AnnotativeData
1002
{
1070
     1
1070
     1
1002
}
  0
LINE
  5
34CB
330
2BBC
100
AcDbEntity
  8
DETAIL
100
AcDbLine
 10
35.42846638625747
 20
2197.160622295192
 30
0.0
 11
87.92860044663505
 21
2232.160622295191
 31
0.0
1001
ACAD
1010
0.0
1020
0.0
1030
0.0
1001
ACADANNOTATIVE
1000
AnnotativeData
1002
{
1070
     1
1070
     1
1002
}
  0
LINE
  5
34CC
330
2BBC
100
AcDbEntity
  8
DETAIL
100
AcDbLine
 10
87.92860044663505
 20
2232.160622295191
 30
0.0
 11
166.5757742480248
 21
2284.591937611131
 31
0.0
1001
ACAD
1010
0.0
1020
0.0
1030
0.0
1001
ACADANNOTATIVE
1000
AnnotativeData
1002
{
1070
     1
1070
     1
1002
}
  0
LINE
  5
34CD
330
2BBC
100
AcDbEntity
  8
DETAIL
100
AcDbLine
 10
39.92842768014202
 20
2197.160622295191
 30
0.0
 11
92.42856174051963
 21
2232.160622295191
 31
0.0
1001
ACAD
1010
0.0
1020
0.0
1030
0.0
1001
ACADANNOTATIVE
1000
AnnotativeData
1002
{
1070
     1
1070
     1
1002
}
  0
LINE
  5
34CE
330
2BBC
100
AcDbEntity
  8
DETAIL
100
AcDbLine
 10
92.42856174051963
 20
2232.160622295191
 30
0.0
 11
166.5757742480284
 21
2281.591971075714
 31
0.0
1001
ACAD
1010
0.0
1020
0.0
1030
0.0
1001
ACADANNOTATIVE
1000
AnnotativeData
1002
{
1070
     1
1070
     1
1002
}
  0
LINE
  5
34CF
330
2BBC
100
AcDbEntity
  8
DETAIL
100
AcDbLine
 10
44.4283889740302
 20
2197.160622295191
 30
0.0
 11
96.9285230344078
 21
2232.160622295191
 31
0.0
1001
ACAD
1010
0.0
1020
0.0
1030
0.0
1001
ACADANNOTATIVE
1000
AnnotativeData
1002
{
1070
     1
1070
     1
1002
}
  0
LINE
  5
34D0
330
2BBC
100
AcDbEntity
  8
DETAIL
100
AcDbLine
 10
96.9285230344078
 20
2232.160622295191
 30
0.0
 11
166.5757742480248
 21
2278.592004540296
 31
0.0
1001
ACAD
1010
0.0
1020
0.0
1030
0.0
1001
ACADANNOTATIVE
1000
AnnotativeData
1002
{
1070
     1
1070
     1
1002
}
  0
LINE
  5
34D1
330
2BBC
100
AcDbEntity
  8
DETAIL
100
AcDbLine
 10
48.92835026791113
 20
2197.160622295189
 30
0.0
 11
101.4284843282887
 21
2232.160622295191
 31
0.0
1001
ACAD
1010
0.0
1020
0.0
1030
0.0
1001
ACADANNOTATIVE
1000
AnnotativeData
1002
{
1070
     1
1070
     1
1002
}
  0
LINE
  5
34D2
330
2BBC
100
AcDbEntity
  8
DETAIL
100
AcDbLine
 10
101.4284843282887
 20
2232.160622295191
 30
0.0
 11
166.5757742480284
 21
2275.592038004884
 31
0.0
1001
ACAD
1010
0.0
1020
0.0
1030
0.0
1001
ACADANNOTATIVE
1000
AnnotativeData
1002
{
1070
     1
1070
     1
1002
}
  0
LINE
  5
34D3
330
2BBC
100
AcDbEntity
  8
DETAIL
100
AcDbLine
 10
53.42831156180295
 20
2197.160622295192
 30
0.0
 11
105.9284456221769
 21
2232.160622295193
 31
0.0
1001
ACAD
1010
0.0
1020
0.0
1030
0.0
1001
ACADANNOTATIVE
1000
AnnotativeData
1002
{
1070
     1
1070
     1
1002
}
  0
LINE
  5
34D4
330
2BBC
100
AcDbEntity
  8
DETAIL
100
AcDbLine
 10
105.9284456221805
 20
2232.160622295194
 30
0.0
 11
166.5757742480248
 21
2272.592071469466
 31
0.0
1001
ACAD
1010
0.0
1020
0.0
1030
0.0
1001
ACADANNOTATIVE
1000
AnnotativeData
1002
{
1070
     1
1070
     1
1002
}
  0
LINE
  5
34D5
330
2BBC
100
AcDbEntity
  8
DETAIL
100
AcDbLine
 10
57.9282728556875
 20
2197.160622295191
 30
0.0
 11
110.4284069160651
 21
2232.160622295191
 31
0.0
1001
ACAD
1010
0.0
1020
0.0
1030
0.0
1001
ACADANNOTATIVE
1000
AnnotativeData
1002
{
1070
     1
1070
     1
1002
}
  0
LINE
  5
34D6
330
2BBC
100
AcDbEntity
  8
DETAIL
100
AcDbLine
 10
110.4284069160651
 20
2232.160622295191
 30
0.0
 11
166.5757742480284
 21
2269.592104934051
 31
0.0
1001
ACAD
1010
0.0
1020
0.0
1030
0.0
1001
ACADANNOTATIVE
1000
AnnotativeData
1002
{
1070
     1
1070
     1
1002
}
  0
LINE
  5
34D7
330
2BBC
100
AcDbEntity
  8
DETAIL
100
AcDbLine
 10
62.42823414957207
 20
2197.160622295191
 30
0.0
 11
114.9283682099496
 21
2232.160622295191
 31
0.0
1001
ACAD
1010
0.0
1020
0.0
1030
0.0
1001
ACADANNOTATIVE
1000
AnnotativeData
1002
{
1070
     1
1070
     1
1002
}
  0
LINE
  5
34D8
330
2BBC
100
AcDbEntity
  8
DETAIL
100
AcDbLine
 10
114.9283682099496
 20
2232.160622295191
 30
0.0
 11
166.5757742480284
 21
2266.592138398632
 31
0.0
1001
ACAD
1010
0.0
1020
0.0
1030
0.0
1001
ACADANNOTATIVE
1000
AnnotativeData
1002
{
1070
     1
1070
     1
1002
}
  0
LINE
  5
34D9
330
2BBC
100
AcDbEntity
  8
DETAIL
100
AcDbLine
 10
66.92819544346026
 20
2197.160622295192
 30
0.0
 11
119.4283295038342
 21
2232.160622295191
 31
0.0
1001
ACAD
1010
0.0
1020
0.0
1030
0.0
1001
ACADANNOTATIVE
1000
AnnotativeData
1002
{
1070
     1
1070
     1
1002
}
  0
LINE
  5
34DA
330
2BBC
100
AcDbEntity
  8
DETAIL
100
AcDbLine
 10
119.4283295038342
 20
2232.160622295191
 30
0.0
 11
166.5757742480248
 21
2263.592171863216
 31
0.0
1001
ACAD
1010
0.0
1020
0.0
1030
0.0
1001
ACADANNOTATIVE
1000
AnnotativeData
1002
{
1070
     1
1070
     1
1002
}
  0
LINE
  5
34DB
330
2BBC
100
AcDbEntity
  8
DETAIL
100
AcDbLine
 10
71.42815673734117
 20
2197.160622295192
 30
0.0
 11
123.9282907977187
 21
2232.160622295193
 31
0.0
1001
ACAD
1010
0.0
1020
0.0
1030
0.0
1001
ACADANNOTATIVE
1000
AnnotativeData
1002
{
1070
     1
1070
     1
1002
}
  0
LINE
  5
34DC
330
2BBC
100
AcDbEntity
  8
DETAIL
100
AcDbLine
 10
123.9282907977187
 20
2232.160622295193
 30
0.0
 11
166.5757742480284
 21
2260.592205327803
 31
0.0
1001
ACAD
1010
0.0
1020
0.0
1030
0.0
1001
ACADANNOTATIVE
1000
AnnotativeData
1002
{
1070
     1
1070
     1
1002
}
  0
LINE
  5
34DD
330
2BBC
100
AcDbEntity
  8
DETAIL
100
AcDbLine
 10
75.92811803122936
 20
2197.160622295191
 30
0.0
 11
128.4282520916069
 21
2232.160622295193
 31
0.0
1001
ACAD
1010
0.0
1020
0.0
1030
0.0
1001
ACADANNOTATIVE
1000
AnnotativeData
1002
{
1070
     1
1070
     1
1002
}
  0
LINE
  5
34DE
330
2BBC
100
AcDbEntity
  8
DETAIL
100
AcDbLine
 10
128.4282520916069
 20
2232.160622295193
 30
0.0
 11
166.5757742480248
 21
2257.592238792384
 31
0.0
1001
ACAD
1010
0.0
1020
0.0
1030
0.0
1001
ACADANNOTATIVE
1000
AnnotativeData
1002
{
1070
     1
1070
     1
1002
}
  0
LINE
  5
34DF
330
2BBC
100
AcDbEntity
  8
DETAIL
100
AcDbLine
 10
80.42807932511029
 20
2197.160622295189
 30
0.0
 11
132.9282133854879
 21
2232.160622295189
 31
0.0
1001
ACAD
1010
0.0
1020
0.0
1030
0.0
1001
ACADANNOTATIVE
1000
AnnotativeData
1002
{
1070
     1
1070
     1
1002
}
  0
LINE
  5
34E0
330
2BBC
100
AcDbEntity
  8
DETAIL
100
AcDbLine
 10
132.9282133854879
 20
2232.160622295189
 30
0.0
 11
166.5757742480284
 21
2254.592272256969
 31
0.0
1001
ACAD
1010
0.0
1020
0.0
1030
0.0
1001
ACADANNOTATIVE
1000
AnnotativeData
1002
{
1070
     1
1070
     1
1002
}
  0
LINE
  5
34E1
330
2BBC
100
AcDbEntity
  8
DETAIL
100
AcDbLine
 10
84.92804061900207
 20
2197.160622295192
 30
0.0
 11
137.428174679376
 21
2232.160622295191
 31
0.0
1001
ACAD
1010
0.0
1020
0.0
1030
0.0
1001
ACADANNOTATIVE
1000
AnnotativeData
1002
{
1070
     1
1070
     1
1002
}
  0
LINE
  5
34E2
330
2BBC
100
AcDbEntity
  8
DETAIL
100
AcDbLine
 10
137.428174679376
 20
2232.160622295191
 30
0.0
 11
166.5757742480248
 21
2251.592305721551
 31
0.0
1001
ACAD
1010
0.0
1020
0.0
1030
0.0
1001
ACADANNOTATIVE
1000
AnnotativeData
1002
{
1070
     1
1070
     1
1002
}
  0
LINE
  5
34E3
330
2BBC
100
AcDbEntity
  8
DETAIL
100
AcDbLine
 10
89.42800191288302
 20
2197.160622295192
 30
0.0
 11
141.9281359732606
 21
2232.160622295193
 31
0.0
1001
ACAD
1010
0.0
1020
0.0
1030
0.0
1001
ACADANNOTATIVE
1000
AnnotativeData
1002
{
1070
     1
1070
     1
1002
}
  0
LINE
  5
34E4
330
2BBC
100
AcDbEntity
  8
DETAIL
100
AcDbLine
 10
141.9281359732606
 20
2232.160622295193
 30
0.0
 11
166.5757742480284
 21
2248.592339186138
 31
0.0
1001
ACAD
1010
0.0
1020
0.0
1030
0.0
1001
ACADANNOTATIVE
1000
AnnotativeData
1002
{
1070
     1
1070
     1
1002
}
  0
LINE
  5
34E5
330
2BBC
100
AcDbEntity
  8
DETAIL
100
AcDbLine
 10
93.92796320677119
 20
2197.160622295192
 30
0.0
 11
146.4280972671488
 21
2232.160622295193
 31
0.0
1001
ACAD
1010
0.0
1020
0.0
1030
0.0
1001
ACADANNOTATIVE
1000
AnnotativeData
1002
{
1070
     1
1070
     1
1002
}
  0
LINE
  5
34E6
330
2BBC
100
AcDbEntity
  8
DETAIL
100
AcDbLine
 10
146.4280972671488
 20
2232.160622295193
 30
0.0
 11
166.5757742480284
 21
2245.592372650719
 31
0.0
1001
ACAD
1010
0.0
1020
0.0
1030
0.0
1001
ACADANNOTATIVE
1000
AnnotativeData
1002
{
1070
     1
1070
     1
1002
}
  0
LINE
  5
34E7
330
2BBC
100
AcDbEntity
  8
DETAIL
100
AcDbLine
 10
98.42792450065212
 20
2197.160622295189
 30
0.0
 11
150.9280585610296
 21
2232.160622295191
 31
0.0
1001
ACAD
1010
0.0
1020
0.0
1030
0.0
1001
ACADANNOTATIVE
1000
AnnotativeData
1002
{
1070
     1
1070
     1
1002
}
  0
LINE
  5
34E8
330
2BBC
100
AcDbEntity
  8
DETAIL
100
AcDbLine
 10
150.9280585610296
 20
2232.160622295191
 30
0.0
 11
166.5757742480248
 21
2242.592406115302
 31
0.0
1001
ACAD
1010
0.0
1020
0.0
1030
0.0
1001
ACADANNOTATIVE
1000
AnnotativeData
1002
{
1070
     1
1070
     1
1002
}
  0
LINE
  5
34E9
330
2BBC
100
AcDbEntity
  8
DETAIL
100
AcDbLine
 10
102.9278857945403
 20
2197.160622295191
 30
0.0
 11
155.4280198549179
 21
2232.160622295189
 31
0.0
1001
ACAD
1010
0.0
1020
0.0
1030
0.0
1001
ACADANNOTATIVE
1000
AnnotativeData
1002
{
1070
     1
1070
     1
1002
}
  0
LINE
  5
34EA
330
2BBC
100
AcDbEntity
  8
DETAIL
100
AcDbLine
 10
155.4280198549179
 20
2232.160622295193
 30
0.0
 11
166.5757742480284
 21
2239.592439579887
 31
0.0
1001
ACAD
1010
0.0
1020
0.0
1030
0.0
1001
ACADANNOTATIVE
1000
AnnotativeData
1002
{
1070
     1
1070
     1
1002
}
  0
LINE
  5
34EB
330
2BBC
100
AcDbEntity
  8
DETAIL
100
AcDbLine
 10
107.4278470884248
 20
2197.160622295191
 30
0.0
 11
159.9279811488024
 21
2232.160622295191
 31
0.0
1001
ACAD
1010
0.0
1020
0.0
1030
0.0
1001
ACADANNOTATIVE
1000
AnnotativeData
1002
{
1070
     1
1070
     1
1002
}
  0
LINE
  5
34EC
330
2BBC
100
AcDbEntity
  8
DETAIL
100
AcDbLine
 10
159.9279811488024
 20
2232.160622295191
 30
0.0
 11
166.5757742480248
 21
2236.59247304447
 31
0.0
1001
ACAD
1010
0.0
1020
0.0
1030
0.0
1001
ACADANNOTATIVE
1000
AnnotativeData
1002
{
1070
     1
1070
     1
1002
}
  0
LINE
  5
34ED
330
2BBC
100
AcDbEntity
  8
DETAIL
100
AcDbLine
 10
111.927808382313
 20
2197.160622295192
 30
0.0
 11
164.4279424426906
 21
2232.160622295193
 31
0.0
1001
ACAD
1010
0.0
1020
0.0
1030
0.0
1001
ACADANNOTATIVE
1000
AnnotativeData
1002
{
1070
     1
1070
     1
1002
}
  0
LINE
  5
34EE
330
2BBC
100
AcDbEntity
  8
DETAIL
100
AcDbLine
 10
164.4279424426906
 20
2232.160622295193
 30
0.0
 11
166.5757742480284
 21
2233.592506509056
 31
0.0
1001
ACAD
1010
0.0
1020
0.0
1030
0.0
1001
ACADANNOTATIVE
1000
AnnotativeData
1002
{
1070
     1
1070
     1
1002
}
  0
LINE
  5
34EF
330
2BBC
100
AcDbEntity
  8
DETAIL
100
AcDbLine
 10
116.4277696762012
 20
2197.160622295192
 30
0.0
 11
166.5757742480284
 21
2230.592539973641
 31
0.0
1001
ACAD
1010
0.0
1020
0.0
1030
0.0
1001
ACADANNOTATIVE
1000
AnnotativeData
1002
{
1070
     1
1070
     1
1002
}
  0
LINE
  5
34F0
330
2BBC
100
AcDbEntity
  8
DETAIL
100
AcDbLine
 10
120.9277309700858
 20
2197.160622295191
 30
0.0
 11
166.5757742480284
 21
2227.592573438222
 31
0.0
1001
ACAD
1010
0.0
1020
0.0
1030
0.0
1001
ACADANNOTATIVE
1000
AnnotativeData
1002
{
1070
     1
1070
     1
1002
}
  0
LINE
  5
34F1
330
2BBC
100
AcDbEntity
  8
DETAIL
100
AcDbLine
 10
125.4276922639703
 20
2197.160622295191
 30
0.0
 11
166.5757742480284
 21
2224.592606902808
 31
0.0
1001
ACAD
1010
0.0
1020
0.0
1030
0.0
1001
ACADANNOTATIVE
1000
AnnotativeData
1002
{
1070
     1
1070
     1
1002
}
  0
LINE
  5
34F2
330
2BBC
100
AcDbEntity
  8
DETAIL
100
AcDbLine
 10
129.9276535578549
 20
2197.160622295192
 30
0.0
 11
166.5757742480284
 21
2221.592640367391
 31
0.0
1001
ACAD
1010
0.0
1020
0.0
1030
0.0
1001
ACADANNOTATIVE
1000
AnnotativeData
1002
{
1070
     1
1070
     1
1002
}
  0
LINE
  5
34F3
330
2BBC
100
AcDbEntity
  8
DETAIL
100
AcDbLine
 10
134.4276148517394
 20
2197.160622295192
 30
0.0
 11
166.5757742480248
 21
2218.592673831974
 31
0.0
1001
ACAD
1010
0.0
1020
0.0
1030
0.0
1001
ACADANNOTATIVE
1000
AnnotativeData
1002
{
1070
     1
1070
     1
1002
}
  0
LINE
  5
34F4
330
2BBC
100
AcDbEntity
  8
DETAIL
100
AcDbLine
 10
138.927576145624
 20
2197.160622295191
 30
0.0
 11
166.5757742480284
 21
2215.592707296557
 31
0.0
1001
ACAD
1010
0.0
1020
0.0
1030
0.0
1001
ACADANNOTATIVE
1000
AnnotativeData
1002
{
1070
     1
1070
     1
1002
}
  0
LINE
  5
34F5
330
2BBC
100
AcDbEntity
  8
DETAIL
100
AcDbLine
 10
143.4275374395122
 20
2197.160622295191
 30
0.0
 11
166.5757742480248
 21
2212.592740761142
 31
0.0
1001
ACAD
1010
0.0
1020
0.0
1030
0.0
1001
ACADANNOTATIVE
1000
AnnotativeData
1002
{
1070
     1
1070
     1
1002
}
  0
LINE
  5
34F6
330
2BBC
100
AcDbEntity
  8
DETAIL
100
AcDbLine
 10
147.9274987334004
 20
2197.160622295192
 30
0.0
 11
166.5757742480284
 21
2209.592774225728
 31
0.0
1001
ACAD
1010
0.0
1020
0.0
1030
0.0
1001
ACADANNOTATIVE
1000
AnnotativeData
1002
{
1070
     1
1070
     1
1002
}
  0
LINE
  5
34F7
330
2BBC
100
AcDbEntity
  8
DETAIL
100
AcDbLine
 10
152.4274600272849
 20
2197.160622295192
 30
0.0
 11
166.5757742480248
 21
2206.592807690309
 31
0.0
1001
ACAD
1010
0.0
1020
0.0
1030
0.0
1001
ACADANNOTATIVE
1000
AnnotativeData
1002
{
1070
     1
1070
     1
1002
}
  0
LINE
  5
34F8
330
2BBC
100
AcDbEntity
  8
DETAIL
100
AcDbLine
 10
156.9274213211695
 20
2197.160622295191
 30
0.0
 11
166.5757742480284
 21
2203.592841154894
 31
0.0
1001
ACAD
1010
0.0
1020
0.0
1030
0.0
1001
ACADANNOTATIVE
1000
AnnotativeData
1002
{
1070
     1
1070
     1
1002
}
  0
LINE
  5
34F9
330
2BBC
100
AcDbEntity
  8
DETAIL
100
AcDbLine
 10
161.427382615054
 20
2197.160622295191
 30
0.0
 11
166.5757742480248
 21
2200.592874619475
 31
0.0
1001
ACAD
1010
0.0
1020
0.0
1030
0.0
1001
ACADANNOTATIVE
1000
AnnotativeData
1002
{
1070
     1
1070
     1
1002
}
  0
LINE
  5
34FA
330
2BBC
100
AcDbEntity
  8
DETAIL
100
AcDbLine
 10
165.9273439089386
 20
2197.160622295191
 30
0.0
 11
166.5757742480248
 21
2197.59290808406
 31
0.0
1001
ACAD
1010
0.0
1020
0.0
1030
0.0
1001
ACADANNOTATIVE
1000
AnnotativeData
1002
{
1070
     1
1070
     1
1002
}
  0
LINE
  5
34FB
330
2BBC
100
AcDbEntity
  8
DETAIL
100
AcDbLine
 10
164.1407868163344
 20
2425.960622295195
 30
0.0
 11
166.5757742480248
 21
2424.337301485934
 31
0.0
1001
ACAD
1010
0.0
1020
0.0
1030
0.0
1001
ACADANNOTATIVE
1000
AnnotativeData
1002
{
1070
     1
1070
     1
1002
}
  0
LINE
  5
34FC
330
2BBC
100
AcDbEntity
  8
DETAIL
100
AcDbLine
 10
159.6408255224462
 20
2425.960622295197
 30
0.0
 11
166.5757742480248
 21
2421.337334950519
 31
0.0
1001
ACAD
1010
0.0
1020
0.0
1030
0.0
1001
ACADANNOTATIVE
1000
AnnotativeData
1002
{
1070
     1
1070
     1
1002
}
  0
LINE
  5
34FD
330
2BBC
100
AcDbEntity
  8
DETAIL
100
AcDbLine
 10
155.1408642285617
 20
2425.960622295195
 30
0.0
 11
166.5757742480248
 21
2418.337368415101
 31
0.0
1001
ACAD
1010
0.0
1020
0.0
1030
0.0
1001
ACADANNOTATIVE
1000
AnnotativeData
1002
{
1070
     1
1070
     1
1002
}
  0
LINE
  5
34FE
330
2BBC
100
AcDbEntity
  8
DETAIL
100
AcDbLine
 10
150.6409029346771
 20
2425.960622295197
 30
0.0
 11
166.5757742480248
 21
2415.337401879686
 31
0.0
1001
ACAD
1010
0.0
1020
0.0
1030
0.0
1001
ACADANNOTATIVE
1000
AnnotativeData
1002
{
1070
     1
1070
     1
1002
}
  0
LINE
  5
34FF
330
2BBC
100
AcDbEntity
  8
DETAIL
100
AcDbLine
 10
146.1409416407925
 20
2425.960622295197
 30
0.0
 11
166.5757742480248
 21
2412.337435344269
 31
0.0
1001
ACAD
1010
0.0
1020
0.0
1030
0.0
1001
ACADANNOTATIVE
1000
AnnotativeData
1002
{
1070
     1
1070
     1
1002
}
  0
LINE
  5
3500
330
2BBC
100
AcDbEntity
  8
DETAIL
100
AcDbLine
 10
141.6409803469043
 20
2425.960622295195
 30
0.0
 11
166.5757742480248
 21
2409.337468808852
 31
0.0
1001
ACAD
1010
0.0
1020
0.0
1030
0.0
1001
ACADANNOTATIVE
1000
AnnotativeData
1002
{
1070
     1
1070
     1
1002
}
  0
LINE
  5
3501
330
2BBC
100
AcDbEntity
  8
DETAIL
100
AcDbLine
 10
137.1410190530198
 20
2425.960622295195
 30
0.0
 11
166.5757742480248
 21
2406.337502273438
 31
0.0
1001
ACAD
1010
0.0
1020
0.0
1030
0.0
1001
ACADANNOTATIVE
1000
AnnotativeData
1002
{
1070
     1
1070
     1
1002
}
  0
LINE
  5
3502
330
2BBC
100
AcDbEntity
  8
DETAIL
100
AcDbLine
 10
132.6410577591352
 20
2425.960622295195
 30
0.0
 11
166.5757742480248
 21
2403.33753573802
 31
0.0
1001
ACAD
1010
0.0
1020
0.0
1030
0.0
1001
ACADANNOTATIVE
1000
AnnotativeData
1002
{
1070
     1
1070
     1
1002
}
  0
LINE
  5
3503
330
2BBC
100
AcDbEntity
  8
DETAIL
100
AcDbLine
 10
128.141096465247
 20
2425.960622295197
 30
0.0
 11
166.5757742480248
 21
2400.337569202605
 31
0.0
1001
ACAD
1010
0.0
1020
0.0
1030
0.0
1001
ACADANNOTATIVE
1000
AnnotativeData
1002
{
1070
     1
1070
     1
1002
}
  0
LINE
  5
3504
330
2BBC
100
AcDbEntity
  8
DETAIL
100
AcDbLine
 10
123.6411351713625
 20
2425.960622295195
 30
0.0
 11
166.5757742480248
 21
2397.337602667187
 31
0.0
1001
ACAD
1010
0.0
1020
0.0
1030
0.0
1001
ACADANNOTATIVE
1000
AnnotativeData
1002
{
1070
     1
1070
     1
1002
}
  0
LINE
  5
3505
330
2BBC
100
AcDbEntity
  8
DETAIL
100
AcDbLine
 10
119.141173877478
 20
2425.960622295195
 30
0.0
 11
166.5757742480248
 21
2394.337636131773
 31
0.0
1001
ACAD
1010
0.0
1020
0.0
1030
0.0
1001
ACADANNOTATIVE
1000
AnnotativeData
1002
{
1070
     1
1070
     1
1002
}
  0
LINE
  5
3506
330
2BBC
100
AcDbEntity
  8
DETAIL
100
AcDbLine
 10
114.6412125835934
 20
2425.960622295193
 30
0.0
 11
166.5757742480284
 21
2391.337669596355
 31
0.0
1001
ACAD
1010
0.0
1020
0.0
1030
0.0
1001
ACADANNOTATIVE
1000
AnnotativeData
1002
{
1070
     1
1070
     1
1002
}
  0
LINE
  5
3507
330
2BBC
100
AcDbEntity
  8
DETAIL
100
AcDbLine
 10
110.1412512897052
 20
2425.960622295197
 30
0.0
 11
166.5757742480248
 21
2388.33770306094
 31
0.0
1001
ACAD
1010
0.0
1020
0.0
1030
0.0
1001
ACADANNOTATIVE
1000
AnnotativeData
1002
{
1070
     1
1070
     1
1002
}
  0
LINE
  5
3508
330
2BBC
100
AcDbEntity
  8
DETAIL
100
AcDbLine
 10
105.6412899958206
 20
2425.960622295195
 30
0.0
 11
166.5757742480248
 21
2385.337736525523
 31
0.0
1001
ACAD
1010
0.0
1020
0.0
1030
0.0
1001
ACADANNOTATIVE
1000
AnnotativeData
1002
{
1070
     1
1070
     1
1002
}
  0
LINE
  5
3509
330
2BBC
100
AcDbEntity
  8
DETAIL
100
AcDbLine
 10
101.1413287019361
 20
2425.960622295197
 30
0.0
 11
166.5757742480248
 21
2382.337769990108
 31
0.0
1001
ACAD
1010
0.0
1020
0.0
1030
0.0
1001
ACADANNOTATIVE
1000
AnnotativeData
1002
{
1070
     1
1070
     1
1002
}
  0
LINE
  5
350A
330
2BBC
100
AcDbEntity
  8
DETAIL
100
AcDbLine
 10
96.64136740805156
 20
2425.960622295193
 30
0.0
 11
166.5757742480248
 21
2379.33780345469
 31
0.0
1001
ACAD
1010
0.0
1020
0.0
1030
0.0
1001
ACADANNOTATIVE
1000
AnnotativeData
1002
{
1070
     1
1070
     1
1002
}
  0
LINE
  5
350B
330
2BBC
100
AcDbEntity
  8
DETAIL
100
AcDbLine
 10
92.14140611416338
 20
2425.960622295197
 30
0.0
 11
166.5757742480248
 21
2376.337836919276
 31
0.0
1001
ACAD
1010
0.0
1020
0.0
1030
0.0
1001
ACADANNOTATIVE
1000
AnnotativeData
1002
{
1070
     1
1070
     1
1002
}
  0
LINE
  5
350C
330
2BBC
100
AcDbEntity
  8
DETAIL
100
AcDbLine
 10
87.64144482027882
 20
2425.960622295195
 30
0.0
 11
166.5757742480248
 21
2373.337870383859
 31
0.0
1001
ACAD
1010
0.0
1020
0.0
1030
0.0
1001
ACADANNOTATIVE
1000
AnnotativeData
1002
{
1070
     1
1070
     1
1002
}
  0
LINE
  5
350D
330
2BBC
100
AcDbEntity
  8
DETAIL
100
AcDbLine
 10
83.14148352639426
 20
2425.960622295195
 30
0.0
 11
166.5757742480248
 21
2370.337903848442
 31
0.0
1001
ACAD
1010
0.0
1020
0.0
1030
0.0
1001
ACADANNOTATIVE
1000
AnnotativeData
1002
{
1070
     1
1070
     1
1002
}
  0
LINE
  5
350E
330
2BBC
100
AcDbEntity
  8
DETAIL
100
AcDbLine
 10
78.64152223250972
 20
2425.960622295193
 30
0.0
 11
166.5757742480248
 21
2367.337937313027
 31
0.0
1001
ACAD
1010
0.0
1020
0.0
1030
0.0
1001
ACADANNOTATIVE
1000
AnnotativeData
1002
{
1070
     1
1070
     1
1002
}
  0
LINE
  5
350F
330
2BBC
100
AcDbEntity
  8
DETAIL
100
AcDbLine
 10
74.14156093862151
 20
2425.960622295195
 30
0.0
 11
166.5757742480248
 21
2364.337970777608
 31
0.0
1001
ACAD
1010
0.0
1020
0.0
1030
0.0
1001
ACADANNOTATIVE
1000
AnnotativeData
1002
{
1070
     1
1070
     1
1002
}
  0
LINE
  5
3510
330
2BBC
100
AcDbEntity
  8
DETAIL
100
AcDbLine
 10
69.64159964473697
 20
2425.960622295195
 30
0.0
 11
166.5757742480248
 21
2361.338004242194
 31
0.0
1001
ACAD
1010
0.0
1020
0.0
1030
0.0
1001
ACADANNOTATIVE
1000
AnnotativeData
1002
{
1070
     1
1070
     1
1002
}
  0
LINE
  5
3511
330
2BBC
100
AcDbEntity
  8
DETAIL
100
AcDbLine
 10
65.14163835085239
 20
2425.960622295195
 30
0.0
 11
166.5757742480248
 21
2358.338037706777
 31
0.0
1001
ACAD
1010
0.0
1020
0.0
1030
0.0
1001
ACADANNOTATIVE
1000
AnnotativeData
1002
{
1070
     1
1070
     1
1002
}
  0
LINE
  5
3512
330
2BBC
100
AcDbEntity
  8
DETAIL
100
AcDbLine
 10
60.64167705696785
 20
2425.960622295195
 30
0.0
 11
166.5757742480248
 21
2355.338071171362
 31
0.0
1001
ACAD
1010
0.0
1020
0.0
1030
0.0
1001
ACADANNOTATIVE
1000
AnnotativeData
1002
{
1070
     1
1070
     1
1002
}
  0
LINE
  5
3513
330
2BBC
100
AcDbEntity
  8
DETAIL
100
AcDbLine
 10
56.14171576308331
 20
2425.960622295193
 30
0.0
 11
166.5757742480248
 21
2352.338104635945
 31
0.0
1001
ACAD
1010
0.0
1020
0.0
1030
0.0
1001
ACADANNOTATIVE
1000
AnnotativeData
1002
{
1070
     1
1070
     1
1002
}
  0
LINE
  5
3514
330
2BBC
100
AcDbEntity
  8
DETAIL
100
AcDbLine
 10
51.64175446919512
 20
2425.960622295195
 30
0.0
 11
166.5757742480248
 21
2349.338138100529
 31
0.0
1001
ACAD
1010
0.0
1020
0.0
1030
0.0
1001
ACADANNOTATIVE
1000
AnnotativeData
1002
{
1070
     1
1070
     1
1002
}
  0
LINE
  5
3515
330
2BBC
100
AcDbEntity
  8
DETAIL
100
AcDbLine
 10
47.14179317531058
 20
2425.960622295193
 30
0.0
 11
166.5757742480248
 21
2346.338171565112
 31
0.0
1001
ACAD
1010
0.0
1020
0.0
1030
0.0
1001
ACADANNOTATIVE
1000
AnnotativeData
1002
{
1070
     1
1070
     1
1002
}
  0
LINE
  5
3516
330
2BBC
100
AcDbEntity
  8
DETAIL
100
AcDbLine
 10
42.64183188142601
 20
2425.960622295195
 30
0.0
 11
166.5757742480248
 21
2343.338205029697
 31
0.0
1001
ACAD
1010
0.0
1020
0.0
1030
0.0
1001
ACADANNOTATIVE
1000
AnnotativeData
1002
{
1070
     1
1070
     1
1002
}
  0
LINE
  5
3517
330
2BBC
100
AcDbEntity
  8
DETAIL
100
AcDbLine
 10
38.14187058754146
 20
2425.960622295195
 30
0.0
 11
166.5757742480248
 21
2340.338238494281
 31
0.0
1001
ACAD
1010
0.0
1020
0.0
1030
0.0
1001
ACADANNOTATIVE
1000
AnnotativeData
1002
{
1070
     1
1070
     1
1002
}
  0
LINE
  5
3518
330
2BBC
100
AcDbEntity
  8
DETAIL
100
AcDbLine
 10
33.64190929365327
 20
2425.960622295195
 30
0.0
 11
166.5757742480248
 21
2337.338271958865
 31
0.0
1001
ACAD
1010
0.0
1020
0.0
1030
0.0
1001
ACADANNOTATIVE
1000
AnnotativeData
1002
{
1070
     1
1070
     1
1002
}
  0
LINE
  5
3519
330
2BBC
100
AcDbEntity
  8
DETAIL
100
AcDbLine
 10
29.14194799976872
 20
2425.960622295193
 30
0.0
 11
166.5757742480284
 21
2334.338305423447
 31
0.0
1001
ACAD
1010
0.0
1020
0.0
1030
0.0
1001
ACADANNOTATIVE
1000
AnnotativeData
1002
{
1070
     1
1070
     1
1002
}
  0
LINE
  5
351A
330
2BBC
100
AcDbEntity
  8
DETAIL
100
AcDbLine
 10
24.64198670588054
 20
2425.960622295193
 30
0.0
 11
166.5757742480248
 21
2331.338338888031
 31
0.0
1001
ACAD
1010
0.0
1020
0.0
1030
0.0
1001
ACADANNOTATIVE
1000
AnnotativeData
1002
{
1070
     1
1070
     1
1002
}
  0
LINE
  5
351B
330
2BBC
100
AcDbEntity
  8
DETAIL
100
AcDbLine
 10
20.14202541199598
 20
2425.960622295195
 30
0.0
 11
166.5757742480284
 21
2328.338372352613
 31
0.0
1001
ACAD
1010
0.0
1020
0.0
1030
0.0
1001
ACADANNOTATIVE
1000
AnnotativeData
1002
{
1070
     1
1070
     1
1002
}
  0
LINE
  5
351C
330
2BBC
100
AcDbEntity
  8
DETAIL
100
AcDbLine
 10
15.64206411811142
 20
2425.960622295195
 30
0.0
 11
166.5757742480284
 21
2325.338405817197
 31
0.0
1001
ACAD
1010
0.0
1020
0.0
1030
0.0
1001
ACADANNOTATIVE
1000
AnnotativeData
1002
{
1070
     1
1070
     1
1002
}
  0
LINE
  5
351D
330
2BBC
100
AcDbEntity
  8
DETAIL
100
AcDbLine
 10
11.14210282422686
 20
2425.960622295193
 30
0.0
 11
166.5757742480284
 21
2322.33843928178
 31
0.0
1001
ACAD
1010
0.0
1020
0.0
1030
0.0
1001
ACADANNOTATIVE
1000
AnnotativeData
1002
{
1070
     1
1070
     1
1002
}
  0
LINE
  5
351E
330
2BBC
100
AcDbEntity
  8
DETAIL
100
AcDbLine
 10
6.642141530342312
 20
2425.960622295193
 30
0.0
 11
166.5757742480284
 21
2319.338472746364
 31
0.0
1001
ACAD
1010
0.0
1020
0.0
1030
0.0
1001
ACADANNOTATIVE
1000
AnnotativeData
1002
{
1070
     1
1070
     1
1002
}
  0
LINE
  5
351F
330
2BBC
100
AcDbEntity
  8
DETAIL
100
AcDbLine
 10
2.142180236454123
 20
2425.960622295195
 30
0.0
 11
166.5757742480284
 21
2316.338506210948
 31
0.0
1001
ACAD
1010
0.0
1020
0.0
1030
0.0
1001
ACADANNOTATIVE
1000
AnnotativeData
1002
{
1070
     1
1070
     1
1002
}
  0
LINE
  5
3520
330
2BBC
100
AcDbEntity
  8
DETAIL
100
AcDbLine
 10
-2.357781057430428
 20
2425.960622295193
 30
0.0
 11
166.5757742480284
 21
2313.338539675531
 31
0.0
1001
ACAD
1010
0.0
1020
0.0
1030
0.0
1001
ACADANNOTATIVE
1000
AnnotativeData
1002
{
1070
     1
1070
     1
1002
}
  0
LINE
  5
3521
330
2BBC
100
AcDbEntity
  8
DETAIL
100
AcDbLine
 10
-6.857742351314982
 20
2425.960622295195
 30
0.0
 11
166.5757742480284
 21
2310.338573140116
 31
0.0
1001
ACAD
1010
0.0
1020
0.0
1030
0.0
1001
ACADANNOTATIVE
1000
AnnotativeData
1002
{
1070
     1
1070
     1
1002
}
  0
LINE
  5
3522
330
2BBC
100
AcDbEntity
  8
DETAIL
100
AcDbLine
 10
-11.35770364519953
 20
2425.960622295192
 30
0.0
 11
166.5757742480284
 21
2307.3386066047
 31
0.0
1001
ACAD
1010
0.0
1020
0.0
1030
0.0
1001
ACADANNOTATIVE
1000
AnnotativeData
1002
{
1070
     1
1070
     1
1002
}
  0
LINE
  5
3523
330
2BBC
100
AcDbEntity
  8
DETAIL
100
AcDbLine
 10
-15.85766493908773
 20
2425.960622295195
 30
0.0
 11
166.5757742480284
 21
2304.338640069284
 31
0.0
1001
ACAD
1010
0.0
1020
0.0
1030
0.0
1001
ACADANNOTATIVE
1000
AnnotativeData
1002
{
1070
     1
1070
     1
1002
}
  0
LINE
  5
3524
330
2BBC
100
AcDbEntity
  8
DETAIL
100
AcDbLine
 10
-20.35762623297228
 20
2425.960622295193
 30
0.0
 11
166.5757742480284
 21
2301.338673533868
 31
0.0
1001
ACAD
1010
0.0
1020
0.0
1030
0.0
1001
ACADANNOTATIVE
1000
AnnotativeData
1002
{
1070
     1
1070
     1
1002
}
  0
LINE
  5
3525
330
2BBC
100
AcDbEntity
  8
DETAIL
100
AcDbLine
 10
-24.85758752685683
 20
2425.960622295195
 30
0.0
 11
166.5757742480284
 21
2298.338706998452
 31
0.0
1001
ACAD
1010
0.0
1020
0.0
1030
0.0
1001
ACADANNOTATIVE
1000
AnnotativeData
1002
{
1070
     1
1070
     1
1002
}
  0
LINE
  5
3526
330
2BBC
100
AcDbEntity
  8
DETAIL
100
AcDbLine
 10
-29.35754882074139
 20
2425.960622295193
 30
0.0
 11
166.5757742480284
 21
2295.338740463034
 31
0.0
1001
ACAD
1010
0.0
1020
0.0
1030
0.0
1001
ACADANNOTATIVE
1000
AnnotativeData
1002
{
1070
     1
1070
     1
1002
}
  0
LINE
  5
3527
330
2BBC
100
AcDbEntity
  8
DETAIL
100
AcDbLine
 10
-33.85751011462958
 20
2425.960622295192
 30
0.0
 11
166.5757742480284
 21
2292.338773927619
 31
0.0
1001
ACAD
1010
0.0
1020
0.0
1030
0.0
1001
ACADANNOTATIVE
1000
AnnotativeData
1002
{
1070
     1
1070
     1
1002
}
  0
LINE
  5
3528
330
2BBC
100
AcDbEntity
  8
DETAIL
100
AcDbLine
 10
-38.35747140851413
 20
2425.960622295193
 30
0.0
 11
166.5757742480284
 21
2289.338807392203
 31
0.0
1001
ACAD
1010
0.0
1020
0.0
1030
0.0
1001
ACADANNOTATIVE
1000
AnnotativeData
1002
{
1070
     1
1070
     1
1002
}
  0
LINE
  5
3529
330
2BBC
100
AcDbEntity
  8
DETAIL
100
AcDbLine
 10
-42.85743270239868
 20
2425.960622295193
 30
0.0
 11
166.5757742480284
 21
2286.338840856785
 31
0.0
1001
ACAD
1010
0.0
1020
0.0
1030
0.0
1001
ACADANNOTATIVE
1000
AnnotativeData
1002
{
1070
     1
1070
     1
1002
}
  0
LINE
  5
352A
330
2BBC
100
AcDbEntity
  8
DETAIL
100
AcDbLine
 10
-47.35739399628323
 20
2425.960622295193
 30
0.0
 11
166.5757742480284
 21
2283.33887432137
 31
0.0
1001
ACAD
1010
0.0
1020
0.0
1030
0.0
1001
ACADANNOTATIVE
1000
AnnotativeData
1002
{
1070
     1
1070
     1
1002
}
  0
LINE
  5
352B
330
2BBC
100
AcDbEntity
  8
DETAIL
100
AcDbLine
 10
-51.85735529017144
 20
2425.960622295195
 30
0.0
 11
-49.22422575197447
 21
2424.205207085571
 31
0.0
1001
ACAD
1010
0.0
1020
0.0
1030
0.0
1001
ACADANNOTATIVE
1000
AnnotativeData
1002
{
1070
     1
1070
     1
1002
}
  0
LINE
  5
352C
330
2BBC
100
AcDbEntity
  8
DETAIL
100
AcDbLine
 10
-49.22422575197082
 20
2424.205207085567
 30
0.0
 11
166.5757742480284
 21
2280.338907785953
 31
0.0
1001
ACAD
1010
0.0
1020
0.0
1030
0.0
1001
ACADANNOTATIVE
1000
AnnotativeData
1002
{
1070
     1
1070
     1
1002
}
  0
LINE
  5
352D
330
2BBC
100
AcDbEntity
  8
DETAIL
100
AcDbLine
 10
-56.35731658405598
 20
2425.960622295193
 30
0.0
 11
-49.22422575197447
 21
2421.205240550154
 31
0.0
1001
ACAD
1010
0.0
1020
0.0
1030
0.0
1001
ACADANNOTATIVE
1000
AnnotativeData
1002
{
1070
     1
1070
     1
1002
}
  0
LINE
  5
352E
330
2BBC
100
AcDbEntity
  8
DETAIL
100
AcDbLine
 10
-49.22422575197082
 20
2421.205240550153
 30
0.0
 11
166.5757742480284
 21
2277.338941250539
 31
0.0
1001
ACAD
1010
0.0
1020
0.0
1030
0.0
1001
ACADANNOTATIVE
1000
AnnotativeData
1002
{
1070
     1
1070
     1
1002
}
  0
LINE
  5
352F
330
2BBC
100
AcDbEntity
  8
DETAIL
100
AcDbLine
 10
-60.85727787794053
 20
2425.960622295193
 30
0.0
 11
-49.22422575197447
 21
2418.205274014737
 31
0.0
1001
ACAD
1010
0.0
1020
0.0
1030
0.0
1001
ACADANNOTATIVE
1000
AnnotativeData
1002
{
1070
     1
1070
     1
1002
}
  0
LINE
  5
3530
330
2BBC
100
AcDbEntity
  8
DETAIL
100
AcDbLine
 10
-49.22422575196719
 20
2418.205274014734
 30
0.0
 11
166.5757742480284
 21
2274.338974715121
 31
0.0
1001
ACAD
1010
0.0
1020
0.0
1030
0.0
1001
ACADANNOTATIVE
1000
AnnotativeData
1002
{
1070
     1
1070
     1
1002
}
  0
LINE
  5
3531
330
2BBC
100
AcDbEntity
  8
DETAIL
100
AcDbLine
 10
-65.35723917182507
 20
2425.960622295193
 30
0.0
 11
-49.22422575197447
 21
2415.205307479322
 31
0.0
1001
ACAD
1010
0.0
1020
0.0
1030
0.0
1001
ACADANNOTATIVE
1000
AnnotativeData
1002
{
1070
     1
1070
     1
1002
}
  0
LINE
  5
3532
330
2BBC
100
AcDbEntity
  8
DETAIL
100
AcDbLine
 10
-49.22422575197082
 20
2415.20530747932
 30
0.0
 11
166.5757742480284
 21
2271.339008179706
 31
0.0
1001
ACAD
1010
0.0
1020
0.0
1030
0.0
1001
ACADANNOTATIVE
1000
AnnotativeData
1002
{
1070
     1
1070
     1
1002
}
  0
LINE
  5
3533
330
2BBC
100
AcDbEntity
  8
DETAIL
100
AcDbLine
 10
-69.85720046570964
 20
2425.960622295193
 30
0.0
 11
-49.22422575197447
 21
2412.205340943905
 31
0.0
1001
ACAD
1010
0.0
1020
0.0
1030
0.0
1001
ACADANNOTATIVE
1000
AnnotativeData
1002
{
1070
     1
1070
     1
1002
}
  0
LINE
  5
3534
330
2BBC
100
AcDbEntity
  8
DETAIL
100
AcDbLine
 10
-49.22422575196719
 20
2412.205340943902
 30
0.0
 11
166.5757742480284
 21
2268.339041644288
 31
0.0
1001
ACAD
1010
0.0
1020
0.0
1030
0.0
1001
ACADANNOTATIVE
1000
AnnotativeData
1002
{
1070
     1
1070
     1
1002
}
  0
LINE
  5
3535
330
2BBC
100
AcDbEntity
  8
DETAIL
100
AcDbLine
 10
-74.35716175959782
 20
2425.960622295195
 30
0.0
 11
-49.22422575197447
 21
2409.20537440849
 31
0.0
1001
ACAD
1010
0.0
1020
0.0
1030
0.0
1001
ACADANNOTATIVE
1000
AnnotativeData
1002
{
1070
     1
1070
     1
1002
}
  0
LINE
  5
3536
330
2BBC
100
AcDbEntity
  8
DETAIL
100
AcDbLine
 10
-49.22422575197082
 20
2409.205374408486
 30
0.0
 11
166.5757742480284
 21
2265.339075108874
 31
0.0
1001
ACAD
1010
0.0
1020
0.0
1030
0.0
1001
ACADANNOTATIVE
1000
AnnotativeData
1002
{
1070
     1
1070
     1
1002
}
  0
LINE
  5
3537
330
2BBC
100
AcDbEntity
  8
DETAIL
100
AcDbLine
 10
-78.85712305348237
 20
2425.960622295192
 30
0.0
 11
-49.22422575197447
 21
2406.205407873073
 31
0.0
1001
ACAD
1010
0.0
1020
0.0
1030
0.0
1001
ACADANNOTATIVE
1000
AnnotativeData
1002
{
1070
     1
1070
     1
1002
}
  0
LINE
  5
3538
330
2BBC
100
AcDbEntity
  8
DETAIL
100
AcDbLine
 10
-49.22422575197082
 20
2406.205407873069
 30
0.0
 11
166.5757742480284
 21
2262.339108573456
 31
0.0
1001
ACAD
1010
0.0
1020
0.0
1030
0.0
1001
ACADANNOTATIVE
1000
AnnotativeData
1002
{
1070
     1
1070
     1
1002
}
  0
LINE
  5
3539
330
2BBC
100
AcDbEntity
  8
DETAIL
100
AcDbLine
 10
-83.35708434737055
 20
2425.960622295193
 30
0.0
 11
-49.22422575197447
 21
2403.205441337658
 31
0.0
1001
ACAD
1010
0.0
1020
0.0
1030
0.0
1001
ACADANNOTATIVE
1000
AnnotativeData
1002
{
1070
     1
1070
     1
1002
}
  0
LINE
  5
353A
330
2BBC
100
AcDbEntity
  8
DETAIL
100
AcDbLine
 10
-49.22422575197082
 20
2403.205441337656
 30
0.0
 11
166.5757742480284
 21
2259.339142038041
 31
0.0
1001
ACAD
1010
0.0
1020
0.0
1030
0.0
1001
ACADANNOTATIVE
1000
AnnotativeData
1002
{
1070
     1
1070
     1
1002
}
  0
LINE
  5
353B
330
2BBC
100
AcDbEntity
  8
DETAIL
100
AcDbLine
 10
-87.85704564125513
 20
2425.960622295193
 30
0.0
 11
-49.22422575197447
 21
2400.20547480224
 31
0.0
1001
ACAD
1010
0.0
1020
0.0
1030
0.0
1001
ACADANNOTATIVE
1000
AnnotativeData
1002
{
1070
     1
1070
     1
1002
}
  0
LINE
  5
353C
330
2BBC
100
AcDbEntity
  8
DETAIL
100
AcDbLine
 10
-49.22422575197082
 20
2400.205474802239
 30
0.0
 11
166.5757742480284
 21
2256.339175502624
 31
0.0
1001
ACAD
1010
0.0
1020
0.0
1030
0.0
1001
ACADANNOTATIVE
1000
AnnotativeData
1002
{
1070
     1
1070
     1
1002
}
  0
LINE
  5
353D
330
2BBC
100
AcDbEntity
  8
DETAIL
100
AcDbLine
 10
-92.35700693513969
 20
2425.960622295193
 30
0.0
 11
-49.22422575197447
 21
2397.205508266823
 31
0.0
1001
ACAD
1010
0.0
1020
0.0
1030
0.0
1001
ACADANNOTATIVE
1000
AnnotativeData
1002
{
1070
     1
1070
     1
1002
}
  0
LINE
  5
353E
330
2BBC
100
AcDbEntity
  8
DETAIL
100
AcDbLine
 10
-49.22422575197082
 20
2397.205508266821
 30
0.0
 11
166.5757742480284
 21
2253.339208967207
 31
0.0
1001
ACAD
1010
0.0
1020
0.0
1030
0.0
1001
ACADANNOTATIVE
1000
AnnotativeData
1002
{
1070
     1
1070
     1
1002
}
  0
LINE
  5
353F
330
2BBC
100
AcDbEntity
  8
DETAIL
100
AcDbLine
 10
-96.85696822902423
 20
2425.960622295193
 30
0.0
 11
-49.22422575197447
 21
2394.205541731408
 31
0.0
1001
ACAD
1010
0.0
1020
0.0
1030
0.0
1001
ACADANNOTATIVE
1000
AnnotativeData
1002
{
1070
     1
1070
     1
1002
}
  0
LINE
  5
3540
330
2BBC
100
AcDbEntity
  8
DETAIL
100
AcDbLine
 10
-49.22422575197082
 20
2394.205541731406
 30
0.0
 11
166.5757742480284
 21
2250.339242431792
 31
0.0
1001
ACAD
1010
0.0
1020
0.0
1030
0.0
1001
ACADANNOTATIVE
1000
AnnotativeData
1002
{
1070
     1
1070
     1
1002
}
  0
LINE
  5
3541
330
2BBC
100
AcDbEntity
  8
DETAIL
100
AcDbLine
 10
-99.22422575197449
 20
2424.538823411844
 30
0.0
 11
-49.22422575197447
 21
2391.205575195991
 31
0.0
1001
ACAD
1010
0.0
1020
0.0
1030
0.0
1001
ACADANNOTATIVE
1000
AnnotativeData
1002
{
1070
     1
1070
     1
1002
}
  0
LINE
  5
3542
330
2BBC
100
AcDbEntity
  8
DETAIL
100
AcDbLine
 10
-49.22422575196719
 20
2391.205575195987
 30
0.0
 11
166.5757742480284
 21
2247.339275896375
 31
0.0
1001
ACAD
1010
0.0
1020
0.0
1030
0.0
1001
ACADANNOTATIVE
1000
AnnotativeData
1002
{
1070
     1
1070
     1
1002
}
  0
LINE
  5
3543
330
2BBC
100
AcDbEntity
  8
DETAIL
100
AcDbLine
 10
-99.22422575197449
 20
2421.538856876428
 30
0.0
 11
-49.22422575197447
 21
2388.205608660575
 31
0.0
1001
ACAD
1010
0.0
1020
0.0
1030
0.0
1001
ACADANNOTATIVE
1000
AnnotativeData
1002
{
1070
     1
1070
     1
1002
}
  0
LINE
  5
3544
330
2BBC
100
AcDbEntity
  8
DETAIL
100
AcDbLine
 10
-49.22422575197447
 20
2388.205608660574
 30
0.0
 11
166.5757742480284
 21
2244.33930936096
 31
0.0
1001
ACAD
1010
0.0
1020
0.0
1030
0.0
1001
ACADANNOTATIVE
1000
AnnotativeData
1002
{
1070
     1
1070
     1
1002
}
  0
LINE
  5
3545
330
2BBC
100
AcDbEntity
  8
DETAIL
100
AcDbLine
 10
-99.22422575197449
 20
2418.53889034101
 30
0.0
 11
-49.22422575197447
 21
2385.205642125158
 31
0.0
1001
ACAD
1010
0.0
1020
0.0
1030
0.0
1001
ACADANNOTATIVE
1000
AnnotativeData
1002
{
1070
     1
1070
     1
1002
}
  0
LINE
  5
3546
330
2BBC
100
AcDbEntity
  8
DETAIL
100
AcDbLine
 10
-49.22422575197082
 20
2385.205642125157
 30
0.0
 11
166.5757742480284
 21
2241.339342825542
 31
0.0
1001
ACAD
1010
0.0
1020
0.0
1030
0.0
1001
ACADANNOTATIVE
1000
AnnotativeData
1002
{
1070
     1
1070
     1
1002
}
  0
LINE
  5
3547
330
2BBC
100
AcDbEntity
  8
DETAIL
100
AcDbLine
 10
-99.22422575197449
 20
2415.538923805594
 30
0.0
 11
-49.22422575197447
 21
2382.205675589743
 31
0.0
1001
ACAD
1010
0.0
1020
0.0
1030
0.0
1001
ACADANNOTATIVE
1000
AnnotativeData
1002
{
1070
     1
1070
     1
1002
}
  0
LINE
  5
3548
330
2BBC
100
AcDbEntity
  8
DETAIL
100
AcDbLine
 10
-49.22422575197082
 20
2382.205675589741
 30
0.0
 11
166.5757742480284
 21
2238.339376290128
 31
0.0
1001
ACAD
1010
0.0
1020
0.0
1030
0.0
1001
ACADANNOTATIVE
1000
AnnotativeData
1002
{
1070
     1
1070
     1
1002
}
  0
LINE
  5
3549
330
2BBC
100
AcDbEntity
  8
DETAIL
100
AcDbLine
 10
-99.22422575197449
 20
2412.538957270179
 30
0.0
 11
-49.22422575197447
 21
2379.205709054326
 31
0.0
1001
ACAD
1010
0.0
1020
0.0
1030
0.0
1001
ACADANNOTATIVE
1000
AnnotativeData
1002
{
1070
     1
1070
     1
1002
}
  0
LINE
  5
354A
330
2BBC
100
AcDbEntity
  8
DETAIL
100
AcDbLine
 10
-49.22422575197082
 20
2379.205709054324
 30
0.0
 11
166.5757742480284
 21
2235.33940975471
 31
0.0
1001
ACAD
1010
0.0
1020
0.0
1030
0.0
1001
ACADANNOTATIVE
1000
AnnotativeData
1002
{
1070
     1
1070
     1
1002
}
  0
LINE
  5
354B
330
2BBC
100
AcDbEntity
  8
DETAIL
100
AcDbLine
 10
-99.22422575197449
 20
2409.538990734763
 30
0.0
 11
-49.22422575197447
 21
2376.205742518912
 31
0.0
1001
ACAD
1010
0.0
1020
0.0
1030
0.0
1001
ACADANNOTATIVE
1000
AnnotativeData
1002
{
1070
     1
1070
     1
1002
}
  0
LINE
  5
354C
330
2BBC
100
AcDbEntity
  8
DETAIL
100
AcDbLine
 10
-49.22422575197082
 20
2376.205742518909
 30
0.0
 11
166.5757742480284
 21
2232.339443219295
 31
0.0
1001
ACAD
1010
0.0
1020
0.0
1030
0.0
1001
ACADANNOTATIVE
1000
AnnotativeData
1002
{
1070
     1
1070
     1
1002
}
  0
LINE
  5
354D
330
2BBC
100
AcDbEntity
  8
DETAIL
100
AcDbLine
 10
-99.22422575197449
 20
2406.539024199347
 30
0.0
 11
-49.22422575197447
 21
2373.205775983493
 31
0.0
1001
ACAD
1010
0.0
1020
0.0
1030
0.0
1001
ACADANNOTATIVE
1000
AnnotativeData
1002
{
1070
     1
1070
     1
1002
}
  0
LINE
  5
354E
330
2BBC
100
AcDbEntity
  8
DETAIL
100
AcDbLine
 10
162.3440450252358
 20
2232.160622295193
 30
0.0
 11
166.5757742480284
 21
2229.339476683878
 31
0.0
1001
ACAD
1010
0.0
1020
0.0
1030
0.0
1001
ACADANNOTATIVE
1000
AnnotativeData
1002
{
1070
     1
1070
     1
1002
}
  0
LINE
  5
354F
330
2BBC
100
AcDbEntity
  8
DETAIL
100
AcDbLine
 10
-49.22422575197082
 20
2373.205775983492
 30
0.0
 11
162.3440450252321
 21
2232.160622295194
 31
0.0
1001
ACAD
1010
0.0
1020
0.0
1030
0.0
1001
ACADANNOTATIVE
1000
AnnotativeData
1002
{
1070
     1
1070
     1
1002
}
  0
LINE
  5
3550
330
2BBC
100
AcDbEntity
  8
DETAIL
100
AcDbLine
 10
-99.22422575197449
 20
2403.539057663931
 30
0.0
 11
-49.22422575197447
 21
2370.20580944808
 31
0.0
1001
ACAD
1010
0.0
1020
0.0
1030
0.0
1001
ACADANNOTATIVE
1000
AnnotativeData
1002
{
1070
     1
1070
     1
1002
}
  0
LINE
  5
3551
330
2BBC
100
AcDbEntity
  8
DETAIL
100
AcDbLine
 10
157.8440837313439
 20
2232.160622295195
 30
0.0
 11
166.5757742480284
 21
2226.339510148463
 31
0.0
1001
ACAD
1010
0.0
1020
0.0
1030
0.0
1001
ACADANNOTATIVE
1000
AnnotativeData
1002
{
1070
     1
1070
     1
1002
}
  0
LINE
  5
3552
330
2BBC
100
AcDbEntity
  8
DETAIL
100
AcDbLine
 10
-49.22422575197082
 20
2370.205809448076
 30
0.0
 11
157.8440837313439
 21
2232.160622295195
 31
0.0
1001
ACAD
1010
0.0
1020
0.0
1030
0.0
1001
ACADANNOTATIVE
1000
AnnotativeData
1002
{
1070
     1
1070
     1
1002
}
  0
LINE
  5
3553
330
2BBC
100
AcDbEntity
  8
DETAIL
100
AcDbLine
 10
-99.22422575197449
 20
2400.539091128514
 30
0.0
 11
-49.22422575197447
 21
2367.205842912661
 31
0.0
1001
ACAD
1010
0.0
1020
0.0
1030
0.0
1001
ACADANNOTATIVE
1000
AnnotativeData
1002
{
1070
     1
1070
     1
1002
}
  0
LINE
  5
3554
330
2BBC
100
AcDbEntity
  8
DETAIL
100
AcDbLine
 10
153.344122437463
 20
2232.160622295193
 30
0.0
 11
166.5757742480284
 21
2223.339543613046
 31
0.0
1001
ACAD
1010
0.0
1020
0.0
1030
0.0
1001
ACADANNOTATIVE
1000
AnnotativeData
1002
{
1070
     1
1070
     1
1002
}
  0
LINE
  5
3555
330
2BBC
100
AcDbEntity
  8
DETAIL
100
AcDbLine
 10
-49.22422575197082
 20
2367.205842912659
 30
0.0
 11
153.344122437463
 21
2232.160622295193
 31
0.0
1001
ACAD
1010
0.0
1020
0.0
1030
0.0
1001
ACADANNOTATIVE
1000
AnnotativeData
1002
{
1070
     1
1070
     1
1002
}
  0
LINE
  5
3556
330
2BBC
100
AcDbEntity
  8
DETAIL
100
AcDbLine
 10
-99.22422575197449
 20
2397.539124593099
 30
0.0
 11
-49.22422575197447
 21
2364.205876377246
 31
0.0
1001
ACAD
1010
0.0
1020
0.0
1030
0.0
1001
ACADANNOTATIVE
1000
AnnotativeData
1002
{
1070
     1
1070
     1
1002
}
  0
LINE
  5
3557
330
2BBC
100
AcDbEntity
  8
DETAIL
100
AcDbLine
 10
148.8441611435748
 20
2232.160622295195
 30
0.0
 11
166.5757742480284
 21
2220.339577077631
 31
0.0
1001
ACAD
1010
0.0
1020
0.0
1030
0.0
1001
ACADANNOTATIVE
1000
AnnotativeData
1002
{
1070
     1
1070
     1
1002
}
  0
LINE
  5
3558
330
2BBC
100
AcDbEntity
  8
DETAIL
100
AcDbLine
 10
-49.22422575197082
 20
2364.205876377244
 30
0.0
 11
148.8441611435748
 21
2232.160622295195
 31
0.0
1001
ACAD
1010
0.0
1020
0.0
1030
0.0
1001
ACADANNOTATIVE
1000
AnnotativeData
1002
{
1070
     1
1070
     1
1002
}
  0
LINE
  5
3559
330
2BBC
100
AcDbEntity
  8
DETAIL
100
AcDbLine
 10
-99.22422575197449
 20
2394.539158057682
 30
0.0
 11
-49.22422575197447
 21
2361.20590984183
 31
0.0
1001
ACAD
1010
0.0
1020
0.0
1030
0.0
1001
ACADANNOTATIVE
1000
AnnotativeData
1002
{
1070
     1
1070
     1
1002
}
  0
LINE
  5
355A
330
2BBC
100
AcDbEntity
  8
DETAIL
100
AcDbLine
 10
144.3441998496866
 20
2232.160622295194
 30
0.0
 11
166.5757742480284
 21
2217.339610542214
 31
0.0
1001
ACAD
1010
0.0
1020
0.0
1030
0.0
1001
ACADANNOTATIVE
1000
AnnotativeData
1002
{
1070
     1
1070
     1
1002
}
  0
LINE
  5
355B
330
2BBC
100
AcDbEntity
  8
DETAIL
100
AcDbLine
 10
-49.22422575197082
 20
2361.205909841827
 30
0.0
 11
144.3441998496866
 21
2232.160622295194
 31
0.0
1001
ACAD
1010
0.0
1020
0.0
1030
0.0
1001
ACADANNOTATIVE
1000
AnnotativeData
1002
{
1070
     1
1070
     1
1002
}
  0
LINE
  5
355C
330
2BBC
100
AcDbEntity
  8
DETAIL
100
AcDbLine
 10
-99.22422575197449
 20
2391.539191522265
 30
0.0
 11
-49.22422575197447
 21
2358.205943306413
 31
0.0
1001
ACAD
1010
0.0
1020
0.0
1030
0.0
1001
ACADANNOTATIVE
1000
AnnotativeData
1002
{
1070
     1
1070
     1
1002
}
  0
LINE
  5
355D
330
2BBC
100
AcDbEntity
  8
DETAIL
100
AcDbLine
 10
139.8442385558021
 20
2232.160622295194
 30
0.0
 11
166.5757742480284
 21
2214.339644006796
 31
0.0
1001
ACAD
1010
0.0
1020
0.0
1030
0.0
1001
ACADANNOTATIVE
1000
AnnotativeData
1002
{
1070
     1
1070
     1
1002
}
  0
LINE
  5
355E
330
2BBC
100
AcDbEntity
  8
DETAIL
100
AcDbLine
 10
-49.22422575197082
 20
2358.20594330641
 30
0.0
 11
139.8442385558021
 21
2232.160622295194
 31
0.0
1001
ACAD
1010
0.0
1020
0.0
1030
0.0
1001
ACADANNOTATIVE
1000
AnnotativeData
1002
{
1070
     1
1070
     1
1002
}
  0
LINE
  5
355F
330
2BBC
100
AcDbEntity
  8
DETAIL
100
AcDbLine
 10
-99.22422575197449
 20
2388.539224986849
 30
0.0
 11
-49.22422575197447
 21
2355.205976770998
 31
0.0
1001
ACAD
1010
0.0
1020
0.0
1030
0.0
1001
ACADANNOTATIVE
1000
AnnotativeData
1002
{
1070
     1
1070
     1
1002
}
  0
LINE
  5
3560
330
2BBC
100
AcDbEntity
  8
DETAIL
100
AcDbLine
 10
135.3442772619176
 20
2232.160622295193
 30
0.0
 11
166.5757742480284
 21
2211.339677471381
 31
0.0
1001
ACAD
1010
0.0
1020
0.0
1030
0.0
1001
ACADANNOTATIVE
1000
AnnotativeData
1002
{
1070
     1
1070
     1
1002
}
  0
LINE
  5
3561
330
2BBC
100
AcDbEntity
  8
DETAIL
100
AcDbLine
 10
-49.22422575196719
 20
2355.205976770994
 30
0.0
 11
135.3442772619176
 21
2232.160622295193
 31
0.0
1001
ACAD
1010
0.0
1020
0.0
1030
0.0
1001
ACADANNOTATIVE
1000
AnnotativeData
1002
{
1070
     1
1070
     1
1002
}
  0
LINE
  5
3562
330
2BBC
100
AcDbEntity
  8
DETAIL
100
AcDbLine
 10
-99.22422575197449
 20
2385.539258451432
 30
0.0
 11
-49.22422575197447
 21
2352.206010235581
 31
0.0
1001
ACAD
1010
0.0
1020
0.0
1030
0.0
1001
ACADANNOTATIVE
1000
AnnotativeData
1002
{
1070
     1
1070
     1
1002
}
  0
LINE
  5
3563
330
2BBC
100
AcDbEntity
  8
DETAIL
100
AcDbLine
 10
130.844315968033
 20
2232.160622295193
 30
0.0
 11
166.5757742480284
 21
2208.339710935964
 31
0.0
1001
ACAD
1010
0.0
1020
0.0
1030
0.0
1001
ACADANNOTATIVE
1000
AnnotativeData
1002
{
1070
     1
1070
     1
1002
}
  0
LINE
  5
3564
330
2BBC
100
AcDbEntity
  8
DETAIL
100
AcDbLine
 10
-49.22422575197082
 20
2352.206010235577
 30
0.0
 11
130.844315968033
 21
2232.160622295193
 31
0.0
1001
ACAD
1010
0.0
1020
0.0
1030
0.0
1001
ACADANNOTATIVE
1000
AnnotativeData
1002
{
1070
     1
1070
     1
1002
}
  0
LINE
  5
3565
330
2BBC
100
AcDbEntity
  8
DETAIL
100
AcDbLine
 10
-99.22422575197449
 20
2382.539291916017
 30
0.0
 11
-49.22422575197447
 21
2349.206043700165
 31
0.0
1001
ACAD
1010
0.0
1020
0.0
1030
0.0
1001
ACADANNOTATIVE
1000
AnnotativeData
1002
{
1070
     1
1070
     1
1002
}
  0
LINE
  5
3566
330
2BBC
100
AcDbEntity
  8
DETAIL
100
AcDbLine
 10
126.3443546741448
 20
2232.160622295195
 30
0.0
 11
166.5757742480284
 21
2205.339744400549
 31
0.0
1001
ACAD
1010
0.0
1020
0.0
1030
0.0
1001
ACADANNOTATIVE
1000
AnnotativeData
1002
{
1070
     1
1070
     1
1002
}
  0
LINE
  5
3567
330
2BBC
100
AcDbEntity
  8
DETAIL
100
AcDbLine
 10
-49.22422575197082
 20
2349.206043700162
 30
0.0
 11
126.3443546741448
 21
2232.160622295195
 31
0.0
1001
ACAD
1010
0.0
1020
0.0
1030
0.0
1001
ACADANNOTATIVE
1000
AnnotativeData
1002
{
1070
     1
1070
     1
1002
}
  0
LINE
  5
3568
330
2BBC
100
AcDbEntity
  8
DETAIL
100
AcDbLine
 10
-99.22422575197449
 20
2379.5393253806
 30
0.0
 11
-49.22422575197447
 21
2346.206077164747
 31
0.0
1001
ACAD
1010
0.0
1020
0.0
1030
0.0
1001
ACADANNOTATIVE
1000
AnnotativeData
1002
{
1070
     1
1070
     1
1002
}
  0
LINE
  5
3569
330
2BBC
100
AcDbEntity
  8
DETAIL
100
AcDbLine
 10
121.8443933802602
 20
2232.160622295194
 30
0.0
 11
166.5757742480284
 21
2202.339777865132
 31
0.0
1001
ACAD
1010
0.0
1020
0.0
1030
0.0
1001
ACADANNOTATIVE
1000
AnnotativeData
1002
{
1070
     1
1070
     1
1002
}
  0
LINE
  5
356A
330
2BBC
100
AcDbEntity
  8
DETAIL
100
AcDbLine
 10
-49.22422575197082
 20
2346.206077164745
 30
0.0
 11
121.8443933802602
 21
2232.160622295194
 31
0.0
1001
ACAD
1010
0.0
1020
0.0
1030
0.0
1001
ACADANNOTATIVE
1000
AnnotativeData
1002
{
1070
     1
1070
     1
1002
}
  0
LINE
  5
356B
330
2BBC
100
AcDbEntity
  8
DETAIL
100
AcDbLine
 10
-99.22422575197449
 20
2376.539358845184
 30
0.0
 11
-49.22422575197447
 21
2343.206110629333
 31
0.0
1001
ACAD
1010
0.0
1020
0.0
1030
0.0
1001
ACADANNOTATIVE
1000
AnnotativeData
1002
{
1070
     1
1070
     1
1002
}
  0
LINE
  5
356C
330
2BBC
100
AcDbEntity
  8
DETAIL
100
AcDbLine
 10
117.3444320863757
 20
2232.160622295194
 30
0.0
 11
166.5757742480284
 21
2199.339811329716
 31
0.0
1001
ACAD
1010
0.0
1020
0.0
1030
0.0
1001
ACADANNOTATIVE
1000
AnnotativeData
1002
{
1070
     1
1070
     1
1002
}
  0
LINE
  5
356D
330
2BBC
100
AcDbEntity
  8
DETAIL
100
AcDbLine
 10
-49.22422575197082
 20
2343.20611062933
 30
0.0
 11
117.3444320863757
 21
2232.160622295194
 31
0.0
1001
ACAD
1010
0.0
1020
0.0
1030
0.0
1001
ACADANNOTATIVE
1000
AnnotativeData
1002
{
1070
     1
1070
     1
1002
}
  0
LINE
  5
356E
330
2BBC
100
AcDbEntity
  8
DETAIL
100
AcDbLine
 10
-99.22422575197449
 20
2373.539392309767
 30
0.0
 11
-49.22422575197447
 21
2340.206144093916
 31
0.0
1001
ACAD
1010
0.0
1020
0.0
1030
0.0
1001
ACADANNOTATIVE
1000
AnnotativeData
1002
{
1070
     1
1070
     1
1002
}
  0
LINE
  5
356F
330
2BBC
100
AcDbEntity
  8
DETAIL
100
AcDbLine
 10
112.8444707924875
 20
2232.160622295193
 30
0.0
 11
165.3446048528651
 21
2197.160622295193
 31
0.0
1001
ACAD
1010
0.0
1020
0.0
1030
0.0
1001
ACADANNOTATIVE
1000
AnnotativeData
1002
{
1070
     1
1070
     1
1002
}
  0
LINE
  5
3570
330
2BBC
100
AcDbEntity
  8
DETAIL
100
AcDbLine
 10
-49.22422575197082
 20
2340.206144093914
 30
0.0
 11
112.8444707924875
 21
2232.160622295193
 31
0.0
1001
ACAD
1010
0.0
1020
0.0
1030
0.0
1001
ACADANNOTATIVE
1000
AnnotativeData
1002
{
1070
     1
1070
     1
1002
}
  0
LINE
  5
3571
330
2BBC
100
AcDbEntity
  8
DETAIL
100
AcDbLine
 10
-99.22422575197449
 20
2370.539425774352
 30
0.0
 11
-49.22422575197447
 21
2337.206177558501
 31
0.0
1001
ACAD
1010
0.0
1020
0.0
1030
0.0
1001
ACADANNOTATIVE
1000
AnnotativeData
1002
{
1070
     1
1070
     1
1002
}
  0
LINE
  5
3572
330
2BBC
100
AcDbEntity
  8
DETAIL
100
AcDbLine
 10
108.3445094986029
 20
2232.160622295195
 30
0.0
 11
160.8446435589806
 21
2197.160622295194
 31
0.0
1001
ACAD
1010
0.0
1020
0.0
1030
0.0
1001
ACADANNOTATIVE
1000
AnnotativeData
1002
{
1070
     1
1070
     1
1002
}
  0
LINE
  5
3573
330
2BBC
100
AcDbEntity
  8
DETAIL
100
AcDbLine
 10
-49.22422575197082
 20
2337.206177558497
 30
0.0
 11
108.3445094986029
 21
2232.160622295195
 31
0.0
1001
ACAD
1010
0.0
1020
0.0
1030
0.0
1001
ACADANNOTATIVE
1000
AnnotativeData
1002
{
1070
     1
1070
     1
1002
}
  0
LINE
  5
3574
330
2BBC
100
AcDbEntity
  8
DETAIL
100
AcDbLine
 10
-99.22422575197813
 20
2367.539459238937
 30
0.0
 11
-49.22422575197447
 21
2334.206211023084
 31
0.0
1001
ACAD
1010
0.0
1020
0.0
1030
0.0
1001
ACADANNOTATIVE
1000
AnnotativeData
1002
{
1070
     1
1070
     1
1002
}
  0
LINE
  5
3575
330
2BBC
100
AcDbEntity
  8
DETAIL
100
AcDbLine
 10
103.8445482047184
 20
2232.160622295193
 30
0.0
 11
156.344682265096
 21
2197.160622295192
 31
0.0
1001
ACAD
1010
0.0
1020
0.0
1030
0.0
1001
ACADANNOTATIVE
1000
AnnotativeData
1002
{
1070
     1
1070
     1
1002
}
  0
LINE
  5
3576
330
2BBC
100
AcDbEntity
  8
DETAIL
100
AcDbLine
 10
-49.22422575197082
 20
2334.206211023082
 30
0.0
 11
103.8445482047184
 21
2232.160622295193
 31
0.0
1001
ACAD
1010
0.0
1020
0.0
1030
0.0
1001
ACADANNOTATIVE
1000
AnnotativeData
1002
{
1070
     1
1070
     1
1002
}
  0
LINE
  5
3577
330
2BBC
100
AcDbEntity
  8
DETAIL
100
AcDbLine
 10
-99.22422575197449
 20
2364.539492703521
 30
0.0
 11
-49.22422575197447
 21
2331.206244487669
 31
0.0
1001
ACAD
1010
0.0
1020
0.0
1030
0.0
1001
ACADANNOTATIVE
1000
AnnotativeData
1002
{
1070
     1
1070
     1
1002
}
  0
LINE
  5
3578
330
2BBC
100
AcDbEntity
  8
DETAIL
100
AcDbLine
 10
99.34458691083387
 20
2232.160622295194
 30
0.0
 11
151.8447209712114
 21
2197.160622295194
 31
0.0
1001
ACAD
1010
0.0
1020
0.0
1030
0.0
1001
ACADANNOTATIVE
1000
AnnotativeData
1002
{
1070
     1
1070
     1
1002
}
  0
LINE
  5
3579
330
2BBC
100
AcDbEntity
  8
DETAIL
100
AcDbLine
 10
-49.22422575197082
 20
2331.206244487665
 30
0.0
 11
99.34458691083387
 21
2232.160622295194
 31
0.0
1001
ACAD
1010
0.0
1020
0.0
1030
0.0
1001
ACADANNOTATIVE
1000
AnnotativeData
1002
{
1070
     1
1070
     1
1002
}
  0
LINE
  5
357A
330
2BBC
100
AcDbEntity
  8
DETAIL
100
AcDbLine
 10
-99.22422575197813
 20
2361.539526168104
 30
0.0
 11
-49.22422575197447
 21
2328.206277952251
 31
0.0
1001
ACAD
1010
0.0
1020
0.0
1030
0.0
1001
ACADANNOTATIVE
1000
AnnotativeData
1002
{
1070
     1
1070
     1
1002
}
  0
LINE
  5
357B
330
2BBC
100
AcDbEntity
  8
DETAIL
100
AcDbLine
 10
94.84462561694568
 20
2232.160622295194
 30
0.0
 11
147.3447596773232
 21
2197.160622295193
 31
0.0
1001
ACAD
1010
0.0
1020
0.0
1030
0.0
1001
ACADANNOTATIVE
1000
AnnotativeData
1002
{
1070
     1
1070
     1
1002
}
  0
LINE
  5
357C
330
2BBC
100
AcDbEntity
  8
DETAIL
100
AcDbLine
 10
-49.22422575197082
 20
2328.206277952248
 30
0.0
 11
94.84462561694568
 21
2232.160622295194
 31
0.0
1001
ACAD
1010
0.0
1020
0.0
1030
0.0
1001
ACADANNOTATIVE
1000
AnnotativeData
1002
{
1070
     1
1070
     1
1002
}
  0
LINE
  5
357D
330
2BBC
100
AcDbEntity
  8
DETAIL
100
AcDbLine
 10
-99.22422575197449
 20
2358.539559632687
 30
0.0
 11
-49.22422575197447
 21
2325.206311416836
 31
0.0
1001
ACAD
1010
0.0
1020
0.0
1030
0.0
1001
ACADANNOTATIVE
1000
AnnotativeData
1002
{
1070
     1
1070
     1
1002
}
  0
LINE
  5
357E
330
2BBC
100
AcDbEntity
  8
DETAIL
100
AcDbLine
 10
90.34466432306112
 20
2232.160622295196
 30
0.0
 11
142.8447983834386
 21
2197.160622295195
 31
0.0
1001
ACAD
1010
0.0
1020
0.0
1030
0.0
1001
ACADANNOTATIVE
1000
AnnotativeData
1002
{
1070
     1
1070
     1
1002
}
  0
LINE
  5
357F
330
2BBC
100
AcDbEntity
  8
DETAIL
100
AcDbLine
 10
-49.22422575197082
 20
2325.206311416834
 30
0.0
 11
90.34466432306112
 21
2232.160622295196
 31
0.0
1001
ACAD
1010
0.0
1020
0.0
1030
0.0
1001
ACADANNOTATIVE
1000
AnnotativeData
1002
{
1070
     1
1070
     1
1002
}
  0
LINE
  5
3580
330
2BBC
100
AcDbEntity
  8
DETAIL
100
AcDbLine
 10
-99.22422575197449
 20
2355.53959309727
 30
0.0
 11
-49.22422575197447
 21
2322.206344881419
 31
0.0
1001
ACAD
1010
0.0
1020
0.0
1030
0.0
1001
ACADANNOTATIVE
1000
AnnotativeData
1002
{
1070
     1
1070
     1
1002
}
  0
LINE
  5
3581
330
2BBC
100
AcDbEntity
  8
DETAIL
100
AcDbLine
 10
85.84470302917656
 20
2232.160622295193
 30
0.0
 11
138.3448370895542
 21
2197.160622295192
 31
0.0
1001
ACAD
1010
0.0
1020
0.0
1030
0.0
1001
ACADANNOTATIVE
1000
AnnotativeData
1002
{
1070
     1
1070
     1
1002
}
  0
LINE
  5
3582
330
2BBC
100
AcDbEntity
  8
DETAIL
100
AcDbLine
 10
-49.22422575197082
 20
2322.206344881417
 30
0.0
 11
85.84470302917656
 21
2232.160622295193
 31
0.0
1001
ACAD
1010
0.0
1020
0.0
1030
0.0
1001
ACADANNOTATIVE
1000
AnnotativeData
1002
{
1070
     1
1070
     1
1002
}
  0
LINE
  5
3583
330
2BBC
100
AcDbEntity
  8
DETAIL
100
AcDbLine
 10
-99.22422575197449
 20
2352.539626561853
 30
0.0
 11
-49.22422575197447
 21
2319.206378346002
 31
0.0
1001
ACAD
1010
0.0
1020
0.0
1030
0.0
1001
ACADANNOTATIVE
1000
AnnotativeData
1002
{
1070
     1
1070
     1
1002
}
  0
LINE
  5
3584
330
2BBC
100
AcDbEntity
  8
DETAIL
100
AcDbLine
 10
81.34474173529202
 20
2232.160622295193
 30
0.0
 11
133.844875795666
 21
2197.160622295194
 31
0.0
1001
ACAD
1010
0.0
1020
0.0
1030
0.0
1001
ACADANNOTATIVE
1000
AnnotativeData
1002
{
1070
     1
1070
     1
1002
}
  0
LINE
  5
3585
330
2BBC
100
AcDbEntity
  8
DETAIL
100
AcDbLine
 10
-49.22422575197082
 20
2319.206378346
 30
0.0
 11
81.34474173529202
 21
2232.160622295193
 31
0.0
1001
ACAD
1010
0.0
1020
0.0
1030
0.0
1001
ACADANNOTATIVE
1000
AnnotativeData
1002
{
1070
     1
1070
     1
1002
}
  0
LINE
  5
3586
330
2BBC
100
AcDbEntity
  8
DETAIL
100
AcDbLine
 10
-99.22422575197449
 20
2349.53966002644
 30
0.0
 11
-49.22422575197447
 21
2316.206411810588
 31
0.0
1001
ACAD
1010
0.0
1020
0.0
1030
0.0
1001
ACADANNOTATIVE
1000
AnnotativeData
1002
{
1070
     1
1070
     1
1002
}
  0
LINE
  5
3587
330
2BBC
100
AcDbEntity
  8
DETAIL
100
AcDbLine
 10
76.84478044140383
 20
2232.160622295194
 30
0.0
 11
129.3449145017814
 21
2197.160622295194
 31
0.0
1001
ACAD
1010
0.0
1020
0.0
1030
0.0
1001
ACADANNOTATIVE
1000
AnnotativeData
1002
{
1070
     1
1070
     1
1002
}
  0
LINE
  5
3588
330
2BBC
100
AcDbEntity
  8
DETAIL
100
AcDbLine
 10
-49.22422575197082
 20
2316.206411810584
 30
0.0
 11
76.84478044140383
 21
2232.160622295194
 31
0.0
1001
ACAD
1010
0.0
1020
0.0
1030
0.0
1001
ACADANNOTATIVE
1000
AnnotativeData
1002
{
1070
     1
1070
     1
1002
}
  0
LINE
  5
3589
330
2BBC
100
AcDbEntity
  8
DETAIL
100
AcDbLine
 10
-99.22422575197449
 20
2346.539693491022
 30
0.0
 11
-49.22422575197447
 21
2313.206445275169
 31
0.0
1001
ACAD
1010
0.0
1020
0.0
1030
0.0
1001
ACADANNOTATIVE
1000
AnnotativeData
1002
{
1070
     1
1070
     1
1002
}
  0
LINE
  5
358A
330
2BBC
100
AcDbEntity
  8
DETAIL
100
AcDbLine
 10
72.34481914751929
 20
2232.160622295194
 30
0.0
 11
124.8449532078969
 21
2197.160622295193
 31
0.0
1001
ACAD
1010
0.0
1020
0.0
1030
0.0
1001
ACADANNOTATIVE
1000
AnnotativeData
1002
{
1070
     1
1070
     1
1002
}
  0
LINE
  5
358B
330
2BBC
100
AcDbEntity
  8
DETAIL
100
AcDbLine
 10
-49.22422575197082
 20
2313.206445275167
 30
0.0
 11
72.34481914751929
 21
2232.160622295194
 31
0.0
1001
ACAD
1010
0.0
1020
0.0
1030
0.0
1001
ACADANNOTATIVE
1000
AnnotativeData
1002
{
1070
     1
1070
     1
1002
}
  0
LINE
  5
358C
330
2BBC
100
AcDbEntity
  8
DETAIL
100
AcDbLine
 10
-99.22422575197449
 20
2343.539726955607
 30
0.0
 11
-49.22422575197447
 21
2310.206478739754
 31
0.0
1001
ACAD
1010
0.0
1020
0.0
1030
0.0
1001
ACADANNOTATIVE
1000
AnnotativeData
1002
{
1070
     1
1070
     1
1002
}
  0
LINE
  5
358D
330
2BBC
100
AcDbEntity
  8
DETAIL
100
AcDbLine
 10
67.84485785363472
 20
2232.160622295193
 30
0.0
 11
120.3449919140123
 21
2197.160622295193
 31
0.0
1001
ACAD
1010
0.0
1020
0.0
1030
0.0
1001
ACADANNOTATIVE
1000
AnnotativeData
1002
{
1070
     1
1070
     1
1002
}
  0
LINE
  5
358E
330
2BBC
100
AcDbEntity
  8
DETAIL
100
AcDbLine
 10
-49.22422575196719
 20
2310.20647873975
 30
0.0
 11
67.84485785363472
 21
2232.160622295193
 31
0.0
1001
ACAD
1010
0.0
1020
0.0
1030
0.0
1001
ACADANNOTATIVE
1000
AnnotativeData
1002
{
1070
     1
1070
     1
1002
}
  0
LINE
  5
358F
330
2BBC
100
AcDbEntity
  8
DETAIL
100
AcDbLine
 10
-99.22422575197449
 20
2340.53976042019
 30
0.0
 11
-49.22422575197447
 21
2307.206512204337
 31
0.0
1001
ACAD
1010
0.0
1020
0.0
1030
0.0
1001
ACADANNOTATIVE
1000
AnnotativeData
1002
{
1070
     1
1070
     1
1002
}
  0
LINE
  5
3590
330
2BBC
100
AcDbEntity
  8
DETAIL
100
AcDbLine
 10
63.34489655975017
 20
2232.160622295193
 30
0.0
 11
115.8450306201277
 21
2197.160622295192
 31
0.0
1001
ACAD
1010
0.0
1020
0.0
1030
0.0
1001
ACADANNOTATIVE
1000
AnnotativeData
1002
{
1070
     1
1070
     1
1002
}
  0
LINE
  5
3591
330
2BBC
100
AcDbEntity
  8
DETAIL
100
AcDbLine
 10
-49.22422575197082
 20
2307.206512204335
 30
0.0
 11
63.34489655975017
 21
2232.160622295193
 31
0.0
1001
ACAD
1010
0.0
1020
0.0
1030
0.0
1001
ACADANNOTATIVE
1000
AnnotativeData
1002
{
1070
     1
1070
     1
1002
}
  0
LINE
  5
3592
330
2BBC
100
AcDbEntity
  8
DETAIL
100
AcDbLine
 10
-99.22422575197449
 20
2337.539793884773
 30
0.0
 11
-49.22422575197447
 21
2304.206545668922
 31
0.0
1001
ACAD
1010
0.0
1020
0.0
1030
0.0
1001
ACADANNOTATIVE
1000
AnnotativeData
1002
{
1070
     1
1070
     1
1002
}
  0
LINE
  5
3593
330
2BBC
100
AcDbEntity
  8
DETAIL
100
AcDbLine
 10
58.84493526586561
 20
2232.160622295195
 30
0.0
 11
111.3450693262432
 21
2197.160622295194
 31
0.0
1001
ACAD
1010
0.0
1020
0.0
1030
0.0
1001
ACADANNOTATIVE
1000
AnnotativeData
1002
{
1070
     1
1070
     1
1002
}
  0
LINE
  5
3594
330
2BBC
100
AcDbEntity
  8
DETAIL
100
AcDbLine
 10
-49.22422575196719
 20
2304.20654566892
 30
0.0
 11
58.84493526586561
 21
2232.160622295195
 31
0.0
1001
ACAD
1010
0.0
1020
0.0
1030
0.0
1001
ACADANNOTATIVE
1000
AnnotativeData
1002
{
1070
     1
1070
     1
1002
}
  0
LINE
  5
3595
330
2BBC
100
AcDbEntity
  8
DETAIL
100
AcDbLine
 10
-99.22422575197449
 20
2334.539827349358
 30
0.0
 11
-49.22422575197447
 21
2301.206579133504
 31
0.0
1001
ACAD
1010
0.0
1020
0.0
1030
0.0
1001
ACADANNOTATIVE
1000
AnnotativeData
1002
{
1070
     1
1070
     1
1002
}
  0
LINE
  5
3596
330
2BBC
100
AcDbEntity
  8
DETAIL
100
AcDbLine
 10
54.34497397198104
 20
2232.160622295193
 30
0.0
 11
106.8451080323586
 21
2197.160622295192
 31
0.0
1001
ACAD
1010
0.0
1020
0.0
1030
0.0
1001
ACADANNOTATIVE
1000
AnnotativeData
1002
{
1070
     1
1070
     1
1002
}
  0
LINE
  5
3597
330
2BBC
100
AcDbEntity
  8
DETAIL
100
AcDbLine
 10
-49.22422575197082
 20
2301.206579133503
 30
0.0
 11
54.34497397198104
 21
2232.160622295193
 31
0.0
1001
ACAD
1010
0.0
1020
0.0
1030
0.0
1001
ACADANNOTATIVE
1000
AnnotativeData
1002
{
1070
     1
1070
     1
1002
}
  0
LINE
  5
3598
330
2BBC
100
AcDbEntity
  8
DETAIL
100
AcDbLine
 10
-99.22422575197449
 20
2331.539860813942
 30
0.0
 11
-49.22422575197447
 21
2298.206612598091
 31
0.0
1001
ACAD
1010
0.0
1020
0.0
1030
0.0
1001
ACADANNOTATIVE
1000
AnnotativeData
1002
{
1070
     1
1070
     1
1002
}
  0
LINE
  5
3599
330
2BBC
100
AcDbEntity
  8
DETAIL
100
AcDbLine
 10
49.84501267809287
 20
2232.160622295194
 30
0.0
 11
102.3451467384705
 21
2197.160622295193
 31
0.0
1001
ACAD
1010
0.0
1020
0.0
1030
0.0
1001
ACADANNOTATIVE
1000
AnnotativeData
1002
{
1070
     1
1070
     1
1002
}
  0
LINE
  5
359A
330
2BBC
100
AcDbEntity
  8
DETAIL
100
AcDbLine
 10
-49.22422575197082
 20
2298.206612598088
 30
0.0
 11
49.84501267809287
 21
2232.160622295194
 31
0.0
1001
ACAD
1010
0.0
1020
0.0
1030
0.0
1001
ACADANNOTATIVE
1000
AnnotativeData
1002
{
1070
     1
1070
     1
1002
}
  0
LINE
  5
359B
330
2BBC
100
AcDbEntity
  8
DETAIL
100
AcDbLine
 10
-99.22422575197449
 20
2328.539894278525
 30
0.0
 11
-49.22422575197447
 21
2295.206646062674
 31
0.0
1001
ACAD
1010
0.0
1020
0.0
1030
0.0
1001
ACADANNOTATIVE
1000
AnnotativeData
1002
{
1070
     1
1070
     1
1002
}
  0
LINE
  5
359C
330
2BBC
100
AcDbEntity
  8
DETAIL
100
AcDbLine
 10
45.34505138420468
 20
2232.160622295194
 30
0.0
 11
97.84518544458229
 21
2197.160622295193
 31
0.0
1001
ACAD
1010
0.0
1020
0.0
1030
0.0
1001
ACADANNOTATIVE
1000
AnnotativeData
1002
{
1070
     1
1070
     1
1002
}
  0
LINE
  5
359D
330
2BBC
100
AcDbEntity
  8
DETAIL
100
AcDbLine
 10
-49.22422575197082
 20
2295.20664606267
 30
0.0
 11
45.34505138420468
 21
2232.160622295194
 31
0.0
1001
ACAD
1010
0.0
1020
0.0
1030
0.0
1001
ACADANNOTATIVE
1000
AnnotativeData
1002
{
1070
     1
1070
     1
1002
}
  0
LINE
  5
359E
330
2BBC
100
AcDbEntity
  8
DETAIL
100
AcDbLine
 10
-99.22422575197449
 20
2325.53992774311
 30
0.0
 11
-49.22422575197447
 21
2292.206679527257
 31
0.0
1001
ACAD
1010
0.0
1020
0.0
1030
0.0
1001
ACADANNOTATIVE
1000
AnnotativeData
1002
{
1070
     1
1070
     1
1002
}
  0
LINE
  5
359F
330
2BBC
100
AcDbEntity
  8
DETAIL
100
AcDbLine
 10
40.84509009032013
 20
2232.160622295195
 30
0.0
 11
93.34522415069773
 21
2197.160622295195
 31
0.0
1001
ACAD
1010
0.0
1020
0.0
1030
0.0
1001
ACADANNOTATIVE
1000
AnnotativeData
1002
{
1070
     1
1070
     1
1002
}
  0
LINE
  5
35A0
330
2BBC
100
AcDbEntity
  8
DETAIL
100
AcDbLine
 10
-49.22422575197082
 20
2292.206679527255
 30
0.0
 11
40.84509009032013
 21
2232.160622295195
 31
0.0
1001
ACAD
1010
0.0
1020
0.0
1030
0.0
1001
ACADANNOTATIVE
1000
AnnotativeData
1002
{
1070
     1
1070
     1
1002
}
  0
LINE
  5
35A1
330
2BBC
100
AcDbEntity
  8
DETAIL
100
AcDbLine
 10
-99.22422575197449
 20
2322.539961207693
 30
0.0
 11
-49.22422575197447
 21
2289.206712991841
 31
0.0
1001
ACAD
1010
0.0
1020
0.0
1030
0.0
1001
ACADANNOTATIVE
1000
AnnotativeData
1002
{
1070
     1
1070
     1
1002
}
  0
LINE
  5
35A2
330
2BBC
100
AcDbEntity
  8
DETAIL
100
AcDbLine
 10
36.34512879643557
 20
2232.160622295193
 30
0.0
 11
88.84526285681316
 21
2197.160622295192
 31
0.0
1001
ACAD
1010
0.0
1020
0.0
1030
0.0
1001
ACADANNOTATIVE
1000
AnnotativeData
1002
{
1070
     1
1070
     1
1002
}
  0
LINE
  5
35A3
330
2BBC
100
AcDbEntity
  8
DETAIL
100
AcDbLine
 10
-49.22422575197082
 20
2289.206712991838
 30
0.0
 11
36.34512879643557
 21
2232.160622295193
 31
0.0
1001
ACAD
1010
0.0
1020
0.0
1030
0.0
1001
ACADANNOTATIVE
1000
AnnotativeData
1002
{
1070
     1
1070
     1
1002
}
  0
LINE
  5
35A4
330
2BBC
100
AcDbEntity
  8
DETAIL
100
AcDbLine
 10
-99.22422575197449
 20
2319.539994672277
 30
0.0
 11
-49.22422575197447
 21
2286.206746456425
 31
0.0
1001
ACAD
1010
0.0
1020
0.0
1030
0.0
1001
ACADANNOTATIVE
1000
AnnotativeData
1002
{
1070
     1
1070
     1
1002
}
  0
LINE
  5
35A5
330
2BBC
100
AcDbEntity
  8
DETAIL
100
AcDbLine
 10
31.84516750255102
 20
2232.160622295194
 30
0.0
 11
84.34530156292863
 21
2197.160622295194
 31
0.0
1001
ACAD
1010
0.0
1020
0.0
1030
0.0
1001
ACADANNOTATIVE
1000
AnnotativeData
1002
{
1070
     1
1070
     1
1002
}
  0
LINE
  5
35A6
330
2BBC
100
AcDbEntity
  8
DETAIL
100
AcDbLine
 10
-49.22422575197082
 20
2286.206746456423
 30
0.0
 11
31.84516750255102
 21
2232.160622295194
 31
0.0
1001
ACAD
1010
0.0
1020
0.0
1030
0.0
1001
ACADANNOTATIVE
1000
AnnotativeData
1002
{
1070
     1
1070
     1
1002
}
  0
LINE
  5
35A7
330
2BBC
100
AcDbEntity
  8
DETAIL
100
AcDbLine
 10
-99.22422575197813
 20
2316.54002813686
 30
0.0
 11
-49.22422575197447
 21
2283.206779921009
 31
0.0
1001
ACAD
1010
0.0
1020
0.0
1030
0.0
1001
ACADANNOTATIVE
1000
AnnotativeData
1002
{
1070
     1
1070
     1
1002
}
  0
LINE
  5
35A8
330
2BBC
100
AcDbEntity
  8
DETAIL
100
AcDbLine
 10
27.34520620866283
 20
2232.160622295194
 30
0.0
 11
79.84534026904043
 21
2197.160622295193
 31
0.0
1001
ACAD
1010
0.0
1020
0.0
1030
0.0
1001
ACADANNOTATIVE
1000
AnnotativeData
1002
{
1070
     1
1070
     1
1002
}
  0
LINE
  5
35A9
330
2BBC
100
AcDbEntity
  8
DETAIL
100
AcDbLine
 10
-49.22422575197082
 20
2283.206779921005
 30
0.0
 11
27.34520620866283
 21
2232.160622295194
 31
0.0
1001
ACAD
1010
0.0
1020
0.0
1030
0.0
1001
ACADANNOTATIVE
1000
AnnotativeData
1002
{
1070
     1
1070
     1
1002
}
  0
LINE
  5
35AA
330
2BBC
100
AcDbEntity
  8
DETAIL
100
AcDbLine
 10
-99.22422575197449
 20
2313.540061601445
 30
0.0
 11
-49.22422575197447
 21
2280.206813385594
 31
0.0
1001
ACAD
1010
0.0
1020
0.0
1030
0.0
1001
ACADANNOTATIVE
1000
AnnotativeData
1002
{
1070
     1
1070
     1
1002
}
  0
LINE
  5
35AB
330
2BBC
100
AcDbEntity
  8
DETAIL
100
AcDbLine
 10
22.84524491477828
 20
2232.160622295196
 30
0.0
 11
75.34537897515588
 21
2197.160622295195
 31
0.0
1001
ACAD
1010
0.0
1020
0.0
1030
0.0
1001
ACADANNOTATIVE
1000
AnnotativeData
1002
{
1070
     1
1070
     1
1002
}
  0
LINE
  5
35AC
330
2BBC
100
AcDbEntity
  8
DETAIL
100
AcDbLine
 10
-49.22422575197082
 20
2280.20681338559
 30
0.0
 11
22.84524491477828
 21
2232.160622295196
 31
0.0
1001
ACAD
1010
0.0
1020
0.0
1030
0.0
1001
ACADANNOTATIVE
1000
AnnotativeData
1002
{
1070
     1
1070
     1
1002
}
  0
LINE
  5
35AD
330
2BBC
100
AcDbEntity
  8
DETAIL
100
AcDbLine
 10
-99.22422575197813
 20
2310.54009506603
 30
0.0
 11
-49.22422575197447
 21
2277.206846850177
 31
0.0
1001
ACAD
1010
0.0
1020
0.0
1030
0.0
1001
ACADANNOTATIVE
1000
AnnotativeData
1002
{
1070
     1
1070
     1
1002
}
  0
LINE
  5
35AE
330
2BBC
100
AcDbEntity
  8
DETAIL
100
AcDbLine
 10
18.34528362089372
 20
2232.160622295193
 30
0.0
 11
70.84541768127133
 21
2197.160622295192
 31
0.0
1001
ACAD
1010
0.0
1020
0.0
1030
0.0
1001
ACADANNOTATIVE
1000
AnnotativeData
1002
{
1070
     1
1070
     1
1002
}
  0
LINE
  5
35AF
330
2BBC
100
AcDbEntity
  8
DETAIL
100
AcDbLine
 10
-49.22422575197082
 20
2277.206846850173
 30
0.0
 11
18.34528362089372
 21
2232.160622295193
 31
0.0
1001
ACAD
1010
0.0
1020
0.0
1030
0.0
1001
ACADANNOTATIVE
1000
AnnotativeData
1002
{
1070
     1
1070
     1
1002
}
  0
LINE
  5
35B0
330
2BBC
100
AcDbEntity
  8
DETAIL
100
AcDbLine
 10
-99.22422575198178
 20
2307.540128530614
 30
0.0
 11
-49.22422575197447
 21
2274.20688031476
 31
0.0
1001
ACAD
1010
0.0
1020
0.0
1030
0.0
1001
ACADANNOTATIVE
1000
AnnotativeData
1002
{
1070
     1
1070
     1
1002
}
  0
LINE
  5
35B1
330
2BBC
100
AcDbEntity
  8
DETAIL
100
AcDbLine
 10
13.84532232700917
 20
2232.160622295193
 30
0.0
 11
66.34545638738313
 21
2197.160622295194
 31
0.0
1001
ACAD
1010
0.0
1020
0.0
1030
0.0
1001
ACADANNOTATIVE
1000
AnnotativeData
1002
{
1070
     1
1070
     1
1002
}
  0
LINE
  5
35B2
330
2BBC
100
AcDbEntity
  8
DETAIL
100
AcDbLine
 10
-49.22422575197082
 20
2274.206880314756
 30
0.0
 11
13.84532232700917
 21
2232.160622295193
 31
0.0
1001
ACAD
1010
0.0
1020
0.0
1030
0.0
1001
ACADANNOTATIVE
1000
AnnotativeData
1002
{
1070
     1
1070
     1
1002
}
  0
LINE
  5
35B3
330
2BBC
100
AcDbEntity
  8
DETAIL
100
AcDbLine
 10
-99.22422575197813
 20
2304.540161995197
 30
0.0
 11
-49.22422575197447
 21
2271.206913779344
 31
0.0
1001
ACAD
1010
0.0
1020
0.0
1030
0.0
1001
ACADANNOTATIVE
1000
AnnotativeData
1002
{
1070
     1
1070
     1
1002
}
  0
LINE
  5
35B4
330
2BBC
100
AcDbEntity
  8
DETAIL
100
AcDbLine
 10
9.34536103312098
 20
2232.160622295194
 30
0.0
 11
61.84549509349858
 21
2197.160622295194
 31
0.0
1001
ACAD
1010
0.0
1020
0.0
1030
0.0
1001
ACADANNOTATIVE
1000
AnnotativeData
1002
{
1070
     1
1070
     1
1002
}
  0
LINE
  5
35B5
330
2BBC
100
AcDbEntity
  8
DETAIL
100
AcDbLine
 10
-49.22422575197082
 20
2271.206913779341
 30
0.0
 11
9.34536103312098
 21
2232.160622295194
 31
0.0
1001
ACAD
1010
0.0
1020
0.0
1030
0.0
1001
ACADANNOTATIVE
1000
AnnotativeData
1002
{
1070
     1
1070
     1
1002
}
  0
LINE
  5
35B6
330
2BBC
100
AcDbEntity
  8
DETAIL
100
AcDbLine
 10
-99.22422575197813
 20
2301.54019545978
 30
0.0
 11
-49.22422575197447
 21
2268.206947243927
 31
0.0
1001
ACAD
1010
0.0
1020
0.0
1030
0.0
1001
ACADANNOTATIVE
1000
AnnotativeData
1002
{
1070
     1
1070
     1
1002
}
  0
LINE
  5
35B7
330
2BBC
100
AcDbEntity
  8
DETAIL
100
AcDbLine
 10
4.845399739236427
 20
2232.160622295194
 30
0.0
 11
57.34553379961403
 21
2197.160622295193
 31
0.0
1001
ACAD
1010
0.0
1020
0.0
1030
0.0
1001
ACADANNOTATIVE
1000
AnnotativeData
1002
{
1070
     1
1070
     1
1002
}
  0
LINE
  5
35B8
330
2BBC
100
AcDbEntity
  8
DETAIL
100
AcDbLine
 10
-49.22422575197082
 20
2268.206947243923
 30
0.0
 11
4.845399739236427
 21
2232.160622295194
 31
0.0
1001
ACAD
1010
0.0
1020
0.0
1030
0.0
1001
ACADANNOTATIVE
1000
AnnotativeData
1002
{
1070
     1
1070
     1
1002
}
  0
LINE
  5
35B9
330
2BBC
100
AcDbEntity
  8
DETAIL
100
AcDbLine
 10
-99.22422575197813
 20
2298.540228924365
 30
0.0
 11
-49.22422575197447
 21
2265.206980708512
 31
0.0
1001
ACAD
1010
0.0
1020
0.0
1030
0.0
1001
ACADANNOTATIVE
1000
AnnotativeData
1002
{
1070
     1
1070
     1
1002
}
  0
LINE
  5
35BA
330
2BBC
100
AcDbEntity
  8
DETAIL
100
AcDbLine
 10
0.3454384453518742
 20
2232.160622295193
 30
0.0
 11
52.84557250572948
 21
2197.160622295193
 31
0.0
1001
ACAD
1010
0.0
1020
0.0
1030
0.0
1001
ACADANNOTATIVE
1000
AnnotativeData
1002
{
1070
     1
1070
     1
1002
}
  0
LINE
  5
35BB
330
2BBC
100
AcDbEntity
  8
DETAIL
100
AcDbLine
 10
-49.22422575197082
 20
2265.206980708508
 30
0.0
 11
0.3454384453518742
 21
2232.160622295193
 31
0.0
1001
ACAD
1010
0.0
1020
0.0
1030
0.0
1001
ACADANNOTATIVE
1000
AnnotativeData
1002
{
1070
     1
1070
     1
1002
}
  0
LINE
  5
35BC
330
2BBC
100
AcDbEntity
  8
DETAIL
100
AcDbLine
 10
-99.22422575197813
 20
2295.540262388948
 30
0.0
 11
-49.22422575197447
 21
2262.207014173095
 31
0.0
1001
ACAD
1010
0.0
1020
0.0
1030
0.0
1001
ACADANNOTATIVE
1000
AnnotativeData
1002
{
1070
     1
1070
     1
1002
}
  0
LINE
  5
35BD
330
2BBC
100
AcDbEntity
  8
DETAIL
100
AcDbLine
 10
-4.154522848532678
 20
2232.160622295193
 30
0.0
 11
48.34561121184492
 21
2197.160622295193
 31
0.0
1001
ACAD
1010
0.0
1020
0.0
1030
0.0
1001
ACADANNOTATIVE
1000
AnnotativeData
1002
{
1070
     1
1070
     1
1002
}
  0
LINE
  5
35BE
330
2BBC
100
AcDbEntity
  8
DETAIL
100
AcDbLine
 10
-49.22422575197082
 20
2262.207014173091
 30
0.0
 11
-4.154522848532678
 21
2232.160622295193
 31
0.0
1001
ACAD
1010
0.0
1020
0.0
1030
0.0
1001
ACADANNOTATIVE
1000
AnnotativeData
1002
{
1070
     1
1070
     1
1002
}
  0
LINE
  5
35BF
330
2BBC
100
AcDbEntity
  8
DETAIL
100
AcDbLine
 10
-99.22422575197813
 20
2292.540295853533
 30
0.0
 11
-49.22422575197447
 21
2259.207047637679
 31
0.0
1001
ACAD
1010
0.0
1020
0.0
1030
0.0
1001
ACADANNOTATIVE
1000
AnnotativeData
1002
{
1070
     1
1070
     1
1002
}
  0
LINE
  5
35C0
330
2BBC
100
AcDbEntity
  8
DETAIL
100
AcDbLine
 10
-8.654484142420868
 20
2232.160622295195
 30
0.0
 11
43.84564991795673
 21
2197.160622295194
 31
0.0
1001
ACAD
1010
0.0
1020
0.0
1030
0.0
1001
ACADANNOTATIVE
1000
AnnotativeData
1002
{
1070
     1
1070
     1
1002
}
  0
LINE
  5
35C1
330
2BBC
100
AcDbEntity
  8
DETAIL
100
AcDbLine
 10
-49.22422575197082
 20
2259.207047637678
 30
0.0
 11
-8.654484142420868
 21
2232.160622295195
 31
0.0
1001
ACAD
1010
0.0
1020
0.0
1030
0.0
1001
ACADANNOTATIVE
1000
AnnotativeData
1002
{
1070
     1
1070
     1
1002
}
  0
LINE
  5
35C2
330
2BBC
100
AcDbEntity
  8
DETAIL
100
AcDbLine
 10
-99.22422575197813
 20
2289.540329318117
 30
0.0
 11
-49.22422575197447
 21
2256.207081102262
 31
0.0
1001
ACAD
1010
0.0
1020
0.0
1030
0.0
1001
ACADANNOTATIVE
1000
AnnotativeData
1002
{
1070
     1
1070
     1
1002
}
  0
LINE
  5
35C3
330
2BBC
100
AcDbEntity
  8
DETAIL
100
AcDbLine
 10
-13.15444543630542
 20
2232.160622295193
 30
0.0
 11
39.34568862407218
 21
2197.160622295192
 31
0.0
1001
ACAD
1010
0.0
1020
0.0
1030
0.0
1001
ACADANNOTATIVE
1000
AnnotativeData
1002
{
1070
     1
1070
     1
1002
}
  0
LINE
  5
35C4
330
2BBC
100
AcDbEntity
  8
DETAIL
100
AcDbLine
 10
-49.22422575197082
 20
2256.207081102258
 30
0.0
 11
-13.15444543630542
 21
2232.160622295193
 31
0.0
1001
ACAD
1010
0.0
1020
0.0
1030
0.0
1001
ACADANNOTATIVE
1000
AnnotativeData
1002
{
1070
     1
1070
     1
1002
}
  0
LINE
  5
35C5
330
2BBC
100
AcDbEntity
  8
DETAIL
100
AcDbLine
 10
-99.22422575197813
 20
2286.540362782702
 30
0.0
 11
-49.22422575197447
 21
2253.207114566847
 31
0.0
1001
ACAD
1010
0.0
1020
0.0
1030
0.0
1001
ACADANNOTATIVE
1000
AnnotativeData
1002
{
1070
     1
1070
     1
1002
}
  0
LINE
  5
35C6
330
2BBC
100
AcDbEntity
  8
DETAIL
100
AcDbLine
 10
-17.65440673018997
 20
2232.160622295194
 30
0.0
 11
34.84572733018763
 21
2197.160622295193
 31
0.0
1001
ACAD
1010
0.0
1020
0.0
1030
0.0
1001
ACADANNOTATIVE
1000
AnnotativeData
1002
{
1070
     1
1070
     1
1002
}
  0
LINE
  5
35C7
330
2BBC
100
AcDbEntity
  8
DETAIL
100
AcDbLine
 10
-49.22422575196719
 20
2253.207114566843
 30
0.0
 11
-17.65440673018997
 21
2232.160622295194
 31
0.0
1001
ACAD
1010
0.0
1020
0.0
1030
0.0
1001
ACADANNOTATIVE
1000
AnnotativeData
1002
{
1070
     1
1070
     1
1002
}
  0
LINE
  5
35C8
330
2BBC
100
AcDbEntity
  8
DETAIL
100
AcDbLine
 10
-99.22422575197813
 20
2283.540396247285
 30
0.0
 11
-49.22422575197447
 21
2250.20714803143
 31
0.0
1001
ACAD
1010
0.0
1020
0.0
1030
0.0
1001
ACADANNOTATIVE
1000
AnnotativeData
1002
{
1070
     1
1070
     1
1002
}
  0
LINE
  5
35C9
330
2BBC
100
AcDbEntity
  8
DETAIL
100
AcDbLine
 10
-22.15436802407453
 20
2232.160622295194
 30
0.0
 11
30.34576603630308
 21
2197.160622295193
 31
0.0
1001
ACAD
1010
0.0
1020
0.0
1030
0.0
1001
ACADANNOTATIVE
1000
AnnotativeData
1002
{
1070
     1
1070
     1
1002
}
  0
LINE
  5
35CA
330
2BBC
100
AcDbEntity
  8
DETAIL
100
AcDbLine
 10
-49.22422575197082
 20
2250.207148031426
 30
0.0
 11
-22.15436802407453
 21
2232.160622295194
 31
0.0
1001
ACAD
1010
0.0
1020
0.0
1030
0.0
1001
ACADANNOTATIVE
1000
AnnotativeData
1002
{
1070
     1
1070
     1
1002
}
  0
LINE
  5
35CB
330
2BBC
100
AcDbEntity
  8
DETAIL
100
AcDbLine
 10
-99.22422575197813
 20
2280.540429711869
 30
0.0
 11
-49.22422575197447
 21
2247.207181496015
 31
0.0
1001
ACAD
1010
0.0
1020
0.0
1030
0.0
1001
ACADANNOTATIVE
1000
AnnotativeData
1002
{
1070
     1
1070
     1
1002
}
  0
LINE
  5
35CC
330
2BBC
100
AcDbEntity
  8
DETAIL
100
AcDbLine
 10
-26.65432931796272
 20
2232.160622295195
 30
0.0
 11
25.84580474241489
 21
2197.160622295195
 31
0.0
1001
ACAD
1010
0.0
1020
0.0
1030
0.0
1001
ACADANNOTATIVE
1000
AnnotativeData
1002
{
1070
     1
1070
     1
1002
}
  0
LINE
  5
35CD
330
2BBC
100
AcDbEntity
  8
DETAIL
100
AcDbLine
 10
-49.22422575197082
 20
2247.207181496011
 30
0.0
 11
-26.65432931796272
 21
2232.160622295195
 31
0.0
1001
ACAD
1010
0.0
1020
0.0
1030
0.0
1001
ACADANNOTATIVE
1000
AnnotativeData
1002
{
1070
     1
1070
     1
1002
}
  0
LINE
  5
35CE
330
2BBC
100
AcDbEntity
  8
DETAIL
100
AcDbLine
 10
-99.22422575197813
 20
2277.540463176451
 30
0.0
 11
-49.22422575197447
 21
2244.207214960598
 31
0.0
1001
ACAD
1010
0.0
1020
0.0
1030
0.0
1001
ACADANNOTATIVE
1000
AnnotativeData
1002
{
1070
     1
1070
     1
1002
}
  0
LINE
  5
35CF
330
2BBC
100
AcDbEntity
  8
DETAIL
100
AcDbLine
 10
-31.15429061184727
 20
2232.160622295193
 30
0.0
 11
21.34584344853033
 21
2197.160622295192
 31
0.0
1001
ACAD
1010
0.0
1020
0.0
1030
0.0
1001
ACADANNOTATIVE
1000
AnnotativeData
1002
{
1070
     1
1070
     1
1002
}
  0
LINE
  5
35D0
330
2BBC
100
AcDbEntity
  8
DETAIL
100
AcDbLine
 10
-49.22422575197082
 20
2244.207214960596
 30
0.0
 11
-31.15429061184727
 21
2232.160622295193
 31
0.0
1001
ACAD
1010
0.0
1020
0.0
1030
0.0
1001
ACADANNOTATIVE
1000
AnnotativeData
1002
{
1070
     1
1070
     1
1002
}
  0
LINE
  5
35D1
330
2BBC
100
AcDbEntity
  8
DETAIL
100
AcDbLine
 10
-99.22422575197813
 20
2274.540496641037
 30
0.0
 11
-49.22422575197447
 21
2241.207248425181
 31
0.0
1001
ACAD
1010
0.0
1020
0.0
1030
0.0
1001
ACADANNOTATIVE
1000
AnnotativeData
1002
{
1070
     1
1070
     1
1002
}
  0
LINE
  5
35D2
330
2BBC
100
AcDbEntity
  8
DETAIL
100
AcDbLine
 10
-35.65425190573183
 20
2232.160622295194
 30
0.0
 11
16.84588215464578
 21
2197.160622295194
 31
0.0
1001
ACAD
1010
0.0
1020
0.0
1030
0.0
1001
ACADANNOTATIVE
1000
AnnotativeData
1002
{
1070
     1
1070
     1
1002
}
  0
LINE
  5
35D3
330
2BBC
100
AcDbEntity
  8
DETAIL
100
AcDbLine
 10
-49.22422575197082
 20
2241.207248425181
 30
0.0
 11
-35.65425190573183
 21
2232.160622295194
 31
0.0
1001
ACAD
1010
0.0
1020
0.0
1030
0.0
1001
ACADANNOTATIVE
1000
AnnotativeData
1002
{
1070
     1
1070
     1
1002
}
  0
LINE
  5
35D4
330
2BBC
100
AcDbEntity
  8
DETAIL
100
AcDbLine
 10
-99.22422575197813
 20
2271.54053010562
 30
0.0
 11
-49.22422575197447
 21
2238.207281889765
 31
0.0
1001
ACAD
1010
0.0
1020
0.0
1030
0.0
1001
ACADANNOTATIVE
1000
AnnotativeData
1002
{
1070
     1
1070
     1
1002
}
  0
LINE
  5
35D5
330
2BBC
100
AcDbEntity
  8
DETAIL
100
AcDbLine
 10
-40.15421319961638
 20
2232.160622295194
 30
0.0
 11
12.34592086076122
 21
2197.160622295193
 31
0.0
1001
ACAD
1010
0.0
1020
0.0
1030
0.0
1001
ACADANNOTATIVE
1000
AnnotativeData
1002
{
1070
     1
1070
     1
1002
}
  0
LINE
  5
35D6
330
2BBC
100
AcDbEntity
  8
DETAIL
100
AcDbLine
 10
-49.22422575197082
 20
2238.207281889764
 30
0.0
 11
-40.15421319961638
 21
2232.160622295194
 31
0.0
1001
ACAD
1010
0.0
1020
0.0
1030
0.0
1001
ACADANNOTATIVE
1000
AnnotativeData
1002
{
1070
     1
1070
     1
1002
}
  0
LINE
  5
35D7
330
2BBC
100
AcDbEntity
  8
DETAIL
100
AcDbLine
 10
-99.22422575197813
 20
2268.540563570203
 30
0.0
 11
-49.22422575197447
 21
2235.207315354348
 31
0.0
1001
ACAD
1010
0.0
1020
0.0
1030
0.0
1001
ACADANNOTATIVE
1000
AnnotativeData
1002
{
1070
     1
1070
     1
1002
}
  0
LINE
  5
35D8
330
2BBC
100
AcDbEntity
  8
DETAIL
100
AcDbLine
 10
-44.65417449350456
 20
2232.160622295194
 30
0.0
 11
7.845959566873034
 21
2197.160622295193
 31
0.0
1001
ACAD
1010
0.0
1020
0.0
1030
0.0
1001
ACADANNOTATIVE
1000
AnnotativeData
1002
{
1070
     1
1070
     1
1002
}
  0
LINE
  5
35D9
330
2BBC
100
AcDbEntity
  8
DETAIL
100
AcDbLine
 10
-49.22422575197082
 20
2235.207315354344
 30
0.0
 11
-44.65417449350456
 21
2232.160622295194
 31
0.0
1001
ACAD
1010
0.0
1020
0.0
1030
0.0
1001
ACADANNOTATIVE
1000
AnnotativeData
1002
{
1070
     1
1070
     1
1002
}
  0
LINE
  5
35DA
330
2BBC
100
AcDbEntity
  8
DETAIL
100
AcDbLine
 10
-99.22422575197813
 20
2265.540597034787
 30
0.0
 11
-49.22422575197447
 21
2232.207348818933
 31
0.0
1001
ACAD
1010
0.0
1020
0.0
1030
0.0
1001
ACADANNOTATIVE
1000
AnnotativeData
1002
{
1070
     1
1070
     1
1002
}
  0
LINE
  5
35DB
330
2BBC
100
AcDbEntity
  8
DETAIL
100
AcDbLine
 10
-49.15413578738547
 20
2232.160622295193
 30
0.0
 11
3.345998272988481
 21
2197.160622295192
 31
0.0
1001
ACAD
1010
0.0
1020
0.0
1030
0.0
1001
ACADANNOTATIVE
1000
AnnotativeData
1002
{
1070
     1
1070
     1
1002
}
  0
LINE
  5
35DC
330
2BBC
100
AcDbEntity
  8
DETAIL
100
AcDbLine
 10
-49.22422575197082
 20
2232.207348818931
 30
0.0
 11
-49.15413578738547
 21
2232.160622295193
 31
0.0
1001
ACAD
1010
0.0
1020
0.0
1030
0.0
1001
ACADANNOTATIVE
1000
AnnotativeData
1002
{
1070
     1
1070
     1
1002
}
  0
LINE
  5
35DD
330
2BBC
100
AcDbEntity
  8
DETAIL
100
AcDbLine
 10
-99.22422575198178
 20
2262.54063049937
 30
0.0
 11
-1.153963020899708
 21
2197.160622295192
 31
0.0
1001
ACAD
1010
0.0
1020
0.0
1030
0.0
1001
ACADANNOTATIVE
1000
AnnotativeData
1002
{
1070
     1
1070
     1
1002
}
  0
LINE
  5
35DE
330
2BBC
100
AcDbEntity
  8
DETAIL
100
AcDbLine
 10
-99.22422575197813
 20
2259.540663963955
 30
0.0
 11
-5.653924314784262
 21
2197.160622295194
 31
0.0
1001
ACAD
1010
0.0
1020
0.0
1030
0.0
1001
ACADANNOTATIVE
1000
AnnotativeData
1002
{
1070
     1
1070
     1
1002
}
  0
LINE
  5
35DF
330
2BBC
100
AcDbEntity
  8
DETAIL
100
AcDbLine
 10
-99.22422575198178
 20
2256.540697428538
 30
0.0
 11
-10.15388560866881
 21
2197.160622295192
 31
0.0
1001
ACAD
1010
0.0
1020
0.0
1030
0.0
1001
ACADANNOTATIVE
1000
AnnotativeData
1002
{
1070
     1
1070
     1
1002
}
  0
LINE
  5
35E0
330
2BBC
100
AcDbEntity
  8
DETAIL
100
AcDbLine
 10
-99.22422575197813
 20
2253.540730893123
 30
0.0
 11
-14.65384690255337
 21
2197.160622295193
 31
0.0
1001
ACAD
1010
0.0
1020
0.0
1030
0.0
1001
ACADANNOTATIVE
1000
AnnotativeData
1002
{
1070
     1
1070
     1
1002
}
  0
LINE
  5
35E1
330
2BBC
100
AcDbEntity
  8
DETAIL
100
AcDbLine
 10
-99.22422575197813
 20
2250.540764357706
 30
0.0
 11
-19.15380819643792
 21
2197.160622295193
 31
0.0
1001
ACAD
1010
0.0
1020
0.0
1030
0.0
1001
ACADANNOTATIVE
1000
AnnotativeData
1002
{
1070
     1
1070
     1
1002
}
  0
LINE
  5
35E2
330
2BBC
100
AcDbEntity
  8
DETAIL
100
AcDbLine
 10
-99.22422575197813
 20
2247.54079782229
 30
0.0
 11
-23.65376949032611
 21
2197.160622295194
 31
0.0
1001
ACAD
1010
0.0
1020
0.0
1030
0.0
1001
ACADANNOTATIVE
1000
AnnotativeData
1002
{
1070
     1
1070
     1
1002
}
  0
LINE
  5
35E3
330
2BBC
100
AcDbEntity
  8
DETAIL
100
AcDbLine
 10
-99.22422575197813
 20
2244.540831286873
 30
0.0
 11
-28.15373078421067
 21
2197.160622295192
 31
0.0
1001
ACAD
1010
0.0
1020
0.0
1030
0.0
1001
ACADANNOTATIVE
1000
AnnotativeData
1002
{
1070
     1
1070
     1
1002
}
  0
LINE
  5
35E4
330
2BBC
100
AcDbEntity
  8
DETAIL
100
AcDbLine
 10
-99.22422575197813
 20
2241.540864751458
 30
0.0
 11
-32.65369207809522
 21
2197.160622295193
 31
0.0
1001
ACAD
1010
0.0
1020
0.0
1030
0.0
1001
ACADANNOTATIVE
1000
AnnotativeData
1002
{
1070
     1
1070
     1
1002
}
  0
LINE
  5
35E5
330
2BBC
100
AcDbEntity
  8
DETAIL
100
AcDbLine
 10
-99.22422575197813
 20
2238.540898216041
 30
0.0
 11
-37.15365337198341
 21
2197.160622295193
 31
0.0
1001
ACAD
1010
0.0
1020
0.0
1030
0.0
1001
ACADANNOTATIVE
1000
AnnotativeData
1002
{
1070
     1
1070
     1
1002
}
  0
LINE
  5
35E6
330
2BBC
100
AcDbEntity
  8
DETAIL
100
AcDbLine
 10
-99.22422575197813
 20
2235.540931680626
 30
0.0
 11
-41.65361466586796
 21
2197.160622295195
 31
0.0
1001
ACAD
1010
0.0
1020
0.0
1030
0.0
1001
ACADANNOTATIVE
1000
AnnotativeData
1002
{
1070
     1
1070
     1
1002
}
  0
LINE
  5
35E7
330
2BBC
100
AcDbEntity
  8
DETAIL
100
AcDbLine
 10
-99.22422575197813
 20
2232.540965145208
 30
0.0
 11
-46.15357595975249
 21
2197.160622295192
 31
0.0
1001
ACAD
1010
0.0
1020
0.0
1030
0.0
1001
ACADANNOTATIVE
1000
AnnotativeData
1002
{
1070
     1
1070
     1
1002
}
  0
LINE
  5
35E8
330
2BBC
100
AcDbEntity
  8
DETAIL
100
AcDbLine
 10
-99.22422575197813
 20
2229.540998609791
 30
0.0
 11
-50.65353725363706
 21
2197.160622295192
 31
0.0
1001
ACAD
1010
0.0
1020
0.0
1030
0.0
1001
ACADANNOTATIVE
1000
AnnotativeData
1002
{
1070
     1
1070
     1
1002
}
  0
LINE
  5
35E9
330
2BBC
100
AcDbEntity
  8
DETAIL
100
AcDbLine
 10
-99.22422575198178
 20
2226.541032074377
 30
0.0
 11
-55.15349854752525
 21
2197.160622295193
 31
0.0
1001
ACAD
1010
0.0
1020
0.0
1030
0.0
1001
ACADANNOTATIVE
1000
AnnotativeData
1002
{
1070
     1
1070
     1
1002
}
  0
LINE
  5
35EA
330
2BBC
100
AcDbEntity
  8
DETAIL
100
AcDbLine
 10
-99.22422575197813
 20
2223.54106553896
 30
0.0
 11
-59.65345984140982
 21
2197.160622295193
 31
0.0
1001
ACAD
1010
0.0
1020
0.0
1030
0.0
1001
ACADANNOTATIVE
1000
AnnotativeData
1002
{
1070
     1
1070
     1
1002
}
  0
LINE
  5
35EB
330
2BBC
100
AcDbEntity
  8
DETAIL
100
AcDbLine
 10
-99.22422575198178
 20
2220.541099003545
 30
0.0
 11
-64.15342113529437
 21
2197.160622295193
 31
0.0
1001
ACAD
1010
0.0
1020
0.0
1030
0.0
1001
ACADANNOTATIVE
1000
AnnotativeData
1002
{
1070
     1
1070
     1
1002
}
  0
LINE
  5
35EC
330
2BBC
100
AcDbEntity
  8
DETAIL
100
AcDbLine
 10
-99.22422575197813
 20
2217.541132468126
 30
0.0
 11
-68.65338242917892
 21
2197.160622295192
 31
0.0
1001
ACAD
1010
0.0
1020
0.0
1030
0.0
1001
ACADANNOTATIVE
1000
AnnotativeData
1002
{
1070
     1
1070
     1
1002
}
  0
LINE
  5
35ED
330
2BBC
100
AcDbEntity
  8
DETAIL
100
AcDbLine
 10
-99.22422575197813
 20
2214.541165932711
 30
0.0
 11
-73.15334372306711
 21
2197.160622295194
 31
0.0
1001
ACAD
1010
0.0
1020
0.0
1030
0.0
1001
ACADANNOTATIVE
1000
AnnotativeData
1002
{
1070
     1
1070
     1
1002
}
  0
LINE
  5
35EE
330
2BBC
100
AcDbEntity
  8
DETAIL
100
AcDbLine
 10
-99.22422575198178
 20
2211.541199397296
 30
0.0
 11
-77.65330501695166
 21
2197.160622295192
 31
0.0
1001
ACAD
1010
0.0
1020
0.0
1030
0.0
1001
ACADANNOTATIVE
1000
AnnotativeData
1002
{
1070
     1
1070
     1
1002
}
  0
LINE
  5
35EF
330
2BBC
100
AcDbEntity
  8
DETAIL
100
AcDbLine
 10
-99.22422575197813
 20
2208.541232861881
 30
0.0
 11
-82.1532663108362
 21
2197.160622295192
 31
0.0
1001
ACAD
1010
0.0
1020
0.0
1030
0.0
1001
ACADANNOTATIVE
1000
AnnotativeData
1002
{
1070
     1
1070
     1
1002
}
  0
LINE
  5
35F0
330
2BBC
100
AcDbEntity
  8
DETAIL
100
AcDbLine
 10
-99.22422575198178
 20
2205.541266326463
 30
0.0
 11
-86.65322760472077
 21
2197.160622295192
 31
0.0
1001
ACAD
1010
0.0
1020
0.0
1030
0.0
1001
ACADANNOTATIVE
1000
AnnotativeData
1002
{
1070
     1
1070
     1
1002
}
  0
LINE
  5
35F1
330
2BBC
100
AcDbEntity
  8
DETAIL
100
AcDbLine
 10
-99.22422575197813
 20
2202.541299791048
 30
0.0
 11
-91.15318889860892
 21
2197.160622295194
 31
0.0
1001
ACAD
1010
0.0
1020
0.0
1030
0.0
1001
ACADANNOTATIVE
1000
AnnotativeData
1002
{
1070
     1
1070
     1
1002
}
  0
LINE
  5
35F2
330
2BBC
100
AcDbEntity
  8
DETAIL
100
AcDbLine
 10
-99.22422575198178
 20
2199.541333255631
 30
0.0
 11
-95.65315019248988
 21
2197.160622295192
 31
0.0
1001
ACAD
1010
0.0
1020
0.0
1030
0.0
1001
ACADANNOTATIVE
1000
AnnotativeData
1002
{
1070
     1
1070
     1
1002
}
  0
LINE
  5
35F3
330
2BBC
100
AcDbEntity
  8
DETAIL
100
AcDbLine
 10
-99.22422575196719
 20
2425.960622295195
 30
0.0
 11
166.5757742480357
 21
2425.960622295195
 31
0.0
  0
LINE
  5
35F4
330
2BBC
100
AcDbEntity
  8
DETAIL
100
AcDbLine
 10
-99.22422575196719
 20
2197.160622295194
 30
0.0
 11
166.5757742480357
 21
2197.160622295194
 31
0.0
  0
LINE
  5
35F5
330
2BBC
100
AcDbEntity
  8
DETAIL
100
AcDbLine
 10
-99.22422575196719
 20
2425.960622295195
 30
0.0
 11
-99.22422575196719
 21
2197.160622295194
 31
0.0
  0
LINE
  5
35F6
330
2BBC
100
AcDbEntity
  8
DETAIL
100
AcDbLine
 10
166.5757742480357
 20
2425.960622295195
 30
0.0
 11
166.5757742480357
 21
2197.160622295194
 31
0.0
  0
ENDSEC
  0
SECTION
  2
OBJECTS
  0
DICTIONARY
  5
2B54
330
0
100
AcDbDictionary
281
     1
  3
ACAD_2007HEADERVARS_RT
350
397C
  3
ACAD_COLOR
350
2BB2
  3
ACAD_GROUP
350
2B55
  3
ACAD_LAYOUT
350
2BB1
  3
ACAD_MATERIAL
350
2B58
  3
ACAD_MLEADERSTYLE
350
2BB5
  3
ACAD_MLINESTYLE
350
2BAE
  3
ACAD_PLOTSETTINGS
350
2BB0
  3
ACAD_PLOTSTYLENAME
350
2B56
  3
ACAD_SCALELIST
350
2B82
  3
ACAD_TABLESTYLE
350
2BB3
  3
ACAD_VISUALSTYLE
350
2B71
  3
ACDB_RECOMPOSE_DATA
350
2DAF
  3
AcDbVariableDictionary
350
2DA6
  3
AcmDictionary
350
2D52
  3
AMG
350
2C9F
  3
AMGSNAPSETTINGS
350
2D7A
  3
MAPISURF_MODULE
350
3920
  0
DICTIONARY
  5
2EA2
330
2B4A
100
AcDbDictionary
280
     1
281
     1
  3
ACAD_LAYERSTATES
360
2EA3
  0
DICTIONARY
  5
2D81
330
2BA4
100
AcDbDictionary
280
     1
281
     1
  3
ADSK_XREC_LAYER_RECONCILED
360
2D82
  0
DICTIONARY
  5
2D83
330
2BD3
100
AcDbDictionary
280
     1
281
     1
  3
ADSK_XREC_LAYER_RECONCILED
360
2D84
  0
DICTIONARY
  5
2D85
330
2BD4
100
AcDbDictionary
280
     1
281
     1
  3
ADSK_XREC_LAYER_RECONCILED
360
2D86
  0
DICTIONARY
  5
2D87
330
2BD5
100
AcDbDictionary
280
     1
281
     1
  3
ADSK_XREC_LAYER_RECONCILED
360
2D88
  0
DICTIONARY
  5
2D89
330
2BD6
100
AcDbDictionary
280
     1
281
     1
  3
ADSK_XREC_LAYER_RECONCILED
360
2D8A
  0
DICTIONARY
  5
2D8B
330
2BD7
100
AcDbDictionary
280
     1
281
     1
  3
ADSK_XREC_LAYER_RECONCILED
360
2D8C
  0
DICTIONARY
  5
2D8D
330
2BD9
100
AcDbDictionary
280
     1
281
     1
  3
ADSK_XREC_LAYER_RECONCILED
360
2D8E
  0
DICTIONARY
  5
2D8F
330
2BDA
100
AcDbDictionary
280
     1
281
     1
  3
ADSK_XREC_LAYER_RECONCILED
360
2D90
  0
DICTIONARY
  5
2D91
330
2BDB
100
AcDbDictionary
280
     1
281
     1
  3
ADSK_XREC_LAYER_RECONCILED
360
2D92
  0
DICTIONARY
  5
2D93
330
2BDC
100
AcDbDictionary
280
     1
281
     1
  3
ADSK_XREC_LAYER_RECONCILED
360
2D94
  0
DICTIONARY
  5
2D95
330
2BDD
100
AcDbDictionary
280
     1
281
     1
  3
ADSK_XREC_LAYER_RECONCILED
360
2D96
  0
DICTIONARY
  5
2D97
330
2BBC
100
AcDbDictionary
280
     1
281
     1
  3
ACAD_INDEX
360
2D98
  0
DICTIONARY
  5
397C
102
{ACAD_REACTORS
330
2B54
102
}
330
2B54
100
AcDbDictionary
281
     1
  3
DIMARCSYM
350
397D
  3
DIMLTEX1
350
397F
  3
DIMLTEX2
350
3980
  3
DIMLTYPE
350
397E
  0
DICTIONARY
  5
2BB2
102
{ACAD_REACTORS
330
2B54
102
}
330
2B54
100
AcDbDictionary
281
     1
  0
DICTIONARY
  5
2B55
102
{ACAD_REACTORS
330
2B54
102
}
330
2B54
100
AcDbDictionary
281
     1
  0
DICTIONARY
  5
2BB1
102
{ACAD_REACTORS
330
2B54
102
}
330
2B54
100
AcDbDictionary
281
     1
  3
Model
350
2BBF
  3
レイアウト1
350
2BBB
  0
DICTIONARY
  5
2B58
102
{ACAD_REACTORS
330
2B54
102
}
330
2B54
100
AcDbDictionary
281
     1
  3
ByBlock
350
2B61
  3
ByLayer
350
2B59
  3
Global
350
2B69
  0
DICTIONARY
  5
2BB5
102
{ACAD_REACTORS
330
2B54
102
}
330
2B54
100
AcDbDictionary
281
     1
  3
Standard
350
2BB6
  0
DICTIONARY
  5
2BAE
102
{ACAD_REACTORS
330
2B54
102
}
330
2B54
100
AcDbDictionary
281
     1
  3
Standard
350
2BAF
  0
DICTIONARY
  5
2BB0
102
{ACAD_REACTORS
330
2B54
102
}
330
2B54
100
AcDbDictionary
281
     1
  0
ACDBDICTIONARYWDFLT
  5
2B56
102
{ACAD_REACTORS
330
2B54
102
}
330
2B54
100
AcDbDictionary
281
     1
  3
Normal
350
2B57
100
AcDbDictionaryWithDefault
340
2B57
  0
DICTIONARY
  5
2B82
102
{ACAD_REACTORS
330
2B54
102
}
330
2B54
100
AcDbDictionary
281
     1
  3
A0
350
2B83
  3
A1
350
2B84
  3
A2
350
2B85
  3
A3
350
2B86
  3
A4
350
2B87
  3
A5
350
2B88
  3
A6
350
2B89
  3
A7
350
2B8A
  3
A8
350
2B8B
  3
A9
350
2B8C
  3
B0
350
2B8D
  3
B1
350
2B8E
  3
B2
350
2B8F
  3
B3
350
2B90
  3
B4
350
2B91
  3
B5
350
2B92
  3
B6
350
2B93
  3
B7
350
2B94
  3
B8
350
2B95
  3
B9
350
2B96
  3
C0
350
2B97
  3
C1
350
2B98
  3
C2
350
2B99
  3
C3
350
2B9A
  3
C4
350
2B9B
  3
C5
350
2B9C
  3
C6
350
2B9D
  3
C7
350
2B9E
  3
C8
350
2B9F
  3
C9
350
2BA0
  3
D0
350
2BA1
  3
D1
350
2BA2
  3
D2
350
2BA3
  0
DICTIONARY
  5
2BB3
102
{ACAD_REACTORS
330
2B54
102
}
330
2B54
100
AcDbDictionary
281
     1
  3
Standard
350
2BB4
  0
DICTIONARY
  5
2B71
102
{ACAD_REACTORS
330
2B54
102
}
330
2B54
100
AcDbDictionary
281
     1
  3
2dWireframe
350
2B77
  3
3D Hidden
350
2B79
  3
3dWireframe
350
2B78
  3
Basic
350
2B76
  3
Brighten
350
2B7D
  3
ColorChange
350
2B81
  3
Conceptual
350
2B7A
  3
Dim
350
2B7C
  3
Facepattern
350
2B80
  3
Flat
350
2B72
  3
FlatWithEdges
350
2B73
  3
Gouraud
350
2B74
  3
GouraudWithEdges
350
2B75
  3
Linepattern
350
2B7F
  3
Realistic
350
2B7B
  3
Thicken
350
2B7E
  0
XRECORD
  5
2DAF
102
{ACAD_REACTORS
330
2B54
102
}
330
2B54
100
AcDbXrecord
280
     1
 90
        1
330
2BB4
  0
DICTIONARY
  5
2DA6
102
{ACAD_REACTORS
330
2B54
102
}
330
2B54
100
AcDbDictionary
281
     1
  3
CANNOSCALE
350
2DA9
  3
CMLEADERSTYLE
350
2DA8
  3
CTABLESTYLE
350
2DA7
  3
DIMASSOC
350
2DAC
  3
INDEXCTL
350
2DAB
  3
LAYEREVAL
350
306F
  3
LAYERNOTIFY
350
3070
  3
LIGHTINGUNITS
350
306E
  3
LOFTANG1
350
3978
  3
LOFTANG2
350
3979
  3
LONGITUDE
350
397A
  3
MSLTSCALE
350
306D
  3
SORTENTS
350
2DAA
  0
DICTIONARY
  5
2D52
102
{ACAD_REACTORS
330
2B54
102
}
330
2B54
100
AcDbDictionary
281
     1
  3
AcmStdDictionary
350
2D60
  0
DICTIONARY
  5
2C9F
102
{ACAD_REACTORS
330
2B54
102
}
330
2B54
100
AcDbDictionary
281
     1
  3
AcMgSettings
350
2CA0
  0
DICTIONARY
  5
2D7A
102
{ACAD_REACTORS
330
2B54
102
}
330
2B54
100
AcDbDictionary
281
     1
  3
DIMENSION
350
2D7F
  3
FEA
350
2D7E
  3
HATCH (1)
350
2D7B
  3
HATCH (2)
350
2D7C
  3
SIMPLE WELD
350
2D80
  3
SYMBOLS
350
2D7D
  0
DICTIONARY
  5
2EA3
102
{ACAD_REACTORS
330
2EA2
102
}
330
2EA2
100
AcDbDictionary
281
     1
  0
XRECORD
  5
2D82
102
{ACAD_REACTORS
330
2D81
102
}
330
2D81
100
AcDbXrecord
280
     1
290
     1
  0
XRECORD
  5
2D84
102
{ACAD_REACTORS
330
2D83
102
}
330
2D83
100
AcDbXrecord
280
     1
290
     1
  0
XRECORD
  5
2D86
102
{ACAD_REACTORS
330
2D85
102
}
330
2D85
100
AcDbXrecord
280
     1
290
     1
  0
XRECORD
  5
2D88
102
{ACAD_REACTORS
330
2D87
102
}
330
2D87
100
AcDbXrecord
280
     1
290
     1
  0
XRECORD
  5
2D8A
102
{ACAD_REACTORS
330
2D89
102
}
330
2D89
100
AcDbXrecord
280
     1
290
     1
  0
XRECORD
  5
2D8C
102
{ACAD_REACTORS
330
2D8B
102
}
330
2D8B
100
AcDbXrecord
280
     1
290
     1
  0
XRECORD
  5
2D8E
102
{ACAD_REACTORS
330
2D8D
102
}
330
2D8D
100
AcDbXrecord
280
     1
290
     1
  0
XRECORD
  5
2D90
102
{ACAD_REACTORS
330
2D8F
102
}
330
2D8F
100
AcDbXrecord
280
     1
290
     1
  0
XRECORD
  5
2D92
102
{ACAD_REACTORS
330
2D91
102
}
330
2D91
100
AcDbXrecord
280
     1
290
     1
  0
XRECORD
  5
2D94
102
{ACAD_REACTORS
330
2D93
102
}
330
2D93
100
AcDbXrecord
280
     1
290
     1
  0
XRECORD
  5
2D96
102
{ACAD_REACTORS
330
2D95
102
}
330
2D95
100
AcDbXrecord
280
     1
290
     1
  0
DICTIONARY
  5
2D98
102
{ACAD_REACTORS
330
2D97
102
}
330
2D97
100
AcDbDictionary
281
     1
  3
*A1
350
2D99
  0
XRECORD
  5
397D
102
{ACAD_REACTORS
330
397C
102
}
330
397C
100
AcDbXrecord
280
     1
 70
     1
  0
XRECORD
  5
397F
102
{ACAD_REACTORS
330
397C
102
}
330
397C
100
AcDbXrecord
280
     1
340
2BAA
  0
XRECORD
  5
3980
102
{ACAD_REACTORS
330
397C
102
}
330
397C
100
AcDbXrecord
280
     1
340
2BAA
  0
XRECORD
  5
397E
102
{ACAD_REACTORS
330
397C
102
}
330
397C
100
AcDbXrecord
280
     1
340
2BAA
  0
LAYOUT
  5
2BBF
102
{ACAD_REACTORS
330
2BB1
102
}
330
2BB1
100
AcDbPlotSettings
  1

  2
自動 EPSON LP-9600S (W2450527 上)
  4

  6

 40
0.0
 41
0.0
 42
0.0
 43
0.0
 44
0.0
 45
0.0
 46
0.0
 47
0.0
 48
0.0
 49
0.0
140
0.0
141
0.0
142
1.0
143
1.0
 70
  1712
 72
     0
 73
     0
 74
     0
  7

 75
     0
147
1.0
 76
     0
 77
     2
 78
   300
148
0.0
149
0.0
100
AcDbLayout
  1
Model
 70
     1
 71
     0
 10
0.0
 20
0.0
 11
12.0
 21
9.0
 12
0.0
 22
0.0
 32
0.0
 14
0.0
 24
0.0
 34
0.0
 15
0.0
 25
0.0
 35
0.0
146
0.0
 13
0.0
 23
0.0
 33
0.0
 16
1.0
 26
0.0
 36
0.0
 17
0.0
 27
1.0
 37
0.0
 76
     0
330
2BBC
331
2BC0
  0
LAYOUT
  5
2BBB
102
{ACAD_REACTORS
330
2BB1
102
}
330
2BB1
100
AcDbPlotSettings
  1

  2
自動 EPSON LP-9600S (W2450527 上)
  4

  6

 40
0.0
 41
0.0
 42
0.0
 43
0.0
 44
0.0
 45
0.0
 46
0.0
 47
0.0
 48
0.0
 49
0.0
140
0.0
141
0.0
142
1.0
143
1.0
 70
   688
 72
     0
 73
     0
 74
     5
  7

 75
    16
147
1.0
 76
     0
 77
     2
 78
   300
148
0.0
149
0.0
100
AcDbLayout
  1
レイアウト1
 70
     1
 71
     1
 10
0.0
 20
0.0
 11
12.0
 21
9.0
 12
0.0
 22
0.0
 32
0.0
 14
1.000000000000000E+20
 24
1.000000000000000E+20
 34
1.000000000000000E+20
 15
-1.000000000000000E+20
 25
-1.000000000000000E+20
 35
-1.000000000000000E+20
146
0.0
 13
0.0
 23
0.0
 33
0.0
 16
1.0
 26
0.0
 36
0.0
 17
0.0
 27
1.0
 37
0.0
 76
     0
330
2BB8
  0
MATERIAL
  5
2B61
102
{ACAD_XDICTIONARY
360
2B62
102
}
102
{ACAD_REACTORS
330
2B58
102
}
330
2B58
100
AcDbMaterial
  1
ByBlock
 72
     0
 43
0.0208333333333333
 43
0.0
 43
0.0
 43
0.0
 43
0.0
 43
0.0208333333333333
 43
0.0
 43
0.0
 43
0.0
 43
0.0
 43
1.0
 43
0.0
 43
0.0
 43
0.0
 43
0.0
 43
1.0
 77
     0
 47
0.0208333333333333
 47
0.0
 47
0.0
 47
0.0
 47
0.0
 47
0.0208333333333333
 47
0.0
 47
0.0
 47
0.0
 47
0.0
 47
1.0
 47
0.0
 47
0.0
 47
0.0
 47
0.0
 47
1.0
171
     0
 49
0.0208333333333333
 49
0.0
 49
0.0
 49
0.0
 49
0.0
 49
0.0208333333333333
 49
0.0
 49
0.0
 49
0.0
 49
0.0
 49
1.0
 49
0.0
 49
0.0
 49
0.0
 49
0.0
 49
1.0
175
     0
142
0.0208333333333333
142
0.0
142
0.0
142
0.0
142
0.0
142
0.0208333333333333
142
0.0
142
0.0
142
0.0
142
0.0
142
1.0
142
0.0
142
0.0
142
0.0
142
0.0
142
1.0
179
     0
144
0.0208333333333333
144
0.0
144
0.0
144
0.0
144
0.0
144
0.0208333333333333
144
0.0
144
0.0
144
0.0
144
0.0
144
1.0
144
0.0
144
0.0
144
0.0
144
0.0
144
1.0
147
0.0208333333333333
147
0.0
147
0.0
147
0.0
147
0.0
147
0.0208333333333333
147
0.0
147
0.0
147
0.0
147
0.0
147
1.0
147
0.0
147
0.0
147
0.0
147
0.0
147
1.0
  0
MATERIAL
  5
2B59
102
{ACAD_XDICTIONARY
360
2B5A
102
}
102
{ACAD_REACTORS
330
2B58
102
}
330
2B58
100
AcDbMaterial
  1
ByLayer
 72
     0
 43
0.0208333333333333
 43
0.0
 43
0.0
 43
0.0
 43
0.0
 43
0.0208333333333333
 43
0.0
 43
0.0
 43
0.0
 43
0.0
 43
1.0
 43
0.0
 43
0.0
 43
0.0
 43
0.0
 43
1.0
 77
     0
 47
0.0208333333333333
 47
0.0
 47
0.0
 47
0.0
 47
0.0
 47
0.0208333333333333
 47
0.0
 47
0.0
 47
0.0
 47
0.0
 47
1.0
 47
0.0
 47
0.0
 47
0.0
 47
0.0
 47
1.0
171
     0
 49
0.0208333333333333
 49
0.0
 49
0.0
 49
0.0
 49
0.0
 49
0.0208333333333333
 49
0.0
 49
0.0
 49
0.0
 49
0.0
 49
1.0
 49
0.0
 49
0.0
 49
0.0
 49
0.0
 49
1.0
175
     0
142
0.0208333333333333
142
0.0
142
0.0
142
0.0
142
0.0
142
0.0208333333333333
142
0.0
142
0.0
142
0.0
142
0.0
142
1.0
142
0.0
142
0.0
142
0.0
142
0.0
142
1.0
179
     0
144
0.0208333333333333
144
0.0
144
0.0
144
0.0
144
0.0
144
0.0208333333333333
144
0.0
144
0.0
144
0.0
144
0.0
144
1.0
144
0.0
144
0.0
144
0.0
144
0.0
144
1.0
147
0.0208333333333333
147
0.0
147
0.0
147
0.0
147
0.0
147
0.0208333333333333
147
0.0
147
0.0
147
0.0
147
0.0
147
1.0
147
0.0
147
0.0
147
0.0
147
0.0
147
1.0
  0
MATERIAL
  5
2B69
102
{ACAD_XDICTIONARY
360
2B6A
102
}
102
{ACAD_REACTORS
330
2B58
102
}
330
2B58
100
AcDbMaterial
  1
Global
 72
     0
 43
0.0208333333333333
 43
0.0
 43
0.0
 43
0.0
 43
0.0
 43
0.0208333333333333
 43
0.0
 43
0.0
 43
0.0
 43
0.0
 43
1.0
 43
0.0
 43
0.0
 43
0.0
 43
0.0
 43
1.0
 77
     0
 47
0.0208333333333333
 47
0.0
 47
0.0
 47
0.0
 47
0.0
 47
0.0208333333333333
 47
0.0
 47
0.0
 47
0.0
 47
0.0
 47
1.0
 47
0.0
 47
0.0
 47
0.0
 47
0.0
 47
1.0
171
     0
 49
0.0208333333333333
 49
0.0
 49
0.0
 49
0.0
 49
0.0
 49
0.0208333333333333
 49
0.0
 49
0.0
 49
0.0
 49
0.0
 49
1.0
 49
0.0
 49
0.0
 49
0.0
 49
0.0
 49
1.0
175
     0
142
0.0208333333333333
142
0.0
142
0.0
142
0.0
142
0.0
142
0.0208333333333333
142
0.0
142
0.0
142
0.0
142
0.0
142
1.0
142
0.0
142
0.0
142
0.0
142
0.0
142
1.0
179
     0
144
0.0208333333333333
144
0.0
144
0.0
144
0.0
144
0.0
144
0.0208333333333333
144
0.0
144
0.0
144
0.0
144
0.0
144
1.0
144
0.0
144
0.0
144
0.0
144
0.0
144
1.0
147
0.0208333333333333
147
0.0
147
0.0
147
0.0
147
0.0
147
0.0208333333333333
147
0.0
147
0.0
147
0.0
147
0.0
147
1.0
147
0.0
147
0.0
147
0.0
147
0.0
147
1.0
  0
MLEADERSTYLE
  5
2BB6
102
{ACAD_REACTORS
330
2BB5
102
}
330
2BB5
100
AcDbMLeaderStyle
170
     2
171
     1
172
     0
 90
        2
 40
0.0
 41
0.0
173
     1
 91
-1056964608
340
2BAA
 92
       -2
290
     1
 42
0.09
291
     1
 43
0.36
  3
Standard
 44
0.18
300

342
2BA5
174
     1
178
     6
175
     1
176
     0
 93
-1056964608
 45
0.18
292
     0
297
     0
 46
0.18
 94
-1056964608
 47
1.0
 49
1.0
140
1.0
293
     1
141
0.0
294
     1
177
     0
142
1.0
295
     0
296
     0
143
0.125
1001
ACAD_MLEADERVER
1070
     2
  0
MLINESTYLE
  5
2BAF
102
{ACAD_REACTORS
330
2BAE
102
}
330
2BAE
100
AcDbMlineStyle
  2
STANDARD
 70
     0
  3

 62
   256
 51
90.0
 52
90.0
 71
     2
 49
0.5
 62
   256
  6
BYLAYER
 49
-0.5
 62
   256
  6
BYLAYER
  0
ACDBPLACEHOLDER
  5
2B57
102
{ACAD_REACTORS
330
2B56
102
}
330
2B56
  0
SCALE
  5
2B83
102
{ACAD_REACTORS
330
2B82
102
}
330
2B82
100
AcDbScale
 70
     0
300
1:1
140
1.0
141
1.0
290
     1
  0
SCALE
  5
2B84
102
{ACAD_REACTORS
330
2B82
102
}
330
2B82
100
AcDbScale
 70
     0
300
1:2
140
1.0
141
2.0
290
     0
  0
SCALE
  5
2B85
102
{ACAD_REACTORS
330
2B82
102
}
330
2B82
100
AcDbScale
 70
     0
300
1:4
140
1.0
141
4.0
290
     0
  0
SCALE
  5
2B86
102
{ACAD_REACTORS
330
2B82
102
}
330
2B82
100
AcDbScale
 70
     0
300
1:5
140
1.0
141
5.0
290
     0
  0
SCALE
  5
2B87
102
{ACAD_REACTORS
330
2B82
102
}
330
2B82
100
AcDbScale
 70
     0
300
1:8
140
1.0
141
8.0
290
     0
  0
SCALE
  5
2B88
102
{ACAD_REACTORS
330
2B82
102
}
330
2B82
100
AcDbScale
 70
     0
300
1:10
140
1.0
141
10.0
290
     0
  0
SCALE
  5
2B89
102
{ACAD_REACTORS
330
2B82
102
}
330
2B82
100
AcDbScale
 70
     0
300
1:16
140
1.0
141
16.0
290
     0
  0
SCALE
  5
2B8A
102
{ACAD_REACTORS
330
2B82
102
}
330
2B82
100
AcDbScale
 70
     0
300
1:20
140
1.0
141
20.0
290
     0
  0
SCALE
  5
2B8B
102
{ACAD_REACTORS
330
2B82
102
}
330
2B82
100
AcDbScale
 70
     0
300
1:30
140
1.0
141
30.0
290
     0
  0
SCALE
  5
2B8C
102
{ACAD_REACTORS
330
2B82
102
}
330
2B82
100
AcDbScale
 70
     0
300
1:40
140
1.0
141
40.0
290
     0
  0
SCALE
  5
2B8D
102
{ACAD_REACTORS
330
2B82
102
}
330
2B82
100
AcDbScale
 70
     0
300
1:50
140
1.0
141
50.0
290
     0
  0
SCALE
  5
2B8E
102
{ACAD_REACTORS
330
2B82
102
}
330
2B82
100
AcDbScale
 70
     0
300
1:100
140
1.0
141
100.0
290
     0
  0
SCALE
  5
2B8F
102
{ACAD_REACTORS
330
2B82
102
}
330
2B82
100
AcDbScale
 70
     0
300
2:1
140
2.0
141
1.0
290
     0
  0
SCALE
  5
2B90
102
{ACAD_REACTORS
330
2B82
102
}
330
2B82
100
AcDbScale
 70
     0
300
4:1
140
4.0
141
1.0
290
     0
  0
SCALE
  5
2B91
102
{ACAD_REACTORS
330
2B82
102
}
330
2B82
100
AcDbScale
 70
     0
300
8:1
140
8.0
141
1.0
290
     0
  0
SCALE
  5
2B92
102
{ACAD_REACTORS
330
2B82
102
}
330
2B82
100
AcDbScale
 70
     0
300
10:1
140
10.0
141
1.0
290
     0
  0
SCALE
  5
2B93
102
{ACAD_REACTORS
330
2B82
102
}
330
2B82
100
AcDbScale
 70
     0
300
100:1
140
100.0
141
1.0
290
     0
  0
SCALE
  5
2B94
102
{ACAD_REACTORS
330
2B82
102
}
330
2B82
100
AcDbScale
 70
     0
300
1/128" = 1'-0"
140
0.0078125
141
12.0
290
     0
  0
SCALE
  5
2B95
102
{ACAD_REACTORS
330
2B82
102
}
330
2B82
100
AcDbScale
 70
     0
300
1/64" = 1'-0"
140
0.015625
141
12.0
290
     0
  0
SCALE
  5
2B96
102
{ACAD_REACTORS
330
2B82
102
}
330
2B82
100
AcDbScale
 70
     0
300
1/32" = 1'-0"
140
0.03125
141
12.0
290
     0
  0
SCALE
  5
2B97
102
{ACAD_REACTORS
330
2B82
102
}
330
2B82
100
AcDbScale
 70
     0
300
1/16" = 1'-0"
140
0.0625
141
12.0
290
     0
  0
SCALE
  5
2B98
102
{ACAD_REACTORS
330
2B82
102
}
330
2B82
100
AcDbScale
 70
     0
300
3/32" = 1'-0"
140
0.09375
141
12.0
290
     0
  0
SCALE
  5
2B99
102
{ACAD_REACTORS
330
2B82
102
}
330
2B82
100
AcDbScale
 70
     0
300
1/8" = 1'-0"
140
0.125
141
12.0
290
     0
  0
SCALE
  5
2B9A
102
{ACAD_REACTORS
330
2B82
102
}
330
2B82
100
AcDbScale
 70
     0
300
3/16" = 1'-0"
140
0.1875
141
12.0
290
     0
  0
SCALE
  5
2B9B
102
{ACAD_REACTORS
330
2B82
102
}
330
2B82
100
AcDbScale
 70
     0
300
1/4" = 1'-0"
140
0.25
141
12.0
290
     0
  0
SCALE
  5
2B9C
102
{ACAD_REACTORS
330
2B82
102
}
330
2B82
100
AcDbScale
 70
     0
300
3/8" = 1'-0"
140
0.375
141
12.0
290
     0
  0
SCALE
  5
2B9D
102
{ACAD_REACTORS
330
2B82
102
}
330
2B82
100
AcDbScale
 70
     0
300
1/2" = 1'-0"
140
0.5
141
12.0
290
     0
  0
SCALE
  5
2B9E
102
{ACAD_REACTORS
330
2B82
102
}
330
2B82
100
AcDbScale
 70
     0
300
3/4" = 1'-0"
140
0.75
141
12.0
290
     0
  0
SCALE
  5
2B9F
102
{ACAD_REACTORS
330
2B82
102
}
330
2B82
100
AcDbScale
 70
     0
300
1" = 1'-0"
140
1.0
141
12.0
290
     0
  0
SCALE
  5
2BA0
102
{ACAD_REACTORS
330
2B82
102
}
330
2B82
100
AcDbScale
 70
     0
300
1-1/2" = 1'-0"
140
1.5
141
12.0
290
     0
  0
SCALE
  5
2BA1
102
{ACAD_REACTORS
330
2B82
102
}
330
2B82
100
AcDbScale
 70
     0
300
3" = 1'-0"
140
3.0
141
12.0
290
     0
  0
SCALE
  5
2BA2
102
{ACAD_REACTORS
330
2B82
102
}
330
2B82
100
AcDbScale
 70
     0
300
6" = 1'-0"
140
6.0
141
12.0
290
     0
  0
SCALE
  5
2BA3
102
{ACAD_REACTORS
330
2B82
102
}
330
2B82
100
AcDbScale
 70
     0
300
1'-0" = 1'-0"
140
12.0
141
12.0
290
     0
  0
TABLESTYLE
  5
2BB4
102
{ACAD_XDICTIONARY
360
2DAD
102
}
102
{ACAD_REACTORS
330
2BB3
102
}
330
2BB3
100
AcDbTableStyle
  3
Standard
 70
     0
 71
     0
 40
0.06
 41
0.06
280
     0
281
     0
  7
STANDARD
140
0.18
170
     2
 62
     0
 63
     7
283
     0
274
    -2
284
     1
 64
     0
275
    -2
285
     1
 65
     0
276
    -2
286
     1
 66
     0
277
    -2
287
     1
 67
     0
278
    -2
288
     1
 68
     0
279
    -2
289
     1
 69
     0
  7
STANDARD
140
0.25
170
     5
 62
     0
 63
     7
283
     0
274
    -2
284
     1
 64
     0
275
    -2
285
     1
 65
     0
276
    -2
286
     1
 66
     0
277
    -2
287
     1
 67
     0
278
    -2
288
     1
 68
     0
279
    -2
289
     1
 69
     0
  7
STANDARD
140
0.18
170
     5
 62
     0
 63
     7
283
     0
274
    -2
284
     1
 64
     0
275
    -2
285
     1
 65
     0
276
    -2
286
     1
 66
     0
277
    -2
287
     1
 67
     0
278
    -2
288
     1
 68
     0
279
    -2
289
     1
 69
     0
  0
VISUALSTYLE
  5
2B77
102
{ACAD_REACTORS
330
2B71
102
}
330
2B71
100
AcDbVisualStyle
  2
2dWireframe
 70
     4
 71
     0
 72
     2
 73
     0
 90
        0
 40
-0.6
 41
-30.0
 62
     5
 63
     7
 74
     1
 91
        4
 64
     7
 65
   257
 75
     1
175
     1
 42
1.0
 92
        0
 66
   257
 43
1.0
 76
     1
 77
     6
 78
     2
 67
     7
 79
     5
170
     0
171
     0
290
     0
174
     0
 93
        1
 44
0.0
173
     0
291
     0
 45
0.0
1001
ACAD
1000
AcDbSavedByObjectVersion
1070
     0
1000
AcDbSavedByObjectVersion
1070
     0
  0
VISUALSTYLE
  5
2B79
102
{ACAD_REACTORS
330
2B71
102
}
330
2B71
100
AcDbVisualStyle
  2
3D Hidden
 70
     6
 71
     1
 72
     2
 73
     2
 90
        0
 40
-0.6
 41
-30.0
 62
     5
 63
     7
 74
     2
 91
        2
 64
     7
 65
   257
 75
     2
175
     1
 42
40.0
 92
        0
 66
   257
 43
1.0
 76
     1
 77
     6
 78
     2
 67
     7
 79
     3
170
     0
171
     0
290
     0
174
     0
 93
        1
 44
0.0
173
     0
291
     0
 45
0.0
1001
ACAD
1000
AcDbSavedByObjectVersion
1070
     0
1000
AcDbSavedByObjectVersion
1070
     0
  0
VISUALSTYLE
  5
2B78
102
{ACAD_REACTORS
330
2B71
102
}
330
2B71
100
AcDbVisualStyle
  2
3dWireframe
 70
     5
 71
     0
 72
     2
 73
     0
 90
        0
 40
-0.6
 41
-30.0
 62
     5
 63
     7
 74
     1
 91
        4
 64
     7
 65
   257
 75
     1
175
     1
 42
1.0
 92
        0
 66
   257
 43
1.0
 76
     1
 77
     6
 78
     2
 67
     7
 79
     5
170
     0
171
     0
290
     0
174
     0
 93
        1
 44
0.0
173
     0
291
     0
 45
0.0
1001
ACAD
1000
AcDbSavedByObjectVersion
1070
     0
1000
AcDbSavedByObjectVersion
1070
     0
  0
VISUALSTYLE
  5
2B76
102
{ACAD_REACTORS
330
2B71
102
}
330
2B71
100
AcDbVisualStyle
  2
Basic
 70
     7
 71
     1
 72
     0
 73
     1
 90
        0
 40
-0.6
 41
-30.0
 62
     5
 63
     7
 74
     0
 91
        4
 64
     7
 65
   257
 75
     1
175
     1
 42
1.0
 92
        8
 66
     7
 43
1.0
 76
     1
 77
     6
 78
     2
 67
     7
 79
     5
170
     0
171
     0
290
     0
174
     0
 93
        1
 44
0.0
173
     0
291
     1
 45
0.0
1001
ACAD
1000
AcDbSavedByObjectVersion
1070
     0
1000
AcDbSavedByObjectVersion
1070
     0
  0
VISUALSTYLE
  5
2B7D
102
{ACAD_REACTORS
330
2B71
102
}
330
2B71
100
AcDbVisualStyle
  2
Brighten
 70
    12
 71
     2
 72
     2
 73
     0
 90
        0
 40
-0.6
 41
-30.0
 62
     5
 63
     7
 74
     1
 91
        4
 64
     7
 65
   257
 75
     1
175
     1
 42
1.0
 92
        8
 66
     7
 43
1.0
 76
     1
 77
     6
 78
     2
 67
     7
 79
     5
170
     0
171
     0
290
     0
174
     0
 93
        1
 44
50.0
173
     0
291
     1
 45
0.0
1001
ACAD
1000
AcDbSavedByObjectVersion
1070
     0
1000
AcDbSavedByObjectVersion
1070
     0
  0
VISUALSTYLE
  5
2B81
102
{ACAD_REACTORS
330
2B71
102
}
330
2B71
100
AcDbVisualStyle
  2
ColorChange
 70
    16
 71
     2
 72
     2
 73
     3
 90
        0
 40
-0.6
 41
-30.0
 62
     5
 63
     8
 74
     1
 91
        4
 64
     7
 65
   257
 75
     1
175
     1
 42
1.0
 92
        8
 66
     8
 43
1.0
 76
     1
 77
     6
 78
     2
 67
     7
 79
     5
170
     0
171
     0
290
     0
174
     0
 93
        1
 44
0.0
173
     0
291
     1
 45
0.0
1001
ACAD
1000
AcDbSavedByObjectVersion
1070
     0
1000
AcDbSavedByObjectVersion
1070
     0
  0
VISUALSTYLE
  5
2B7A
102
{ACAD_REACTORS
330
2B71
102
}
330
2B71
100
AcDbVisualStyle
  2
Conceptual
 70
     9
 71
     3
 72
     2
 73
     0
 90
        0
 40
-0.6
 41
-30.0
 62
     5
 63
     7
 74
     2
 91
        2
 64
     7
 65
   257
 75
     1
175
     1
 42
40.0
 92
        8
 66
     7
 43
1.0
 76
     1
 77
     6
 78
     2
 67
     7
 79
     3
170
     0
171
     0
290
     0
174
     0
 93
        1
 44
0.0
173
     0
291
     0
 45
0.0
1001
ACAD
1000
AcDbSavedByObjectVersion
1070
     0
1000
AcDbSavedByObjectVersion
1070
     0
  0
VISUALSTYLE
  5
2B7C
102
{ACAD_REACTORS
330
2B71
102
}
330
2B71
100
AcDbVisualStyle
  2
Dim
 70
    11
 71
     2
 72
     2
 73
     0
 90
        0
 40
-0.6
 41
-30.0
 62
     5
 63
     7
 74
     1
 91
        4
 64
     7
 65
   257
 75
     1
175
     1
 42
1.0
 92
        8
 66
     7
 43
1.0
 76
     1
 77
     6
 78
     2
 67
     7
 79
     5
170
     0
171
     0
290
     0
174
     0
 93
        1
 44
-50.0
173
     0
291
     1
 45
0.0
1001
ACAD
1000
AcDbSavedByObjectVersion
1070
     0
1000
AcDbSavedByObjectVersion
1070
     0
  0
VISUALSTYLE
  5
2B80
102
{ACAD_REACTORS
330
2B71
102
}
330
2B71
100
AcDbVisualStyle
  2
Facepattern
 70
    15
 71
     2
 72
     2
 73
     0
 90
        0
 40
-0.6
 41
-30.0
 62
     5
 63
     7
 74
     1
 91
        4
 64
     7
 65
   257
 75
     1
175
     1
 42
1.0
 92
        8
 66
     7
 43
1.0
 76
     1
 77
     6
 78
     2
 67
     7
 79
     5
170
     0
171
     0
290
     0
174
     0
 93
        1
 44
0.0
173
     0
291
     1
 45
0.0
1001
ACAD
1000
AcDbSavedByObjectVersion
1070
     0
1000
AcDbSavedByObjectVersion
1070
     0
  0
VISUALSTYLE
  5
2B72
102
{ACAD_REACTORS
330
2B71
102
}
330
2B71
100
AcDbVisualStyle
  2
Flat
 70
     0
 71
     2
 72
     1
 73
     1
 90
        2
 40
-0.6
 41
30.0
 62
     5
 63
     7
 74
     0
 91
        4
 64
     7
 65
   257
 75
     1
175
     1
 42
1.0
 92
        8
 66
     7
 43
1.0
 76
     1
 77
     6
 78
     2
 67
     7
 79
     5
170
     0
171
     0
290
     0
174
     0
 93
       13
 44
0.0
173
     0
291
     1
 45
0.0
1001
ACAD
1000
AcDbSavedByObjectVersion
1070
     0
1000
AcDbSavedByObjectVersion
1070
     0
  0
VISUALSTYLE
  5
2B73
102
{ACAD_REACTORS
330
2B71
102
}
330
2B71
100
AcDbVisualStyle
  2
FlatWithEdges
 70
     1
 71
     2
 72
     1
 73
     1
 90
        2
 40
-0.6
 41
30.0
 62
     5
 63
     7
 74
     1
 91
        4
 64
     7
 65
   257
 75
     1
175
     1
 42
1.0
 92
        0
 66
   257
 43
1.0
 76
     1
 77
     6
 78
     2
 67
     7
 79
     5
170
     0
171
     0
290
     0
174
     0
 93
       13
 44
0.0
173
     0
291
     1
 45
0.0
1001
ACAD
1000
AcDbSavedByObjectVersion
1070
     0
1000
AcDbSavedByObjectVersion
1070
     0
  0
VISUALSTYLE
  5
2B74
102
{ACAD_REACTORS
330
2B71
102
}
330
2B71
100
AcDbVisualStyle
  2
Gouraud
 70
     2
 71
     2
 72
     2
 73
     1
 90
        2
 40
-0.6
 41
30.0
 62
     5
 63
     7
 74
     0
 91
        4
 64
     7
 65
   257
 75
     1
175
     1
 42
1.0
 92
        0
 66
     7
 43
1.0
 76
     1
 77
     6
 78
     2
 67
     7
 79
     5
170
     0
171
     0
290
     0
174
     0
 93
       13
 44
0.0
173
     0
291
     1
 45
0.0
1001
ACAD
1000
AcDbSavedByObjectVersion
1070
     0
1000
AcDbSavedByObjectVersion
1070
     0
  0
VISUALSTYLE
  5
2B75
102
{ACAD_REACTORS
330
2B71
102
}
330
2B71
100
AcDbVisualStyle
  2
GouraudWithEdges
 70
     3
 71
     2
 72
     2
 73
     1
 90
        2
 40
-0.6
 41
30.0
 62
     5
 63
     7
 74
     1
 91
        4
 64
     7
 65
   257
 75
     1
175
     1
 42
1.0
 92
        0
 66
   257
 43
1.0
 76
     1
 77
     6
 78
     2
 67
     7
 79
     5
170
     0
171
     0
290
     0
174
     0
 93
       13
 44
0.0
173
     0
291
     1
 45
0.0
1001
ACAD
1000
AcDbSavedByObjectVersion
1070
     0
1000
AcDbSavedByObjectVersion
1070
     0
  0
VISUALSTYLE
  5
2B7F
102
{ACAD_REACTORS
330
2B71
102
}
330
2B71
100
AcDbVisualStyle
  2
Linepattern
 70
    14
 71
     2
 72
     2
 73
     0
 90
        0
 40
-0.6
 41
-30.0
 62
     5
 63
     7
 74
     1
 91
        4
 64
     7
 65
   257
 75
     7
175
     7
 42
1.0
 92
        8
 66
     7
 43
1.0
 76
     1
 77
     6
 78
     2
 67
     7
 79
     5
170
     0
171
     0
290
     0
174
     0
 93
        1
 44
0.0
173
     0
291
     1
 45
0.0
1001
ACAD
1000
AcDbSavedByObjectVersion
1070
     0
1000
AcDbSavedByObjectVersion
1070
     0
  0
VISUALSTYLE
  5
2B7B
102
{ACAD_REACTORS
330
2B71
102
}
330
2B71
100
AcDbVisualStyle
  2
Realistic
 70
     8
 71
     2
 72
     2
 73
     0
 90
        0
 40
-0.6
 41
-30.0
 62
     5
 63
     7
 74
     1
 91
        0
 64
     7
 65
   257
 75
     1
175
     1
 42
1.0
 92
        8
 66
     8
 43
1.0
 76
     1
 77
     6
 78
     2
 67
     7
 79
     5
170
     0
171
     0
290
     0
174
     0
 93
       13
 44
0.0
173
     0
291
     0
 45
0.0
1001
ACAD
1000
AcDbSavedByObjectVersion
1070
     0
1000
AcDbSavedByObjectVersion
1070
     0
  0
VISUALSTYLE
  5
2B7E
102
{ACAD_REACTORS
330
2B71
102
}
330
2B71
100
AcDbVisualStyle
  2
Thicken
 70
    13
 71
     2
 72
     2
 73
     0
 90
        0
 40
-0.6
 41
-30.0
 62
     5
 63
     7
 74
     1
 91
        4
 64
     7
 65
   257
 75
     1
175
     1
 42
1.0
 92
       12
 66
     7
 43
1.0
 76
     1
 77
     6
 78
     2
 67
     7
 79
     5
170
     0
171
     0
290
     0
174
     0
 93
        1
 44
0.0
173
     0
291
     1
 45
0.0
1001
ACAD
1000
AcDbSavedByObjectVersion
1070
     0
1000
AcDbSavedByObjectVersion
1070
     0
  0
DICTIONARYVAR
  5
2DA9
102
{ACAD_REACTORS
330
2DA6
102
}
330
2DA6
100
DictionaryVariables
280
     0
  1
1:1
  0
DICTIONARYVAR
  5
2DA8
102
{ACAD_REACTORS
330
2DA6
102
}
330
2DA6
100
DictionaryVariables
280
     0
  1
STANDARD
  0
DICTIONARYVAR
  5
2DA7
102
{ACAD_REACTORS
330
2DA6
102
}
330
2DA6
100
DictionaryVariables
280
     0
  1
STANDARD
  0
DICTIONARYVAR
  5
2DAC
102
{ACAD_REACTORS
330
2DA6
102
}
330
2DA6
100
DictionaryVariables
280
     0
  1
1
  0
DICTIONARYVAR
  5
2DAB
102
{ACAD_REACTORS
330
2DA6
102
}
330
2DA6
100
DictionaryVariables
280
     0
  1
1
  0
DICTIONARYVAR
  5
306F
102
{ACAD_REACTORS
330
2DA6
102
}
330
2DA6
100
DictionaryVariables
280
     0
  1
1
  0
DICTIONARYVAR
  5
3070
102
{ACAD_REACTORS
330
2DA6
102
}
330
2DA6
100
DictionaryVariables
280
     0
  1
15
  0
DICTIONARYVAR
  5
306E
102
{ACAD_REACTORS
330
2DA6
102
}
330
2DA6
100
DictionaryVariables
280
     0
  1
0
  0
DICTIONARYVAR
  5
3978
102
{ACAD_REACTORS
330
2DA6
102
}
330
2DA6
100
DictionaryVariables
280
     0
  1
1.570796
  0
DICTIONARYVAR
  5
3979
102
{ACAD_REACTORS
330
2DA6
102
}
330
2DA6
100
DictionaryVariables
280
     0
  1
1.570796
  0
DICTIONARYVAR
  5
397A
102
{ACAD_REACTORS
330
2DA6
102
}
330
2DA6
100
DictionaryVariables
280
     0
  1
-122.394000
  0
DICTIONARYVAR
  5
306D
102
{ACAD_REACTORS
330
2DA6
102
}
330
2DA6
100
DictionaryVariables
280
     0
  1
0
  0
DICTIONARYVAR
  5
2DAA
102
{ACAD_REACTORS
330
2DA6
102
}
330
2DA6
100
DictionaryVariables
280
     0
  1
127
  0
DICTIONARY
  5
2D60
102
{ACAD_REACTORS
330
2D52
102
}
330
2D52
100
AcDbDictionary
281
     1
  0
DICTIONARY
  5
2CA0
102
{ACAD_REACTORS
330
2C9F
102
}
330
2C9F
100
AcDbDictionary
281
     1
  3
DWGSETTINGS
350
38A2
  3
TRANSSETTINGS
350
38A3
  0
ACAMGFILTERDAT
  5
2D7F
102
{ACAD_REACTORS
330
2D7A
102
}
330
2D7A
100
AcAmgFilterDat
 70
    15
  1
DIMENSION,AMDT_*_DIM
  2
*
  3
*
  4
*
  5
*
290
     1
  0
ACAMGFILTERDAT
  5
2D7E
102
{ACAD_REACTORS
330
2D7A
102
}
330
2D7A
100
AcAmgFilterDat
 70
    15
  1
*
  2
AM_FEA-AM_*
  3
*
  4
*
  5
*
290
     1
  0
ACAMGFILTERDAT
  5
2D7B
102
{ACAD_REACTORS
330
2D7A
102
}
330
2D7A
100
AcAmgFilterDat
 70
    15
  1
HATCH
  2
*
  3
*
  4
*
  5
*
290
     1
  0
ACAMGFILTERDAT
  5
2D7C
102
{ACAD_REACTORS
330
2D7A
102
}
330
2D7A
100
AcAmgFilterDat
 70
    15
  1
LINE
  2
8,8N,*-8,*-8N,AM_8,AM_8N,*-AM_8,*-AM_8N
  3
*
  4
*
  5
INSERT,STDPART2D
290
     1
  0
ACAMGFILTERDAT
  5
2D80
102
{ACAD_REACTORS
330
2D7A
102
}
330
2D7A
100
AcAmgFilterDat
 70
    15
  1
ARC
  2
AM_5
  3
*
  4
2
  5
INSERT
290
     0
  0
ACAMGFILTERDAT
  5
2D7D
102
{ACAD_REACTORS
330
2D7A
102
}
330
2D7A
100
AcAmgFilterDat
 70
    15
  1
ACMFCFRAME,ACMDATUMTARGET,ACMDATUMID,ACMWELDSYM,ACMSURFSYM,ACMFEATID,ACMPARTREF,ACMBALLOON,AMDTEDGESYM,AMGSCREWCALCTABLE,ACMMARKSTAMP
  2
*
  3
*
  4
*
  5
*
290
     1
  0
LAYER_INDEX
  5
2D99
102
{ACAD_REACTORS
330
2D98
102
}
330
2D98
100
AcDbIndex
 40
2457491.618023623
100
AcDbLayerIndex
  8
0
360
2D9A
 90
        0
  8
OUTLINE
360
2D9B
 90
       23
  8
SIZE
360
2D9C
 90
       40
  8
BASIS
360
2D9D
 90
        1
  8
DETAIL
360
2D9E
 90
      521
  8
ARRANGE
360
2D9F
 90
        2
  8
DEFPOINTS
360
2DA0
 90
        0
  8
ETC
360
2DA1
 90
        3
  8
FIX
360
2DA2
 90
        0
  8
NOTE
360
2DA3
 90
        7
  8
SERVICESPACE
360
2DA4
 90
        0
  8
SYMBOLLINE
360
2DA5
 90
        0
  0
DICTIONARY
  5
2B62
330
2B61
100
AcDbDictionary
280
     1
281
     1
  3
ACAD_XREC_ROUNDTRIP
360
2DB7
  3
BUMPTILE
360
2B64
  3
DIFFUSETILE
360
2B63
  3
OPACITYTILE
360
2B67
  3
REFLECTIONTILE
360
2B66
  3
REFRACTIONTILE
360
2B68
  3
SPECULARTILE
360
2B65
  0
DICTIONARY
  5
2B5A
330
2B59
100
AcDbDictionary
280
     1
281
     1
  3
ACAD_XREC_ROUNDTRIP
360
2DB6
  3
BUMPTILE
360
2B5C
  3
DIFFUSETILE
360
2B5B
  3
OPACITYTILE
360
2B5F
  3
REFLECTIONTILE
360
2B5E
  3
REFRACTIONTILE
360
2B60
  3
SPECULARTILE
360
2B5D
  0
DICTIONARY
  5
2B6A
330
2B69
100
AcDbDictionary
280
     1
281
     1
  3
ACAD_XREC_ROUNDTRIP
360
2DB8
  3
BUMPTILE
360
2B6C
  3
DIFFUSETILE
360
2B6B
  3
OPACITYTILE
360
2B6F
  3
REFLECTIONTILE
360
2B6E
  3
REFRACTIONTILE
360
2B70
  3
SPECULARTILE
360
2B6D
  0
DICTIONARY
  5
2DAD
330
2BB4
100
AcDbDictionary
280
     1
281
     1
  3
ACAD_ROUNDTRIP_2008_TABLESTYLE_CELLSTYLEMAP
360
397B
  3
ACAD_XREC_ROUNDTRIP
360
3981
  0
IDBUFFER
  5
2D9A
330
0
100
AcDbIdBuffer
  0
IDBUFFER
  5
2D9B
330
0
100
AcDbIdBuffer
330
953
330
954
330
955
330
956
330
957
330
958
330
33D0
330
33F2
330
33F3
330
33F4
330
33F5
330
33F6
330
33F7
330
33F8
330
33F9
330
33FA
330
33FB
330
33FC
330
33FD
330
33FE
330
33FF
330
3400
330
3401
  0
IDBUFFER
  5
2D9C
330
0
100
AcDbIdBuffer
330
33B2
330
33B3
330
33B4
330
33B5
330
33B6
330
33B7
330
33B8
330
33B9
330
33BA
330
33BB
330
33BC
330
33BD
330
33C6
330
33C7
330
33C8
330
33C9
330
33CA
330
33CB
330
33D7
330
33D8
330
33D9
330
33DA
330
33DB
330
33DC
330
33DD
330
33DE
330
33DF
330
33E0
330
33E1
330
33E2
330
33E3
330
33E4
330
33E5
330
33E6
330
33E7
330
33E8
330
33E9
330
33EA
330
33EB
330
33EC
  0
IDBUFFER
  5
2D9D
330
0
100
AcDbIdBuffer
330
33B1
  0
IDBUFFER
  5
2D9E
330
0
100
AcDbIdBuffer
330
33AB
330
33AC
330
33AE
330
33AF
330
33BE
330
33BF
330
33C0
330
33C3
330
33C4
330
33C5
330
33CC
330
33CD
330
33CE
330
33CF
330
33D1
330
33D2
330
33D3
330
33D4
330
33D5
330
33D6
330
3402
330
3403
330
3404
330
3405
330
3406
330
3407
330
3408
330
3409
330
340A
330
340B
330
340C
330
340D
330
340E
330
340F
330
3410
330
3411
330
3412
330
3413
330
3414
330
3415
330
3416
330
3417
330
3418
330
3419
330
341A
330
341B
330
341C
330
341D
330
341E
330
341F
330
3420
330
3421
330
3422
330
3423
330
3424
330
3425
330
3426
330
3427
330
3428
330
3429
330
342A
330
342B
330
342C
330
342D
330
342E
330
342F
330
3430
330
3431
330
3432
330
3433
330
3434
330
3435
330
3436
330
3437
330
3438
330
3439
330
343A
330
343B
330
343C
330
343D
330
343E
330
343F
330
3440
330
3441
330
3442
330
3443
330
3444
330
3445
330
3446
330
3447
330
3448
330
3449
330
344A
330
344B
330
344C
330
344D
330
344E
330
344F
330
3450
330
3451
330
3452
330
3453
330
3454
330
3455
330
3456
330
3457
330
3458
330
3459
330
345A
330
345B
330
345C
330
345D
330
345E
330
345F
330
3460
330
3461
330
3462
330
3463
330
3464
330
3465
330
3466
330
3467
330
3468
330
3469
330
346A
330
346B
330
346C
330
346D
330
346E
330
346F
330
3470
330
3471
330
3472
330
3473
330
3474
330
3475
330
3476
330
3477
330
3478
330
3479
330
347A
330
347B
330
347C
330
347D
330
347E
330
347F
330
3480
330
3481
330
3482
330
3483
330
3484
330
3485
330
3486
330
3487
330
3488
330
3489
330
348A
330
348B
330
348C
330
348D
330
348E
330
348F
330
3490
330
3491
330
3492
330
3493
330
3494
330
3495
330
3496
330
3497
330
3498
330
3499
330
349A
330
349B
330
349C
330
349D
330
349E
330
349F
330
34A0
330
34A1
330
34A2
330
34A3
330
34A4
330
34A5
330
34A6
330
34A7
330
34A8
330
34A9
330
34AA
330
34AB
330
34AC
330
34AD
330
34AE
330
34AF
330
34B0
330
34B1
330
34B2
330
34B3
330
34B4
330
34B5
330
34B6
330
34B7
330
34B8
330
34B9
330
34BA
330
34BB
330
34BC
330
34BD
330
34BE
330
34BF
330
34C0
330
34C1
330
34C2
330
34C3
330
34C4
330
34C5
330
34C6
330
34C7
330
34C8
330
34C9
330
34CA
330
34CB
330
34CC
330
34CD
330
34CE
330
34CF
330
34D0
330
34D1
330
34D2
330
34D3
330
34D4
330
34D5
330
34D6
330
34D7
330
34D8
330
34D9
330
34DA
330
34DB
330
34DC
330
34DD
330
34DE
330
34DF
330
34E0
330
34E1
330
34E2
330
34E3
330
34E4
330
34E5
330
34E6
330
34E7
330
34E8
330
34E9
330
34EA
330
34EB
330
34EC
330
34ED
330
34EE
330
34EF
330
34F0
330
34F1
330
34F2
330
34F3
330
34F4
330
34F5
330
34F6
330
34F7
330
34F8
330
34F9
330
34FA
330
34FB
330
34FC
330
34FD
330
34FE
330
34FF
330
3500
330
3501
330
3502
330
3503
330
3504
330
3505
330
3506
330
3507
330
3508
330
3509
330
350A
330
350B
330
350C
330
350D
330
350E
330
350F
330
3510
330
3511
330
3512
330
3513
330
3514
330
3515
330
3516
330
3517
330
3518
330
3519
330
351A
330
351B
330
351C
330
351D
330
351E
330
351F
330
3520
330
3521
330
3522
330
3523
330
3524
330
3525
330
3526
330
3527
330
3528
330
3529
330
352A
330
352B
330
352C
330
352D
330
352E
330
352F
330
3530
330
3531
330
3532
330
3533
330
3534
330
3535
330
3536
330
3537
330
3538
330
3539
330
353A
330
353B
330
353C
330
353D
330
353E
330
353F
330
3540
330
3541
330
3542
330
3543
330
3544
330
3545
330
3546
330
3547
330
3548
330
3549
330
354A
330
354B
330
354C
330
354D
330
354E
330
354F
330
3550
330
3551
330
3552
330
3553
330
3554
330
3555
330
3556
330
3557
330
3558
330
3559
330
355A
330
355B
330
355C
330
355D
330
355E
330
355F
330
3560
330
3561
330
3562
330
3563
330
3564
330
3565
330
3566
330
3567
330
3568
330
3569
330
356A
330
356B
330
356C
330
356D
330
356E
330
356F
330
3570
330
3571
330
3572
330
3573
330
3574
330
3575
330
3576
330
3577
330
3578
330
3579
330
357A
330
357B
330
357C
330
357D
330
357E
330
357F
330
3580
330
3581
330
3582
330
3583
330
3584
330
3585
330
3586
330
3587
330
3588
330
3589
330
358A
330
358B
330
358C
330
358D
330
358E
330
358F
330
3590
330
3591
330
3592
330
3593
330
3594
330
3595
330
3596
330
3597
330
3598
330
3599
330
359A
330
359B
330
359C
330
359D
330
359E
330
359F
330
35A0
330
35A1
330
35A2
330
35A3
330
35A4
330
35A5
330
35A6
330
35A7
330
35A8
330
35A9
330
35AA
330
35AB
330
35AC
330
35AD
330
35AE
330
35AF
330
35B0
330
35B1
330
35B2
330
35B3
330
35B4
330
35B5
330
35B6
330
35B7
330
35B8
330
35B9
330
35BA
330
35BB
330
35BC
330
35BD
330
35BE
330
35BF
330
35C0
330
35C1
330
35C2
330
35C3
330
35C4
330
35C5
330
35C6
330
35C7
330
35C8
330
35C9
330
35CA
330
35CB
330
35CC
330
35CD
330
35CE
330
35CF
330
35D0
330
35D1
330
35D2
330
35D3
330
35D4
330
35D5
330
35D6
330
35D7
330
35D8
330
35D9
330
35DA
330
35DB
330
35DC
330
35DD
330
35DE
330
35DF
330
35E0
330
35E1
330
35E2
330
35E3
330
35E4
330
35E5
330
35E6
330
35E7
330
35E8
330
35E9
330
35EA
330
35EB
330
35EC
330
35ED
330
35EE
330
35EF
330
35F0
330
35F1
330
35F2
330
35F3
330
35F4
330
35F5
330
35F6
  0
IDBUFFER
  5
2D9F
330
0
100
AcDbIdBuffer
330
33AD
330
33B0
  0
IDBUFFER
  5
2DA0
330
0
100
AcDbIdBuffer
  0
IDBUFFER
  5
2DA1
330
0
100
AcDbIdBuffer
330
33A8
330
33A9
330
33AA
  0
IDBUFFER
  5
2DA2
330
0
100
AcDbIdBuffer
  0
IDBUFFER
  5
2DA3
330
0
100
AcDbIdBuffer
330
33C1
330
33C2
330
33ED
330
33EE
330
33EF
330
33F0
330
33F1
  0
IDBUFFER
  5
2DA4
330
0
100
AcDbIdBuffer
  0
IDBUFFER
  5
2DA5
330
0
100
AcDbIdBuffer
  0
XRECORD
  5
2DB7
102
{ACAD_REACTORS
330
2B62
102
}
330
2B62
100
AcDbXrecord
280
     1
102
MATERIAL
148
0.0
149
0.0
149
0.0
 93
        0
 94
      127
282
     0
 72
     0
 77
     0
171
     0
175
     0
179
     0
273
     0
  0
XRECORD
  5
2B64
102
{ACAD_REACTORS
330
2B62
102
}
330
2B62
100
AcDbXrecord
280
     1
270
     1
271
     1
  0
XRECORD
  5
2B63
102
{ACAD_REACTORS
330
2B62
102
}
330
2B62
100
AcDbXrecord
280
     1
270
     1
271
     1
  0
XRECORD
  5
2B67
102
{ACAD_REACTORS
330
2B62
102
}
330
2B62
100
AcDbXrecord
280
     1
270
     1
271
     1
  0
XRECORD
  5
2B66
102
{ACAD_REACTORS
330
2B62
102
}
330
2B62
100
AcDbXrecord
280
     1
270
     1
271
     1
  0
XRECORD
  5
2B68
102
{ACAD_REACTORS
330
2B62
102
}
330
2B62
100
AcDbXrecord
280
     1
270
     1
271
     1
  0
XRECORD
  5
2B65
102
{ACAD_REACTORS
330
2B62
102
}
330
2B62
100
AcDbXrecord
280
     1
270
     1
271
     1
  0
XRECORD
  5
2DB6
102
{ACAD_REACTORS
330
2B5A
102
}
330
2B5A
100
AcDbXrecord
280
     1
102
MATERIAL
148
0.0
149
0.0
149
0.0
 93
        0
 94
      127
282
     0
 72
     0
 77
     0
171
     0
175
     0
179
     0
273
     0
  0
XRECORD
  5
2B5C
102
{ACAD_REACTORS
330
2B5A
102
}
330
2B5A
100
AcDbXrecord
280
     1
270
     1
271
     1
  0
XRECORD
  5
2B5B
102
{ACAD_REACTORS
330
2B5A
102
}
330
2B5A
100
AcDbXrecord
280
     1
270
     1
271
     1
  0
XRECORD
  5
2B5F
102
{ACAD_REACTORS
330
2B5A
102
}
330
2B5A
100
AcDbXrecord
280
     1
270
     1
271
     1
  0
XRECORD
  5
2B5E
102
{ACAD_REACTORS
330
2B5A
102
}
330
2B5A
100
AcDbXrecord
280
     1
270
     1
271
     1
  0
XRECORD
  5
2B60
102
{ACAD_REACTORS
330
2B5A
102
}
330
2B5A
100
AcDbXrecord
280
     1
270
     1
271
     1
  0
XRECORD
  5
2B5D
102
{ACAD_REACTORS
330
2B5A
102
}
330
2B5A
100
AcDbXrecord
280
     1
270
     1
271
     1
  0
XRECORD
  5
2DB8
102
{ACAD_REACTORS
330
2B6A
102
}
330
2B6A
100
AcDbXrecord
280
     1
102
MATERIAL
148
0.0
149
0.0
149
0.0
 93
        0
 94
      127
282
     0
 72
     0
 77
     0
171
     0
175
     0
179
     0
273
     0
  0
XRECORD
  5
2B6C
102
{ACAD_REACTORS
330
2B6A
102
}
330
2B6A
100
AcDbXrecord
280
     1
270
     1
271
     1
  0
XRECORD
  5
2B6B
102
{ACAD_REACTORS
330
2B6A
102
}
330
2B6A
100
AcDbXrecord
280
     1
270
     1
271
     1
  0
XRECORD
  5
2B6F
102
{ACAD_REACTORS
330
2B6A
102
}
330
2B6A
100
AcDbXrecord
280
     1
270
     1
271
     1
  0
XRECORD
  5
2B6E
102
{ACAD_REACTORS
330
2B6A
102
}
330
2B6A
100
AcDbXrecord
280
     1
270
     1
271
     1
  0
XRECORD
  5
2B70
102
{ACAD_REACTORS
330
2B6A
102
}
330
2B6A
100
AcDbXrecord
280
     1
270
     1
271
     1
  0
XRECORD
  5
2B6D
102
{ACAD_REACTORS
330
2B6A
102
}
330
2B6A
100
AcDbXrecord
280
     1
270
     1
271
     1
  0
CELLSTYLEMAP
  5
397B
102
{ACAD_REACTORS
330
2DAD
102
}
330
2DAD
100
AcDbCellStyleMap
 90
        3
300
CELLSTYLE
  1
TABLEFORMAT_BEGIN
 90
        5
170
     1
 91
        0
 92
    32768
 62
   257
 93
        1
300
CONTENTFORMAT
  1
CONTENTFORMAT_BEGIN
 90
        0
 91
        0
 92
      512
 93
        0
300

 40
0.0
140
1.0
 94
        5
 62
     0
340
2BA5
144
0.25
309
CONTENTFORMAT_END
171
     1
301
MARGIN
  1
CELLMARGIN_BEGIN
 40
0.06
 40
0.06
 40
0.06
 40
0.06
 40
0.18
 40
0.18
309
CELLMARGIN_END
 94
        6
 95
        1
302
GRIDFORMAT
  1
GRIDFORMAT_BEGIN
 90
        0
 91
        1
 62
     0
 92
       -2
340
0
 93
        0
 40
0.045
309
GRIDFORMAT_END
 95
        2
302
GRIDFORMAT
  1
GRIDFORMAT_BEGIN
 90
        0
 91
        1
 62
     0
 92
       -2
340
0
 93
        0
 40
0.045
309
GRIDFORMAT_END
 95
        4
302
GRIDFORMAT
  1
GRIDFORMAT_BEGIN
 90
        0
 91
        1
 62
     0
 92
       -2
340
0
 93
        0
 40
0.045
309
GRIDFORMAT_END
 95
        8
302
GRIDFORMAT
  1
GRIDFORMAT_BEGIN
 90
        0
 91
        1
 62
     0
 92
       -2
340
0
 93
        0
 40
0.045
309
GRIDFORMAT_END
 95
       16
302
GRIDFORMAT
  1
GRIDFORMAT_BEGIN
 90
        0
 91
        1
 62
     0
 92
       -2
340
0
 93
        0
 40
0.045
309
GRIDFORMAT_END
 95
       32
302
GRIDFORMAT
  1
GRIDFORMAT_BEGIN
 90
        0
 91
        1
 62
     0
 92
       -2
340
0
 93
        0
 40
0.045
309
GRIDFORMAT_END
309
TABLEFORMAT_END
  1
CELLSTYLE_BEGIN
 90
        1
 91
        1
300
_TITLE
309
CELLSTYLE_END
300
CELLSTYLE
  1
TABLEFORMAT_BEGIN
 90
        5
170
     1
 91
        0
 92
        0
 62
   257
 93
        1
300
CONTENTFORMAT
  1
CONTENTFORMAT_BEGIN
 90
        0
 91
        0
 92
      512
 93
        0
300

 40
0.0
140
1.0
 94
        5
 62
     0
340
2BA5
144
0.18
309
CONTENTFORMAT_END
171
     1
301
MARGIN
  1
CELLMARGIN_BEGIN
 40
0.06
 40
0.06
 40
0.06
 40
0.06
 40
0.18
 40
0.18
309
CELLMARGIN_END
 94
        6
 95
        1
302
GRIDFORMAT
  1
GRIDFORMAT_BEGIN
 90
        0
 91
        1
 62
     0
 92
       -2
340
0
 93
        0
 40
0.045
309
GRIDFORMAT_END
 95
        2
302
GRIDFORMAT
  1
GRIDFORMAT_BEGIN
 90
        0
 91
        1
 62
     0
 92
       -2
340
0
 93
        0
 40
0.045
309
GRIDFORMAT_END
 95
        4
302
GRIDFORMAT
  1
GRIDFORMAT_BEGIN
 90
        0
 91
        1
 62
     0
 92
       -2
340
0
 93
        0
 40
0.045
309
GRIDFORMAT_END
 95
        8
302
GRIDFORMAT
  1
GRIDFORMAT_BEGIN
 90
        0
 91
        1
 62
     0
 92
       -2
340
0
 93
        0
 40
0.045
309
GRIDFORMAT_END
 95
       16
302
GRIDFORMAT
  1
GRIDFORMAT_BEGIN
 90
        0
 91
        1
 62
     0
 92
       -2
340
0
 93
        0
 40
0.045
309
GRIDFORMAT_END
 95
       32
302
GRIDFORMAT
  1
GRIDFORMAT_BEGIN
 90
        0
 91
        1
 62
     0
 92
       -2
340
0
 93
        0
 40
0.045
309
GRIDFORMAT_END
309
TABLEFORMAT_END
  1
CELLSTYLE_BEGIN
 90
        2
 91
        1
300
_HEADER
309
CELLSTYLE_END
300
CELLSTYLE
  1
TABLEFORMAT_BEGIN
 90
        5
170
     1
 91
        0
 92
        0
 62
   257
 93
        1
300
CONTENTFORMAT
  1
CONTENTFORMAT_BEGIN
 90
        0
 91
        0
 92
      512
 93
        0
300

 40
0.0
140
1.0
 94
        2
 62
     0
340
2BA5
144
0.18
309
CONTENTFORMAT_END
171
     1
301
MARGIN
  1
CELLMARGIN_BEGIN
 40
0.06
 40
0.06
 40
0.06
 40
0.06
 40
0.18
 40
0.18
309
CELLMARGIN_END
 94
        6
 95
        1
302
GRIDFORMAT
  1
GRIDFORMAT_BEGIN
 90
        0
 91
        1
 62
     0
 92
       -2
340
0
 93
        0
 40
0.045
309
GRIDFORMAT_END
 95
        2
302
GRIDFORMAT
  1
GRIDFORMAT_BEGIN
 90
        0
 91
        1
 62
     0
 92
       -2
340
0
 93
        0
 40
0.045
309
GRIDFORMAT_END
 95
        4
302
GRIDFORMAT
  1
GRIDFORMAT_BEGIN
 90
        0
 91
        1
 62
     0
 92
       -2
340
0
 93
        0
 40
0.045
309
GRIDFORMAT_END
 95
        8
302
GRIDFORMAT
  1
GRIDFORMAT_BEGIN
 90
        0
 91
        1
 62
     0
 92
       -2
340
0
 93
        0
 40
0.045
309
GRIDFORMAT_END
 95
       16
302
GRIDFORMAT
  1
GRIDFORMAT_BEGIN
 90
        0
 91
        1
 62
     0
 92
       -2
340
0
 93
        0
 40
0.045
309
GRIDFORMAT_END
 95
       32
302
GRIDFORMAT
  1
GRIDFORMAT_BEGIN
 90
        0
 91
        1
 62
     0
 92
       -2
340
0
 93
        0
 40
0.045
309
GRIDFORMAT_END
309
TABLEFORMAT_END
  1
CELLSTYLE_BEGIN
 90
        3
 91
        2
300
_DATA
309
CELLSTYLE_END
  0
XRECORD
  5
3981
102
{ACAD_REACTORS
330
2DAD
102
}
330
2DAD
100
AcDbXrecord
280
     1
102
ACAD_ROUNDTRIP_PRE2007_TABLESTYLE
 90
      512
 91
        0
  1

 92
      512
 93
        0
  2

 94
      512
 95
        0
  3

  0
ENDSEC
  0
EOF
