  0
SECTION
  2
HEADER
  9
$ACADVER
  1
AC1018
  9
$ACADMAINTVER
 70
   104
  9
$DWGCODEPAGE
  3
ANSI_932
  9
$LASTSAVEDBY
  1
a080061
  9
$CUSTOMPROPERTYTAG
  1
AmdtFileType
  9
$CUSTOMPROPERTY
  1
84
  9
$INSBASE
 10
0.0
 20
0.0
 30
0.0
  9
$EXTMIN
 10
-316.7770216553217
 20
517.181409310062
 30
-0.0038141151294866
  9
$EXTMAX
 10
1330.554211140323
 20
1643.188485809587
 30
50.00000023285908
  9
$LIMMIN
 10
-2970.0
 20
-2100.0
  9
$LIMMAX
 10
2970.0
 20
2100.0
  9
$ORTHOMODE
 70
     1
  9
$REGENMODE
 70
     0
  9
$FILLMODE
 70
     1
  9
$QTEXTMODE
 70
     0
  9
$MIRRTEXT
 70
     0
  9
$LTSCALE
 40
20.0
  9
$ATTMODE
 70
     1
  9
$TEXTSIZE
 40
64.0
  9
$TRACEWID
 40
0.05
  9
$TEXTSTYLE
  7
STANDARD
  9
$CLAYER
  8
0
  9
$CELTYPE
  6
ByLayer
  9
$CECOLOR
 62
   256
  9
$CELTSCALE
 40
1.0
  9
$DISPSILH
 70
     0
  9
$DIMSCALE
 40
1.0
  9
$DIMASZ
 40
0.12
  9
$DIMEXO
 40
0.05
  9
$DIMDLI
 40
0.5
  9
$DIMRND
 40
0.0
  9
$DIMDLE
 40
0.0
  9
$DIMEXE
 40
0.1
  9
$DIMTP
 40
0.1
  9
$DIMTM
 40
0.1
  9
$DIMTXT
 40
0.12
  9
$DIMCEN
 40
0.0
  9
$DIMTSZ
 40
0.0
  9
$DIMTOL
 70
     0
  9
$DIMLIM
 70
     0
  9
$DIMTIH
 70
     1
  9
$DIMTOH
 70
     1
  9
$DIMSE1
 70
     0
  9
$DIMSE2
 70
     0
  9
$DIMTAD
 70
     0
  9
$DIMZIN
 70
     7
  9
$DIMBLK
  1

  9
$DIMASO
 70
     1
  9
$DIMSHO
 70
     0
  9
$DIMPOST
  1

  9
$DIMAPOST
  1
mm
  9
$DIMALT
 70
     0
  9
$DIMALTD
 70
     2
  9
$DIMALTF
 40
25.4
  9
$DIMLFAC
 40
1.0
  9
$DIMTOFL
 70
     0
  9
$DIMTVP
 40
0.0
  9
$DIMTIX
 70
     0
  9
$DIMSOXD
 70
     0
  9
$DIMSAH
 70
     0
  9
$DIMBLK1
  1

  9
$DIMBLK2
  1

  9
$DIMSTYLE
  2
AM_ANSI
  9
$DIMCLRD
 70
   256
  9
$DIMCLRE
 70
   256
  9
$DIMCLRT
 70
     2
  9
$DIMTFAC
 40
0.71
  9
$DIMGAP
 40
0.06
  9
$DIMJUST
 70
     0
  9
$DIMSD1
 70
     0
  9
$DIMSD2
 70
     0
  9
$DIMTOLJ
 70
     1
  9
$DIMTZIN
 70
     7
  9
$DIMALTZ
 70
     0
  9
$DIMALTTZ
 70
     0
  9
$DIMUPT
 70
     0
  9
$DIMDEC
 70
     4
  9
$DIMTDEC
 70
     4
  9
$DIMALTU
 70
     2
  9
$DIMALTTD
 70
     4
  9
$DIMTXSTY
  7
STANDARD
  9
$DIMAUNIT
 70
     0
  9
$DIMADEC
 70
     0
  9
$DIMALTRND
 40
0.0
  9
$DIMAZIN
 70
     2
  9
$DIMDSEP
 70
    46
  9
$DIMATFIT
 70
     3
  9
$DIMFRAC
 70
     0
  9
$DIMLDRBLK
  1

  9
$DIMLUNIT
 70
     2
  9
$DIMLWD
 70
    -1
  9
$DIMLWE
 70
    -1
  9
$DIMTMOVE
 70
     0
  9
$LUNITS
 70
     2
  9
$LUPREC
 70
     4
  9
$SKETCHINC
 40
0.1
  9
$FILLETRAD
 40
4.0
  9
$AUNITS
 70
     1
  9
$AUPREC
 70
     3
  9
$MENU
  1
ACAD
  9
$ELEVATION
 40
0.0
  9
$PELEVATION
 40
0.0
  9
$THICKNESS
 40
50.0
  9
$LIMCHECK
 70
     0
  9
$CHAMFERA
 40
0.0
  9
$CHAMFERB
 40
0.0
  9
$CHAMFERC
 40
0.0
  9
$CHAMFERD
 40
0.0
  9
$SKPOLY
 70
     0
  9
$TDCREATE
 40
2452321.396199653
  9
$TDUCREATE
 40
2452321.021199653
  9
$TDUPDATE
 40
2457491.530029722
  9
$TDUUPDATE
 40
2457491.155029722
  9
$TDINDWG
 40
1.0426235880
  9
$TDUSRTIMER
 40
1.0426181829
  9
$USRTIMER
 70
     1
  9
$ANGBASE
 50
0.0
  9
$ANGDIR
 70
     0
  9
$PDMODE
 70
     3
  9
$PDSIZE
 40
-2.0
  9
$PLINEWID
 40
0.0
  9
$SPLFRAME
 70
     0
  9
$SPLINETYPE
 70
     6
  9
$SPLINESEGS
 70
     8
  9
$HANDSEED
  5
2DED
  9
$SURFTAB1
 70
     6
  9
$SURFTAB2
 70
     6
  9
$SURFTYPE
 70
     6
  9
$SURFU
 70
     6
  9
$SURFV
 70
     6
  9
$UCSBASE
  2

  9
$UCSNAME
  2

  9
$UCSORG
 10
0.0
 20
0.0
 30
0.0
  9
$UCSXDIR
 10
1.0
 20
0.0
 30
0.0
  9
$UCSYDIR
 10
0.0
 20
1.0
 30
0.0
  9
$UCSORTHOREF
  2

  9
$UCSORTHOVIEW
 70
     0
  9
$UCSORGTOP
 10
0.0
 20
0.0
 30
0.0
  9
$UCSORGBOTTOM
 10
0.0
 20
0.0
 30
0.0
  9
$UCSORGLEFT
 10
0.0
 20
0.0
 30
0.0
  9
$UCSORGRIGHT
 10
0.0
 20
0.0
 30
0.0
  9
$UCSORGFRONT
 10
0.0
 20
0.0
 30
0.0
  9
$UCSORGBACK
 10
0.0
 20
0.0
 30
0.0
  9
$PUCSBASE
  2

  9
$PUCSNAME
  2

  9
$PUCSORG
 10
0.0
 20
0.0
 30
0.0
  9
$PUCSXDIR
 10
1.0
 20
0.0
 30
0.0
  9
$PUCSYDIR
 10
0.0
 20
1.0
 30
0.0
  9
$PUCSORTHOREF
  2

  9
$PUCSORTHOVIEW
 70
     0
  9
$PUCSORGTOP
 10
0.0
 20
0.0
 30
0.0
  9
$PUCSORGBOTTOM
 10
0.0
 20
0.0
 30
0.0
  9
$PUCSORGLEFT
 10
0.0
 20
0.0
 30
0.0
  9
$PUCSORGRIGHT
 10
0.0
 20
0.0
 30
0.0
  9
$PUCSORGFRONT
 10
0.0
 20
0.0
 30
0.0
  9
$PUCSORGBACK
 10
0.0
 20
0.0
 30
0.0
  9
$USERI1
 70
     0
  9
$USERI2
 70
     0
  9
$USERI3
 70
     0
  9
$USERI4
 70
     0
  9
$USERI5
 70
     0
  9
$USERR1
 40
20.0
  9
$USERR2
 40
0.0
  9
$USERR3
 40
0.0
  9
$USERR4
 40
0.0
  9
$USERR5
 40
0.0
  9
$WORLDVIEW
 70
     1
  9
$SHADEDGE
 70
     3
  9
$SHADEDIF
 70
    70
  9
$TILEMODE
 70
     1
  9
$MAXACTVP
 70
    64
  9
$PINSBASE
 10
0.0
 20
0.0
 30
0.0
  9
$PLIMCHECK
 70
     0
  9
$PEXTMIN
 10
1.000000000000000E+20
 20
1.000000000000000E+20
 30
1.000000000000000E+20
  9
$PEXTMAX
 10
-1.000000000000000E+20
 20
-1.000000000000000E+20
 30
-1.000000000000000E+20
  9
$PLIMMIN
 10
0.0
 20
0.0
  9
$PLIMMAX
 10
12.0
 20
9.0
  9
$UNITMODE
 70
     0
  9
$VISRETAIN
 70
     1
  9
$PLINEGEN
 70
     0
  9
$PSLTSCALE
 70
     1
  9
$TREEDEPTH
 70
  3020
  9
$CMLSTYLE
  2
Standard
  9
$CMLJUST
 70
     0
  9
$CMLSCALE
 40
1.0
  9
$PROXYGRAPHICS
 70
     1
  9
$MEASUREMENT
 70
     0
  9
$CELWEIGHT
370
    -1
  9
$ENDCAPS
280
     0
  9
$JOINSTYLE
280
     0
  9
$LWDISPLAY
290
     0
  9
$INSUNITS
 70
     0
  9
$HYPERLINKBASE
  1

  9
$STYLESHEET
  1

  9
$XEDIT
290
     1
  9
$CEPSNTYPE
380
     0
  9
$PSTYLEMODE
290
     1
  9
$FINGERPRINTGUID
  2
{FB13A2BD-087A-495E-B128-911F5900BA87}
  9
$VERSIONGUID
  2
{B91A5C30-E4F7-4FBC-B395-96D6D0CD1065}
  9
$EXTNAMES
290
     1
  9
$PSVPSCALE
 40
0.0
  9
$OLESTARTUP
290
     0
  9
$SORTENTS
280
   127
  9
$INDEXCTL
280
     1
  9
$HIDETEXT
280
     0
  9
$XCLIPFRAME
290
     0
  9
$HALOGAP
280
     0
  9
$OBSCOLOR
 70
   257
  9
$OBSLTYPE
280
     0
  9
$INTERSECTIONDISPLAY
280
     0
  9
$INTERSECTIONCOLOR
 70
   257
  9
$DIMASSOC
280
     1
  9
$PROJECTNAME
  1

  0
ENDSEC
  0
SECTION
  2
CLASSES
  0
CLASS
  1
ACDBDICTIONARYWDFLT
  2
AcDbDictionaryWithDefault
  3
ObjectDBX Classes
 90
        0
 91
        1
280
     0
281
     0
  0
CLASS
  1
MATERIAL
  2
AcDbMaterial
  3
ObjectDBX Classes
 90
     1153
 91
        3
280
     0
281
     0
  0
CLASS
  1
VISUALSTYLE
  2
AcDbVisualStyle
  3
ObjectDBX Classes
 90
     4095
 91
       16
280
     0
281
     0
  0
CLASS
  1
SCALE
  2
AcDbScale
  3
ObjectDBX Classes
 90
     1153
 91
       33
280
     0
281
     0
  0
CLASS
  1
TABLESTYLE
  2
AcDbTableStyle
  3
ObjectDBX Classes
 90
     4095
 91
        1
280
     0
281
     0
  0
CLASS
  1
MLEADERSTYLE
  2
AcDbMLeaderStyle
  3
ACDB_MLEADERSTYLE_CLASS
 90
     4095
 91
        1
280
     0
281
     0
  0
CLASS
  1
DICTIONARYVAR
  2
AcDbDictionaryVar
  3
ObjectDBX Classes
 90
        0
 91
       13
280
     0
281
     0
  0
CLASS
  1
CELLSTYLEMAP
  2
AcDbCellStyleMap
  3
ObjectDBX Classes
 90
     1152
 91
        2
280
     0
281
     0
  0
CLASS
  1
AMGSETTINGSOBJ
  2
AmgSettingsObj
  3
"AcadM|Product Description: AutoCAD Mechanical|Company: Autodesk, Inc."
 90
     1024
 91
        2
280
     0
281
     0
  0
CLASS
  1
ACME_DOCUMENT
  2
AcMeDbDoc
  3
AcMeServices
 90
     1024
 91
        1
280
     0
281
     0
  0
CLASS
  1
ACMESCOPE
  2
AcMeScope
  3
AcMeServices
 90
     1024
 91
        1
280
     0
281
     0
  0
CLASS
  1
ACMECOMMANDHISTORY
  2
AcMeCommandHistory
  3
AcMeServices
 90
     1024
 91
        1
280
     0
281
     0
  0
CLASS
  1
ACIMSYSVARMAN
  2
AcImSysVarManager
  3
AcMeServices
 90
     1024
 91
        6
280
     0
281
     0
  0
CLASS
  1
ACIMREALSYSVAR
  2
AcImRealSysVar
  3
AcMeServices
 90
     1024
 91
       16
280
     0
281
     0
  0
CLASS
  1
ACIMINTSYSVAR
  2
AcImIntSysVar
  3
AcMeServices
 90
     1024
 91
       45
280
     0
281
     0
  0
CLASS
  1
ACMEDRAWINGMAN
  2
AcMeDrawingMan
  3
AcMeServices
 90
     1024
 91
        1
280
     0
281
     0
  0
CLASS
  1
ACMEVIEW
  2
AcMeView
  3
AcMeServices
 90
     1024
 91
        1
280
     0
281
     0
  0
CLASS
  1
ACDBENTITYCACHE
  2
AcMeEntityCache
  3
AcMeServices
 90
     1024
 91
        1
280
     0
281
     0
  0
CLASS
  1
GSMANAGER
  2
AcMeGSManager
  3
AcMeServices
 90
     1024
 91
        1
280
     0
281
     0
  0
CLASS
  1
AMDTINTERNALREACTOR
  2
AmdtInternalReactor
  3
AcMeServices
 90
     1024
 91
        2
280
     0
281
     0
  0
CLASS
  1
ACMESTATEMGR
  2
AcMeStateMgr
  3
AcMeServices
 90
     1024
 91
        1
280
     0
281
     0
  0
CLASS
  1
ACGREFMASTER
  2
AcGrefMaster
  3
AcAttribServices
 90
     1024
 91
        1
280
     0
281
     0
  0
CLASS
  1
AM_DRAWING_MGR
  2
AcDmDwgMgr
  3
AcMechDwgViewMgmt
 90
     1024
 91
        1
280
     0
281
     0
  0
CLASS
  1
AM_DWG_DOCUMENT
  2
AcDmDwgDocument
  3
AcMechDwgViewMgmt
 90
     1024
 91
        1
280
     0
281
     0
  0
CLASS
  1
AM_DWG_SHEET
  2
AcDmSheet
  3
AcMechDwgViewMgmt
 90
     1024
 91
        1
280
     0
281
     0
  0
CLASS
  1
AM_VIEWDIMPARMAP
  2
AcDmViewDimParMap
  3
AcMechDwgViewMgmt
 90
     1024
 91
        1
280
     0
281
     0
  0
CLASS
  1
AM_DWGMGR_NAME
  2
AcDmDwgMgrName
  3
AcMechDwgViewMgmt
 90
     1024
 91
        1
280
     0
281
     0
  0
CLASS
  1
ACME_DATABASE
  2
AcMeDbDatabase
  3
AcMeServices
 90
     1024
 91
        1
280
     0
281
     0
  0
CLASS
  1
ACRFINSADJUSTERMGR
  2
AcRfInsAdjusterMgr
  3
AcMeServices
 90
     1024
 91
        1
280
     0
281
     0
  0
CLASS
  1
ACGREFACADMASTER
  2
AcGrefacadMaster
  3
AcGrefServices
 90
     1024
 91
        1
280
     0
281
     0
  0
CLASS
  1
AMDTMENUSTATEMGR
  2
AmdtMenuStateMgr
  3
McadcomServices
 90
     1024
 91
        1
280
     0
281
     0
  0
CLASS
  1
AMDTMCOMMENUSTATE
  2
AmdtMcomMenuState
  3
McadcomServices
 90
     1024
 91
        1
280
     0
281
     0
  0
CLASS
  1
AMIMASTER
  2
AmiMaster
  3
AmiServices
 90
     1024
 91
        1
280
     0
281
     0
  0
CLASS
  1
ASAPP
  2
AcAsAppObject
  3
AutoSurfServices
 90
     1024
 91
        1
280
     0
281
     0
  0
CLASS
  1
IM_STATIC_MAN
  2
AcImStaticVarManager
  3
AcMeServices
 90
     1024
 91
        1
280
     0
281
     0
  0
CLASS
  1
ACIMSTRSYSVAR
  2
AcImStrSysVar
  3
AcMeServices
 90
     1024
 91
       11
280
     0
281
     0
  0
CLASS
  1
ACIMDBLSTATICVAR
  2
AcImDblStaticVar
  3
AcMeServices
 90
     1024
 91
       20
280
     0
281
     0
  0
CLASS
  1
ACIMSTRSTATICVAR
  2
AcImStrStaticVar
  3
AcMeServices
 90
     1024
 91
       12
280
     0
281
     0
  0
CLASS
  1
ACIMINTSTATICVAR
  2
AcImIntStaticVar
  3
AcMeServices
 90
     1024
 91
       17
280
     0
281
     0
  0
CLASS
  1
ACASGREFMASTER
  2
AcAsGrefMaster
  3
AutoSurfResolverServices
 90
     1024
 91
        1
280
     0
281
     0
  0
CLASS
  1
ACADGREFMODULE
  2
AcAdGrefModule
  3
AdGrefServices
 90
     1024
 91
        1
280
     0
281
     0
  0
CLASS
  1
AMDTMAPISURFMOUDULE
  2
AmdtMApiSurfModule
  3
MApiSurfServices
 90
     1024
 91
        1
280
     0
281
     0
  0
CLASS
  1
MAPIAMMOUDLE
  2
MApiAmModule
  3
MApiAmServices
 90
     1024
 91
        1
280
     0
281
     0
  0
CLASS
  1
AMDTADMENUSTATE
  2
AmdtAdMenuState
  3
DesignerServices
 90
     1024
 91
        1
280
     0
281
     0
  0
CLASS
  1
ADAPPL
  2
AcAdAppl
  3
DesignerServices
 90
     1024
 91
        1
280
     0
281
     0
  0
CLASS
  1
DEPMGR
  2
AcAdDepMgr
  3
DesignerServices
 90
     1024
 91
        1
280
     0
281
     0
  0
CLASS
  1
PARAMMGR
  2
AcAdParamMgr
  3
DesignerServices
 90
     1024
 91
        1
280
     0
281
     0
  0
CLASS
  1
PARAMSCOPE
  2
AcAdParamScope
  3
DesignerServices
 90
     1024
 91
        1
280
     0
281
     0
  0
CLASS
  1
NAMEDAPPL
  2
AcAdNamedAppl
  3
DesignerServices
 90
     1024
 91
        1
280
     0
281
     0
  0
CLASS
  1
AMDTDMMENUSTATE
  2
AmdtDmMenuState
  3
AcMechDwgViewMgmt
 90
     1024
 91
        1
280
     0
281
     0
  0
CLASS
  1
MAPIADMODULE
  2
MApiAdModule
  3
MApiAdServices
 90
     1024
 91
        1
280
     0
281
     0
  0
CLASS
  1
AMDTAMMENUSTATE
  2
AmdtAmMenuState
  3
DesignerAssemblies
 90
     1024
 91
        1
280
     0
281
     0
  0
CLASS
  1
ACAMPROJECT
  2
AcAmProject
  3
DesignerAssemblies
 90
     1024
 91
        1
280
     0
281
     0
  0
CLASS
  1
ACAMGRCOMPDEF
  2
AcAmGrCompDef
  3
DesignerAssemblies
 90
     1024
 91
        1
280
     0
281
     0
  0
CLASS
  1
ACCMCONTEXT
  2
AcCmContext
  3
DesignerAssemblies
 90
     1024
 91
        1
280
     0
281
     0
  0
CLASS
  1
ACAMCOMPDEF
  2
AcAmCompDef
  3
DesignerAssemblies
 90
     1024
 91
        1
280
     0
281
     0
  0
CLASS
  1
ACAMCOMPDEFMGR
  2
AcAmCompDefMgr
  3
DesignerAssemblies
 90
     1024
 91
        1
280
     0
281
     0
  0
CLASS
  1
AMCONTEXTMGR
  2
AcAmContextMgr
  3
DesignerAssemblies
 90
     1024
 91
        1
280
     0
281
     0
  0
CLASS
  1
ACAMCONTEXTMODELER
  2
AcAmContextModeler
  3
DesignerAssemblies
 90
     1024
 91
        1
280
     0
281
     0
  0
CLASS
  1
ACMDATADICTIONARY
  2
AcmDataDictionary
  3
"AcmSymBB|Product Description: AutoCAD Mechanical|Company: Autodesk, Inc."
 90
     1024
 91
        1
280
     0
281
     0
  0
CLASS
  1
ACMDATAENTRYBLOCK
  2
AcmDataEntryBlock
  3
AcmSymBB|Product Description: AutoCAD Mechanical|Company: Autodesk, Inc.
 90
     1024
 91
        1
280
     0
281
     0
  0
CLASS
  1
ACRFATTGENMGR
  2
AcRfAttGeneralMgr
  3
AcAttribServices
 90
     1024
 91
        1
280
     0
281
     0
  0
CLASS
  1
ACRFOBJATTMGR
  2
AcRfObjAttGroupMgr
  3
AcAttribServices
 90
     1024
 91
        1
280
     0
281
     0
  0
CLASS
  1
ACRFMCADAPIATTHOLDER
  2
AcRfMCADAPIAttHolder
  3
AcAttribServices
 90
     1024
 91
        1
280
     0
281
     0
  0
CLASS
  1
AMDTSYSATTR
  2
AmdtSystemAttribute
  3
AcAttribServices
 90
     1024
 91
        1
280
     0
281
     0
  0
CLASS
  1
CATALOGSTATE
  2
AcAmCatalogState
  3
DesignerAssemblies
 90
     1024
 91
        1
280
     0
281
     0
  0
CLASS
  1
ACAMGRCOMPDEFSET
  2
AcAmGrCompDefSet
  3
DesignerAssemblies
 90
     1024
 91
        1
280
     0
281
     0
  0
CLASS
  1
AMDTBROWSERDBTAB
  2
AmdtBrowserDbTab
  3
McadcomServices
 90
     1024
 91
        1
280
     0
281
     0
  0
CLASS
  1
CBROWSERAPPOBJECT
  2
CBrowserAppObject
  3
McadcomServices
 90
     1024
 91
        3
280
     0
281
     0
  0
CLASS
  1
DM_PLACEHOLDER
  2
AcDmSelsetPlaceholder
  3
AcMechDwgViewMgmt
 90
     1024
 91
        1
280
     0
281
     0
  0
CLASS
  1
ACMSTANDARDANSI
  2
AcmStandardANSI
  3
"Amdt_StdImp|Product Description: AutoCAD Mechanical|Company: Autodesk, Inc."
 90
     1024
 91
        1
280
     0
281
     0
  0
CLASS
  1
ACMSURFSTANDARDANSI
  2
AcmSurfTextStdANSI
  3
"Amdt_StdImp|Product Description: AutoCAD Mechanical|Company: Autodesk, Inc."
 90
     1024
 91
        1
280
     0
281
     0
  0
CLASS
  1
ACMFCFSTANDARDANSI
  2
AcmFCFStdANSI
  3
"Amdt_StdImp|Product Description: AutoCAD Mechanical|Company: Autodesk, Inc."
 90
     1024
 91
        1
280
     0
281
     0
  0
CLASS
  1
ACMWELDSTANDARDANSI
  2
AcmWeldingStdANSI
  3
"Amdt_StdImp|Product Description: AutoCAD Mechanical|Company: Autodesk, Inc."
 90
     1024
 91
        1
280
     0
281
     0
  0
CLASS
  1
ACMIDSTANDARDANSI
  2
AcmIdStdANSI
  3
"Amdt_StdImp|Product Description: AutoCAD Mechanical|Company: Autodesk, Inc."
 90
     1024
 91
        1
280
     0
281
     0
  0
CLASS
  1
ACMDATUMSTANDARDANSI
  2
AcmDatumStdANSI
  3
"Amdt_StdImp|Product Description: AutoCAD Mechanical|Company: Autodesk, Inc."
 90
     1024
 91
        1
280
     0
281
     0
  0
CLASS
  1
ACMBOMSTANDARDANSI
  2
AcmBOMStdANSI
  3
"Amdt_StdImp|Product Description: AutoCAD Mechanical|Company: Autodesk, Inc."
 90
     1024
 91
        1
280
     0
281
     0
  0
CLASS
  1
ACMDETAILSTANDARDANSI
  2
AmdtDetailSymStdANSI
  3
"Amdt_StdImp|Product Description: AutoCAD Mechanical|Company: Autodesk, Inc."
 90
     1024
 91
        1
280
     0
281
     0
  0
CLASS
  1
ACMSECTIONSTANDARDANSI
  2
AmdtSectionSymStdANSI
  3
"Amdt_StdImp|Product Description: AutoCAD Mechanical|Company: Autodesk, Inc."
 90
     1024
 91
        1
280
     0
281
     0
  0
CLASS
  1
ACMCENTERLINESTANDARDANSI
  2
AmdtCenterLineStdANSI
  3
"Amdt_StdImp|Product Description: AutoCAD Mechanical|Company: Autodesk, Inc."
 90
     1024
 91
        1
280
     0
281
     0
  0
CLASS
  1
ACMTHREADLINESTANDARDANSI
  2
AmdtThreadLineStdANSI
  3
"Amdt_StdImp|Product Description: AutoCAD Mechanical|Company: Autodesk, Inc."
 90
     1024
 91
        1
280
     0
281
     0
  0
CLASS
  1
ACMNOTESTANDARDANSI
  2
AmdtNoteStdANSI
  3
"Amdt_StdImp|Product Description: AutoCAD Mechanical|Company: Autodesk, Inc."
 90
     1024
 91
        1
280
     0
281
     0
  0
CLASS
  1
ACMTAPERSTANDARDANSI
  2
AcmTaperStdANSI
  3
"Amdt_StdImp|Product Description: AutoCAD Mechanical|Company: Autodesk, Inc."
 90
     1024
 91
        1
280
     0
281
     0
  0
CLASS
  1
ACMANOOTATIONVIEWSTANDARDANSI
  2
AmdtAnViewStdANSI
  3
"Amdt_StdImp|Product Description: AutoCAD Mechanical|Company: Autodesk, Inc."
 90
     1024
 91
        1
280
     0
281
     0
  0
CLASS
  1
ACAMGLAYSTD
  2
AcAmgLayStd
  3
"AmgLay|Product Description: AutoCAD Mechanical|Company: Autodesk, Inc."
 90
     1024
 91
        1
280
     0
281
     0
  0
CLASS
  1
ACAMGDIMSTD
  2
AcAmgDimStd
  3
"AmgDim|Product Description: AutoCAD Mechanical|Company: Autodesk, Inc."
 90
     1024
 91
        1
280
     0
281
     0
  0
CLASS
  1
ACAMGHOLECHARTSTDANSI
  2
AcAmgHoleChartStdANSI
  3
AmgDim|Product Description: AutoCAD Mechanical|Company: Autodesk, Inc.
 90
     1024
 91
        1
280
     0
281
     0
  0
CLASS
  1
AMGOBJPROPCFG
  2
AmgObjPropCfg
  3
"AmgLay|Product Description: AutoCAD Mechanical|Company: Autodesk, Inc."
 90
     1025
 91
        1
280
     0
281
     0
  0
CLASS
  1
ACAMGTITLESTD
  2
AcAmgTitleStd
  3
"AmgTitle|Product Description: AutoCAD Mechanical|Company: Autodesk, Inc."
 90
     4095
 91
        1
280
     0
281
     0
  0
CLASS
  1
AMDTNOTETEMPLATEDB
  2
AmdtNoteTemplateDB
  3
AcmSymBB|Product Description: AutoCAD Mechanical|Company: Autodesk, Inc.
 90
     1024
 91
        6
280
     0
281
     0
  0
CLASS
  1
ACAMGFILTERDAT
  2
AcAmgFilterDat
  3
"AcadM|Product Description: AutoCAD Mechanical|Company: Autodesk, Inc."
 90
     1024
 91
        6
280
     0
281
     0
  0
CLASS
  1
LAYER_INDEX
  2
AcDbLayerIndex
  3
ObjectDBX Classes
 90
        0
 91
        1
280
     0
281
     0
  0
CLASS
  1
IDBUFFER
  2
AcDbIdBuffer
  3
ObjectDBX Classes
 90
        0
 91
       12
280
     0
281
     0
  0
CLASS
  1
SORTENTSTABLE
  2
AcDbSortentsTable
  3
ObjectDBX Classes
 90
        0
 91
        0
280
     0
281
     0
  0
ENDSEC
  0
SECTION
  2
TABLES
  0
TABLE
  2
VPORT
  5
27C0
330
0
100
AcDbSymbolTable
 70
     1
  0
VPORT
  5
2830
330
27C0
100
AcDbSymbolTableRecord
100
AcDbViewportTableRecord
  2
*ACTIVE
 70
     0
 10
0.0
 20
0.0
 11
1.0
 21
1.0
 12
-1181.560472889352
 22
0.0000000000006821
 13
0.0
 23
0.0
 14
1.0
 24
1.0
 15
0.0
 25
0.0
 16
0.0
 26
0.0
 36
1.0
 17
1688.449067631853
 27
1080.184947559824
 37
0.0
 40
1923.248136550906
 41
0.8635294117647058
 42
50.0
 43
0.0
 44
0.0
 50
0.0
 51
0.0
 71
     0
 72
   100
 73
     1
 74
     0
 75
     0
 76
     0
 77
     0
 78
     0
281
     0
 65
     0
110
0.0
120
0.0
130
0.0
111
1.0
121
0.0
131
0.0
112
0.0
122
1.0
132
0.0
 79
     0
146
0.0
  0
ENDTAB
  0
TABLE
  2
LTYPE
  5
27BD
330
0
100
AcDbSymbolTable
 70
    19
  0
LTYPE
  5
281A
330
27BD
100
AcDbSymbolTableRecord
100
AcDbLinetypeTableRecord
  2
ByBlock
 70
     0
  3

 72
    65
 73
     0
 40
0.0
  0
LTYPE
  5
281B
330
27BD
100
AcDbSymbolTableRecord
100
AcDbLinetypeTableRecord
  2
ByLayer
 70
     0
  3

 72
    65
 73
     0
 40
0.0
  0
LTYPE
  5
281C
330
27BD
100
AcDbSymbolTableRecord
100
AcDbLinetypeTableRecord
  2
CONTINUOUS
 70
     0
  3
実線
 72
    65
 73
     0
 40
0.0
  0
LTYPE
  5
2831
330
27BD
100
AcDbSymbolTableRecord
100
AcDbLinetypeTableRecord
  2
DASHDOT
 70
     0
  3
____ _ ____ _ ____ _ ____ _ ____ _ ____ _ ____
 72
    65
 73
     4
 40
5.5
 49
4.0
 74
     0
 49
-0.6
 74
     0
 49
0.3
 74
     0
 49
-0.6
 74
     0
  0
LTYPE
  5
2832
330
27BD
100
AcDbSymbolTableRecord
100
AcDbLinetypeTableRecord
  2
HIDDEN
 70
     0
  3
Hidden __ __ __ __ __ __ __ __ __ __ __ __ __ _
 72
    65
 73
     2
 40
0.375
 49
0.25
 74
     0
 49
-0.125
 74
     0
  0
LTYPE
  5
2833
330
27BD
100
AcDbSymbolTableRecord
100
AcDbLinetypeTableRecord
  2
PHANTOM2
 70
     0
  3
Phantom (.5x) ___ _ _ ___ _ _ ___ _ _ ___ _ _
 72
    65
 73
     6
 40
1.25
 49
0.625
 74
     0
 49
-0.125
 74
     0
 49
0.125
 74
     0
 49
-0.125
 74
     0
 49
0.125
 74
     0
 49
-0.125
 74
     0
  0
LTYPE
  5
2834
330
27BD
100
AcDbSymbolTableRecord
100
AcDbLinetypeTableRecord
  2
CENTER
 70
     0
  3
Center ____ _ ____ _ ____ _ ____ _ ____ _ ____
 72
    65
 73
     4
 40
2.0
 49
1.25
 74
     0
 49
-0.25
 74
     0
 49
0.25
 74
     0
 49
-0.25
 74
     0
  0
LTYPE
  5
2835
330
27BD
100
AcDbSymbolTableRecord
100
AcDbLinetypeTableRecord
  2
ASULTYPE
 70
     0
  3
実線
 72
    65
 73
     2
 40
3.0
 49
2.5
 74
     0
 49
0.5
 74
     0
  0
LTYPE
  5
2836
330
27BD
100
AcDbSymbolTableRecord
100
AcDbLinetypeTableRecord
  2
ASVLTYPE
 70
     0
  3
__ __ __ __ __ __ __ __ __ __ __ __ __ __ __ __ __ __ __ __ __
 72
    65
 73
     2
 40
0.75
 49
0.5
 74
     0
 49
-0.25
 74
     0
  0
LTYPE
  5
2837
330
27BD
100
AcDbSymbolTableRecord
100
AcDbLinetypeTableRecord
  2
AM_ISO02W050
 70
     0
  3
__ __ __ __ __ __ __ __ __ __ __ __ __ __ __
 72
    65
 73
     2
 40
7.5
 49
6.0
 74
     0
 49
-1.5
 74
     0
  0
LTYPE
  5
2838
330
27BD
100
AcDbSymbolTableRecord
100
AcDbLinetypeTableRecord
  2
AM_ISO08W050
 70
     0
  3
____ . ____ . ____ . ____ . ____ . ____ . ____
 72
    65
 73
     4
 40
18.0
 49
12.0
 74
     0
 49
-1.5
 74
     0
 49
3.0
 74
     0
 49
-1.5
 74
     0
  0
LTYPE
  5
2839
330
27BD
100
AcDbSymbolTableRecord
100
AcDbLinetypeTableRecord
  2
AM_ISO09W050
 70
     0
  3
_____ . . _____ . . _____ . . ____ .. ____
 72
    65
 73
     6
 40
22.5
 49
12.0
 74
     0
 49
-1.5
 74
     0
 49
3.0
 74
     0
 49
-1.5
 74
     0
 49
3.0
 74
     0
 49
-1.5
 74
     0
  0
LTYPE
  5
283A
330
27BD
100
AcDbSymbolTableRecord
100
AcDbLinetypeTableRecord
  2
AMCONSTR
 70
     0
  3
_______________________
 72
    65
 73
     2
 40
9999.0
 49
9999.0
 74
     0
 49
0.0
 74
     0
  0
LTYPE
  5
283B
330
27BD
100
AcDbSymbolTableRecord
100
AcDbLinetypeTableRecord
  2
AM_ISO08W050X2
 70
     0
  3
__ . __ . __ . __ . __ . __
 72
    65
 73
     4
 40
9.0
 49
6.0
 74
     0
 49
-0.75
 74
     0
 49
1.5
 74
     0
 49
-0.75
 74
     0
  0
LTYPE
  5
283C
330
27BD
100
AcDbSymbolTableRecord
100
AcDbLinetypeTableRecord
  2
AM_ISO02W050X2
 70
     0
  3
 _ _ _ _ _ _ _ _ _ _ _ _
 72
    65
 73
     2
 40
3.75
 49
3.0
 74
     0
 49
-0.75
 74
     0
  0
LTYPE
  5
283D
330
27BD
100
AcDbSymbolTableRecord
100
AcDbLinetypeTableRecord
  2
AMZIGZAG
 70
     0
  3
/\/-/\/-/\/-/\/-/\/-/\/
 72
    65
 73
     2
 40
11.0001
 49
0.0001
 74
     0
 49
-11.0
 74
     0
  0
LTYPE
  5
283E
330
27BD
100
AcDbSymbolTableRecord
100
AcDbLinetypeTableRecord
  2
CENTER2
 70
     0
  3
Center (.5x) ___ _ ___ _ ___ _ ___ _ ___ _ ___
 72
    65
 73
     4
 40
1.125
 49
0.75
 74
     0
 49
-0.125
 74
     0
 49
0.125
 74
     0
 49
-0.125
 74
     0
  0
LTYPE
  5
283F
330
27BD
100
AcDbSymbolTableRecord
100
AcDbLinetypeTableRecord
  2
HIDDEN2
 70
     0
  3
Hidden (.5x) _ _ _ _ _ _ _ _ _ _ _ _ _ _ _ _ _
 72
    65
 73
     2
 40
0.1875
 49
0.125
 74
     0
 49
-0.0625
 74
     0
  0
LTYPE
  5
2840
330
27BD
100
AcDbSymbolTableRecord
100
AcDbLinetypeTableRecord
  2
AMZIGZAG2
 70
     0
  3
/\/-/\/-/\/-/\/-/\/-/\/
 72
    65
 73
     2
 40
0.4401
 49
0.0001
 74
     0
 49
-0.4400000000000003
 74
     0
  0
LTYPE
  5
2841
330
27BD
100
AcDbSymbolTableRecord
100
AcDbLinetypeTableRecord
  2
ACANSTGB
 70
     0
  3
__ . . __ . .
 72
    65
 73
     6
 40
0.35433070866
 49
0.15748031496
 74
     0
 49
-0.03937007874
 74
     0
 49
0.03937007874
 74
     0
 49
-0.03937007874
 74
     0
 49
0.03937007874
 74
     0
 49
-0.03937007874
 74
     0
  0
LTYPE
  5
2842
330
27BD
100
AcDbSymbolTableRecord
100
AcDbLinetypeTableRecord
  2
ACANSTGL
 70
     0
  3
_ _ _ _ _
 72
    65
 73
     2
 40
0.11811023622
 49
0.07874015748
 74
     0
 49
-0.03937007874
 74
     0
  0
ENDTAB
  0
TABLE
  2
LAYER
  5
27BA
102
{ACAD_XDICTIONARY
360
2B22
102
}
330
0
100
AcDbSymbolTable
 70
    12
  0
LAYER
  5
2814
102
{ACAD_XDICTIONARY
360
290F
102
}
330
27BA
100
AcDbSymbolTableRecord
100
AcDbLayerTableRecord
  2
0
 70
     0
 62
     7
  6
CONTINUOUS
370
    -3
390
27C7
  0
LAYER
  5
2843
102
{ACAD_XDICTIONARY
360
2911
102
}
330
27BA
100
AcDbSymbolTableRecord
100
AcDbLayerTableRecord
  2
OUTLINE
 70
     0
 62
     3
  6
CONTINUOUS
370
    -3
390
27C7
  0
LAYER
  5
2844
102
{ACAD_XDICTIONARY
360
2913
102
}
330
27BA
100
AcDbSymbolTableRecord
100
AcDbLayerTableRecord
  2
SIZE
 70
     0
 62
    30
  6
CONTINUOUS
370
    -3
390
27C7
  0
LAYER
  5
2845
102
{ACAD_XDICTIONARY
360
2915
102
}
330
27BA
100
AcDbSymbolTableRecord
100
AcDbLayerTableRecord
  2
BASIS
 70
     0
 62
     6
  6
DASHDOT
370
    -3
390
27C7
  0
LAYER
  5
2846
102
{ACAD_XDICTIONARY
360
2917
102
}
330
27BA
100
AcDbSymbolTableRecord
100
AcDbLayerTableRecord
  2
DETAIL
 70
     0
 62
     5
  6
CONTINUOUS
370
    -3
390
27C7
  0
LAYER
  5
2847
102
{ACAD_XDICTIONARY
360
2919
102
}
330
27BA
100
AcDbSymbolTableRecord
100
AcDbLayerTableRecord
  2
ARRANGE
 70
     0
 62
     1
  6
CONTINUOUS
370
    -3
390
27C7
  0
LAYER
  5
2848
330
27BA
100
AcDbSymbolTableRecord
100
AcDbLayerTableRecord
  2
DEFPOINTS
 70
     0
 62
     7
  6
CONTINUOUS
290
     0
370
    -3
390
27C7
  0
LAYER
  5
2849
102
{ACAD_XDICTIONARY
360
291B
102
}
330
27BA
100
AcDbSymbolTableRecord
100
AcDbLayerTableRecord
  2
ETC
 70
     0
 62
    61
  6
CONTINUOUS
370
    -3
390
27C7
  0
LAYER
  5
284A
102
{ACAD_XDICTIONARY
360
291D
102
}
330
27BA
100
AcDbSymbolTableRecord
100
AcDbLayerTableRecord
  2
FIX
 70
     0
 62
    11
  6
CONTINUOUS
370
    -3
390
27C7
  0
LAYER
  5
284B
102
{ACAD_XDICTIONARY
360
291F
102
}
330
27BA
100
AcDbSymbolTableRecord
100
AcDbLayerTableRecord
  2
NOTE
 70
     0
 62
     4
  6
CONTINUOUS
370
    -3
390
27C7
  0
LAYER
  5
284C
102
{ACAD_XDICTIONARY
360
2921
102
}
330
27BA
100
AcDbSymbolTableRecord
100
AcDbLayerTableRecord
  2
SERVICESPACE
 70
     0
 62
     2
  6
DASHDOT
370
    -3
390
27C7
  0
LAYER
  5
284D
102
{ACAD_XDICTIONARY
360
2923
102
}
330
27BA
100
AcDbSymbolTableRecord
100
AcDbLayerTableRecord
  2
SYMBOLLINE
 70
     0
 62
    15
  6
CONTINUOUS
370
    -3
390
27C7
  0
ENDTAB
  0
TABLE
  2
STYLE
  5
27BB
330
0
100
AcDbSymbolTable
 70
     5
  0
STYLE
  5
2815
330
27BB
100
AcDbSymbolTableRecord
100
AcDbTextStyleTableRecord
  2
STANDARD
 70
     0
 40
64.0
 41
0.9
 50
0.0
 71
     0
 42
64.0
  3
SIMPLEX.shx
  4
BIGFONT.shx
  0
STYLE
  5
2819
330
27BB
100
AcDbSymbolTableRecord
100
AcDbTextStyleTableRecord
  2
ANNOTATIVE
 70
     0
 40
0.0
 41
1.0
 50
0.0
 71
     0
 42
0.2
  3
txt
  4

1001
ACADANNOTATIVE
1000
AnnotativeData
1002
{
1070
     1
1070
     1
1002
}
  0
STYLE
  5
284E
330
27BB
100
AcDbSymbolTableRecord
100
AcDbTextStyleTableRecord
  2

 70
     1
 40
0.0
 41
1.0
 50
0.0
 71
     0
 42
64.0
  3
genltshp.shx
  4

  0
STYLE
  5
284F
330
27BB
100
AcDbSymbolTableRecord
100
AcDbTextStyleTableRecord
  2
ACANSTS
 70
     0
 40
1.0
 41
1.0
 50
0.0
 71
     0
 42
64.0
  3
romans.shx
  4
extfont.shx
  0
STYLE
  5
2850
330
27BB
100
AcDbSymbolTableRecord
100
AcDbTextStyleTableRecord
  2
ACANSGDT
 70
     0
 40
0.0
 41
1.0
 50
0.0
 71
     0
 42
64.0
  3
amgdt.shx
  4

  0
ENDTAB
  0
TABLE
  2
VIEW
  5
27BE
330
0
100
AcDbSymbolTable
 70
     1
  0
VIEW
  5
2851
330
27BE
100
AcDbSymbolTableRecord
100
AcDbViewTableRecord
  2
ALL
 70
     0
 40
4282.619807999997
 10
0.0
 20
41.30990399999999
 41
5940.0
 11
0.0
 21
0.0
 31
1.0
 12
0.0
 22
0.0
 32
0.0
 42
50.0
 43
0.0
 44
0.0
 50
0.0
 71
     0
281
     0
 72
     1
110
0.0
120
0.0
130
0.0
111
1.0
121
0.0
131
0.0
112
0.0
122
1.0
132
0.0
 79
     0
146
0.0
  0
ENDTAB
  0
TABLE
  2
UCS
  5
27BF
330
0
100
AcDbSymbolTable
 70
     0
  0
ENDTAB
  0
TABLE
  2
APPID
  5
27C1
330
0
100
AcDbSymbolTable
 70
    27
  0
APPID
  5
2816
330
27C1
100
AcDbSymbolTableRecord
100
AcDbRegAppTableRecord
  2
ACAD
 70
     0
  0
APPID
  5
281D
330
27C1
100
AcDbSymbolTableRecord
100
AcDbRegAppTableRecord
  2
ACADANNOTATIVE
 70
     0
  0
APPID
  5
2827
330
27C1
100
AcDbSymbolTableRecord
100
AcDbRegAppTableRecord
  2
ACAD_MLEADERVER
 70
     0
  0
APPID
  5
2852
330
27C1
100
AcDbSymbolTableRecord
100
AcDbRegAppTableRecord
  2
GENIUS_GENDIM_13
 70
     0
  0
APPID
  5
2853
330
27C1
100
AcDbSymbolTableRecord
100
AcDbRegAppTableRecord
  2
GENIUS_GENDTOL_13
 70
     0
  0
APPID
  5
2854
330
27C1
100
AcDbSymbolTableRecord
100
AcDbRegAppTableRecord
  2
GENIUS_GE3DTOL_13
 70
     0
  0
APPID
  5
2855
330
27C1
100
AcDbSymbolTableRecord
100
AcDbRegAppTableRecord
  2
MCAD_NO_VIS
 70
     0
  0
APPID
  5
2856
330
27C1
100
AcDbSymbolTableRecord
100
AcDbRegAppTableRecord
  2
ACAD_TEMP_GRAPHIC
 70
     0
  0
APPID
  5
2857
330
27C1
100
AcDbSymbolTableRecord
100
AcDbRegAppTableRecord
  2
AD_DRAW
 70
     0
  0
APPID
  5
2858
330
27C1
100
AcDbSymbolTableRecord
100
AcDbRegAppTableRecord
  2
ACATTRIBSERVICES
 70
     0
  0
APPID
  5
2859
330
27C1
100
AcDbSymbolTableRecord
100
AcDbRegAppTableRecord
  2
ASURF_PCURVE_APPNAME
 70
     0
  0
APPID
  5
285A
330
27C1
100
AcDbSymbolTableRecord
100
AcDbRegAppTableRecord
  2
AMG_3D2D_5_0
 70
     0
  0
APPID
  5
285B
330
27C1
100
AcDbSymbolTableRecord
100
AcDbRegAppTableRecord
  2
DESIGNERASSEMBLIES
 70
     0
  0
APPID
  5
285C
330
27C1
100
AcDbSymbolTableRecord
100
AcDbRegAppTableRecord
  2
ACADM_DIM_EDIT
 70
     0
  0
APPID
  5
285D
330
27C1
100
AcDbSymbolTableRecord
100
AcDbRegAppTableRecord
  2
AMDT_DM_ADJ
 70
     0
  0
APPID
  5
285E
330
27C1
100
AcDbSymbolTableRecord
100
AcDbRegAppTableRecord
  2
ACAD_DSTYLE_DIMARC_LENGTH_
 70
     0
  0
APPID
  5
285F
330
27C1
100
AcDbSymbolTableRecord
100
AcDbRegAppTableRecord
  2
ACAD_DSTYLE_DIMJOGGED_JOGA
 70
     0
  0
APPID
  5
2860
330
27C1
100
AcDbSymbolTableRecord
100
AcDbRegAppTableRecord
  2
ACAD_PSEXT
 70
     0
  0
APPID
  5
2861
330
27C1
100
AcDbSymbolTableRecord
100
AcDbRegAppTableRecord
  2
ACAD_EXEMPT_FROM_CAD_STANDARDS
 70
     0
  0
APPID
  5
2862
330
27C1
100
AcDbSymbolTableRecord
100
AcDbRegAppTableRecord
  2
ACAD_DSTYLE_DIMJAG
 70
     0
  0
APPID
  5
2863
330
27C1
100
AcDbSymbolTableRecord
100
AcDbRegAppTableRecord
  2
ACAD_DSTYLE_DIMTALN
 70
     0
  0
APPID
  5
29C3
330
27C1
100
AcDbSymbolTableRecord
100
AcDbRegAppTableRecord
  2
AMG_3D2D_5.0
 70
     0
  0
APPID
  5
2A3E
330
27C1
100
AcDbSymbolTableRecord
100
AcDbRegAppTableRecord
  2
ACAD_DSTYLE_DIMARC_LENGTH_SYMBOL
 70
     0
  0
APPID
  5
2A3F
330
27C1
100
AcDbSymbolTableRecord
100
AcDbRegAppTableRecord
  2
ACAD_DSTYLE_DIM_LINETYPE
 70
     0
  0
APPID
  5
2A40
330
27C1
100
AcDbSymbolTableRecord
100
AcDbRegAppTableRecord
  2
ACAD_DSTYLE_DIM_EXT1_LINETYPE
 70
     0
  0
APPID
  5
2A41
330
27C1
100
AcDbSymbolTableRecord
100
AcDbRegAppTableRecord
  2
ACAD_DSTYLE_DIM_EXT2_LINETYPE
 70
     0
  0
APPID
  5
2B21
330
27C1
100
AcDbSymbolTableRecord
100
AcDbRegAppTableRecord
  2
ACAD_DSTYLE_DIMJOGGED_JOGANGLE_SYMBOL
 70
     0
  0
ENDTAB
  0
TABLE
  2
DIMSTYLE
  5
27C2
330
0
100
AcDbSymbolTable
 70
    10
100
AcDbDimStyleTable
 71
     1
340
2864
  0
DIMSTYLE
105
2817
330
27C2
100
AcDbSymbolTableRecord
100
AcDbDimStyleTableRecord
  2
STANDARD
 70
     0
 41
12.0
 42
20.0
 44
20.0
 77
     1
 78
     8
140
64.0
141
0.0
147
10.0
275
     1
279
     2
284
     7
285
     7
286
     7
340
2815
  0
DIMSTYLE
105
2818
330
27C2
100
AcDbSymbolTableRecord
100
AcDbDimStyleTableRecord
  2
ANNOTATIVE
 70
     0
275
     1
279
     2
284
     7
285
     7
286
     7
340
2815
1001
ACADANNOTATIVE
1000
AnnotativeData
1002
{
1070
     1
1070
     1
1002
}
  0
DIMSTYLE
105
2864
330
27C2
100
AcDbSymbolTableRecord
100
AcDbDimStyleTableRecord
  2
AM_ANSI
 70
     0
  4
mm
 41
0.12
 42
0.05
 43
0.5
 44
0.1
 47
0.1
 48
0.1
 78
     7
 79
     2
140
0.12
141
0.0
146
0.71
147
0.06
176
   256
177
   256
178
     2
274
     4
284
     7
340
2815
371
    -1
372
    -1
1001
ACAD_DSTYLE_DIMARC_LENGTH_SYMBOL
1070
   379
1070
     1
1001
ACAD_DSTYLE_DIM_LINETYPE
1070
   380
1005
281A
1001
ACAD_DSTYLE_DIM_EXT1_LINETYPE
1070
   381
1005
281A
1001
ACAD_DSTYLE_DIM_EXT2_LINETYPE
1070
   382
1005
281A
  0
DIMSTYLE
105
2865
330
27C2
100
AcDbSymbolTableRecord
100
AcDbDimStyleTableRecord
  2
AM_ANSI$3
 70
     0
  4
mm
 41
0.12
 42
0.05
 43
0.5
 44
0.1
 47
0.1
 48
0.1
 78
     7
 79
     2
140
0.12
141
0.0
146
0.71
147
0.06
176
   256
177
   256
178
     2
274
     4
284
     7
288
     1
289
     0
340
2815
371
    -1
372
    -1
1001
ACAD_DSTYLE_DIMARC_LENGTH_SYMBOL
1070
   379
1070
     1
1001
ACAD_DSTYLE_DIM_LINETYPE
1070
   380
1005
281A
1001
ACAD_DSTYLE_DIM_EXT1_LINETYPE
1070
   381
1005
281A
1001
ACAD_DSTYLE_DIM_EXT2_LINETYPE
1070
   382
1005
281A
  0
DIMSTYLE
105
2866
330
27C2
100
AcDbSymbolTableRecord
100
AcDbDimStyleTableRecord
  2
AM_ANSI$4
 70
     0
  4
mm
 41
0.12
 42
0.05
 43
0.5
 44
0.1
 47
0.1
 48
0.1
 78
     7
 79
     2
140
0.12
141
0.0
146
0.71
147
0.06
176
   256
177
   256
178
     2
274
     4
284
     7
340
2815
371
    -1
372
    -1
1001
ACAD_DSTYLE_DIMARC_LENGTH_SYMBOL
1070
   379
1070
     1
1001
ACAD_DSTYLE_DIM_LINETYPE
1070
   380
1005
281A
1001
ACAD_DSTYLE_DIM_EXT1_LINETYPE
1070
   381
1005
281A
1001
ACAD_DSTYLE_DIM_EXT2_LINETYPE
1070
   382
1005
281A
  0
DIMSTYLE
105
2867
330
27C2
100
AcDbSymbolTableRecord
100
AcDbDimStyleTableRecord
  2
AM_ANSI$7
 70
     0
  4
mm
 41
0.12
 42
0.05
 43
0.5
 44
0.1
 47
0.1
 48
0.1
 78
     7
 79
     2
140
0.12
141
0.0
146
0.71
147
0.06
176
   256
177
   256
178
     2
274
     4
284
     7
340
2815
371
    -1
372
    -1
1001
ACAD_DSTYLE_DIMARC_LENGTH_SYMBOL
1070
   379
1070
     1
1001
ACAD_DSTYLE_DIM_LINETYPE
1070
   380
1005
281A
1001
ACAD_DSTYLE_DIM_EXT1_LINETYPE
1070
   381
1005
281A
1001
ACAD_DSTYLE_DIM_EXT2_LINETYPE
1070
   382
1005
281A
  0
DIMSTYLE
105
2868
330
27C2
100
AcDbSymbolTableRecord
100
AcDbDimStyleTableRecord
  2
AM_ANSI$SF
 70
     0
  4
mm
 41
0.12
 42
0.05
 43
0.5
 44
0.1
 47
0.1
 48
0.1
 75
     1
 76
     1
 78
     7
 79
     2
140
0.12
141
0.0
146
0.71
147
0.06
176
   256
177
   256
178
     2
274
     4
284
     7
340
2815
371
    -1
372
    -1
1001
ACAD_DSTYLE_DIMARC_LENGTH_SYMBOL
1070
   379
1070
     1
1001
ACAD_DSTYLE_DIM_LINETYPE
1070
   380
1005
281A
1001
ACAD_DSTYLE_DIM_EXT1_LINETYPE
1070
   381
1005
281A
1001
ACAD_DSTYLE_DIM_EXT2_LINETYPE
1070
   382
1005
281A
  0
DIMSTYLE
105
2869
330
27C2
100
AcDbSymbolTableRecord
100
AcDbDimStyleTableRecord
  2
AM_ANSI$SH
 70
     0
  4
mm
 41
0.12
 42
0.05
 43
0.5
 44
0.1
 47
0.1
 48
0.1
 75
     1
 76
     1
 78
     7
 79
     2
140
0.12
141
0.0
146
0.71
147
0.06
173
     1
176
   256
177
   256
178
     2
274
     4
284
     7
340
2815
343
2889
371
    -1
372
    -1
1001
ACAD_DSTYLE_DIMARC_LENGTH_SYMBOL
1070
   379
1070
     1
1001
ACAD_DSTYLE_DIM_LINETYPE
1070
   380
1005
281A
1001
ACAD_DSTYLE_DIM_EXT1_LINETYPE
1070
   381
1005
281A
1001
ACAD_DSTYLE_DIM_EXT2_LINETYPE
1070
   382
1005
281A
  0
DIMSTYLE
105
286A
330
27C2
100
AcDbSymbolTableRecord
100
AcDbDimStyleTableRecord
  2
STANDARD1
 70
     0
 40
6.0
 41
2.5
 42
0.625
 43
6.0
 44
1.25
 47
1.0
 48
0.5
 77
     1
 78
     8
140
2.5
141
0.0
146
0.6
147
1.0
173
     1
275
     1
279
     2
284
     7
285
     7
286
     7
340
2815
  0
DIMSTYLE
105
286B
330
27C2
100
AcDbSymbolTableRecord
100
AcDbDimStyleTableRecord
  2
STANDARD$0
 70
     0
 41
12.0
 42
20.0
 44
20.0
 73
     0
 74
     0
 77
     1
 78
     8
140
64.0
141
0.0
147
10.0
275
     1
279
     2
284
     7
285
     7
286
     7
340
2815
  0
ENDTAB
  0
TABLE
  2
BLOCK_RECORD
  5
27B9
330
0
100
AcDbSymbolTable
 70
    80
  0
BLOCK_RECORD
  5
282C
102
{ACAD_XDICTIONARY
360
2A23
102
}
330
27B9
100
AcDbSymbolTableRecord
100
AcDbBlockTableRecord
  2
*Model_Space
340
282F
  0
BLOCK_RECORD
  5
2828
330
27B9
100
AcDbSymbolTableRecord
100
AcDbBlockTableRecord
  2
*Paper_Space
340
282B
  0
BLOCK_RECORD
  5
2873
330
27B9
100
AcDbSymbolTableRecord
100
AcDbBlockTableRecord
  2
$MODEL_SPACE
340
0
  0
BLOCK_RECORD
  5
2875
330
27B9
100
AcDbSymbolTableRecord
100
AcDbBlockTableRecord
  2
$PAPER_SPACE
340
0
  0
BLOCK_RECORD
  5
2877
330
27B9
100
AcDbSymbolTableRecord
100
AcDbBlockTableRecord
  2
_ORIGIN
340
0
  0
BLOCK_RECORD
  5
2879
330
27B9
100
AcDbSymbolTableRecord
100
AcDbBlockTableRecord
  2
_DOTBLANK
340
0
102
{BLKREFS
331
1299
331
129A
331
11AA
331
11AB
331
E80
331
E81
331
1123
331
1124
331
11C2
331
11C3
331
11EC
331
11ED
331
11F9
331
11FA
331
1287
331
1288
331
1417
331
1418
331
1423
331
1424
331
142F
331
1430
331
143B
331
143C
331
166E
331
166F
331
1677
331
1678
331
1680
331
1681
331
1689
331
168A
331
1696
331
1697
331
16A3
331
16A4
331
16AF
331
16B0
331
16BB
331
16BC
331
16C7
331
16C8
331
16D3
331
16D4
331
1D86
331
1D87
331
1D8F
331
1D90
331
1D98
331
1D99
331
1DA1
331
1DA2
331
1DAB
331
1DAC
331
1DB5
331
1DB6
331
2C28
331
2C29
331
2C2E
331
2C2F
331
2C3C
331
2C3D
331
2C44
331
2C45
331
2C61
331
2C62
331
2C69
331
2C6A
102
}
  0
BLOCK_RECORD
  5
287B
330
27B9
100
AcDbSymbolTableRecord
100
AcDbBlockTableRecord
  2
_OPEN30
340
0
102
{BLKREFS
331
2087
331
216B
331
224B
331
2347
331
248F
331
25E4
331
2C47
102
}
  0
BLOCK_RECORD
  5
287D
330
27B9
100
AcDbSymbolTableRecord
100
AcDbBlockTableRecord
  2
*D5
340
0
  0
BLOCK_RECORD
  5
287F
330
27B9
100
AcDbSymbolTableRecord
100
AcDbBlockTableRecord
  2
*U6
340
0
102
{BLKREFS
331
129B
102
}
  0
BLOCK_RECORD
  5
2881
330
27B9
100
AcDbSymbolTableRecord
100
AcDbBlockTableRecord
  2
*D7
340
0
  0
BLOCK_RECORD
  5
2883
330
27B9
100
AcDbSymbolTableRecord
100
AcDbBlockTableRecord
  2
*U8
340
0
102
{BLKREFS
331
11AC
102
}
  0
BLOCK_RECORD
  5
2885
330
27B9
100
AcDbSymbolTableRecord
100
AcDbBlockTableRecord
  2
*D9
340
0
  0
BLOCK_RECORD
  5
2887
330
27B9
100
AcDbSymbolTableRecord
100
AcDbBlockTableRecord
  2
*U10
340
0
102
{BLKREFS
331
E82
102
}
  0
BLOCK_RECORD
  5
2889
330
27B9
100
AcDbSymbolTableRecord
100
AcDbBlockTableRecord
  2
GENAXEH
340
0
  0
BLOCK_RECORD
  5
288B
330
27B9
100
AcDbSymbolTableRecord
100
AcDbBlockTableRecord
  2
*D12
340
0
  0
BLOCK_RECORD
  5
288D
330
27B9
100
AcDbSymbolTableRecord
100
AcDbBlockTableRecord
  2
*U13
340
0
102
{BLKREFS
331
1125
102
}
  0
BLOCK_RECORD
  5
288F
330
27B9
100
AcDbSymbolTableRecord
100
AcDbBlockTableRecord
  2
*D14
340
0
  0
BLOCK_RECORD
  5
2891
330
27B9
100
AcDbSymbolTableRecord
100
AcDbBlockTableRecord
  2
*U15
340
0
102
{BLKREFS
331
11C4
102
}
  0
BLOCK_RECORD
  5
2893
330
27B9
100
AcDbSymbolTableRecord
100
AcDbBlockTableRecord
  2
*D16
340
0
  0
BLOCK_RECORD
  5
2895
330
27B9
100
AcDbSymbolTableRecord
100
AcDbBlockTableRecord
  2
*U17
340
0
102
{BLKREFS
331
11EE
102
}
  0
BLOCK_RECORD
  5
2897
330
27B9
100
AcDbSymbolTableRecord
100
AcDbBlockTableRecord
  2
*D18
340
0
  0
BLOCK_RECORD
  5
2899
330
27B9
100
AcDbSymbolTableRecord
100
AcDbBlockTableRecord
  2
*U19
340
0
102
{BLKREFS
331
11FB
102
}
  0
BLOCK_RECORD
  5
289B
330
27B9
100
AcDbSymbolTableRecord
100
AcDbBlockTableRecord
  2
*D20
340
0
  0
BLOCK_RECORD
  5
289D
330
27B9
100
AcDbSymbolTableRecord
100
AcDbBlockTableRecord
  2
*U21
340
0
102
{BLKREFS
331
1289
102
}
  0
BLOCK_RECORD
  5
289F
330
27B9
100
AcDbSymbolTableRecord
100
AcDbBlockTableRecord
  2
*D22
340
0
  0
BLOCK_RECORD
  5
28A1
330
27B9
100
AcDbSymbolTableRecord
100
AcDbBlockTableRecord
  2
*U23
340
0
102
{BLKREFS
331
1419
102
}
  0
BLOCK_RECORD
  5
28A3
330
27B9
100
AcDbSymbolTableRecord
100
AcDbBlockTableRecord
  2
*D24
340
0
  0
BLOCK_RECORD
  5
28A5
330
27B9
100
AcDbSymbolTableRecord
100
AcDbBlockTableRecord
  2
*U25
340
0
102
{BLKREFS
331
1425
102
}
  0
BLOCK_RECORD
  5
28A7
330
27B9
100
AcDbSymbolTableRecord
100
AcDbBlockTableRecord
  2
*D26
340
0
  0
BLOCK_RECORD
  5
28A9
330
27B9
100
AcDbSymbolTableRecord
100
AcDbBlockTableRecord
  2
*U27
340
0
102
{BLKREFS
331
1431
102
}
  0
BLOCK_RECORD
  5
28AB
330
27B9
100
AcDbSymbolTableRecord
100
AcDbBlockTableRecord
  2
*D28
340
0
  0
BLOCK_RECORD
  5
28AD
330
27B9
100
AcDbSymbolTableRecord
100
AcDbBlockTableRecord
  2
*U29
340
0
102
{BLKREFS
331
143D
102
}
  0
BLOCK_RECORD
  5
28AF
330
27B9
100
AcDbSymbolTableRecord
100
AcDbBlockTableRecord
  2
*D30
340
0
  0
BLOCK_RECORD
  5
28B1
330
27B9
100
AcDbSymbolTableRecord
100
AcDbBlockTableRecord
  2
*U31
340
0
102
{BLKREFS
331
1670
102
}
  0
BLOCK_RECORD
  5
28B3
330
27B9
100
AcDbSymbolTableRecord
100
AcDbBlockTableRecord
  2
*D32
340
0
  0
BLOCK_RECORD
  5
28B5
330
27B9
100
AcDbSymbolTableRecord
100
AcDbBlockTableRecord
  2
*U33
340
0
102
{BLKREFS
331
1679
102
}
  0
BLOCK_RECORD
  5
28B7
330
27B9
100
AcDbSymbolTableRecord
100
AcDbBlockTableRecord
  2
*D34
340
0
  0
BLOCK_RECORD
  5
28B9
330
27B9
100
AcDbSymbolTableRecord
100
AcDbBlockTableRecord
  2
*U35
340
0
102
{BLKREFS
331
1682
102
}
  0
BLOCK_RECORD
  5
28BB
330
27B9
100
AcDbSymbolTableRecord
100
AcDbBlockTableRecord
  2
*D36
340
0
  0
BLOCK_RECORD
  5
28BD
330
27B9
100
AcDbSymbolTableRecord
100
AcDbBlockTableRecord
  2
*U37
340
0
102
{BLKREFS
331
168B
102
}
  0
BLOCK_RECORD
  5
28BF
330
27B9
100
AcDbSymbolTableRecord
100
AcDbBlockTableRecord
  2
*U38
340
0
  0
BLOCK_RECORD
  5
28C1
330
27B9
100
AcDbSymbolTableRecord
100
AcDbBlockTableRecord
  2
*D39
340
0
  0
BLOCK_RECORD
  5
28C3
330
27B9
100
AcDbSymbolTableRecord
100
AcDbBlockTableRecord
  2
*U40
340
0
102
{BLKREFS
331
1698
102
}
  0
BLOCK_RECORD
  5
28C5
330
27B9
100
AcDbSymbolTableRecord
100
AcDbBlockTableRecord
  2
*D41
340
0
  0
BLOCK_RECORD
  5
28C7
330
27B9
100
AcDbSymbolTableRecord
100
AcDbBlockTableRecord
  2
*U42
340
0
102
{BLKREFS
331
16A5
102
}
  0
BLOCK_RECORD
  5
28C9
330
27B9
100
AcDbSymbolTableRecord
100
AcDbBlockTableRecord
  2
*D43
340
0
  0
BLOCK_RECORD
  5
28CB
330
27B9
100
AcDbSymbolTableRecord
100
AcDbBlockTableRecord
  2
*U44
340
0
102
{BLKREFS
331
16B1
102
}
  0
BLOCK_RECORD
  5
28CD
330
27B9
100
AcDbSymbolTableRecord
100
AcDbBlockTableRecord
  2
*D45
340
0
  0
BLOCK_RECORD
  5
28CF
330
27B9
100
AcDbSymbolTableRecord
100
AcDbBlockTableRecord
  2
*U46
340
0
102
{BLKREFS
331
16BD
102
}
  0
BLOCK_RECORD
  5
28D1
330
27B9
100
AcDbSymbolTableRecord
100
AcDbBlockTableRecord
  2
*D47
340
0
  0
BLOCK_RECORD
  5
28D3
330
27B9
100
AcDbSymbolTableRecord
100
AcDbBlockTableRecord
  2
*U48
340
0
102
{BLKREFS
331
16C9
102
}
  0
BLOCK_RECORD
  5
28D5
330
27B9
100
AcDbSymbolTableRecord
100
AcDbBlockTableRecord
  2
*D49
340
0
  0
BLOCK_RECORD
  5
28D7
330
27B9
100
AcDbSymbolTableRecord
100
AcDbBlockTableRecord
  2
*U50
340
0
102
{BLKREFS
331
16D5
102
}
  0
BLOCK_RECORD
  5
28D9
330
27B9
100
AcDbSymbolTableRecord
100
AcDbBlockTableRecord
  2
*D51
340
0
  0
BLOCK_RECORD
  5
28DB
330
27B9
100
AcDbSymbolTableRecord
100
AcDbBlockTableRecord
  2
*U52
340
0
102
{BLKREFS
331
1D88
102
}
  0
BLOCK_RECORD
  5
28DD
330
27B9
100
AcDbSymbolTableRecord
100
AcDbBlockTableRecord
  2
*D53
340
0
  0
BLOCK_RECORD
  5
28DF
330
27B9
100
AcDbSymbolTableRecord
100
AcDbBlockTableRecord
  2
*U54
340
0
102
{BLKREFS
331
1D91
102
}
  0
BLOCK_RECORD
  5
28E1
330
27B9
100
AcDbSymbolTableRecord
100
AcDbBlockTableRecord
  2
*D55
340
0
  0
BLOCK_RECORD
  5
28E3
330
27B9
100
AcDbSymbolTableRecord
100
AcDbBlockTableRecord
  2
*U56
340
0
102
{BLKREFS
331
1D9A
102
}
  0
BLOCK_RECORD
  5
28E5
330
27B9
100
AcDbSymbolTableRecord
100
AcDbBlockTableRecord
  2
*D57
340
0
  0
BLOCK_RECORD
  5
28E7
330
27B9
100
AcDbSymbolTableRecord
100
AcDbBlockTableRecord
  2
*U58
340
0
102
{BLKREFS
331
1DA3
102
}
  0
BLOCK_RECORD
  5
28E9
330
27B9
100
AcDbSymbolTableRecord
100
AcDbBlockTableRecord
  2
*D59
340
0
  0
BLOCK_RECORD
  5
28EB
330
27B9
100
AcDbSymbolTableRecord
100
AcDbBlockTableRecord
  2
*U60
340
0
102
{BLKREFS
331
1DAD
102
}
  0
BLOCK_RECORD
  5
28ED
330
27B9
100
AcDbSymbolTableRecord
100
AcDbBlockTableRecord
  2
*D61
340
0
  0
BLOCK_RECORD
  5
28EF
330
27B9
100
AcDbSymbolTableRecord
100
AcDbBlockTableRecord
  2
*U62
340
0
102
{BLKREFS
331
1DB7
102
}
  0
BLOCK_RECORD
  5
28F1
330
27B9
100
AcDbSymbolTableRecord
100
AcDbBlockTableRecord
  2
*U63
340
0
  0
BLOCK_RECORD
  5
28F3
330
27B9
100
AcDbSymbolTableRecord
100
AcDbBlockTableRecord
  2
*U64
340
0
  0
BLOCK_RECORD
  5
28F5
330
27B9
100
AcDbSymbolTableRecord
100
AcDbBlockTableRecord
  2
*U65
340
0
  0
BLOCK_RECORD
  5
28F7
330
27B9
100
AcDbSymbolTableRecord
100
AcDbBlockTableRecord
  2
*U66
340
0
  0
BLOCK_RECORD
  5
28F9
330
27B9
100
AcDbSymbolTableRecord
100
AcDbBlockTableRecord
  2
*U67
340
0
  0
BLOCK_RECORD
  5
28FB
330
27B9
100
AcDbSymbolTableRecord
100
AcDbBlockTableRecord
  2
*U68
340
0
  0
BLOCK_RECORD
  5
28FD
330
27B9
100
AcDbSymbolTableRecord
100
AcDbBlockTableRecord
  2
*U69
340
0
  0
BLOCK_RECORD
  5
28FF
330
27B9
100
AcDbSymbolTableRecord
100
AcDbBlockTableRecord
  2
*U70
340
0
  0
BLOCK_RECORD
  5
2901
330
27B9
100
AcDbSymbolTableRecord
100
AcDbBlockTableRecord
  2
*U71
340
0
  0
BLOCK_RECORD
  5
2903
330
27B9
100
AcDbSymbolTableRecord
100
AcDbBlockTableRecord
  2
*U72
340
0
  0
BLOCK_RECORD
  5
2905
330
27B9
100
AcDbSymbolTableRecord
100
AcDbBlockTableRecord
  2
*U73
340
0
  0
BLOCK_RECORD
  5
2907
330
27B9
100
AcDbSymbolTableRecord
100
AcDbBlockTableRecord
  2
*U74
340
0
  0
BLOCK_RECORD
  5
2909
330
27B9
100
AcDbSymbolTableRecord
100
AcDbBlockTableRecord
  2
*U75
340
0
  0
BLOCK_RECORD
  5
290B
330
27B9
100
AcDbSymbolTableRecord
100
AcDbBlockTableRecord
  2
*X76
340
0
  0
BLOCK_RECORD
  5
290D
330
27B9
100
AcDbSymbolTableRecord
100
AcDbBlockTableRecord
  2
*X77
340
0
  0
BLOCK_RECORD
  5
2AF1
330
27B9
100
AcDbSymbolTableRecord
100
AcDbBlockTableRecord
  2
*U78
340
0
  0
ENDTAB
  0
ENDSEC
  0
SECTION
  2
BLOCKS
  0
BLOCK
  5
282D
330
282C
100
AcDbEntity
  8
0
100
AcDbBlockBegin
  2
*Model_Space
 70
     0
 10
0.0
 20
0.0
 30
0.0
  3
*Model_Space
  1

  0
ENDBLK
  5
282E
330
282C
100
AcDbEntity
  8
0
100
AcDbBlockEnd
  0
BLOCK
  5
2829
330
2828
100
AcDbEntity
 67
     1
  8
0
100
AcDbBlockBegin
  2
*Paper_Space
 70
     0
 10
0.0
 20
0.0
 30
0.0
  3
*Paper_Space
  1

  0
ENDBLK
  5
282A
330
2828
100
AcDbEntity
 67
     1
  8
0
100
AcDbBlockEnd
  0
BLOCK
  5
2874
330
2873
100
AcDbEntity
  8
0
100
AcDbBlockBegin
  2
$MODEL_SPACE
 70
     0
 10
0.0
 20
0.0
 30
0.0
  3
$MODEL_SPACE
  1

  0
ENDBLK
  5
1FC1
330
2873
100
AcDbEntity
  8
0
100
AcDbBlockEnd
  0
BLOCK
  5
2876
330
2875
100
AcDbEntity
  8
0
100
AcDbBlockBegin
  2
$PAPER_SPACE
 70
     0
 10
0.0
 20
0.0
 30
0.0
  3
$PAPER_SPACE
  1

  0
ENDBLK
  5
1FBD
330
2875
100
AcDbEntity
  8
0
100
AcDbBlockEnd
  0
BLOCK
  5
2878
330
2877
100
AcDbEntity
  8
0
100
AcDbBlockBegin
  2
_ORIGIN
 70
     0
 10
0.0
 20
0.0
 30
0.0
  3
_ORIGIN
  1

  0
CIRCLE
  5
880
330
2877
100
AcDbEntity
  8
0
  6
Continuous
 62
     7
100
AcDbCircle
 10
0.0
 20
0.0
 30
0.0
 40
0.5
  0
LINE
  5
881
330
2877
100
AcDbEntity
  8
0
  6
Continuous
 62
     7
100
AcDbLine
 10
0.0
 20
0.0
 30
0.0
 11
-1.0
 21
0.0
 31
0.0
  0
ENDBLK
  5
882
330
2877
100
AcDbEntity
  8
0
100
AcDbBlockEnd
  0
BLOCK
  5
287A
330
2879
100
AcDbEntity
  8
0
 62
     1
100
AcDbBlockBegin
  2
_DOTBLANK
 70
     0
 10
0.0
 20
0.0
 30
0.0
  3
_DOTBLANK
  1

  0
CIRCLE
  5
AB3
330
2879
100
AcDbEntity
  8
0
  6
ByBlock
 62
     0
100
AcDbCircle
 10
0.0
 20
0.0
 30
0.0
 40
0.5
  0
LINE
  5
AB4
330
2879
100
AcDbEntity
  8
0
  6
ByBlock
 62
     0
100
AcDbLine
 10
-0.5
 20
0.0
 30
0.0
 11
-1.0
 21
0.0
 31
0.0
  0
ENDBLK
  5
AB6
330
2879
100
AcDbEntity
  8
0
 62
     1
100
AcDbBlockEnd
  0
BLOCK
  5
287C
330
287B
100
AcDbEntity
  8
0
 62
     1
100
AcDbBlockBegin
  2
_OPEN30
 70
     0
 10
0.0
 20
0.0
 30
0.0
  3
_OPEN30
  1

  0
LINE
  5
AB8
330
287B
100
AcDbEntity
  8
0
  6
ByBlock
 62
     0
100
AcDbLine
 10
-1.0
 20
0.26794919
 30
0.0
 11
0.0
 21
0.0
 31
0.0
  0
LINE
  5
AB9
330
287B
100
AcDbEntity
  8
0
  6
ByBlock
 62
     0
100
AcDbLine
 10
0.0
 20
0.0
 30
0.0
 11
-1.0
 21
-0.26794919
 31
0.0
  0
LINE
  5
ABA
330
287B
100
AcDbEntity
  8
0
  6
ByBlock
 62
     0
100
AcDbLine
 10
0.0
 20
0.0
 30
0.0
 11
-1.0
 21
0.0
 31
0.0
  0
ENDBLK
  5
ABC
330
287B
100
AcDbEntity
  8
0
 62
     1
100
AcDbBlockEnd
  0
BLOCK
  5
287E
330
287D
100
AcDbEntity
  8
0
100
AcDbBlockBegin
  2
*D5
 70
     1
 10
0.0
 20
0.0
 30
0.0
  3
*D5
  1

  0
LINE
  5
1296
330
287D
100
AcDbEntity
  8
SIZE
 62
     0
100
AcDbLine
 10
-134.5
 20
-320.0
 30
0.0
 11
-134.5
 21
-468.0173952306001
 31
0.0
  0
LINE
  5
1297
330
287D
100
AcDbEntity
  8
SIZE
 62
     0
100
AcDbLine
 10
134.5
 20
-320.0
 30
0.0
 11
134.5
 21
-468.0173952306001
 31
0.0
  0
LINE
  5
1298
330
287D
100
AcDbEntity
  8
SIZE
 62
     0
100
AcDbLine
 10
-122.5
 20
-448.0173952306
 30
0.0
 11
122.5
 21
-448.0173952306
 31
0.0
  0
INSERT
  5
1299
330
287D
100
AcDbEntity
  8
SIZE
 62
     0
100
AcDbBlockReference
  2
_DOTBLANK
 10
-134.5
 20
-448.0173952306
 30
0.0
 41
12.0
 42
12.0
 43
12.0
 50
180.0
  0
INSERT
  5
129A
330
287D
100
AcDbEntity
  8
SIZE
 62
     0
100
AcDbBlockReference
  2
_DOTBLANK
 10
134.5
 20
-448.0173952306
 30
0.0
 41
12.0
 42
12.0
 43
12.0
  0
INSERT
  5
129B
330
287D
100
AcDbEntity
  8
0
100
AcDbBlockReference
  2
*U6
 10
0.0
 20
0.0
 30
0.0
  0
POINT
  5
129C
330
287D
100
AcDbEntity
  8
DEFPOINTS
 62
     0
100
AcDbPoint
 10
-134.5
 20
-300.0
 30
0.0
  0
POINT
  5
129D
330
287D
100
AcDbEntity
  8
DEFPOINTS
 62
     0
100
AcDbPoint
 10
134.5
 20
-300.0
 30
0.0
  0
POINT
  5
129E
330
287D
100
AcDbEntity
  8
DEFPOINTS
 62
     0
100
AcDbPoint
 10
134.5
 20
-448.0173952306
 30
0.0
  0
ENDBLK
  5
D72
330
287D
100
AcDbEntity
  8
0
100
AcDbBlockEnd
  0
BLOCK
  5
2880
330
287F
100
AcDbEntity
  8
0
100
AcDbBlockBegin
  2
*U6
 70
     1
 10
0.0
 20
0.0
 30
0.0
  3
*U6
  1

  0
TEXT
  5
1EF5
330
287F
100
AcDbEntity
  8
SIZE
 62
     0
100
AcDbText
 10
-72.68571428571426
 20
-438.0173952305999
 30
0.0
 40
64.0
  1
269
 41
0.9
100
AcDbText
  0
ENDBLK
  5
1EF7
330
287F
100
AcDbEntity
  8
0
100
AcDbBlockEnd
  0
BLOCK
  5
2882
330
2881
100
AcDbEntity
  8
0
100
AcDbBlockBegin
  2
*D7
 70
     1
 10
0.0
 20
0.0
 30
0.0
  3
*D7
  1

  0
LINE
  5
11A7
330
2881
100
AcDbEntity
  8
SIZE
  6
Continuous
 62
     0
100
AcDbLine
 10
143.5
 20
-300.0
 30
0.0
 11
304.6432844803791
 21
-300.0
 31
0.0
  0
LINE
  5
11A8
330
2881
100
AcDbEntity
  8
SIZE
  6
Continuous
 62
     0
100
AcDbLine
 10
177.5
 20
-0.0000000000000057
 30
0.0
 11
304.6432844803792
 21
-0.0000000000000417
 31
0.0
  0
LINE
  5
11A9
330
2881
100
AcDbEntity
  8
SIZE
  6
Continuous
 62
     0
100
AcDbLine
 10
284.6432844803791
 20
-288.0000000000001
 30
0.0
 11
284.6432844803792
 21
-12.00000000000003
 31
0.0
  0
INSERT
  5
11AA
330
2881
100
AcDbEntity
  8
SIZE
  6
Continuous
 62
     0
100
AcDbBlockReference
  2
_DOTBLANK
 10
284.6432844803791
 20
-300.0
 30
0.0
 41
12.0
 42
12.0
 43
12.0
 50
270.0
  0
INSERT
  5
11AB
330
2881
100
AcDbEntity
  8
SIZE
  6
Continuous
 62
     0
100
AcDbBlockReference
  2
_DOTBLANK
 10
284.6432844803792
 20
-0.000000000000036
 30
0.0
 41
12.0
 42
12.0
 43
12.0
 50
90.0
  0
INSERT
  5
11AC
330
2881
100
AcDbEntity
  8
0
100
AcDbBlockReference
  2
*U8
 10
0.0
 20
0.0
 30
0.0
  0
POINT
  5
11AD
330
2881
100
AcDbEntity
  8
DEFPOINTS
  6
Continuous
 62
     0
100
AcDbPoint
 10
123.5
 20
-300.0
 30
0.0
  0
POINT
  5
11AE
330
2881
100
AcDbEntity
  8
DEFPOINTS
  6
Continuous
 62
     0
100
AcDbPoint
 10
157.5
 20
0.0
 30
0.0
  0
POINT
  5
11AF
330
2881
100
AcDbEntity
  8
DEFPOINTS
  6
Continuous
 62
     0
100
AcDbPoint
 10
284.6432844803792
 20
-0.000000000000036
 30
0.0
  0
ENDBLK
  5
E11
330
2881
100
AcDbEntity
  8
0
100
AcDbBlockEnd
  0
BLOCK
  5
2884
330
2883
100
AcDbEntity
  8
0
100
AcDbBlockBegin
  2
*U8
 70
     1
 10
0.0
 20
0.0
 30
0.0
  3
*U8
  1

  0
TEXT
  5
1EE1
330
2883
100
AcDbEntity
  8
SIZE
 62
     0
100
AcDbText
 10
274.6432844803792
 20
-224.0571428571429
 30
0.0
 40
64.0
  1
300
 50
90.0
 41
0.9
100
AcDbText
  0
ENDBLK
  5
1EE3
330
2883
100
AcDbEntity
  8
0
100
AcDbBlockEnd
  0
BLOCK
  5
2886
330
2885
100
AcDbEntity
  8
0
100
AcDbBlockBegin
  2
*D9
 70
     1
 10
0.0
 20
0.0
 30
0.0
  3
*D9
  1

  0
LINE
  5
E7D
330
2885
100
AcDbEntity
  8
SIZE
 62
     0
100
AcDbLine
 10
-139.9999999999998
 20
32.46448280219375
 30
0.0
 11
-139.9999999999998
 21
136.4516878685508
 31
0.0
  0
LINE
  5
E7E
330
2885
100
AcDbEntity
  8
SIZE
 62
     0
100
AcDbLine
 10
140.0
 20
32.46448280219375
 30
0.0
 11
140.0
 21
136.4516878685508
 31
0.0
  0
LINE
  5
E7F
330
2885
100
AcDbEntity
  8
SIZE
 62
     0
100
AcDbLine
 10
-128.0
 20
116.4516878685508
 30
0.0
 11
128.0
 21
116.4516878685508
 31
0.0
  0
INSERT
  5
E80
330
2885
100
AcDbEntity
  8
SIZE
 62
     0
100
AcDbBlockReference
  2
_DOTBLANK
 10
-139.9999999999998
 20
116.4516878685508
 30
0.0
 41
12.0
 42
12.0
 43
12.0
 50
180.0
  0
INSERT
  5
E81
330
2885
100
AcDbEntity
  8
SIZE
 62
     0
100
AcDbBlockReference
  2
_DOTBLANK
 10
140.0
 20
116.4516878685508
 30
0.0
 41
12.0
 42
12.0
 43
12.0
  0
INSERT
  5
E82
330
2885
100
AcDbEntity
  8
0
100
AcDbBlockReference
  2
*U10
 10
0.0
 20
0.0
 30
0.0
  0
POINT
  5
E83
330
2885
100
AcDbEntity
  8
DEFPOINTS
 62
     0
100
AcDbPoint
 10
-139.9999999999998
 20
12.46448280219374
 30
0.0
  0
POINT
  5
E84
330
2885
100
AcDbEntity
  8
DEFPOINTS
 62
     0
100
AcDbPoint
 10
140.0
 20
12.46448280219374
 30
0.0
  0
POINT
  5
E85
330
2885
100
AcDbEntity
  8
DEFPOINTS
 62
     0
100
AcDbPoint
 10
140.0
 20
116.4516878685508
 30
0.0
  0
ENDBLK
  5
E7C
330
2885
100
AcDbEntity
  8
0
100
AcDbBlockEnd
  0
BLOCK
  5
2888
330
2887
100
AcDbEntity
  8
0
100
AcDbBlockBegin
  2
*U10
 70
     1
 10
0.0
 20
0.0
 30
0.0
  3
*U10
  1

  0
TEXT
  5
1ED8
330
2887
100
AcDbEntity
  8
SIZE
 62
     0
100
AcDbText
 10
-74.05714285714281
 20
126.4516878685508
 30
0.0
 40
64.0
  1
280
 41
0.9
100
AcDbText
  0
ENDBLK
  5
1EDA
330
2887
100
AcDbEntity
  8
0
100
AcDbBlockEnd
  0
BLOCK
  5
288A
330
2889
100
AcDbEntity
  8
0
100
AcDbBlockBegin
  2
GENAXEH
 70
     0
 10
0.0
 20
0.0
 30
0.0
  3
GENAXEH
  1

  0
LINE
  5
FDB
330
2889
100
AcDbEntity
  8
0
100
AcDbLine
 10
-1.0
 20
0.0
 30
0.0
 11
1.0
 21
0.0
 31
0.0
  0
ENDBLK
  5
FDD
330
2889
100
AcDbEntity
  8
0
100
AcDbBlockEnd
  0
BLOCK
  5
288C
330
288B
100
AcDbEntity
  8
0
100
AcDbBlockBegin
  2
*D12
 70
     1
 10
0.0
 20
0.0
 30
0.0
  3
*D12
  1

  0
LINE
  5
1120
330
288B
100
AcDbEntity
  8
SIZE
 62
     0
100
AcDbLine
 10
-157.5
 20
20.0
 30
0.0
 11
-157.5
 21
245.5794621189598
 31
0.0
  0
LINE
  5
1121
330
288B
100
AcDbEntity
  8
SIZE
 62
     0
100
AcDbLine
 10
157.5
 20
20.0
 30
0.0
 11
157.5
 21
245.5794621189598
 31
0.0
  0
LINE
  5
1122
330
288B
100
AcDbEntity
  8
SIZE
 62
     0
100
AcDbLine
 10
-145.5
 20
225.5794621189598
 30
0.0
 11
145.5
 21
225.5794621189598
 31
0.0
  0
INSERT
  5
1123
330
288B
100
AcDbEntity
  8
SIZE
 62
     0
100
AcDbBlockReference
  2
_DOTBLANK
 10
-157.5
 20
225.5794621189598
 30
0.0
 41
12.0
 42
12.0
 43
12.0
 50
180.0
  0
INSERT
  5
1124
330
288B
100
AcDbEntity
  8
SIZE
 62
     0
100
AcDbBlockReference
  2
_DOTBLANK
 10
157.5
 20
225.5794621189598
 30
0.0
 41
12.0
 42
12.0
 43
12.0
  0
INSERT
  5
1125
330
288B
100
AcDbEntity
  8
0
100
AcDbBlockReference
  2
*U13
 10
0.0
 20
0.0
 30
0.0
  0
POINT
  5
1126
330
288B
100
AcDbEntity
  8
DEFPOINTS
 62
     0
100
AcDbPoint
 10
-157.5
 20
0.0
 30
0.0
  0
POINT
  5
1127
330
288B
100
AcDbEntity
  8
DEFPOINTS
 62
     0
100
AcDbPoint
 10
157.5
 20
0.0
 30
0.0
  0
POINT
  5
1128
330
288B
100
AcDbEntity
  8
DEFPOINTS
 62
     0
100
AcDbPoint
 10
157.5
 20
225.5794621189598
 30
0.0
  0
ENDBLK
  5
111F
330
288B
100
AcDbEntity
  8
0
100
AcDbBlockEnd
  0
BLOCK
  5
288E
330
288D
100
AcDbEntity
  8
0
100
AcDbBlockBegin
  2
*U13
 70
     1
 10
0.0
 20
0.0
 30
0.0
  3
*U13
  1

  0
TEXT
  5
1EDD
330
288D
100
AcDbEntity
  8
SIZE
 62
     0
100
AcDbText
 10
-68.57142857142857
 20
235.5794621189599
 30
0.0
 40
64.0
  1
315
 41
0.9
100
AcDbText
  0
ENDBLK
  5
1EDF
330
288D
100
AcDbEntity
  8
0
100
AcDbBlockEnd
  0
BLOCK
  5
2890
330
288F
100
AcDbEntity
  8
0
100
AcDbBlockBegin
  2
*D14
 70
     1
 10
0.0
 20
0.0
 30
0.0
  3
*D14
  1

  0
LINE
  5
11BD
330
288F
100
AcDbEntity
  8
NOTE
 62
     0
100
AcDbLine
 10
-123.4999999999999
 20
-320.0
 30
0.0
 11
-123.4999999999999
 21
-354.9529861856111
 31
0.0
  0
LINE
  5
11BE
330
288F
100
AcDbEntity
  8
NOTE
 62
     0
100
AcDbLine
 10
-133.4999999999998
 20
-331.2126909923287
 30
0.0
 11
-133.4999999999998
 21
-354.9529861856111
 31
0.0
  0
LINE
  5
11BF
330
288F
100
AcDbEntity
  8
NOTE
 62
     0
100
AcDbLine
 10
-111.4999999999999
 20
-334.9529861856112
 30
0.0
 11
-99.4999999999999
 21
-334.9529861856112
 31
0.0
  0
LINE
  5
11C0
330
288F
100
AcDbEntity
  8
NOTE
 62
     0
100
AcDbLine
 10
-145.4999999999998
 20
-334.9529861856112
 30
0.0
 11
-157.4999999999998
 21
-334.9529861856112
 31
0.0
  0
LINE
  5
11C1
330
288F
100
AcDbEntity
  8
NOTE
 62
     0
100
AcDbLine
 10
-123.4999999999999
 20
-334.9529861856112
 30
0.0
 11
-133.4999999999998
 21
-334.9529861856112
 31
0.0
  0
INSERT
  5
11C2
330
288F
100
AcDbEntity
  8
NOTE
 62
     0
100
AcDbBlockReference
  2
_DOTBLANK
 10
-123.4999999999999
 20
-334.9529861856112
 30
0.0
 41
12.0
 42
12.0
 43
12.0
 50
180.0
  0
INSERT
  5
11C3
330
288F
100
AcDbEntity
  8
NOTE
 62
     0
100
AcDbBlockReference
  2
_DOTBLANK
 10
-133.4999999999998
 20
-334.9529861856112
 30
0.0
 41
12.0
 42
12.0
 43
12.0
  0
INSERT
  5
11C4
330
288F
100
AcDbEntity
  8
0
100
AcDbBlockReference
  2
*U15
 10
0.0
 20
0.0
 30
0.0
  0
POINT
  5
11C5
330
288F
100
AcDbEntity
  8
DEFPOINTS
 62
     0
100
AcDbPoint
 10
-123.4999999999999
 20
-300.0
 30
0.0
  0
POINT
  5
11C6
330
288F
100
AcDbEntity
  8
DEFPOINTS
 62
     0
100
AcDbPoint
 10
-133.4999999999998
 20
-311.2126909923287
 30
0.0
  0
POINT
  5
11C7
330
288F
100
AcDbEntity
  8
DEFPOINTS
 62
     0
100
AcDbPoint
 10
-133.4999999999998
 20
-334.9529861856112
 30
0.0
  0
ENDBLK
  5
11BC
330
288F
100
AcDbEntity
  8
0
100
AcDbBlockEnd
  0
BLOCK
  5
2892
330
2891
100
AcDbEntity
  8
0
100
AcDbBlockBegin
  2
*U15
 70
     1
 10
0.0
 20
0.0
 30
0.0
  3
*U15
  1

  0
TEXT
  5
1EE5
330
2891
100
AcDbEntity
  8
NOTE
 62
     0
100
AcDbText
 10
-169.642857142857
 20
-324.9529861856112
 30
0.0
 40
64.0
  1
10
 41
0.9
100
AcDbText
  0
ENDBLK
  5
1EE7
330
2891
100
AcDbEntity
  8
0
100
AcDbBlockEnd
  0
BLOCK
  5
2894
330
2893
100
AcDbEntity
  8
0
100
AcDbBlockBegin
  2
*D16
 70
     1
 10
0.0
 20
0.0
 30
0.0
  3
*D16
  1

  0
LINE
  5
11E7
330
2893
100
AcDbEntity
  8
NOTE
 62
     0
100
AcDbLine
 10
-135.5
 20
-333.2126909923287
 30
0.0
 11
-135.5
 21
-386.2569421441843
 31
0.0
  0
LINE
  5
11E8
330
2893
100
AcDbEntity
  8
NOTE
 62
     0
100
AcDbLine
 10
-123.4999999999999
 20
-320.0
 30
0.0
 11
-123.4999999999999
 21
-386.2569421441843
 31
0.0
  0
LINE
  5
11E9
330
2893
100
AcDbEntity
  8
NOTE
 62
     0
100
AcDbLine
 10
-147.5
 20
-366.2569421441844
 30
0.0
 11
-159.5
 21
-366.2569421441844
 31
0.0
  0
LINE
  5
11EA
330
2893
100
AcDbEntity
  8
NOTE
 62
     0
100
AcDbLine
 10
-111.4999999999999
 20
-366.2569421441844
 30
0.0
 11
-99.4999999999999
 21
-366.2569421441844
 31
0.0
  0
LINE
  5
11EB
330
2893
100
AcDbEntity
  8
NOTE
 62
     0
100
AcDbLine
 10
-135.5
 20
-366.2569421441844
 30
0.0
 11
-123.4999999999999
 21
-366.2569421441844
 31
0.0
  0
INSERT
  5
11EC
330
2893
100
AcDbEntity
  8
NOTE
 62
     0
100
AcDbBlockReference
  2
_DOTBLANK
 10
-135.5
 20
-366.2569421441844
 30
0.0
 41
12.0
 42
12.0
 43
12.0
  0
INSERT
  5
11ED
330
2893
100
AcDbEntity
  8
NOTE
 62
     0
100
AcDbBlockReference
  2
_DOTBLANK
 10
-123.4999999999999
 20
-366.2569421441844
 30
0.0
 41
12.0
 42
12.0
 43
12.0
 50
180.0
  0
INSERT
  5
11EE
330
2893
100
AcDbEntity
  8
0
100
AcDbBlockReference
  2
*U17
 10
0.0
 20
0.0
 30
0.0
  0
POINT
  5
11EF
330
2893
100
AcDbEntity
  8
DEFPOINTS
 62
     0
100
AcDbPoint
 10
-135.5
 20
-313.2126909923287
 30
0.0
  0
POINT
  5
11F0
330
2893
100
AcDbEntity
  8
DEFPOINTS
 62
     0
100
AcDbPoint
 10
-123.4999999999999
 20
-300.0
 30
0.0
  0
POINT
  5
11F1
330
2893
100
AcDbEntity
  8
DEFPOINTS
 62
     0
100
AcDbPoint
 10
-123.4999999999999
 20
-366.2569421441844
 30
0.0
  0
ENDBLK
  5
11E6
330
2893
100
AcDbEntity
  8
0
100
AcDbBlockEnd
  0
BLOCK
  5
2896
330
2895
100
AcDbEntity
  8
0
100
AcDbBlockBegin
  2
*U17
 70
     1
 10
0.0
 20
0.0
 30
0.0
  3
*U17
  1

  0
TEXT
  5
1EE9
330
2895
100
AcDbEntity
  8
NOTE
 62
     0
100
AcDbText
 10
-170.642857142857
 20
-356.2569421441843
 30
0.0
 40
64.0
  1
12
 41
0.9
100
AcDbText
  0
ENDBLK
  5
1EEB
330
2895
100
AcDbEntity
  8
0
100
AcDbBlockEnd
  0
BLOCK
  5
2898
330
2897
100
AcDbEntity
  8
0
100
AcDbBlockBegin
  2
*D18
 70
     1
 10
0.0
 20
0.0
 30
0.0
  3
*D18
  1

  0
LINE
  5
11F6
330
2897
100
AcDbEntity
  8
NOTE
 62
     0
100
AcDbLine
 10
-123.4999999999999
 20
-320.0
 30
0.0
 11
-123.4999999999999
 21
-583.8286022818904
 31
0.0
  0
LINE
  5
11F7
330
2897
100
AcDbEntity
  8
NOTE
 62
     0
100
AcDbLine
 10
123.5
 20
-320.0
 30
0.0
 11
123.5
 21
-583.8286022818904
 31
0.0
  0
LINE
  5
11F8
330
2897
100
AcDbEntity
  8
NOTE
 62
     0
100
AcDbLine
 10
-111.4999999999999
 20
-563.8286022818904
 30
0.0
 11
111.5
 21
-563.8286022818904
 31
0.0
  0
INSERT
  5
11F9
330
2897
100
AcDbEntity
  8
NOTE
 62
     0
100
AcDbBlockReference
  2
_DOTBLANK
 10
-123.4999999999999
 20
-563.8286022818904
 30
0.0
 41
12.0
 42
12.0
 43
12.0
 50
180.0
  0
INSERT
  5
11FA
330
2897
100
AcDbEntity
  8
NOTE
 62
     0
100
AcDbBlockReference
  2
_DOTBLANK
 10
123.5
 20
-563.8286022818904
 30
0.0
 41
12.0
 42
12.0
 43
12.0
  0
INSERT
  5
11FB
330
2897
100
AcDbEntity
  8
0
100
AcDbBlockReference
  2
*U19
 10
0.0
 20
0.0
 30
0.0
  0
POINT
  5
11FC
330
2897
100
AcDbEntity
  8
DEFPOINTS
 62
     0
100
AcDbPoint
 10
-123.4999999999999
 20
-300.0
 30
0.0
  0
POINT
  5
11FD
330
2897
100
AcDbEntity
  8
DEFPOINTS
 62
     0
100
AcDbPoint
 10
123.5
 20
-300.0
 30
0.0
  0
POINT
  5
11FE
330
2897
100
AcDbEntity
  8
DEFPOINTS
 62
     0
100
AcDbPoint
 10
123.5
 20
-563.8286022818904
 30
0.0
  0
ENDBLK
  5
11F5
330
2897
100
AcDbEntity
  8
0
100
AcDbBlockEnd
  0
BLOCK
  5
289A
330
2899
100
AcDbEntity
  8
0
100
AcDbBlockBegin
  2
*U19
 70
     1
 10
0.0
 20
0.0
 30
0.0
  3
*U19
  1

  0
TEXT
  5
1EED
330
2899
100
AcDbEntity
  8
NOTE
 62
     0
100
AcDbText
 10
-74.05714285714281
 20
-553.8286022818904
 30
0.0
 40
64.0
  1
247
 41
0.9
100
AcDbText
  0
ENDBLK
  5
1EEF
330
2899
100
AcDbEntity
  8
0
100
AcDbBlockEnd
  0
BLOCK
  5
289C
330
289B
100
AcDbEntity
  8
0
100
AcDbBlockBegin
  2
*D20
 70
     1
 10
0.0
 20
0.0
 30
0.0
  3
*D20
  1

  0
LINE
  5
1284
330
289B
100
AcDbEntity
  8
NOTE
 62
     0
100
AcDbLine
 10
-123.5
 20
12.0
 30
0.0
 11
-123.5
 21
71.83630134534229
 31
0.0
  0
LINE
  5
1285
330
289B
100
AcDbEntity
  8
NOTE
 62
     0
100
AcDbLine
 10
123.5
 20
12.0
 30
0.0
 11
123.5
 21
71.83630134534229
 31
0.0
  0
LINE
  5
1286
330
289B
100
AcDbEntity
  8
NOTE
 62
     0
100
AcDbLine
 10
-111.5
 20
51.83630134534229
 30
0.0
 11
111.5
 21
51.83630134534229
 31
0.0
  0
INSERT
  5
1287
330
289B
100
AcDbEntity
  8
NOTE
 62
     0
100
AcDbBlockReference
  2
_DOTBLANK
 10
-123.5
 20
51.83630134534229
 30
0.0
 41
12.0
 42
12.0
 43
12.0
 50
180.0
  0
INSERT
  5
1288
330
289B
100
AcDbEntity
  8
NOTE
 62
     0
100
AcDbBlockReference
  2
_DOTBLANK
 10
123.5
 20
51.83630134534229
 30
0.0
 41
12.0
 42
12.0
 43
12.0
  0
INSERT
  5
1289
330
289B
100
AcDbEntity
  8
0
100
AcDbBlockReference
  2
*U21
 10
0.0
 20
0.0
 30
0.0
  0
POINT
  5
128A
330
289B
100
AcDbEntity
  8
DEFPOINTS
 62
     0
100
AcDbPoint
 10
-123.5
 20
-8.0
 30
0.0
  0
POINT
  5
128B
330
289B
100
AcDbEntity
  8
DEFPOINTS
 62
     0
100
AcDbPoint
 10
123.5
 20
-8.0
 30
0.0
  0
POINT
  5
128C
330
289B
100
AcDbEntity
  8
DEFPOINTS
 62
     0
100
AcDbPoint
 10
123.5
 20
51.83630134534229
 30
0.0
  0
ENDBLK
  5
1283
330
289B
100
AcDbEntity
  8
0
100
AcDbBlockEnd
  0
BLOCK
  5
289E
330
289D
100
AcDbEntity
  8
0
100
AcDbBlockBegin
  2
*U21
 70
     1
 10
0.0
 20
0.0
 30
0.0
  3
*U21
  1

  0
TEXT
  5
1EF1
330
289D
100
AcDbEntity
  8
NOTE
 62
     0
100
AcDbText
 10
-74.05714285714283
 20
61.83630134534229
 30
0.0
 40
64.0
  1
247
 41
0.9
100
AcDbText
  0
ENDBLK
  5
1EF3
330
289D
100
AcDbEntity
  8
0
100
AcDbBlockEnd
  0
BLOCK
  5
28A0
330
289F
100
AcDbEntity
  8
0
100
AcDbBlockBegin
  2
*D22
 70
     1
 10
0.0
 20
0.0
 30
0.0
  3
*D22
  1

  0
LINE
  5
1414
330
289F
100
AcDbEntity
  8
SIZE
 62
     0
100
AcDbLine
 10
-22313.11521613997
 20
7365.702971374808
 30
0.0
 11
-22313.11521613997
 21
7217.685576144207
 31
0.0
  0
LINE
  5
1415
330
289F
100
AcDbEntity
  8
SIZE
 62
     0
100
AcDbLine
 10
-22044.11521613997
 20
7365.702971374808
 30
0.0
 11
-22044.11521613997
 21
7217.685576144207
 31
0.0
  0
LINE
  5
1416
330
289F
100
AcDbEntity
  8
SIZE
 62
     0
100
AcDbLine
 10
-22301.11521613997
 20
7237.685576144207
 30
0.0
 11
-22056.11521613997
 21
7237.685576144207
 31
0.0
  0
INSERT
  5
1417
330
289F
100
AcDbEntity
  8
SIZE
 62
     0
100
AcDbBlockReference
  2
_DOTBLANK
 10
-22313.11521613997
 20
7237.685576144207
 30
0.0
 41
12.0
 42
12.0
 43
12.0
 50
180.0
  0
INSERT
  5
1418
330
289F
100
AcDbEntity
  8
SIZE
 62
     0
100
AcDbBlockReference
  2
_DOTBLANK
 10
-22044.11521613997
 20
7237.685576144207
 30
0.0
 41
12.0
 42
12.0
 43
12.0
  0
INSERT
  5
1419
330
289F
100
AcDbEntity
  8
0
100
AcDbBlockReference
  2
*U23
 10
0.0
 20
0.0
 30
0.0
  0
POINT
  5
141A
330
289F
100
AcDbEntity
  8
DEFPOINTS
 62
     0
100
AcDbPoint
 10
-22313.11521613997
 20
7385.702971374808
 30
0.0
  0
POINT
  5
141B
330
289F
100
AcDbEntity
  8
DEFPOINTS
 62
     0
100
AcDbPoint
 10
-22044.11521613997
 20
7385.702971374808
 30
0.0
  0
POINT
  5
141C
330
289F
100
AcDbEntity
  8
DEFPOINTS
 62
     0
100
AcDbPoint
 10
-22044.11521613997
 20
7237.685576144207
 30
0.0
  0
ENDBLK
  5
141D
330
289F
100
AcDbEntity
  8
0
100
AcDbBlockEnd
  0
BLOCK
  5
28A2
330
28A1
100
AcDbEntity
  8
0
100
AcDbBlockBegin
  2
*U23
 70
     1
 10
0.0
 20
0.0
 30
0.0
  3
*U23
  1

  0
TEXT
  5
1EF9
330
28A1
100
AcDbEntity
  8
SIZE
 62
     0
100
AcDbText
 10
-22251.30093042568
 20
7247.685576144205
 30
0.0
 40
64.0
  1
269
 41
0.9
100
AcDbText
  0
ENDBLK
  5
1EFB
330
28A1
100
AcDbEntity
  8
0
100
AcDbBlockEnd
  0
BLOCK
  5
28A4
330
28A3
100
AcDbEntity
  8
0
100
AcDbBlockBegin
  2
*D24
 70
     1
 10
0.0
 20
0.0
 30
0.0
  3
*D24
  1

  0
LINE
  5
1420
330
28A3
100
AcDbEntity
  8
SIZE
  6
Continuous
 62
     0
100
AcDbLine
 10
-22035.11521613997
 20
7385.702971374808
 30
0.0
 11
-21873.97193165959
 21
7385.702971374808
 31
0.0
  0
LINE
  5
1421
330
28A3
100
AcDbEntity
  8
SIZE
  6
Continuous
 62
     0
100
AcDbLine
 10
-22001.11521613997
 20
7685.702971374808
 30
0.0
 11
-21873.97193165959
 21
7685.702971374808
 31
0.0
  0
LINE
  5
1422
330
28A3
100
AcDbEntity
  8
SIZE
  6
Continuous
 62
     0
100
AcDbLine
 10
-21893.97193165959
 20
7397.702971374808
 30
0.0
 11
-21893.97193165959
 21
7673.702971374808
 31
0.0
  0
INSERT
  5
1423
330
28A3
100
AcDbEntity
  8
SIZE
  6
Continuous
 62
     0
100
AcDbBlockReference
  2
_DOTBLANK
 10
-21893.97193165959
 20
7385.702971374808
 30
0.0
 41
12.0
 42
12.0
 43
12.0
 50
270.0
  0
INSERT
  5
1424
330
28A3
100
AcDbEntity
  8
SIZE
  6
Continuous
 62
     0
100
AcDbBlockReference
  2
_DOTBLANK
 10
-21893.97193165959
 20
7685.702971374808
 30
0.0
 41
12.0
 42
12.0
 43
12.0
 50
90.0
  0
INSERT
  5
1425
330
28A3
100
AcDbEntity
  8
0
100
AcDbBlockReference
  2
*U25
 10
0.0
 20
0.0
 30
0.0
  0
POINT
  5
1426
330
28A3
100
AcDbEntity
  8
DEFPOINTS
  6
Continuous
 62
     0
100
AcDbPoint
 10
-22055.11521613997
 20
7385.702971374808
 30
0.0
  0
POINT
  5
1427
330
28A3
100
AcDbEntity
  8
DEFPOINTS
  6
Continuous
 62
     0
100
AcDbPoint
 10
-22021.11521613997
 20
7685.702971374808
 30
0.0
  0
POINT
  5
1428
330
28A3
100
AcDbEntity
  8
DEFPOINTS
  6
Continuous
 62
     0
100
AcDbPoint
 10
-21893.97193165959
 20
7685.702971374808
 30
0.0
  0
ENDBLK
  5
1429
330
28A3
100
AcDbEntity
  8
0
100
AcDbBlockEnd
  0
BLOCK
  5
28A6
330
28A5
100
AcDbEntity
  8
0
100
AcDbBlockBegin
  2
*U25
 70
     1
 10
0.0
 20
0.0
 30
0.0
  3
*U25
  1

  0
TEXT
  5
1EFD
330
28A5
100
AcDbEntity
  8
SIZE
 62
     0
100
AcDbText
 10
-21903.97193165959
 20
7461.645828517662
 30
0.0
 40
64.0
  1
300
 50
90.0
 41
0.9
100
AcDbText
  0
ENDBLK
  5
1EFF
330
28A5
100
AcDbEntity
  8
0
100
AcDbBlockEnd
  0
BLOCK
  5
28A8
330
28A7
100
AcDbEntity
  8
0
100
AcDbBlockBegin
  2
*D26
 70
     1
 10
0.0
 20
0.0
 30
0.0
  3
*D26
  1

  0
LINE
  5
142C
330
28A7
100
AcDbEntity
  8
SIZE
 62
     0
100
AcDbLine
 10
-22318.61521613997
 20
7718.167454177002
 30
0.0
 11
-22318.61521613997
 21
7822.154659243358
 31
0.0
  0
LINE
  5
142D
330
28A7
100
AcDbEntity
  8
SIZE
 62
     0
100
AcDbLine
 10
-22038.61521613997
 20
7718.167454177002
 30
0.0
 11
-22038.61521613997
 21
7822.154659243358
 31
0.0
  0
LINE
  5
142E
330
28A7
100
AcDbEntity
  8
SIZE
 62
     0
100
AcDbLine
 10
-22306.61521613997
 20
7802.154659243358
 30
0.0
 11
-22050.61521613997
 21
7802.154659243358
 31
0.0
  0
INSERT
  5
142F
330
28A7
100
AcDbEntity
  8
SIZE
 62
     0
100
AcDbBlockReference
  2
_DOTBLANK
 10
-22318.61521613997
 20
7802.154659243358
 30
0.0
 41
12.0
 42
12.0
 43
12.0
 50
180.0
  0
INSERT
  5
1430
330
28A7
100
AcDbEntity
  8
SIZE
 62
     0
100
AcDbBlockReference
  2
_DOTBLANK
 10
-22038.61521613997
 20
7802.154659243358
 30
0.0
 41
12.0
 42
12.0
 43
12.0
  0
INSERT
  5
1431
330
28A7
100
AcDbEntity
  8
0
100
AcDbBlockReference
  2
*U27
 10
0.0
 20
0.0
 30
0.0
  0
POINT
  5
1432
330
28A7
100
AcDbEntity
  8
DEFPOINTS
 62
     0
100
AcDbPoint
 10
-22318.61521613997
 20
7698.167454177002
 30
0.0
  0
POINT
  5
1433
330
28A7
100
AcDbEntity
  8
DEFPOINTS
 62
     0
100
AcDbPoint
 10
-22038.61521613997
 20
7698.167454177002
 30
0.0
  0
POINT
  5
1434
330
28A7
100
AcDbEntity
  8
DEFPOINTS
 62
     0
100
AcDbPoint
 10
-22038.61521613997
 20
7802.154659243358
 30
0.0
  0
ENDBLK
  5
1435
330
28A7
100
AcDbEntity
  8
0
100
AcDbBlockEnd
  0
BLOCK
  5
28AA
330
28A9
100
AcDbEntity
  8
0
100
AcDbBlockBegin
  2
*U27
 70
     1
 10
0.0
 20
0.0
 30
0.0
  3
*U27
  1

  0
TEXT
  5
1F01
330
28A9
100
AcDbEntity
  8
SIZE
 62
     0
100
AcDbText
 10
-22252.6723589971
 20
7812.154659243358
 30
0.0
 40
64.0
  1
280
 41
0.9
100
AcDbText
  0
ENDBLK
  5
1F03
330
28A9
100
AcDbEntity
  8
0
100
AcDbBlockEnd
  0
BLOCK
  5
28AC
330
28AB
100
AcDbEntity
  8
0
100
AcDbBlockBegin
  2
*D28
 70
     1
 10
0.0
 20
0.0
 30
0.0
  3
*D28
  1

  0
LINE
  5
1438
330
28AB
100
AcDbEntity
  8
SIZE
 62
     0
100
AcDbLine
 10
-22336.11521613997
 20
7705.702971374808
 30
0.0
 11
-22336.11521613997
 21
7931.282433493766
 31
0.0
  0
LINE
  5
1439
330
28AB
100
AcDbEntity
  8
SIZE
 62
     0
100
AcDbLine
 10
-22021.11521613997
 20
7705.702971374808
 30
0.0
 11
-22021.11521613997
 21
7931.282433493766
 31
0.0
  0
LINE
  5
143A
330
28AB
100
AcDbEntity
  8
SIZE
 62
     0
100
AcDbLine
 10
-22324.11521613997
 20
7911.282433493766
 30
0.0
 11
-22033.11521613997
 21
7911.282433493766
 31
0.0
  0
INSERT
  5
143B
330
28AB
100
AcDbEntity
  8
SIZE
 62
     0
100
AcDbBlockReference
  2
_DOTBLANK
 10
-22336.11521613997
 20
7911.282433493766
 30
0.0
 41
12.0
 42
12.0
 43
12.0
 50
180.0
  0
INSERT
  5
143C
330
28AB
100
AcDbEntity
  8
SIZE
 62
     0
100
AcDbBlockReference
  2
_DOTBLANK
 10
-22021.11521613997
 20
7911.282433493766
 30
0.0
 41
12.0
 42
12.0
 43
12.0
  0
INSERT
  5
143D
330
28AB
100
AcDbEntity
  8
0
100
AcDbBlockReference
  2
*U29
 10
0.0
 20
0.0
 30
0.0
  0
POINT
  5
143E
330
28AB
100
AcDbEntity
  8
DEFPOINTS
 62
     0
100
AcDbPoint
 10
-22336.11521613997
 20
7685.702971374808
 30
0.0
  0
POINT
  5
143F
330
28AB
100
AcDbEntity
  8
DEFPOINTS
 62
     0
100
AcDbPoint
 10
-22021.11521613997
 20
7685.702971374808
 30
0.0
  0
POINT
  5
1440
330
28AB
100
AcDbEntity
  8
DEFPOINTS
 62
     0
100
AcDbPoint
 10
-22021.11521613997
 20
7911.282433493766
 30
0.0
  0
ENDBLK
  5
1441
330
28AB
100
AcDbEntity
  8
0
100
AcDbBlockEnd
  0
BLOCK
  5
28AE
330
28AD
100
AcDbEntity
  8
0
100
AcDbBlockBegin
  2
*U29
 70
     1
 10
0.0
 20
0.0
 30
0.0
  3
*U29
  1

  0
TEXT
  5
1F05
330
28AD
100
AcDbEntity
  8
SIZE
 62
     0
100
AcDbText
 10
-22247.18664471139
 20
7921.282433493766
 30
0.0
 40
64.0
  1
315
 41
0.9
100
AcDbText
  0
ENDBLK
  5
1F07
330
28AD
100
AcDbEntity
  8
0
100
AcDbBlockEnd
  0
BLOCK
  5
28B0
330
28AF
100
AcDbEntity
  8
0
100
AcDbBlockBegin
  2
*D30
 70
     1
 10
0.0
 20
0.0
 30
0.0
  3
*D30
  1

  0
LINE
  5
166B
330
28AF
100
AcDbEntity
  8
SIZE
 62
     0
100
AcDbLine
 10
-134.5
 20
-320.0
 30
0.0
 11
-134.5
 21
-468.0173952306001
 31
0.0
  0
LINE
  5
166C
330
28AF
100
AcDbEntity
  8
SIZE
 62
     0
100
AcDbLine
 10
134.5
 20
-320.0
 30
0.0
 11
134.5
 21
-468.0173952306001
 31
0.0
  0
LINE
  5
166D
330
28AF
100
AcDbEntity
  8
SIZE
 62
     0
100
AcDbLine
 10
-122.5
 20
-448.0173952306
 30
0.0
 11
122.5
 21
-448.0173952306
 31
0.0
  0
INSERT
  5
166E
330
28AF
100
AcDbEntity
  8
SIZE
 62
     0
100
AcDbBlockReference
  2
_DOTBLANK
 10
-134.5
 20
-448.0173952306
 30
0.0
 41
12.0
 42
12.0
 43
12.0
 50
180.0
  0
INSERT
  5
166F
330
28AF
100
AcDbEntity
  8
SIZE
 62
     0
100
AcDbBlockReference
  2
_DOTBLANK
 10
134.5
 20
-448.0173952306
 30
0.0
 41
12.0
 42
12.0
 43
12.0
  0
INSERT
  5
1670
330
28AF
100
AcDbEntity
  8
0
100
AcDbBlockReference
  2
*U31
 10
0.0
 20
0.0
 30
0.0
  0
POINT
  5
1671
330
28AF
100
AcDbEntity
  8
DEFPOINTS
 62
     0
100
AcDbPoint
 10
-134.5
 20
-300.0
 30
0.0
  0
POINT
  5
1672
330
28AF
100
AcDbEntity
  8
DEFPOINTS
 62
     0
100
AcDbPoint
 10
134.5
 20
-300.0
 30
0.0
  0
POINT
  5
1673
330
28AF
100
AcDbEntity
  8
DEFPOINTS
 62
     0
100
AcDbPoint
 10
134.5
 20
-448.0173952306
 30
0.0
  0
ENDBLK
  5
14A7
330
28AF
100
AcDbEntity
  8
0
100
AcDbBlockEnd
  0
BLOCK
  5
28B2
330
28B1
100
AcDbEntity
  8
0
100
AcDbBlockBegin
  2
*U31
 70
     1
 10
0.0
 20
0.0
 30
0.0
  3
*U31
  1

  0
TEXT
  5
1F09
330
28B1
100
AcDbEntity
  8
SIZE
 62
     0
100
AcDbText
 10
-72.68571428571426
 20
-438.0173952306002
 30
0.0
 40
64.0
  1
269
 41
0.9
100
AcDbText
  0
ENDBLK
  5
1F0B
330
28B1
100
AcDbEntity
  8
0
100
AcDbBlockEnd
  0
BLOCK
  5
28B4
330
28B3
100
AcDbEntity
  8
0
100
AcDbBlockBegin
  2
*D32
 70
     1
 10
0.0
 20
0.0
 30
0.0
  3
*D32
  1

  0
LINE
  5
1674
330
28B3
100
AcDbEntity
  8
SIZE
  6
Continuous
 62
     0
100
AcDbLine
 10
143.5
 20
-300.0
 30
0.0
 11
304.6432844803784
 21
-300.0
 31
0.0
  0
LINE
  5
1675
330
28B3
100
AcDbEntity
  8
SIZE
  6
Continuous
 62
     0
100
AcDbLine
 10
177.5
 20
-0.0000000000000057
 30
0.0
 11
304.6432844803785
 21
-0.0000000000000417
 31
0.0
  0
LINE
  5
1676
330
28B3
100
AcDbEntity
  8
SIZE
  6
Continuous
 62
     0
100
AcDbLine
 10
284.6432844803784
 20
-288.0000000000001
 30
0.0
 11
284.6432844803785
 21
-12.00000000000003
 31
0.0
  0
INSERT
  5
1677
330
28B3
100
AcDbEntity
  8
SIZE
  6
Continuous
 62
     0
100
AcDbBlockReference
  2
_DOTBLANK
 10
284.6432844803784
 20
-300.0
 30
0.0
 41
12.0
 42
12.0
 43
12.0
 50
270.0
  0
INSERT
  5
1678
330
28B3
100
AcDbEntity
  8
SIZE
  6
Continuous
 62
     0
100
AcDbBlockReference
  2
_DOTBLANK
 10
284.6432844803785
 20
-0.000000000000036
 30
0.0
 41
12.0
 42
12.0
 43
12.0
 50
90.0
  0
INSERT
  5
1679
330
28B3
100
AcDbEntity
  8
0
100
AcDbBlockReference
  2
*U33
 10
0.0
 20
0.0
 30
0.0
  0
POINT
  5
167A
330
28B3
100
AcDbEntity
  8
DEFPOINTS
  6
Continuous
 62
     0
100
AcDbPoint
 10
123.5
 20
-300.0
 30
0.0
  0
POINT
  5
167B
330
28B3
100
AcDbEntity
  8
DEFPOINTS
  6
Continuous
 62
     0
100
AcDbPoint
 10
157.5
 20
0.0
 30
0.0
  0
POINT
  5
167C
330
28B3
100
AcDbEntity
  8
DEFPOINTS
  6
Continuous
 62
     0
100
AcDbPoint
 10
284.6432844803785
 20
-0.000000000000036
 30
0.0
  0
ENDBLK
  5
14B3
330
28B3
100
AcDbEntity
  8
0
100
AcDbBlockEnd
  0
BLOCK
  5
28B6
330
28B5
100
AcDbEntity
  8
0
100
AcDbBlockBegin
  2
*U33
 70
     1
 10
0.0
 20
0.0
 30
0.0
  3
*U33
  1

  0
TEXT
  5
1F0D
330
28B5
100
AcDbEntity
  8
SIZE
 62
     0
100
AcDbText
 10
274.6432844803785
 20
-224.0571428571429
 30
0.0
 40
64.0
  1
300
 50
90.0
 41
0.9
100
AcDbText
  0
ENDBLK
  5
1F0F
330
28B5
100
AcDbEntity
  8
0
100
AcDbBlockEnd
  0
BLOCK
  5
28B8
330
28B7
100
AcDbEntity
  8
0
100
AcDbBlockBegin
  2
*D34
 70
     1
 10
0.0
 20
0.0
 30
0.0
  3
*D34
  1

  0
LINE
  5
167D
330
28B7
100
AcDbEntity
  8
SIZE
 62
     0
100
AcDbLine
 10
-140.0
 20
32.46448280219375
 30
0.0
 11
-140.0
 21
136.4516878685507
 31
0.0
  0
LINE
  5
167E
330
28B7
100
AcDbEntity
  8
SIZE
 62
     0
100
AcDbLine
 10
140.0
 20
32.46448280219375
 30
0.0
 11
140.0
 21
136.4516878685507
 31
0.0
  0
LINE
  5
167F
330
28B7
100
AcDbEntity
  8
SIZE
 62
     0
100
AcDbLine
 10
-128.0
 20
116.4516878685508
 30
0.0
 11
128.0
 21
116.4516878685508
 31
0.0
  0
INSERT
  5
1680
330
28B7
100
AcDbEntity
  8
SIZE
 62
     0
100
AcDbBlockReference
  2
_DOTBLANK
 10
-140.0
 20
116.4516878685508
 30
0.0
 41
12.0
 42
12.0
 43
12.0
 50
180.0
  0
INSERT
  5
1681
330
28B7
100
AcDbEntity
  8
SIZE
 62
     0
100
AcDbBlockReference
  2
_DOTBLANK
 10
140.0
 20
116.4516878685508
 30
0.0
 41
12.0
 42
12.0
 43
12.0
  0
INSERT
  5
1682
330
28B7
100
AcDbEntity
  8
0
100
AcDbBlockReference
  2
*U35
 10
0.0
 20
0.0
 30
0.0
  0
POINT
  5
1683
330
28B7
100
AcDbEntity
  8
DEFPOINTS
 62
     0
100
AcDbPoint
 10
-140.0
 20
12.46448280219374
 30
0.0
  0
POINT
  5
1684
330
28B7
100
AcDbEntity
  8
DEFPOINTS
 62
     0
100
AcDbPoint
 10
140.0
 20
12.46448280219374
 30
0.0
  0
POINT
  5
1685
330
28B7
100
AcDbEntity
  8
DEFPOINTS
 62
     0
100
AcDbPoint
 10
140.0
 20
116.4516878685508
 30
0.0
  0
ENDBLK
  5
14BF
330
28B7
100
AcDbEntity
  8
0
100
AcDbBlockEnd
  0
BLOCK
  5
28BA
330
28B9
100
AcDbEntity
  8
0
100
AcDbBlockBegin
  2
*U35
 70
     1
 10
0.0
 20
0.0
 30
0.0
  3
*U35
  1

  0
TEXT
  5
1F11
330
28B9
100
AcDbEntity
  8
SIZE
 62
     0
100
AcDbText
 10
-74.05714285714283
 20
126.4516878685507
 30
0.0
 40
64.0
  1
280
 41
0.9
100
AcDbText
  0
ENDBLK
  5
1F13
330
28B9
100
AcDbEntity
  8
0
100
AcDbBlockEnd
  0
BLOCK
  5
28BC
330
28BB
100
AcDbEntity
  8
0
100
AcDbBlockBegin
  2
*D36
 70
     1
 10
0.0
 20
0.0
 30
0.0
  3
*D36
  1

  0
LINE
  5
1686
330
28BB
100
AcDbEntity
  8
SIZE
 62
     0
100
AcDbLine
 10
-157.5
 20
20.0
 30
0.0
 11
-157.5
 21
245.5794621189598
 31
0.0
  0
LINE
  5
1687
330
28BB
100
AcDbEntity
  8
SIZE
 62
     0
100
AcDbLine
 10
157.5
 20
20.0
 30
0.0
 11
157.5
 21
245.5794621189598
 31
0.0
  0
LINE
  5
1688
330
28BB
100
AcDbEntity
  8
SIZE
 62
     0
100
AcDbLine
 10
-145.5
 20
225.5794621189598
 30
0.0
 11
145.5
 21
225.5794621189598
 31
0.0
  0
INSERT
  5
1689
330
28BB
100
AcDbEntity
  8
SIZE
 62
     0
100
AcDbBlockReference
  2
_DOTBLANK
 10
-157.5
 20
225.5794621189598
 30
0.0
 41
12.0
 42
12.0
 43
12.0
 50
180.0
  0
INSERT
  5
168A
330
28BB
100
AcDbEntity
  8
SIZE
 62
     0
100
AcDbBlockReference
  2
_DOTBLANK
 10
157.5
 20
225.5794621189598
 30
0.0
 41
12.0
 42
12.0
 43
12.0
  0
INSERT
  5
168B
330
28BB
100
AcDbEntity
  8
0
100
AcDbBlockReference
  2
*U37
 10
0.0
 20
0.0
 30
0.0
  0
POINT
  5
168C
330
28BB
100
AcDbEntity
  8
DEFPOINTS
 62
     0
100
AcDbPoint
 10
-157.5
 20
0.0
 30
0.0
  0
POINT
  5
168D
330
28BB
100
AcDbEntity
  8
DEFPOINTS
 62
     0
100
AcDbPoint
 10
157.5
 20
0.0
 30
0.0
  0
POINT
  5
168E
330
28BB
100
AcDbEntity
  8
DEFPOINTS
 62
     0
100
AcDbPoint
 10
157.5
 20
225.5794621189598
 30
0.0
  0
ENDBLK
  5
14CB
330
28BB
100
AcDbEntity
  8
0
100
AcDbBlockEnd
  0
BLOCK
  5
28BE
330
28BD
100
AcDbEntity
  8
0
100
AcDbBlockBegin
  2
*U37
 70
     1
 10
0.0
 20
0.0
 30
0.0
  3
*U37
  1

  0
TEXT
  5
1F15
330
28BD
100
AcDbEntity
  8
SIZE
 62
     0
100
AcDbText
 10
-68.57142857142857
 20
235.5794621189598
 30
0.0
 40
64.0
  1
315
 41
0.9
100
AcDbText
  0
ENDBLK
  5
1F17
330
28BD
100
AcDbEntity
  8
0
100
AcDbBlockEnd
  0
BLOCK
  5
28C0
330
28BF
100
AcDbEntity
  8
0
100
AcDbBlockBegin
  2
*U38
 70
     1
 10
0.0
 20
0.0
 30
0.0
  3
*U38
  1

  0
ENDBLK
  5
15CF
330
28BF
100
AcDbEntity
  8
0
100
AcDbBlockEnd
  0
BLOCK
  5
28C2
330
28C1
100
AcDbEntity
  8
0
100
AcDbBlockBegin
  2
*D39
 70
     1
 10
0.0
 20
0.0
 30
0.0
  3
*D39
  1

  0
LINE
  5
1692
330
28C1
100
AcDbEntity
  8
SIZE
 62
     0
100
AcDbLine
 10
-25844.51823276502
 20
7685.702971374808
 30
0.0
 11
-25981.04465488371
 21
7685.702971374808
 31
0.0
  0
LINE
  5
1693
330
28C1
100
AcDbEntity
  8
SIZE
 62
     0
100
AcDbLine
 10
-25844.51823276502
 20
7677.702971374808
 30
0.0
 11
-25981.04465488371
 21
7677.702971374808
 31
0.0
  0
LINE
  5
1694
330
28C1
100
AcDbEntity
  8
SIZE
 62
     0
100
AcDbLine
 10
-25961.04465488371
 20
7697.702971374808
 30
0.0
 11
-25961.04465488371
 21
7709.702971374809
 31
0.0
  0
LINE
  5
1695
330
28C1
100
AcDbEntity
  8
SIZE
 62
     0
100
AcDbLine
 10
-25961.04465488371
 20
7665.70297137481
 30
0.0
 11
-25961.04465488371
 21
7595.302971374808
 31
0.0
  0
INSERT
  5
1696
330
28C1
100
AcDbEntity
  8
SIZE
 62
     0
100
AcDbBlockReference
  2
_DOTBLANK
 10
-25961.04465488371
 20
7685.702971374808
 30
0.0
 41
12.0
 42
12.0
 43
12.0
 50
270.0
  0
INSERT
  5
1697
330
28C1
100
AcDbEntity
  8
SIZE
 62
     0
100
AcDbBlockReference
  2
_DOTBLANK
 10
-25961.04465488371
 20
7677.702971374808
 30
0.0
 41
12.0
 42
12.0
 43
12.0
 50
90.0
  0
INSERT
  5
1698
330
28C1
100
AcDbEntity
  8
0
100
AcDbBlockReference
  2
*U40
 10
0.0
 20
0.0
 30
0.0
  0
POINT
  5
1699
330
28C1
100
AcDbEntity
  8
DEFPOINTS
 62
     0
100
AcDbPoint
 10
-25824.51823276501
 20
7685.702971374808
 30
0.0
  0
POINT
  5
169A
330
28C1
100
AcDbEntity
  8
DEFPOINTS
 62
     0
100
AcDbPoint
 10
-25824.51823276501
 20
7677.702971374808
 30
0.0
  0
POINT
  5
169B
330
28C1
100
AcDbEntity
  8
DEFPOINTS
 62
     0
100
AcDbPoint
 10
-25961.04465488371
 20
7677.702971374808
 30
0.0
  0
ENDBLK
  5
169C
330
28C1
100
AcDbEntity
  8
0
100
AcDbBlockEnd
  0
BLOCK
  5
28C4
330
28C3
100
AcDbEntity
  8
0
100
AcDbBlockBegin
  2
*U40
 70
     1
 10
0.0
 20
0.0
 30
0.0
  3
*U40
  1

  0
TEXT
  5
1F19
330
28C3
100
AcDbEntity
  8
SIZE
 62
     0
100
AcDbText
 10
-25971.04465488371
 20
7605.302971374804
 30
0.0
 40
64.0
  1
8
 50
90.0
 41
0.9
100
AcDbText
  0
ENDBLK
  5
1F1B
330
28C3
100
AcDbEntity
  8
0
100
AcDbBlockEnd
  0
BLOCK
  5
28C6
330
28C5
100
AcDbEntity
  8
0
100
AcDbBlockBegin
  2
*D41
 70
     1
 10
0.0
 20
0.0
 30
0.0
  3
*D41
  1

  0
LINE
  5
169F
330
28C5
100
AcDbEntity
  8
SIZE
 62
     0
100
AcDbLine
 10
-25512.51823276502
 20
7385.702971374808
 30
0.0
 11
-25362.37494828464
 21
7385.702971374808
 31
0.0
  0
LINE
  5
16A0
330
28C5
100
AcDbEntity
  8
SIZE
 62
     0
100
AcDbLine
 10
-25523.51823276501
 20
7373.702971374808
 30
0.0
 11
-25362.37494828464
 21
7373.702971374808
 31
0.0
  0
LINE
  5
16A1
330
28C5
100
AcDbEntity
  8
SIZE
 62
     0
100
AcDbLine
 10
-25382.37494828464
 20
7397.702971374808
 30
0.0
 11
-25382.37494828464
 21
7409.70297137481
 31
0.0
  0
LINE
  5
16A2
330
28C5
100
AcDbEntity
  8
SIZE
 62
     0
100
AcDbLine
 10
-25382.37494828464
 20
7361.702971374808
 30
0.0
 11
-25382.37494828464
 21
7244.674399946237
 31
0.0
  0
INSERT
  5
16A3
330
28C5
100
AcDbEntity
  8
SIZE
 62
     0
100
AcDbBlockReference
  2
_DOTBLANK
 10
-25382.37494828464
 20
7385.702971374808
 30
0.0
 41
12.0
 42
12.0
 43
12.0
 50
270.0
  0
INSERT
  5
16A4
330
28C5
100
AcDbEntity
  8
SIZE
 62
     0
100
AcDbBlockReference
  2
_DOTBLANK
 10
-25382.37494828464
 20
7373.702971374808
 30
0.0
 41
12.0
 42
12.0
 43
12.0
 50
90.0
  0
INSERT
  5
16A5
330
28C5
100
AcDbEntity
  8
0
100
AcDbBlockReference
  2
*U42
 10
0.0
 20
0.0
 30
0.0
  0
POINT
  5
16A6
330
28C5
100
AcDbEntity
  8
DEFPOINTS
 62
     0
100
AcDbPoint
 10
-25532.51823276502
 20
7385.702971374808
 30
0.0
  0
POINT
  5
16A7
330
28C5
100
AcDbEntity
  8
DEFPOINTS
 62
     0
100
AcDbPoint
 10
-25543.51823276502
 20
7373.702971374808
 30
0.0
  0
POINT
  5
16A8
330
28C5
100
AcDbEntity
  8
DEFPOINTS
 62
     0
100
AcDbPoint
 10
-25382.37494828464
 20
7373.702971374808
 30
0.0
  0
ENDBLK
  5
16A9
330
28C5
100
AcDbEntity
  8
0
100
AcDbBlockEnd
  0
BLOCK
  5
28C8
330
28C7
100
AcDbEntity
  8
0
100
AcDbBlockBegin
  2
*U42
 70
     1
 10
0.0
 20
0.0
 30
0.0
  3
*U42
  1

  0
TEXT
  5
1F1D
330
28C7
100
AcDbEntity
  8
SIZE
 62
     0
100
AcDbText
 10
-25392.37494828464
 20
7256.045828517662
 30
0.0
 40
64.0
  1
12
 50
90.0
 41
0.9
100
AcDbText
  0
ENDBLK
  5
1F1F
330
28C7
100
AcDbEntity
  8
0
100
AcDbBlockEnd
  0
BLOCK
  5
28CA
330
28C9
100
AcDbEntity
  8
0
100
AcDbBlockBegin
  2
*D43
 70
     1
 10
0.0
 20
0.0
 30
0.0
  3
*D43
  1

  0
LINE
  5
16AC
330
28C9
100
AcDbEntity
  8
SIZE
 62
     0
100
AcDbLine
 10
-25801.51823276501
 20
7365.702971374808
 30
0.0
 11
-25801.51823276501
 21
7217.685576144207
 31
0.0
  0
LINE
  5
16AD
330
28C9
100
AcDbEntity
  8
SIZE
 62
     0
100
AcDbLine
 10
-25532.51823276502
 20
7365.702971374808
 30
0.0
 11
-25532.51823276502
 21
7217.685576144207
 31
0.0
  0
LINE
  5
16AE
330
28C9
100
AcDbEntity
  8
SIZE
 62
     0
100
AcDbLine
 10
-25789.51823276502
 20
7237.685576144207
 30
0.0
 11
-25544.51823276501
 21
7237.685576144207
 31
0.0
  0
INSERT
  5
16AF
330
28C9
100
AcDbEntity
  8
SIZE
 62
     0
100
AcDbBlockReference
  2
_DOTBLANK
 10
-25801.51823276501
 20
7237.685576144207
 30
0.0
 41
12.0
 42
12.0
 43
12.0
 50
180.0
  0
INSERT
  5
16B0
330
28C9
100
AcDbEntity
  8
SIZE
 62
     0
100
AcDbBlockReference
  2
_DOTBLANK
 10
-25532.51823276502
 20
7237.685576144207
 30
0.0
 41
12.0
 42
12.0
 43
12.0
  0
INSERT
  5
16B1
330
28C9
100
AcDbEntity
  8
0
100
AcDbBlockReference
  2
*U44
 10
0.0
 20
0.0
 30
0.0
  0
POINT
  5
16B2
330
28C9
100
AcDbEntity
  8
DEFPOINTS
 62
     0
100
AcDbPoint
 10
-25801.51823276501
 20
7385.702971374808
 30
0.0
  0
POINT
  5
16B3
330
28C9
100
AcDbEntity
  8
DEFPOINTS
 62
     0
100
AcDbPoint
 10
-25532.51823276502
 20
7385.702971374808
 30
0.0
  0
POINT
  5
16B4
330
28C9
100
AcDbEntity
  8
DEFPOINTS
 62
     0
100
AcDbPoint
 10
-25532.51823276502
 20
7237.685576144207
 30
0.0
  0
ENDBLK
  5
16B5
330
28C9
100
AcDbEntity
  8
0
100
AcDbBlockEnd
  0
BLOCK
  5
28CC
330
28CB
100
AcDbEntity
  8
0
100
AcDbBlockBegin
  2
*U44
 70
     1
 10
0.0
 20
0.0
 30
0.0
  3
*U44
  1

  0
TEXT
  5
1F21
330
28CB
100
AcDbEntity
  8
SIZE
 62
     0
100
AcDbText
 10
-25739.70394705074
 20
7247.685576144205
 30
0.0
 40
64.0
  1
269
 41
0.9
100
AcDbText
  0
ENDBLK
  5
1F23
330
28CB
100
AcDbEntity
  8
0
100
AcDbBlockEnd
  0
BLOCK
  5
28CE
330
28CD
100
AcDbEntity
  8
0
100
AcDbBlockBegin
  2
*D45
 70
     1
 10
0.0
 20
0.0
 30
0.0
  3
*D45
  1

  0
LINE
  5
16B8
330
28CD
100
AcDbEntity
  8
SIZE
 62
     0
100
AcDbLine
 10
-25512.51823276502
 20
7385.702971374808
 30
0.0
 11
-25362.37494828464
 21
7385.702971374808
 31
0.0
  0
LINE
  5
16B9
330
28CD
100
AcDbEntity
  8
SIZE
 62
     0
100
AcDbLine
 10
-25489.51823276501
 20
7685.702971374808
 30
0.0
 11
-25362.37494828464
 21
7685.702971374808
 31
0.0
  0
LINE
  5
16BA
330
28CD
100
AcDbEntity
  8
SIZE
 62
     0
100
AcDbLine
 10
-25382.37494828464
 20
7397.702971374808
 30
0.0
 11
-25382.37494828464
 21
7673.702971374808
 31
0.0
  0
INSERT
  5
16BB
330
28CD
100
AcDbEntity
  8
SIZE
 62
     0
100
AcDbBlockReference
  2
_DOTBLANK
 10
-25382.37494828464
 20
7385.702971374808
 30
0.0
 41
12.0
 42
12.0
 43
12.0
 50
270.0
  0
INSERT
  5
16BC
330
28CD
100
AcDbEntity
  8
SIZE
 62
     0
100
AcDbBlockReference
  2
_DOTBLANK
 10
-25382.37494828464
 20
7685.702971374808
 30
0.0
 41
12.0
 42
12.0
 43
12.0
 50
90.0
  0
INSERT
  5
16BD
330
28CD
100
AcDbEntity
  8
0
100
AcDbBlockReference
  2
*U46
 10
0.0
 20
0.0
 30
0.0
  0
POINT
  5
16BE
330
28CD
100
AcDbEntity
  8
DEFPOINTS
 62
     0
100
AcDbPoint
 10
-25532.51823276502
 20
7385.702971374808
 30
0.0
  0
POINT
  5
16BF
330
28CD
100
AcDbEntity
  8
DEFPOINTS
 62
     0
100
AcDbPoint
 10
-25509.51823276502
 20
7685.702971374808
 30
0.0
  0
POINT
  5
16C0
330
28CD
100
AcDbEntity
  8
DEFPOINTS
 62
     0
100
AcDbPoint
 10
-25382.37494828464
 20
7685.702971374808
 30
0.0
  0
ENDBLK
  5
16C1
330
28CD
100
AcDbEntity
  8
0
100
AcDbBlockEnd
  0
BLOCK
  5
28D0
330
28CF
100
AcDbEntity
  8
0
100
AcDbBlockBegin
  2
*U46
 70
     1
 10
0.0
 20
0.0
 30
0.0
  3
*U46
  1

  0
TEXT
  5
1F25
330
28CF
100
AcDbEntity
  8
SIZE
 62
     0
100
AcDbText
 10
-25392.37494828464
 20
7461.645828517662
 30
0.0
 40
64.0
  1
300
 50
90.0
 41
0.9
100
AcDbText
  0
ENDBLK
  5
1F27
330
28CF
100
AcDbEntity
  8
0
100
AcDbBlockEnd
  0
BLOCK
  5
28D2
330
28D1
100
AcDbEntity
  8
0
100
AcDbBlockBegin
  2
*D47
 70
     1
 10
0.0
 20
0.0
 30
0.0
  3
*D47
  1

  0
LINE
  5
16C4
330
28D1
100
AcDbEntity
  8
SIZE
 62
     0
100
AcDbLine
 10
-25807.01823276501
 20
7718.167454177002
 30
0.0
 11
-25807.01823276501
 21
7822.154659243358
 31
0.0
  0
LINE
  5
16C5
330
28D1
100
AcDbEntity
  8
SIZE
 62
     0
100
AcDbLine
 10
-25527.01823276501
 20
7718.167454177002
 30
0.0
 11
-25527.01823276501
 21
7822.154659243358
 31
0.0
  0
LINE
  5
16C6
330
28D1
100
AcDbEntity
  8
SIZE
 62
     0
100
AcDbLine
 10
-25795.01823276502
 20
7802.154659243358
 30
0.0
 11
-25539.01823276501
 21
7802.154659243358
 31
0.0
  0
INSERT
  5
16C7
330
28D1
100
AcDbEntity
  8
SIZE
 62
     0
100
AcDbBlockReference
  2
_DOTBLANK
 10
-25807.01823276501
 20
7802.154659243358
 30
0.0
 41
12.0
 42
12.0
 43
12.0
 50
180.0
  0
INSERT
  5
16C8
330
28D1
100
AcDbEntity
  8
SIZE
 62
     0
100
AcDbBlockReference
  2
_DOTBLANK
 10
-25527.01823276501
 20
7802.154659243358
 30
0.0
 41
12.0
 42
12.0
 43
12.0
  0
INSERT
  5
16C9
330
28D1
100
AcDbEntity
  8
0
100
AcDbBlockReference
  2
*U48
 10
0.0
 20
0.0
 30
0.0
  0
POINT
  5
16CA
330
28D1
100
AcDbEntity
  8
DEFPOINTS
 62
     0
100
AcDbPoint
 10
-25807.01823276501
 20
7698.167454177002
 30
0.0
  0
POINT
  5
16CB
330
28D1
100
AcDbEntity
  8
DEFPOINTS
 62
     0
100
AcDbPoint
 10
-25527.01823276501
 20
7698.167454177002
 30
0.0
  0
POINT
  5
16CC
330
28D1
100
AcDbEntity
  8
DEFPOINTS
 62
     0
100
AcDbPoint
 10
-25527.01823276501
 20
7802.154659243358
 30
0.0
  0
ENDBLK
  5
16CD
330
28D1
100
AcDbEntity
  8
0
100
AcDbBlockEnd
  0
BLOCK
  5
28D4
330
28D3
100
AcDbEntity
  8
0
100
AcDbBlockBegin
  2
*U48
 70
     1
 10
0.0
 20
0.0
 30
0.0
  3
*U48
  1

  0
TEXT
  5
1F29
330
28D3
100
AcDbEntity
  8
SIZE
 62
     0
100
AcDbText
 10
-25741.07537562216
 20
7812.154659243358
 30
0.0
 40
64.0
  1
280
 41
0.9
100
AcDbText
  0
ENDBLK
  5
1F2B
330
28D3
100
AcDbEntity
  8
0
100
AcDbBlockEnd
  0
BLOCK
  5
28D6
330
28D5
100
AcDbEntity
  8
0
100
AcDbBlockBegin
  2
*D49
 70
     1
 10
0.0
 20
0.0
 30
0.0
  3
*D49
  1

  0
LINE
  5
16D0
330
28D5
100
AcDbEntity
  8
SIZE
 62
     0
100
AcDbLine
 10
-25824.51823276501
 20
7705.702971374808
 30
0.0
 11
-25824.51823276501
 21
7931.282433493766
 31
0.0
  0
LINE
  5
16D1
330
28D5
100
AcDbEntity
  8
SIZE
 62
     0
100
AcDbLine
 10
-25509.51823276502
 20
7705.702971374808
 30
0.0
 11
-25509.51823276502
 21
7931.282433493766
 31
0.0
  0
LINE
  5
16D2
330
28D5
100
AcDbEntity
  8
SIZE
 62
     0
100
AcDbLine
 10
-25812.51823276502
 20
7911.282433493766
 30
0.0
 11
-25521.51823276501
 21
7911.282433493766
 31
0.0
  0
INSERT
  5
16D3
330
28D5
100
AcDbEntity
  8
SIZE
 62
     0
100
AcDbBlockReference
  2
_DOTBLANK
 10
-25824.51823276501
 20
7911.282433493766
 30
0.0
 41
12.0
 42
12.0
 43
12.0
 50
180.0
  0
INSERT
  5
16D4
330
28D5
100
AcDbEntity
  8
SIZE
 62
     0
100
AcDbBlockReference
  2
_DOTBLANK
 10
-25509.51823276502
 20
7911.282433493766
 30
0.0
 41
12.0
 42
12.0
 43
12.0
  0
INSERT
  5
16D5
330
28D5
100
AcDbEntity
  8
0
100
AcDbBlockReference
  2
*U50
 10
0.0
 20
0.0
 30
0.0
  0
POINT
  5
16D6
330
28D5
100
AcDbEntity
  8
DEFPOINTS
 62
     0
100
AcDbPoint
 10
-25824.51823276501
 20
7685.702971374808
 30
0.0
  0
POINT
  5
16D7
330
28D5
100
AcDbEntity
  8
DEFPOINTS
 62
     0
100
AcDbPoint
 10
-25509.51823276502
 20
7685.702971374808
 30
0.0
  0
POINT
  5
16D8
330
28D5
100
AcDbEntity
  8
DEFPOINTS
 62
     0
100
AcDbPoint
 10
-25509.51823276502
 20
7911.282433493766
 30
0.0
  0
ENDBLK
  5
16D9
330
28D5
100
AcDbEntity
  8
0
100
AcDbBlockEnd
  0
BLOCK
  5
28D8
330
28D7
100
AcDbEntity
  8
0
100
AcDbBlockBegin
  2
*U50
 70
     1
 10
0.0
 20
0.0
 30
0.0
  3
*U50
  1

  0
TEXT
  5
1F2D
330
28D7
100
AcDbEntity
  8
SIZE
 62
     0
100
AcDbText
 10
-25735.58966133645
 20
7921.282433493766
 30
0.0
 40
64.0
  1
315
 41
0.9
100
AcDbText
  0
ENDBLK
  5
1F2F
330
28D7
100
AcDbEntity
  8
0
100
AcDbBlockEnd
  0
BLOCK
  5
28DA
330
28D9
100
AcDbEntity
  8
0
100
AcDbBlockBegin
  2
*D51
 70
     1
 10
0.0
 20
0.0
 30
0.0
  3
*D51
  1

  0
LINE
  5
1D83
330
28D9
100
AcDbEntity
  8
SIZE
 62
     0
100
AcDbLine
 10
-134.5
 20
-320.0
 30
0.0
 11
-134.5
 21
-468.0173952306001
 31
0.0
  0
LINE
  5
1D84
330
28D9
100
AcDbEntity
  8
SIZE
 62
     0
100
AcDbLine
 10
134.5
 20
-320.0
 30
0.0
 11
134.5
 21
-468.0173952306001
 31
0.0
  0
LINE
  5
1D85
330
28D9
100
AcDbEntity
  8
SIZE
 62
     0
100
AcDbLine
 10
-122.5
 20
-448.0173952306
 30
0.0
 11
122.5
 21
-448.0173952306
 31
0.0
  0
INSERT
  5
1D86
330
28D9
100
AcDbEntity
  8
SIZE
 62
     0
100
AcDbBlockReference
  2
_DOTBLANK
 10
-134.5
 20
-448.0173952306
 30
0.0
 41
12.0
 42
12.0
 43
12.0
 50
180.0
  0
INSERT
  5
1D87
330
28D9
100
AcDbEntity
  8
SIZE
 62
     0
100
AcDbBlockReference
  2
_DOTBLANK
 10
134.5
 20
-448.0173952306
 30
0.0
 41
12.0
 42
12.0
 43
12.0
  0
INSERT
  5
1D88
330
28D9
100
AcDbEntity
  8
0
100
AcDbBlockReference
  2
*U52
 10
0.0
 20
0.0
 30
0.0
  0
POINT
  5
1D89
330
28D9
100
AcDbEntity
  8
DEFPOINTS
 62
     0
100
AcDbPoint
 10
-134.5
 20
-300.0
 30
0.0
  0
POINT
  5
1D8A
330
28D9
100
AcDbEntity
  8
DEFPOINTS
 62
     0
100
AcDbPoint
 10
134.5
 20
-300.0
 30
0.0
  0
POINT
  5
1D8B
330
28D9
100
AcDbEntity
  8
DEFPOINTS
 62
     0
100
AcDbPoint
 10
134.5
 20
-448.0173952306
 30
0.0
  0
ENDBLK
  5
173D
330
28D9
100
AcDbEntity
  8
0
100
AcDbBlockEnd
  0
BLOCK
  5
28DC
330
28DB
100
AcDbEntity
  8
0
100
AcDbBlockBegin
  2
*U52
 70
     1
 10
0.0
 20
0.0
 30
0.0
  3
*U52
  1

  0
TEXT
  5
1F31
330
28DB
100
AcDbEntity
  8
SIZE
 62
     0
100
AcDbText
 10
-72.68571428571426
 20
-438.0173952306003
 30
0.0
 40
64.0
  1
269
 41
0.9
100
AcDbText
  0
ENDBLK
  5
1F33
330
28DB
100
AcDbEntity
  8
0
100
AcDbBlockEnd
  0
BLOCK
  5
28DE
330
28DD
100
AcDbEntity
  8
0
100
AcDbBlockBegin
  2
*D53
 70
     1
 10
0.0
 20
0.0
 30
0.0
  3
*D53
  1

  0
LINE
  5
1D8C
330
28DD
100
AcDbEntity
  8
SIZE
 62
     0
100
AcDbLine
 10
154.5
 20
-300.0
 30
0.0
 11
304.6432844803784
 21
-300.0
 31
0.0
  0
LINE
  5
1D8D
330
28DD
100
AcDbEntity
  8
SIZE
 62
     0
100
AcDbLine
 10
177.5
 20
-0.0000000000000057
 30
0.0
 11
304.6432844803785
 21
-0.0000000000000417
 31
0.0
  0
LINE
  5
1D8E
330
28DD
100
AcDbEntity
  8
SIZE
 62
     0
100
AcDbLine
 10
284.6432844803784
 20
-288.0
 30
0.0
 11
284.6432844803785
 21
-12.00000000000003
 31
0.0
  0
INSERT
  5
1D8F
330
28DD
100
AcDbEntity
  8
SIZE
 62
     0
100
AcDbBlockReference
  2
_DOTBLANK
 10
284.6432844803784
 20
-300.0
 30
0.0
 41
12.0
 42
12.0
 43
12.0
 50
270.0
  0
INSERT
  5
1D90
330
28DD
100
AcDbEntity
  8
SIZE
 62
     0
100
AcDbBlockReference
  2
_DOTBLANK
 10
284.6432844803785
 20
-0.000000000000036
 30
0.0
 41
12.0
 42
12.0
 43
12.0
 50
90.0
  0
INSERT
  5
1D91
330
28DD
100
AcDbEntity
  8
0
100
AcDbBlockReference
  2
*U54
 10
0.0
 20
0.0
 30
0.0
  0
POINT
  5
1D92
330
28DD
100
AcDbEntity
  8
DEFPOINTS
 62
     0
100
AcDbPoint
 10
134.5
 20
-300.0
 30
0.0
  0
POINT
  5
1D93
330
28DD
100
AcDbEntity
  8
DEFPOINTS
 62
     0
100
AcDbPoint
 10
157.5
 20
0.0
 30
0.0
  0
POINT
  5
1D94
330
28DD
100
AcDbEntity
  8
DEFPOINTS
 62
     0
100
AcDbPoint
 10
284.6432844803785
 20
-0.000000000000036
 30
0.0
  0
ENDBLK
  5
1749
330
28DD
100
AcDbEntity
  8
0
100
AcDbBlockEnd
  0
BLOCK
  5
28E0
330
28DF
100
AcDbEntity
  8
0
100
AcDbBlockBegin
  2
*U54
 70
     1
 10
0.0
 20
0.0
 30
0.0
  3
*U54
  1

  0
TEXT
  5
1F35
330
28DF
100
AcDbEntity
  8
SIZE
 62
     0
100
AcDbText
 10
274.6432844803785
 20
-224.0571428571429
 30
0.0
 40
64.0
  1
300
 50
90.0
 41
0.9
100
AcDbText
  0
ENDBLK
  5
1F37
330
28DF
100
AcDbEntity
  8
0
100
AcDbBlockEnd
  0
BLOCK
  5
28E2
330
28E1
100
AcDbEntity
  8
0
100
AcDbBlockBegin
  2
*D55
 70
     1
 10
0.0
 20
0.0
 30
0.0
  3
*D55
  1

  0
LINE
  5
1D95
330
28E1
100
AcDbEntity
  8
SIZE
 62
     0
100
AcDbLine
 10
-140.0
 20
32.46448280219375
 30
0.0
 11
-140.0
 21
136.4516878685508
 31
0.0
  0
LINE
  5
1D96
330
28E1
100
AcDbEntity
  8
SIZE
 62
     0
100
AcDbLine
 10
140.0
 20
32.46448280219375
 30
0.0
 11
140.0
 21
136.4516878685508
 31
0.0
  0
LINE
  5
1D97
330
28E1
100
AcDbEntity
  8
SIZE
 62
     0
100
AcDbLine
 10
-128.0
 20
116.4516878685508
 30
0.0
 11
128.0
 21
116.4516878685508
 31
0.0
  0
INSERT
  5
1D98
330
28E1
100
AcDbEntity
  8
SIZE
 62
     0
100
AcDbBlockReference
  2
_DOTBLANK
 10
-140.0
 20
116.4516878685508
 30
0.0
 41
12.0
 42
12.0
 43
12.0
 50
180.0
  0
INSERT
  5
1D99
330
28E1
100
AcDbEntity
  8
SIZE
 62
     0
100
AcDbBlockReference
  2
_DOTBLANK
 10
140.0
 20
116.4516878685508
 30
0.0
 41
12.0
 42
12.0
 43
12.0
  0
INSERT
  5
1D9A
330
28E1
100
AcDbEntity
  8
0
100
AcDbBlockReference
  2
*U56
 10
0.0
 20
0.0
 30
0.0
  0
POINT
  5
1D9B
330
28E1
100
AcDbEntity
  8
DEFPOINTS
 62
     0
100
AcDbPoint
 10
-140.0
 20
12.46448280219374
 30
0.0
  0
POINT
  5
1D9C
330
28E1
100
AcDbEntity
  8
DEFPOINTS
 62
     0
100
AcDbPoint
 10
140.0
 20
12.46448280219374
 30
0.0
  0
POINT
  5
1D9D
330
28E1
100
AcDbEntity
  8
DEFPOINTS
 62
     0
100
AcDbPoint
 10
140.0
 20
116.4516878685508
 30
0.0
  0
ENDBLK
  5
1755
330
28E1
100
AcDbEntity
  8
0
100
AcDbBlockEnd
  0
BLOCK
  5
28E4
330
28E3
100
AcDbEntity
  8
0
100
AcDbBlockBegin
  2
*U56
 70
     1
 10
0.0
 20
0.0
 30
0.0
  3
*U56
  1

  0
TEXT
  5
1F39
330
28E3
100
AcDbEntity
  8
SIZE
 62
     0
100
AcDbText
 10
-74.05714285714283
 20
126.4516878685508
 30
0.0
 40
64.0
  1
280
 41
0.9
100
AcDbText
  0
ENDBLK
  5
1F3B
330
28E3
100
AcDbEntity
  8
0
100
AcDbBlockEnd
  0
BLOCK
  5
28E6
330
28E5
100
AcDbEntity
  8
0
100
AcDbBlockBegin
  2
*D57
 70
     1
 10
0.0
 20
0.0
 30
0.0
  3
*D57
  1

  0
LINE
  5
1D9E
330
28E5
100
AcDbEntity
  8
SIZE
 62
     0
100
AcDbLine
 10
-157.5
 20
20.0
 30
0.0
 11
-157.5
 21
245.5794621189598
 31
0.0
  0
LINE
  5
1D9F
330
28E5
100
AcDbEntity
  8
SIZE
 62
     0
100
AcDbLine
 10
157.5
 20
20.0
 30
0.0
 11
157.5
 21
245.5794621189598
 31
0.0
  0
LINE
  5
1DA0
330
28E5
100
AcDbEntity
  8
SIZE
 62
     0
100
AcDbLine
 10
-145.5
 20
225.5794621189598
 30
0.0
 11
145.5
 21
225.5794621189598
 31
0.0
  0
INSERT
  5
1DA1
330
28E5
100
AcDbEntity
  8
SIZE
 62
     0
100
AcDbBlockReference
  2
_DOTBLANK
 10
-157.5
 20
225.5794621189598
 30
0.0
 41
12.0
 42
12.0
 43
12.0
 50
180.0
  0
INSERT
  5
1DA2
330
28E5
100
AcDbEntity
  8
SIZE
 62
     0
100
AcDbBlockReference
  2
_DOTBLANK
 10
157.5
 20
225.5794621189598
 30
0.0
 41
12.0
 42
12.0
 43
12.0
  0
INSERT
  5
1DA3
330
28E5
100
AcDbEntity
  8
0
100
AcDbBlockReference
  2
*U58
 10
0.0
 20
0.0
 30
0.0
  0
POINT
  5
1DA4
330
28E5
100
AcDbEntity
  8
DEFPOINTS
 62
     0
100
AcDbPoint
 10
-157.5
 20
0.0
 30
0.0
  0
POINT
  5
1DA5
330
28E5
100
AcDbEntity
  8
DEFPOINTS
 62
     0
100
AcDbPoint
 10
157.5
 20
0.0
 30
0.0
  0
POINT
  5
1DA6
330
28E5
100
AcDbEntity
  8
DEFPOINTS
 62
     0
100
AcDbPoint
 10
157.5
 20
225.5794621189598
 30
0.0
  0
ENDBLK
  5
1761
330
28E5
100
AcDbEntity
  8
0
100
AcDbBlockEnd
  0
BLOCK
  5
28E8
330
28E7
100
AcDbEntity
  8
0
100
AcDbBlockBegin
  2
*U58
 70
     1
 10
0.0
 20
0.0
 30
0.0
  3
*U58
  1

  0
TEXT
  5
1F3D
330
28E7
100
AcDbEntity
  8
SIZE
 62
     0
100
AcDbText
 10
-68.57142857142857
 20
235.5794621189599
 30
0.0
 40
64.0
  1
315
 41
0.9
100
AcDbText
  0
ENDBLK
  5
1F3F
330
28E7
100
AcDbEntity
  8
0
100
AcDbBlockEnd
  0
BLOCK
  5
28EA
330
28E9
100
AcDbEntity
  8
0
100
AcDbBlockBegin
  2
*D59
 70
     1
 10
0.0
 20
0.0
 30
0.0
  3
*D59
  1

  0
LINE
  5
1DA7
330
28E9
100
AcDbEntity
  8
SIZE
 62
     0
100
AcDbLine
 10
-177.5
 20
0.0000000000000057
 30
0.0
 11
-314.0264221186908
 21
0.0000000000000443
 31
0.0
  0
LINE
  5
1DA8
330
28E9
100
AcDbEntity
  8
SIZE
 62
     0
100
AcDbLine
 10
-177.5
 20
-7.999999999999995
 30
0.0
 11
-314.0264221186908
 21
-7.999999999999957
 31
0.0
  0
LINE
  5
1DA9
330
28E9
100
AcDbEntity
  8
SIZE
 62
     0
100
AcDbLine
 10
-294.0264221186908
 20
12.00000000000003
 30
0.0
 11
-294.0264221186908
 21
24.00000000000004
 31
0.0
  0
LINE
  5
1DAA
330
28E9
100
AcDbEntity
  8
SIZE
 62
     0
100
AcDbLine
 10
-294.0264221186908
 20
-19.99999999999996
 30
0.0
 11
-294.0264221186908
 21
-90.39999999999997
 31
0.0
  0
INSERT
  5
1DAB
330
28E9
100
AcDbEntity
  8
SIZE
 62
     0
100
AcDbBlockReference
  2
_DOTBLANK
 10
-294.0264221186908
 20
0.0000000000000387
 30
0.0
 41
12.0
 42
12.0
 43
12.0
 50
270.0
  0
INSERT
  5
1DAC
330
28E9
100
AcDbEntity
  8
SIZE
 62
     0
100
AcDbBlockReference
  2
_DOTBLANK
 10
-294.0264221186908
 20
-7.999999999999959
 30
0.0
 41
12.0
 42
12.0
 43
12.0
 50
90.0
  0
INSERT
  5
1DAD
330
28E9
100
AcDbEntity
  8
0
100
AcDbBlockReference
  2
*U60
 10
0.0
 20
0.0
 30
0.0
  0
POINT
  5
1DAE
330
28E9
100
AcDbEntity
  8
DEFPOINTS
 62
     0
100
AcDbPoint
 10
-157.5
 20
0.0
 30
0.0
  0
POINT
  5
1DAF
330
28E9
100
AcDbEntity
  8
DEFPOINTS
 62
     0
100
AcDbPoint
 10
-157.5
 20
-8.000000000000001
 30
0.0
  0
POINT
  5
1DB0
330
28E9
100
AcDbEntity
  8
DEFPOINTS
 62
     0
100
AcDbPoint
 10
-294.0264221186908
 20
-7.999999999999959
 30
0.0
  0
ENDBLK
  5
176D
330
28E9
100
AcDbEntity
  8
0
100
AcDbBlockEnd
  0
BLOCK
  5
28EC
330
28EB
100
AcDbEntity
  8
0
100
AcDbBlockBegin
  2
*U60
 70
     1
 10
0.0
 20
0.0
 30
0.0
  3
*U60
  1

  0
TEXT
  5
1F41
330
28EB
100
AcDbEntity
  8
SIZE
 62
     0
100
AcDbText
 10
-304.0264221186908
 20
-80.4
 30
0.0
 40
64.0
  1
8
 50
90.0
 41
0.9
100
AcDbText
  0
ENDBLK
  5
1F43
330
28EB
100
AcDbEntity
  8
0
100
AcDbBlockEnd
  0
BLOCK
  5
28EE
330
28ED
100
AcDbEntity
  8
0
100
AcDbBlockBegin
  2
*D61
 70
     1
 10
0.0
 20
0.0
 30
0.0
  3
*D61
  1

  0
LINE
  5
1DB1
330
28ED
100
AcDbEntity
  8
SIZE
 62
     0
100
AcDbLine
 10
154.5
 20
-300.0
 30
0.0
 11
304.6432844803785
 21
-300.0
 31
0.0
  0
LINE
  5
1DB2
330
28ED
100
AcDbEntity
  8
SIZE
 62
     0
100
AcDbLine
 10
143.5
 20
-312.0
 30
0.0
 11
304.6432844803785
 21
-312.0
 31
0.0
  0
LINE
  5
1DB3
330
28ED
100
AcDbEntity
  8
SIZE
 62
     0
100
AcDbLine
 10
284.6432844803785
 20
-288.0
 30
0.0
 11
284.6432844803785
 21
-276.0
 31
0.0
  0
LINE
  5
1DB4
330
28ED
100
AcDbEntity
  8
SIZE
 62
     0
100
AcDbLine
 10
284.6432844803785
 20
-324.0000000000001
 30
0.0
 11
284.6432844803784
 21
-438.2857142857143
 31
0.0
  0
INSERT
  5
1DB5
330
28ED
100
AcDbEntity
  8
SIZE
 62
     0
100
AcDbBlockReference
  2
_DOTBLANK
 10
284.6432844803785
 20
-300.0
 30
0.0
 41
12.0
 42
12.0
 43
12.0
 50
270.0
  0
INSERT
  5
1DB6
330
28ED
100
AcDbEntity
  8
SIZE
 62
     0
100
AcDbBlockReference
  2
_DOTBLANK
 10
284.6432844803785
 20
-312.0
 30
0.0
 41
12.0
 42
12.0
 43
12.0
 50
90.0
  0
INSERT
  5
1DB7
330
28ED
100
AcDbEntity
  8
0
100
AcDbBlockReference
  2
*U62
 10
0.0
 20
0.0
 30
0.0
  0
POINT
  5
1DB8
330
28ED
100
AcDbEntity
  8
DEFPOINTS
 62
     0
100
AcDbPoint
 10
134.5
 20
-300.0
 30
0.0
  0
POINT
  5
1DB9
330
28ED
100
AcDbEntity
  8
DEFPOINTS
 62
     0
100
AcDbPoint
 10
123.5
 20
-312.0
 30
0.0
  0
POINT
  5
1DBA
330
28ED
100
AcDbEntity
  8
DEFPOINTS
 62
     0
100
AcDbPoint
 10
284.6432844803785
 20
-312.0
 30
0.0
  0
ENDBLK
  5
177B
330
28ED
100
AcDbEntity
  8
0
100
AcDbBlockEnd
  0
BLOCK
  5
28F0
330
28EF
100
AcDbEntity
  8
0
100
AcDbBlockBegin
  2
*U62
 70
     1
 10
0.0
 20
0.0
 30
0.0
  3
*U62
  1

  0
TEXT
  5
1F45
330
28EF
100
AcDbEntity
  8
SIZE
 62
     0
100
AcDbText
 10
274.6432844803785
 20
-428.2857142857142
 30
0.0
 40
64.0
  1
12
 50
90.0
 41
0.9
100
AcDbText
  0
ENDBLK
  5
1F47
330
28EF
100
AcDbEntity
  8
0
100
AcDbBlockEnd
  0
BLOCK
  5
28F2
330
28F1
100
AcDbEntity
  8
0
100
AcDbBlockBegin
  2
*U63
 70
     1
 10
0.0
 20
0.0
 30
0.0
  3
*U63
  1

  0
ENDBLK
  5
1D57
330
28F1
100
AcDbEntity
  8
0
100
AcDbBlockEnd
  0
BLOCK
  5
28F4
330
28F3
100
AcDbEntity
  8
0
100
AcDbBlockBegin
  2
*U64
 70
     1
 10
0.0
 20
0.0
 30
0.0
  3
*U64
  1

  0
INSERT
  5
2087
330
28F3
100
AcDbEntity
  8
NOTE
100
AcDbBlockReference
  2
_OPEN30
 10
-190.0
 20
0.0
 30
0.0
 41
12.0
 42
12.0
 43
12.0
 50
312.6090116116894
  0
LWPOLYLINE
  5
2088
330
28F3
100
AcDbEntity
  8
NOTE
100
AcDbPolyline
 90
        3
 70
     0
 43
0.0
 10
-198.1239008361895
 20
8.831887408915473
 10
-277.8693999922543
 20
95.5270950580134
 10
-826.4522571351115
 20
95.5270950580134
  0
ENDBLK
  5
2089
330
28F3
100
AcDbEntity
  8
0
100
AcDbBlockEnd
  0
BLOCK
  5
28F6
330
28F5
100
AcDbEntity
  8
0
100
AcDbBlockBegin
  2
*U65
 70
     1
 10
0.0
 20
0.0
 30
0.0
  3
*U65
  1

  0
TEXT
  5
208C
330
28F5
100
AcDbEntity
  8
NOTE
100
AcDbText
 10
-823.709399992254
 20
113.5270950580134
 30
0.0
 40
64.0
  1
4×φ10取付穴
 41
0.9
100
AcDbText
  0
ENDBLK
  5
208D
330
28F5
100
AcDbEntity
  8
0
100
AcDbBlockEnd
  0
BLOCK
  5
28F8
330
28F7
100
AcDbEntity
  8
0
100
AcDbBlockBegin
  2
*U66
 70
     1
 10
0.0
 20
0.0
 30
0.0
  3
*U66
  1

  0
INSERT
  5
216B
330
28F7
100
AcDbEntity
  8
NOTE
100
AcDbBlockReference
  2
_OPEN30
 10
190.0
 20
190.0
 30
0.0
 41
12.0
 42
12.0
 43
12.0
 50
230.7091310502217
  0
LWPOLYLINE
  5
216C
330
28F7
100
AcDbEntity
  8
NOTE
100
AcDbPolyline
 90
        3
 70
     0
 43
0.0
 10
197.599090480922
 20
199.2872936780721
 10
253.4345623698609
 20
267.5270950580134
 10
802.0174195127182
 20
267.5270950580134
  0
ENDBLK
  5
216D
330
28F7
100
AcDbEntity
  8
0
100
AcDbBlockEnd
  0
BLOCK
  5
28FA
330
28F9
100
AcDbEntity
  8
0
100
AcDbBlockBegin
  2
*U67
 70
     1
 10
0.0
 20
0.0
 30
0.0
  3
*U67
  1

  0
TEXT
  5
2170
330
28F9
100
AcDbEntity
  8
NOTE
100
AcDbText
 10
315.4345623698609
 20
285.5270950580134
 30
0.0
 40
64.0
  1
4×φ10取付穴
 41
0.9
100
AcDbText
  0
ENDBLK
  5
2171
330
28F9
100
AcDbEntity
  8
0
100
AcDbBlockEnd
  0
BLOCK
  5
28FC
330
28FB
100
AcDbEntity
  8
0
100
AcDbBlockBegin
  2
*U68
 70
     1
 10
0.0
 20
0.0
 30
0.0
  3
*U68
  1

  0
INSERT
  5
224B
330
28FB
100
AcDbEntity
  8
NOTE
100
AcDbBlockReference
  2
_OPEN30
 10
190.0
 20
190.0
 30
0.0
 41
12.0
 42
12.0
 43
12.0
 50
232.3258907693334
  0
LWPOLYLINE
  5
224C
330
28FB
100
AcDbEntity
  8
NOTE
100
AcDbPolyline
 90
        3
 70
     0
 43
0.0
 10
197.3340332839448
 20
199.4979974620964
 10
263.7628007872081
 20
285.5270950580125
 10
809.6028007872082
 20
285.5270950580125
  0
ENDBLK
  5
224D
330
28FB
100
AcDbEntity
  8
0
100
AcDbBlockEnd
  0
BLOCK
  5
28FE
330
28FD
100
AcDbEntity
  8
0
100
AcDbBlockBegin
  2
*U69
 70
     1
 10
0.0
 20
0.0
 30
0.0
  3
*U69
  1

  0
TEXT
  5
2250
330
28FD
100
AcDbEntity
  8
NOTE
100
AcDbText
 10
325.7628007872083
 20
303.5270950580125
 30
0.0
 40
64.0
  1
4×φ10取付穴
 41
0.9
100
AcDbText
  0
ENDBLK
  5
2251
330
28FD
100
AcDbEntity
  8
0
100
AcDbBlockEnd
  0
BLOCK
  5
2900
330
28FF
100
AcDbEntity
  8
0
100
AcDbBlockBegin
  2
*U70
 70
     1
 10
0.0
 20
0.0
 30
0.0
  3
*U70
  1

  0
INSERT
  5
2347
330
28FF
100
AcDbEntity
  8
NOTE
100
AcDbBlockReference
  2
_OPEN30
 10
0.0
 20
190.0
 30
0.0
 41
12.0
 42
12.0
 43
12.0
 50
312.6090116116895
  0
LWPOLYLINE
  5
2348
330
28FF
100
AcDbEntity
  8
NOTE
100
AcDbPolyline
 90
        3
 70
     0
 43
0.0
 10
-8.123900836189513
 20
198.8318874089154
 10
-87.86939999225436
 20
285.527095058013
 10
-633.7093999922545
 20
285.527095058013
  0
ENDBLK
  5
2349
330
28FF
100
AcDbEntity
  8
0
100
AcDbBlockEnd
  0
BLOCK
  5
2902
330
2901
100
AcDbEntity
  8
0
100
AcDbBlockBegin
  2
*U71
 70
     1
 10
0.0
 20
0.0
 30
0.0
  3
*U71
  1

  0
TEXT
  5
234C
330
2901
100
AcDbEntity
  8
NOTE
100
AcDbText
 10
-633.7093999922545
 20
303.5270950580129
 30
0.0
 40
64.0
  1
4×φ10取付穴
 41
0.9
100
AcDbText
  0
ENDBLK
  5
234D
330
2901
100
AcDbEntity
  8
0
100
AcDbBlockEnd
  0
BLOCK
  5
2904
330
2903
100
AcDbEntity
  8
0
100
AcDbBlockBegin
  2
*U72
 70
     1
 10
0.0
 20
0.0
 30
0.0
  3
*U72
  1

  0
INSERT
  5
248F
330
2903
100
AcDbEntity
  8
NOTE
100
AcDbBlockReference
  2
_OPEN30
 10
0.0
 20
190.0
 30
0.0
 41
12.0
 42
12.0
 43
12.0
 50
227.3909883883105
  0
LWPOLYLINE
  5
2490
330
2903
100
AcDbEntity
  8
NOTE
100
AcDbPolyline
 90
        3
 70
     0
 43
0.0
 10
8.123900836189513
 20
198.8318874089154
 10
87.86939999225436
 20
285.527095058013
 10
633.7093999922545
 20
285.527095058013
  0
ENDBLK
  5
2491
330
2903
100
AcDbEntity
  8
0
100
AcDbBlockEnd
  0
BLOCK
  5
2906
330
2905
100
AcDbEntity
  8
0
100
AcDbBlockBegin
  2
*U73
 70
     1
 10
0.0
 20
0.0
 30
0.0
  3
*U73
  1

  0
TEXT
  5
2494
330
2905
100
AcDbEntity
  8
NOTE
100
AcDbText
 10
149.8693999922543
 20
303.5270950580129
 30
0.0
 40
64.0
  1
4×φ10取付穴
 41
0.9
100
AcDbText
  0
ENDBLK
  5
2495
330
2905
100
AcDbEntity
  8
0
100
AcDbBlockEnd
  0
BLOCK
  5
2908
330
2907
100
AcDbEntity
  8
0
100
AcDbBlockBegin
  2
*U74
 70
     1
 10
0.0
 20
0.0
 30
0.0
  3
*U74
  1

  0
INSERT
  5
25E4
330
2907
100
AcDbEntity
  8
NOTE
100
AcDbBlockReference
  2
_OPEN30
 10
-190.0
 20
0.0
 30
0.0
 41
12.0
 42
12.0
 43
12.0
 50
312.6090116116894
  0
LWPOLYLINE
  5
25E5
330
2907
100
AcDbEntity
  8
NOTE
100
AcDbPolyline
 90
        3
 70
     0
 43
0.0
 10
-198.1239008361895
 20
8.831887408915473
 10
-277.8693999922543
 20
95.52709505801338
 10
-823.709399992254
 20
95.52709505801338
  0
ENDBLK
  5
25E6
330
2907
100
AcDbEntity
  8
0
100
AcDbBlockEnd
  0
BLOCK
  5
290A
330
2909
100
AcDbEntity
  8
0
100
AcDbBlockBegin
  2
*U75
 70
     1
 10
0.0
 20
0.0
 30
0.0
  3
*U75
  1

  0
TEXT
  5
25E9
330
2909
100
AcDbEntity
  8
NOTE
100
AcDbText
 10
-823.709399992254
 20
113.5270950580134
 30
0.0
 40
64.0
  1
4×φ10取付穴
 41
0.9
100
AcDbText
  0
ENDBLK
  5
25EA
330
2909
100
AcDbEntity
  8
0
100
AcDbBlockEnd
  0
BLOCK
  5
290C
330
290B
100
AcDbEntity
  8
0
100
AcDbBlockBegin
  2
*X76
 70
     1
 10
0.0
 20
0.0
 30
0.0
  3
*X76
  1

  0
LINE
  5
25ED
330
290B
100
AcDbEntity
  8
0
 62
     0
100
AcDbLine
 10
-157.9000000000104
 20
-362.2349093942657
 30
0.0
 11
-153.3533073302624
 21
-364.4000000000033
 31
0.0
  0
LINE
  5
25EE
330
290B
100
AcDbEntity
  8
0
 62
     0
100
AcDbLine
 10
-157.9000000000069
 20
-352.234957650132
 30
0.0
 11
-132.353397593275
 21
-364.4000000000015
 31
0.0
  0
LINE
  5
25EF
330
290B
100
AcDbEntity
  8
0
 62
     0
100
AcDbLine
 10
-157.9000000000104
 20
-342.2350059059963
 30
0.0
 11
-111.3534878562841
 21
-364.4000000000015
 31
0.0
  0
LINE
  5
25F0
330
290B
100
AcDbEntity
  8
0
 62
     0
100
AcDbLine
 10
-157.9000000000086
 20
-332.2350541618643
 30
0.0
 11
-90.35357811929316
 21
-364.4000000000024
 31
0.0
  0
LINE
  5
25F1
330
290B
100
AcDbEntity
  8
0
 62
     0
100
AcDbLine
 10
-157.9000000000086
 20
-322.2351024177287
 30
0.0
 11
-69.35366838230038
 21
-364.4000000000024
 31
0.0
  0
LINE
  5
25F2
330
290B
100
AcDbEntity
  8
0
 62
     0
100
AcDbLine
 10
-157.9000000000086
 20
-312.2351506735948
 30
0.0
 11
-48.35375864531124
 21
-364.4000000000024
 31
0.0
  0
LINE
  5
25F3
330
290B
100
AcDbEntity
  8
0
 62
     0
100
AcDbLine
 10
-157.9000000000069
 20
-302.2351989294593
 30
0.0
 11
-27.35384890831847
 21
-364.4000000000024
 31
0.0
  0
LINE
  5
25F4
330
290B
100
AcDbEntity
  8
0
 62
     0
100
AcDbLine
 10
-157.9000000000104
 20
-292.2352471853246
 30
0.0
 11
-6.353939171327509
 21
-364.4000000000024
 31
0.0
  0
LINE
  5
25F5
330
290B
100
AcDbEntity
  8
0
 62
     0
100
AcDbLine
 10
-157.9000000000104
 20
-282.2352954411899
 30
0.0
 11
14.64597056566162
 21
-364.4000000000024
 31
0.0
  0
LINE
  5
25F6
330
290B
100
AcDbEntity
  8
0
 62
     0
100
AcDbLine
 10
-157.9000000000086
 20
-272.235343697057
 30
0.0
 11
35.64588030265622
 21
-364.4000000000042
 31
0.0
  0
LINE
  5
25F7
330
290B
100
AcDbEntity
  8
0
 62
     0
100
AcDbLine
 10
-157.9000000000086
 20
-262.2353919529232
 30
0.0
 11
56.64579003964536
 21
-364.4000000000042
 31
0.0
  0
LINE
  5
25F8
330
290B
100
AcDbEntity
  8
0
 62
     0
100
AcDbLine
 10
-157.9000000000086
 20
-252.2354402087876
 30
0.0
 11
77.64569977663814
 21
-364.4000000000033
 31
0.0
  0
LINE
  5
25F9
330
290B
100
AcDbEntity
  8
0
 62
     0
100
AcDbLine
 10
-157.9000000000069
 20
-242.2354884646538
 30
0.0
 11
98.64560951362912
 21
-364.4000000000033
 31
0.0
  0
LINE
  5
25FA
330
290B
100
AcDbEntity
  8
0
 62
     0
100
AcDbLine
 10
-57.90000000000509
 20
-279.8545592276487
 30
0.0
 11
-48.3545693442793
 21
-284.4000000000015
 31
0.0
  0
LINE
  5
25FB
330
290B
100
AcDbEntity
  8
0
 62
     0
100
AcDbLine
 10
-48.3545693442793
 20
-284.4000000000015
 30
0.0
 11
119.6455192506164
 21
-364.4000000000024
 31
0.0
  0
LINE
  5
25FC
330
290B
100
AcDbEntity
  8
0
 62
     0
100
AcDbLine
 10
-157.9000000000086
 20
-232.2355367205182
 30
0.0
 11
-57.90000000000509
 21
-279.8545592276487
 31
0.0
  0
LINE
  5
25FD
330
290B
100
AcDbEntity
  8
0
 62
     0
100
AcDbLine
 10
-57.90000000000691
 20
-269.8546074835157
 30
0.0
 11
-27.35465960728834
 21
-284.4000000000032
 31
0.0
  0
LINE
  5
25FE
330
290B
100
AcDbEntity
  8
0
 62
     0
100
AcDbLine
 10
-27.35465960728834
 20
-284.4000000000032
 30
0.0
 11
140.6454289876073
 21
-364.4000000000033
 31
0.0
  0
LINE
  5
25FF
330
290B
100
AcDbEntity
  8
0
 62
     0
100
AcDbLine
 10
-157.9000000000069
 20
-222.2355849763862
 30
0.0
 11
-57.90000000000691
 21
-269.8546074835157
 31
0.0
  0
LINE
  5
2600
330
290B
100
AcDbEntity
  8
0
 62
     0
100
AcDbLine
 10
-57.90000000000509
 20
-259.8546557393811
 30
0.0
 11
-6.354749870295559
 21
-284.4000000000032
 31
0.0
  0
LINE
  5
2601
330
290B
100
AcDbEntity
  8
0
 62
     0
100
AcDbLine
 10
-6.354749870295559
 20
-284.4000000000032
 30
0.0
 11
157.8999999999942
 21
-362.6165063097651
 31
0.0
  0
LINE
  5
2602
330
290B
100
AcDbEntity
  8
0
 62
     0
100
AcDbLine
 10
-157.9000000000086
 20
-212.2356332322506
 30
0.0
 11
-57.90000000000509
 21
-259.8546557393811
 31
0.0
  0
LINE
  5
2603
330
290B
100
AcDbEntity
  8
0
 62
     0
100
AcDbLine
 10
-57.90000000000691
 20
-249.8547039952464
 30
0.0
 11
14.64515986669357
 21
-284.4000000000032
 31
0.0
  0
LINE
  5
2604
330
290B
100
AcDbEntity
  8
0
 62
     0
100
AcDbLine
 10
14.64515986669357
 20
-284.4000000000032
 30
0.0
 11
157.8999999999905
 21
-352.6165545656295
 31
0.0
  0
LINE
  5
2605
330
290B
100
AcDbEntity
  8
0
 62
     0
100
AcDbLine
 10
-157.9000000000104
 20
-202.235681488115
 30
0.0
 11
-57.90000000000691
 21
-249.8547039952464
 31
0.0
  0
LINE
  5
2606
330
290B
100
AcDbEntity
  8
0
 62
     0
100
AcDbLine
 10
-57.90000000000509
 20
-239.8547522511126
 30
0.0
 11
35.64506960368635
 21
-284.4000000000032
 31
0.0
  0
LINE
  5
2607
330
290B
100
AcDbEntity
  8
0
 62
     0
100
AcDbLine
 10
35.64506960368635
 20
-284.4000000000032
 30
0.0
 11
157.8999999999923
 21
-342.6166028214957
 31
0.0
  0
LINE
  5
2608
330
290B
100
AcDbEntity
  8
0
 62
     0
100
AcDbLine
 10
-157.9000000000086
 20
-192.2357297439812
 30
0.0
 11
-57.90000000000509
 21
-239.8547522511126
 31
0.0
  0
LINE
  5
2609
330
290B
100
AcDbEntity
  8
0
 62
     0
100
AcDbLine
 10
-57.90000000000509
 20
-229.854800506977
 30
0.0
 11
56.64497934067368
 21
-284.4000000000015
 31
0.0
  0
LINE
  5
260A
330
290B
100
AcDbEntity
  8
0
 62
     0
100
AcDbLine
 10
56.64497934067368
 20
-284.4000000000015
 30
0.0
 11
157.8999999999923
 21
-332.6166510773609
 31
0.0
  0
LINE
  5
260B
330
290B
100
AcDbEntity
  8
0
 62
     0
100
AcDbLine
 10
-157.9000000000086
 20
-182.2357779998455
 30
0.0
 11
-57.90000000000509
 21
-229.854800506977
 31
0.0
  0
LINE
  5
260C
330
290B
100
AcDbEntity
  8
0
 62
     0
100
AcDbLine
 10
-57.90000000000509
 20
-219.8548487628432
 30
0.0
 11
77.64488907766095
 21
-284.3999999999996
 31
0.0
  0
LINE
  5
260D
330
290B
100
AcDbEntity
  8
0
 62
     0
100
AcDbLine
 10
77.64488907766095
 20
-284.3999999999996
 30
0.0
 11
157.8999999999923
 21
-322.6166993332262
 31
0.0
  0
LINE
  5
260E
330
290B
100
AcDbEntity
  8
0
 62
     0
100
AcDbLine
 10
-157.9000000000086
 20
-172.2358262557118
 30
0.0
 11
-57.90000000000873
 21
-219.8548487628414
 31
0.0
  0
LINE
  5
260F
330
290B
100
AcDbEntity
  8
0
 62
     0
100
AcDbLine
 10
-57.90000000000691
 20
-209.8548970187094
 30
0.0
 11
98.64479881465195
 21
-284.4000000000015
 31
0.0
  0
LINE
  5
2610
330
290B
100
AcDbEntity
  8
0
 62
     0
100
AcDbLine
 10
98.64479881465195
 20
-284.4000000000015
 30
0.0
 11
157.8999999999923
 21
-312.6167475890932
 31
0.0
  0
LINE
  5
2611
330
290B
100
AcDbEntity
  8
0
 62
     0
100
AcDbLine
 10
-157.9000000000104
 20
-162.235874511578
 30
0.0
 11
-57.90000000000691
 21
-209.8548970187094
 31
0.0
  0
LINE
  5
2612
330
290B
100
AcDbEntity
  8
0
 62
     0
100
AcDbLine
 10
-57.90000000000691
 20
-199.8549452745736
 30
0.0
 11
119.6447085516447
 21
-284.4000000000015
 31
0.0
  0
LINE
  5
2613
330
290B
100
AcDbEntity
  8
0
 62
     0
100
AcDbLine
 10
119.6447085516447
 20
-284.4000000000015
 30
0.0
 11
157.8999999999942
 21
-302.6167958449587
 31
0.0
  0
LINE
  5
2614
330
290B
100
AcDbEntity
  8
0
 62
     0
100
AcDbLine
 10
-157.9000000000069
 20
-152.2359227674441
 30
0.0
 11
-57.90000000000691
 21
-199.8549452745736
 31
0.0
  0
LINE
  5
2615
330
290B
100
AcDbEntity
  8
0
 62
     0
100
AcDbLine
 10
-57.90000000000691
 20
-189.85499353044
 30
0.0
 11
140.6446182886338
 21
-284.4000000000015
 31
0.0
  0
LINE
  5
2616
330
290B
100
AcDbEntity
  8
0
 62
     0
100
AcDbLine
 10
140.6446182886338
 20
-284.4000000000015
 30
0.0
 11
157.8999999999923
 21
-292.616844100824
 31
0.0
  0
LINE
  5
2617
330
290B
100
AcDbEntity
  8
0
 62
     0
100
AcDbLine
 10
-157.9000000000104
 20
-142.2359710233086
 30
0.0
 11
-57.90000000000691
 21
-189.85499353044
 31
0.0
  0
LINE
  5
2618
330
290B
100
AcDbEntity
  8
0
 62
     0
100
AcDbLine
 10
-57.90000000000509
 20
-179.8550417863043
 30
0.0
 11
157.8999999999923
 21
-282.6168923566884
 31
0.0
  0
LINE
  5
2619
330
290B
100
AcDbEntity
  8
0
 62
     0
100
AcDbLine
 10
-157.9000000000086
 20
-132.236019279173
 30
0.0
 11
-57.90000000000873
 21
-179.8550417863024
 31
0.0
  0
LINE
  5
261A
330
290B
100
AcDbEntity
  8
0
 62
     0
100
AcDbLine
 10
-57.90000000000509
 20
-169.8550900421705
 30
0.0
 11
157.8999999999923
 21
-272.6169406125546
 31
0.0
  0
LINE
  5
261B
330
290B
100
AcDbEntity
  8
0
 62
     0
100
AcDbLine
 10
-157.9000000000086
 20
-122.2360675350392
 30
0.0
 11
-57.90000000000873
 21
-169.8550900421686
 31
0.0
  0
LINE
  5
261C
330
290B
100
AcDbEntity
  8
0
 62
     0
100
AcDbLine
 10
-57.90000000000691
 20
-159.8551382980367
 30
0.0
 11
157.8999999999905
 21
-262.6169888684208
 31
0.0
  0
LINE
  5
261D
330
290B
100
AcDbEntity
  8
0
 62
     0
100
AcDbLine
 10
-157.9000000000123
 20
-112.2361157909054
 30
0.0
 11
-57.90000000001055
 21
-159.8551382980349
 31
0.0
  0
LINE
  5
261E
330
290B
100
AcDbEntity
  8
0
 62
     0
100
AcDbLine
 10
-57.90000000000327
 20
-149.8551865539029
 30
0.0
 11
157.8999999999942
 21
-252.617037124287
 31
0.0
  0
LINE
  5
261F
330
290B
100
AcDbEntity
  8
0
 62
     0
100
AcDbLine
 10
-157.9000000000069
 20
-102.2361640467716
 30
0.0
 11
-57.90000000001055
 21
-149.8551865538993
 31
0.0
  0
LINE
  5
2620
330
290B
100
AcDbEntity
  8
0
 62
     0
100
AcDbLine
 10
-57.90000000000691
 20
-139.8552348097673
 30
0.0
 11
157.8999999999923
 21
-242.6170853801514
 31
0.0
  0
LINE
  5
2621
330
290B
100
AcDbEntity
  8
0
 62
     0
100
AcDbLine
 10
-157.9000000000104
 20
-92.23621230263596
 30
0.0
 11
-57.90000000000873
 21
-139.8552348097655
 31
0.0
  0
LINE
  5
2622
330
290B
100
AcDbEntity
  8
0
 62
     0
100
AcDbLine
 10
-57.90000000000691
 20
-129.8552830656316
 30
0.0
 11
157.8999999999942
 21
-232.6171336360176
 31
0.0
  0
LINE
  5
2623
330
290B
100
AcDbEntity
  8
0
 62
     0
100
AcDbLine
 10
-140.3361379105517
 20
-90.60000000000128
 30
0.0
 11
-57.90000000001055
 21
-129.8552830656308
 31
0.0
  0
LINE
  5
2624
330
290B
100
AcDbEntity
  8
0
 62
     0
100
AcDbLine
 10
-57.90000000000509
 20
-119.8553313214979
 30
0.0
 11
157.8999999999923
 21
-222.617181891882
 31
0.0
  0
LINE
  5
2625
330
290B
100
AcDbEntity
  8
0
 62
     0
100
AcDbLine
 10
-119.3362281735608
 20
-90.60000000000128
 30
0.0
 11
-57.90000000000873
 21
-119.8553313214961
 31
0.0
  0
LINE
  5
2626
330
290B
100
AcDbEntity
  8
0
 62
     0
100
AcDbLine
 10
-57.90000000000691
 20
-109.8553795773641
 30
0.0
 11
157.8999999999942
 21
-212.61723014775
 31
0.0
  0
LINE
  5
2627
330
290B
100
AcDbEntity
  8
0
 62
     0
100
AcDbLine
 10
-98.3363184365735
 20
-90.60000000000128
 30
0.0
 11
-57.90000000001055
 21
-109.8553795773632
 31
0.0
  0
LINE
  5
2628
330
290B
100
AcDbEntity
  8
0
 62
     0
100
AcDbLine
 10
-57.90000000000509
 20
-99.85542783323037
 30
0.0
 11
157.8999999999923
 21
-202.6172784036144
 31
0.0
  0
LINE
  5
2629
330
290B
100
AcDbEntity
  8
0
 62
     0
100
AcDbLine
 10
-77.33640869958255
 20
-90.60000000000128
 30
0.0
 11
-57.90000000000873
 21
-99.85542783322944
 31
0.0
  0
LINE
  5
262A
330
290B
100
AcDbEntity
  8
0
 62
     0
100
AcDbLine
 10
-56.33649896258976
 20
-90.60000000000128
 30
0.0
 11
157.8999999999923
 21
-192.6173266594787
 31
0.0
  0
LINE
  5
262B
330
290B
100
AcDbEntity
  8
0
 62
     0
100
AcDbLine
 10
-35.33658922560062
 20
-90.60000000000128
 30
0.0
 11
157.8999999999923
 21
-182.6173749153449
 31
0.0
  0
LINE
  5
262C
330
290B
100
AcDbEntity
  8
0
 62
     0
100
AcDbLine
 10
-14.33667948860784
 20
-90.60000000000128
 30
0.0
 11
157.8999999999905
 21
-172.6174231712093
 31
0.0
  0
LINE
  5
262D
330
290B
100
AcDbEntity
  8
0
 62
     0
100
AcDbLine
 10
6.663230248383115
 20
-90.60000000000128
 30
0.0
 11
157.8999999999942
 21
-162.6174714270754
 31
0.0
  0
LINE
  5
262E
330
290B
100
AcDbEntity
  8
0
 62
     0
100
AcDbLine
 10
27.66313998537226
 20
-90.60000000000306
 30
0.0
 11
157.8999999999905
 21
-152.6175196829417
 31
0.0
  0
LINE
  5
262F
330
290B
100
AcDbEntity
  8
0
 62
     0
100
AcDbLine
 10
48.66304972236504
 20
-90.60000000000306
 30
0.0
 11
157.8999999999942
 21
-142.6175679388078
 31
0.0
  0
LINE
  5
2630
330
290B
100
AcDbEntity
  8
0
 62
     0
100
AcDbLine
 10
69.66295945935235
 20
-90.60000000000128
 30
0.0
 11
157.8999999999923
 21
-132.6176161946723
 31
0.0
  0
LINE
  5
2631
330
290B
100
AcDbEntity
  8
0
 62
     0
100
AcDbLine
 10
90.66286919634329
 20
-90.60000000000128
 30
0.0
 11
157.8999999999923
 21
-122.6176644505385
 31
0.0
  0
LINE
  5
2632
330
290B
100
AcDbEntity
  8
0
 62
     0
100
AcDbLine
 10
111.6627789333361
 20
-90.60000000000036
 30
0.0
 11
157.8999999999942
 21
-112.6177127064029
 31
0.0
  0
LINE
  5
2633
330
290B
100
AcDbEntity
  8
0
 62
     0
100
AcDbLine
 10
132.662688670327
 20
-90.6000000000022
 30
0.0
 11
157.8999999999905
 21
-102.61776096227
 31
0.0
  0
LINE
  5
2634
330
290B
100
AcDbEntity
  8
0
 62
     0
100
AcDbLine
 10
153.662598407318
 20
-90.6000000000022
 30
0.0
 11
157.8999999999942
 21
-92.6178092181362
 31
0.0
  0
ENDBLK
  5
2635
330
290B
100
AcDbEntity
  8
0
100
AcDbBlockEnd
  0
BLOCK
  5
290E
330
290D
100
AcDbEntity
  8
0
100
AcDbBlockBegin
  2
*X77
 70
     1
 10
0.0
 20
0.0
 30
0.0
  3
*X77
  1

  0
LINE
  5
2638
330
290D
100
AcDbEntity
  8
0
 62
     0
100
AcDbLine
 10
143.5820966436949
 20
-364.4000000000024
 30
0.0
 11
157.9000000000014
 21
-357.5819543782137
 31
0.0
  0
LINE
  5
2639
330
290D
100
AcDbEntity
  8
0
 62
     0
100
AcDbLine
 10
122.582186906704
 20
-364.4000000000024
 30
0.0
 11
157.9000000000014
 21
-347.5820026340798
 31
0.0
  0
LINE
  5
263A
330
290D
100
AcDbEntity
  8
0
 62
     0
100
AcDbLine
 10
101.582277169713
 20
-364.4000000000005
 30
0.0
 11
157.9000000000014
 21
-337.5820508899442
 31
0.0
  0
LINE
  5
263B
330
290D
100
AcDbEntity
  8
0
 62
     0
100
AcDbLine
 10
80.58236743272209
 20
-364.4000000000015
 30
0.0
 11
157.9000000000014
 21
-327.5820991458113
 31
0.0
  0
LINE
  5
263C
330
290D
100
AcDbEntity
  8
0
 62
     0
100
AcDbLine
 10
59.58245769573477
 20
-364.4000000000015
 30
0.0
 11
157.9000000000014
 21
-317.5821474016757
 31
0.0
  0
LINE
  5
263D
330
290D
100
AcDbEntity
  8
0
 62
     0
100
AcDbLine
 10
38.58254795874017
 20
-364.3999999999997
 30
0.0
 11
157.8999999999978
 21
-307.5821956575419
 31
0.0
  0
LINE
  5
263E
330
290D
100
AcDbEntity
  8
0
 62
     0
100
AcDbLine
 10
17.58263822175286
 20
-364.4000000000005
 30
0.0
 11
157.9000000000014
 21
-297.5822439134072
 31
0.0
  0
LINE
  5
263F
330
290D
100
AcDbEntity
  8
0
 62
     0
100
AcDbLine
 10
-3.417271515238096
 20
-364.4000000000005
 30
0.0
 11
157.9000000000051
 21
-287.5822921692716
 31
0.0
  0
LINE
  5
2640
330
290D
100
AcDbEntity
  8
0
 62
     0
100
AcDbLine
 10
143.5829073426612
 20
-284.4000000000015
 30
0.0
 11
157.8999999999978
 21
-277.5823404251387
 31
0.0
  0
LINE
  5
2641
330
290D
100
AcDbEntity
  8
0
 62
     0
100
AcDbLine
 10
-24.41718125223271
 20
-364.4000000000015
 30
0.0
 11
143.5829073426612
 21
-284.4000000000015
 31
0.0
  0
LINE
  5
2642
330
290D
100
AcDbEntity
  8
0
 62
     0
100
AcDbLine
 10
122.5829976056739
 20
-284.4000000000015
 30
0.0
 11
157.9000000000014
 21
-267.5823886810031
 31
0.0
  0
LINE
  5
2643
330
290D
100
AcDbEntity
  8
0
 62
     0
100
AcDbLine
 10
-45.41709098922001
 20
-364.3999999999997
 30
0.0
 11
122.5829976056739
 21
-284.4000000000015
 31
0.0
  0
LINE
  5
2644
330
290D
100
AcDbEntity
  8
0
 62
     0
100
AcDbLine
 10
101.5830878686829
 20
-284.4000000000015
 30
0.0
 11
157.9000000000014
 21
-257.5824369368693
 31
0.0
  0
LINE
  5
2645
330
290D
100
AcDbEntity
  8
0
 62
     0
100
AcDbLine
 10
-66.41700072620733
 20
-364.3999999999997
 30
0.0
 11
101.5830878686829
 21
-284.4000000000015
 31
0.0
  0
LINE
  5
2646
330
290D
100
AcDbEntity
  8
0
 62
     0
100
AcDbLine
 10
80.5831781316883
 20
-284.4000000000024
 30
0.0
 11
157.9000000000014
 21
-247.5824851927346
 31
0.0
  0
LINE
  5
2647
330
290D
100
AcDbEntity
  8
0
 62
     0
100
AcDbLine
 10
-87.41691046320196
 20
-364.4000000000005
 30
0.0
 11
80.5831781316883
 21
-284.4000000000024
 31
0.0
  0
LINE
  5
2648
330
290D
100
AcDbEntity
  8
0
 62
     0
100
AcDbLine
 10
59.583268394701
 20
-284.4000000000024
 30
0.0
 11
157.9000000000014
 21
-237.5825334486008
 31
0.0
  0
LINE
  5
2649
330
290D
100
AcDbEntity
  8
0
 62
     0
100
AcDbLine
 10
-108.4168202001929
 20
-364.4000000000005
 30
0.0
 11
59.583268394701
 21
-284.4000000000024
 31
0.0
  0
LINE
  5
264A
330
290D
100
AcDbEntity
  8
0
 62
     0
100
AcDbLine
 10
38.58335865771005
 20
-284.4000000000006
 30
0.0
 11
157.8999999999978
 21
-227.5825817044652
 31
0.0
  0
LINE
  5
264B
330
290D
100
AcDbEntity
  8
0
 62
     0
100
AcDbLine
 10
-129.4167299371838
 20
-364.4000000000005
 30
0.0
 11
38.58335865771005
 21
-284.4000000000006
 31
0.0
  0
LINE
  5
264C
330
290D
100
AcDbEntity
  8
0
 62
     0
100
AcDbLine
 10
17.58344892072273
 20
-284.3999999999996
 30
0.0
 11
157.8999999999978
 21
-217.5826299603323
 31
0.0
  0
LINE
  5
264D
330
290D
100
AcDbEntity
  8
0
 62
     0
100
AcDbLine
 10
-150.4166396741748
 20
-364.4000000000015
 30
0.0
 11
17.58344892071908
 21
-284.4000000000015
 31
0.0
  0
LINE
  5
264E
330
290D
100
AcDbEntity
  8
0
 62
     0
100
AcDbLine
 10
-3.416460816268227
 20
-284.3999999999996
 30
0.0
 11
157.9000000000014
 21
-207.5826782161966
 31
0.0
  0
LINE
  5
264F
330
290D
100
AcDbEntity
  8
0
 62
     0
100
AcDbLine
 10
-157.9000000000014
 20
-357.9635512937112
 30
0.0
 11
-3.416460816268227
 21
-284.3999999999996
 31
0.0
  0
LINE
  5
2650
330
290D
100
AcDbEntity
  8
0
 62
     0
100
AcDbLine
 10
-24.41637055325919
 20
-284.4000000000006
 30
0.0
 11
157.9000000000014
 21
-197.5827264720619
 31
0.0
  0
LINE
  5
2651
330
290D
100
AcDbEntity
  8
0
 62
     0
100
AcDbLine
 10
-157.9000000000014
 20
-347.9635995495763
 30
0.0
 11
-24.41637055325919
 21
-284.4000000000006
 31
0.0
  0
LINE
  5
2652
330
290D
100
AcDbEntity
  8
0
 62
     0
100
AcDbLine
 10
-45.41628029025014
 20
-284.4000000000006
 30
0.0
 11
157.9000000000014
 21
-187.5827747279281
 31
0.0
  0
LINE
  5
2653
330
290D
100
AcDbEntity
  8
0
 62
     0
100
AcDbLine
 10
-157.9000000000014
 20
-337.9636478054426
 30
0.0
 11
-45.41628029025014
 21
-284.4000000000006
 31
0.0
  0
LINE
  5
2654
330
290D
100
AcDbEntity
  8
0
 62
     0
100
AcDbLine
 10
-57.89999999999418
 20
-280.3446735541756
 30
0.0
 11
157.9000000000014
 21
-177.5828229837925
 31
0.0
  0
LINE
  5
2655
330
290D
100
AcDbEntity
  8
0
 62
     0
100
AcDbLine
 10
-157.8999999999978
 20
-327.9636960613071
 30
0.0
 11
-57.89999999999418
 21
-280.3446735541756
 31
0.0
  0
LINE
  5
2656
330
290D
100
AcDbEntity
  8
0
 62
     0
100
AcDbLine
 10
-57.89999999999782
 20
-270.3447218100428
 30
0.0
 11
157.8999999999978
 21
-167.5828712396596
 31
0.0
  0
LINE
  5
2657
330
290D
100
AcDbEntity
  8
0
 62
     0
100
AcDbLine
 10
-157.9000000000014
 20
-317.9637443171742
 30
0.0
 11
-57.89999999999782
 21
-270.3447218100428
 31
0.0
  0
LINE
  5
2658
330
290D
100
AcDbEntity
  8
0
 62
     0
100
AcDbLine
 10
-57.89999999999782
 20
-260.3447700659071
 30
0.0
 11
157.9000000000014
 21
-157.582919495524
 31
0.0
  0
LINE
  5
2659
330
290D
100
AcDbEntity
  8
0
 62
     0
100
AcDbLine
 10
-157.9000000000014
 20
-307.9637925730385
 30
0.0
 11
-57.89999999999782
 21
-260.3447700659071
 31
0.0
  0
LINE
  5
265A
330
290D
100
AcDbEntity
  8
0
 62
     0
100
AcDbLine
 10
-57.89999999999782
 20
-250.3448183217733
 30
0.0
 11
157.9000000000014
 21
-147.5829677513902
 31
0.0
  0
LINE
  5
265B
330
290D
100
AcDbEntity
  8
0
 62
     0
100
AcDbLine
 10
-157.9000000000014
 20
-297.9638408289048
 30
0.0
 11
-57.89999999999782
 21
-250.3448183217733
 31
0.0
  0
LINE
  5
265C
330
290D
100
AcDbEntity
  8
0
 62
     0
100
AcDbLine
 10
-57.89999999999782
 20
-240.3448665776405
 30
0.0
 11
157.9000000000014
 21
-137.5830160072555
 31
0.0
  0
LINE
  5
265D
330
290D
100
AcDbEntity
  8
0
 62
     0
100
AcDbLine
 10
-157.9000000000014
 20
-287.96388908477
 30
0.0
 11
-57.89999999999782
 21
-240.3448665776405
 31
0.0
  0
LINE
  5
265E
330
290D
100
AcDbEntity
  8
0
 62
     0
100
AcDbLine
 10
-57.89999999999782
 20
-230.3449148335048
 30
0.0
 11
157.9000000000014
 21
-127.5830642631198
 31
0.0
  0
LINE
  5
265F
330
290D
100
AcDbEntity
  8
0
 62
     0
100
AcDbLine
 10
-157.9000000000014
 20
-277.9639373406364
 30
0.0
 11
-57.89999999999782
 21
-230.3449148335048
 31
0.0
  0
LINE
  5
2660
330
290D
100
AcDbEntity
  8
0
 62
     0
100
AcDbLine
 10
-57.89999999999782
 20
-220.3449630893719
 30
0.0
 11
157.8999999999978
 21
-117.583112518987
 31
0.0
  0
LINE
  5
2661
330
290D
100
AcDbEntity
  8
0
 62
     0
100
AcDbLine
 10
-157.9000000000014
 20
-267.9639855965015
 30
0.0
 11
-57.89999999999782
 21
-220.3449630893719
 31
0.0
  0
LINE
  5
2662
330
290D
100
AcDbEntity
  8
0
 62
     0
100
AcDbLine
 10
-57.89999999999782
 20
-210.3450113452363
 30
0.0
 11
157.9000000000014
 21
-107.5831607748514
 31
0.0
  0
LINE
  5
2663
330
290D
100
AcDbEntity
  8
0
 62
     0
100
AcDbLine
 10
-157.9000000000014
 20
-257.9640338523659
 30
0.0
 11
-57.89999999999782
 21
-210.3450113452363
 31
0.0
  0
LINE
  5
2664
330
290D
100
AcDbEntity
  8
0
 62
     0
100
AcDbLine
 10
-57.89999999999782
 20
-200.3450596011025
 30
0.0
 11
157.9000000000014
 21
-97.58320903071762
 31
0.0
  0
LINE
  5
2665
330
290D
100
AcDbEntity
  8
0
 62
     0
100
AcDbLine
 10
-157.9000000000014
 20
-247.9640821082321
 30
0.0
 11
-57.89999999999782
 21
-200.3450596011025
 31
0.0
  0
LINE
  5
2666
330
290D
100
AcDbEntity
  8
0
 62
     0
100
AcDbLine
 10
-57.89999999999418
 20
-190.3451078569668
 30
0.0
 11
151.5648369609771
 21
-90.60000000000036
 31
0.0
  0
LINE
  5
2667
330
290D
100
AcDbEntity
  8
0
 62
     0
100
AcDbLine
 10
-157.8999999999978
 20
-237.9641303640965
 30
0.0
 11
-57.89999999999418
 21
-190.3451078569668
 31
0.0
  0
LINE
  5
2668
330
290D
100
AcDbEntity
  8
0
 62
     0
100
AcDbLine
 10
-57.89999999999782
 20
-180.3451561128331
 30
0.0
 11
130.5649272239825
 21
-90.59999999999854
 31
0.0
  0
LINE
  5
2669
330
290D
100
AcDbEntity
  8
0
 62
     0
100
AcDbLine
 10
-157.9000000000014
 20
-227.9641786199627
 30
0.0
 11
-57.89999999999782
 21
-180.3451561128331
 31
0.0
  0
LINE
  5
266A
330
290D
100
AcDbEntity
  8
0
 62
     0
100
AcDbLine
 10
-57.89999999999418
 20
-170.3452043686974
 30
0.0
 11
109.5650174869952
 21
-90.59999999999854
 31
0.0
  0
LINE
  5
266B
330
290D
100
AcDbEntity
  8
0
 62
     0
100
AcDbLine
 10
-157.8999999999978
 20
-217.9642268758289
 30
0.0
 11
-57.89999999999418
 21
-170.3452043686974
 31
0.0
  0
LINE
  5
266C
330
290D
100
AcDbEntity
  8
0
 62
     0
100
AcDbLine
 10
-57.90000000000144
 20
-160.3452526245654
 30
0.0
 11
88.56510775000058
 21
-90.60000000000036
 31
0.0
  0
LINE
  5
266D
330
290D
100
AcDbEntity
  8
0
 62
     0
100
AcDbLine
 10
-157.9000000000051
 20
-207.9642751316951
 30
0.0
 11
-57.90000000000144
 21
-160.3452526245654
 31
0.0
  0
LINE
  5
266E
330
290D
100
AcDbEntity
  8
0
 62
     0
100
AcDbLine
 10
-57.89999999999782
 20
-150.3453008804299
 30
0.0
 11
67.56519801301329
 21
-90.59999999999854
 31
0.0
  0
LINE
  5
266F
330
290D
100
AcDbEntity
  8
0
 62
     0
100
AcDbLine
 10
-157.9000000000014
 20
-197.9643233875612
 30
0.0
 11
-57.89999999999782
 21
-150.3453008804299
 31
0.0
  0
LINE
  5
2670
330
290D
100
AcDbEntity
  8
0
 62
     0
100
AcDbLine
 10
-57.89999999999782
 20
-140.3453491362979
 30
0.0
 11
46.56528827602596
 21
-90.60000000000036
 31
0.0
  0
LINE
  5
2671
330
290D
100
AcDbEntity
  8
0
 62
     0
100
AcDbLine
 10
-157.9000000000014
 20
-187.9643716434275
 30
0.0
 11
-57.89999999999782
 21
-140.3453491362979
 31
0.0
  0
LINE
  5
2672
330
290D
100
AcDbEntity
  8
0
 62
     0
100
AcDbLine
 10
-57.89999999999782
 20
-130.3453973921623
 30
0.0
 11
25.56537853903137
 21
-90.60000000000036
 31
0.0
  0
LINE
  5
2673
330
290D
100
AcDbEntity
  8
0
 62
     0
100
AcDbLine
 10
-157.9000000000014
 20
-177.9644198992936
 30
0.0
 11
-57.89999999999782
 21
-130.3453973921623
 31
0.0
  0
LINE
  5
2674
330
290D
100
AcDbEntity
  8
0
 62
     0
100
AcDbLine
 10
-57.89999999999782
 20
-120.3454456480285
 30
0.0
 11
4.565468802040411
 21
-90.60000000000036
 31
0.0
  0
LINE
  5
2675
330
290D
100
AcDbEntity
  8
0
 62
     0
100
AcDbLine
 10
-157.8999999999978
 20
-167.9644681551581
 30
0.0
 11
-57.89999999999782
 21
-120.3454456480285
 31
0.0
  0
LINE
  5
2676
330
290D
100
AcDbEntity
  8
0
 62
     0
100
AcDbLine
 10
-57.89999999999782
 20
-110.3454939038929
 30
0.0
 11
-16.43444093495054
 21
-90.60000000000036
 31
0.0
  0
LINE
  5
2677
330
290D
100
AcDbEntity
  8
0
 62
     0
100
AcDbLine
 10
-157.9000000000014
 20
-157.9645164110243
 30
0.0
 11
-57.89999999999782
 21
-110.3454939038929
 31
0.0
  0
LINE
  5
2678
330
290D
100
AcDbEntity
  8
0
 62
     0
100
AcDbLine
 10
-57.89999999999782
 20
-100.3455421597573
 30
0.0
 11
-37.43435067194151
 21
-90.60000000000036
 31
0.0
  0
LINE
  5
2679
330
290D
100
AcDbEntity
  8
0
 62
     0
100
AcDbLine
 10
-157.9000000000014
 20
-147.9645646668887
 30
0.0
 11
-57.89999999999782
 21
-100.3455421597573
 31
0.0
  0
LINE
  5
267A
330
290D
100
AcDbEntity
  8
0
 62
     0
100
AcDbLine
 10
-157.9000000000014
 20
-137.9646129227549
 30
0.0
 11
-58.43426040893246
 21
-90.60000000000036
 31
0.0
  0
LINE
  5
267B
330
290D
100
AcDbEntity
  8
0
 62
     0
100
AcDbLine
 10
-157.8999999999978
 20
-127.9646611786193
 30
0.0
 11
-79.43417014591979
 21
-90.59999999999854
 31
0.0
  0
LINE
  5
267C
330
290D
100
AcDbEntity
  8
0
 62
     0
100
AcDbLine
 10
-157.9000000000014
 20
-117.9647094344855
 30
0.0
 11
-100.4340798829143
 21
-90.59999999999854
 31
0.0
  0
LINE
  5
267D
330
290D
100
AcDbEntity
  8
0
 62
     0
100
AcDbLine
 10
-157.9000000000014
 20
-107.9647576903517
 30
0.0
 11
-121.4339896199017
 21
-90.60000000000036
 31
0.0
  0
LINE
  5
267E
330
290D
100
AcDbEntity
  8
0
 62
     0
100
AcDbLine
 10
-157.9000000000014
 20
-97.96480594621609
 30
0.0
 11
-142.4338993568963
 21
-90.60000000000036
 31
0.0
  0
ENDBLK
  5
267F
330
290D
100
AcDbEntity
  8
0
100
AcDbBlockEnd
  0
BLOCK
  5
2AF2
330
2AF1
100
AcDbEntity
  8
0
100
AcDbBlockBegin
  2
*U78
 70
     1
 10
0.0
 20
0.0
 30
0.0
  3
*U78
  1

  0
ENDBLK
  5
2AF3
330
2AF1
100
AcDbEntity
  8
0
100
AcDbBlockEnd
  0
ENDSEC
  0
SECTION
  2
ENTITIES
  0
TEXT
  5
953
330
282C
100
AcDbEntity
  8
OUTLINE
  6
Continuous
 62
     3
100
AcDbText
 10
-418.231467
 20
13.715189
 30
0.0
 40
64.0
  1
 
 41
0.9
100
AcDbText
  0
TEXT
  5
954
330
282C
100
AcDbEntity
  8
OUTLINE
  6
Continuous
 62
     3
100
AcDbText
 10
-418.231467
 20
13.715189
 30
0.0
 40
64.0
  1
 
 41
0.9
100
AcDbText
  0
TEXT
  5
955
330
282C
100
AcDbEntity
  8
OUTLINE
  6
Continuous
 62
     3
100
AcDbText
 10
1341.41903
 20
-706.0588199999997
 30
0.0
 40
64.0
  1
 
 41
0.9
100
AcDbText
  0
TEXT
  5
956
330
282C
100
AcDbEntity
  8
OUTLINE
  6
Continuous
 62
     3
100
AcDbText
 10
1341.41903
 20
-706.0588199999997
 30
0.0
 40
64.0
  1
 
 41
0.9
100
AcDbText
  0
TEXT
  5
957
330
282C
100
AcDbEntity
  8
OUTLINE
  6
Continuous
 62
     3
100
AcDbText
 10
1341.41903
 20
-706.0588199999997
 30
0.0
 40
64.0
  1
 
 41
0.9
100
AcDbText
  0
TEXT
  5
958
330
282C
100
AcDbEntity
  8
OUTLINE
  6
Continuous
 62
     3
100
AcDbText
 10
1341.41903
 20
-706.0588199999997
 30
0.0
 40
64.0
  1
 
 41
0.9
100
AcDbText
  0
TEXT
  5
2C15
330
282C
100
AcDbEntity
  8
ETC
100
AcDbText
 10
803.0913732145164
 20
1478.179107550494
 30
0.0
 40
64.0
  1
システム部材
 41
0.9
100
AcDbText
  0
TEXT
  5
2C16
330
282C
100
AcDbEntity
  8
ETC
100
AcDbText
 10
809.2993712145146
 20
1579.062433550494
 30
0.0
 40
64.0
  1
QW-30SC_6
 41
0.9
100
AcDbText
  0
TEXT
  5
2C17
330
282C
100
AcDbEntity
  8
ETC
100
AcDbText
 10
803.0913732145164
 20
1378.179107550494
 30
0.0
 40
64.0
  1
QW-30SC
 41
0.9
100
AcDbText
  0
POINT
  5
2C18
330
282C
100
AcDbEntity
  8
ARRANGE
100
AcDbPoint
 10
517.9321134139646
 20
1092.48524690117
 30
0.0
 39
50.0
  0
LINE
  5
2C19
330
282C
100
AcDbEntity
  8
OUTLINE
100
AcDbLine
 10
691.4321134139647
 20
1017.48524690117
 30
0.0
 11
691.4321134139647
 21
712.4852469011702
 31
0.0
  0
LINE
  5
2C1A
330
282C
100
AcDbEntity
  8
DETAIL
100
AcDbLine
 10
691.4321134139647
 20
1017.48524690117
 30
0.0
 11
691.4321134139647
 21
700.4852469011697
 31
0.0
  0
LINE
  5
2C1B
330
282C
100
AcDbEntity
  8
DETAIL
100
AcDbLine
 10
344.4321134139648
 20
1017.48524690117
 30
0.0
 11
344.4321134139648
 21
700.4852469011701
 31
0.0
  0
LINE
  5
2C1C
330
282C
100
AcDbEntity
  8
DETAIL
100
AcDbLine
 10
702.4321134139646
 20
1029.48524690117
 30
0.0
 11
702.4321134139646
 21
712.4852469011702
 31
0.0
  0
LINE
  5
2C1D
330
282C
100
AcDbEntity
  8
DETAIL
100
AcDbLine
 10
333.4321134139648
 20
1029.48524690117
 30
0.0
 11
333.4321134139648
 21
712.4852469011702
 31
0.0
  0
LINE
  5
2C1E
330
282C
100
AcDbEntity
  8
DETAIL
100
AcDbLine
 10
675.8321134139662
 20
1001.88524690117
 30
0.0
 11
675.8321134139662
 21
728.0852469011701
 31
0.0
  0
LINE
  5
2C1F
330
282C
100
AcDbEntity
  8
DETAIL
100
AcDbLine
 10
360.0321134139634
 20
1001.88524690117
 30
0.0
 11
360.0321134139634
 21
728.0852469011701
 31
0.0
  0
LINE
  5
2C20
330
282C
100
AcDbEntity
  8
BASIS
100
AcDbLine
 10
517.9321134139646
 20
1117.48524690117
 30
0.0
 11
517.9321134139646
 21
675.4852469011697
 31
0.0
  0
LINE
  5
2C21
330
282C
100
AcDbEntity
  8
DETAIL
100
AcDbLine
 10
333.4321134139648
 20
1029.48524690117
 30
0.0
 11
702.4321134139646
 21
1029.48524690117
 31
0.0
  0
LINE
  5
2C22
330
282C
100
AcDbEntity
  8
DETAIL
100
AcDbLine
 10
344.4321134139648
 20
1017.48524690117
 30
0.0
 11
691.4321134139647
 21
1017.48524690117
 31
0.0
  0
LINE
  5
2C23
330
282C
100
AcDbEntity
  8
DETAIL
100
AcDbLine
 10
310.4321134139648
 20
1092.48524690117
 30
0.0
 11
725.4321134139646
 21
1092.48524690117
 31
0.0
  0
LINE
  5
2C24
330
282C
100
AcDbEntity
  8
DETAIL
100
AcDbLine
 10
310.4321134139648
 20
1082.48524690117
 30
0.0
 11
725.4321134139646
 21
1082.48524690117
 31
0.0
  0
LINE
  5
2C25
330
282C
100
AcDbEntity
  8
SIZE
100
AcDbLine
 10
725.4321134139646
 20
1112.48524690117
 30
0.0
 11
725.4321134139646
 21
1391.971839837687
 31
0.0
  0
LINE
  5
2C26
330
282C
100
AcDbEntity
  8
SIZE
100
AcDbLine
 10
310.4321134139648
 20
1112.48524690117
 30
0.0
 11
310.4321134139648
 21
1391.971839837687
 31
0.0
  0
LINE
  5
2C27
330
282C
100
AcDbEntity
  8
SIZE
100
AcDbLine
 10
713.4321134139646
 20
1371.971839837687
 30
0.0
 11
322.4321134139648
 21
1371.971839837687
 31
0.0
  0
INSERT
  5
2C28
330
282C
100
AcDbEntity
  8
SIZE
100
AcDbBlockReference
  2
_DOTBLANK
 10
725.4321134139646
 20
1371.971839837687
 30
0.0
 41
12.0
 42
12.0
 43
12.0
  0
INSERT
  5
2C29
330
282C
100
AcDbEntity
  8
SIZE
100
AcDbBlockReference
  2
_DOTBLANK
 10
310.4321134139648
 20
1371.971839837687
 30
0.0
 41
12.0
 42
12.0
 43
12.0
 50
180.0
  0
MTEXT
  5
2C2A
330
282C
100
AcDbEntity
  8
SIZE
100
AcDbMText
 10
517.9321134139646
 20
1413.971839837687
 30
0.0
 40
64.0
 41
0.0
 71
     5
 72
     1
  1
\A1;415
 73
     1
 44
1.0
  0
LINE
  5
2C2B
330
282C
100
AcDbEntity
  8
SIZE
100
AcDbLine
 10
707.9321134139647
 20
1124.4159820714
 30
0.0
 11
707.9321134139647
 21
1273.417337910787
 31
0.0
  0
LINE
  5
2C2C
330
282C
100
AcDbEntity
  8
SIZE
100
AcDbLine
 10
327.9321134139648
 20
1124.4159820714
 30
0.0
 11
327.9321134139648
 21
1273.417337910787
 31
0.0
  0
LINE
  5
2C2D
330
282C
100
AcDbEntity
  8
SIZE
100
AcDbLine
 10
695.9321134139647
 20
1253.417337910787
 30
0.0
 11
339.9321134139648
 21
1253.417337910787
 31
0.0
  0
INSERT
  5
2C2E
330
282C
100
AcDbEntity
  8
SIZE
100
AcDbBlockReference
  2
_DOTBLANK
 10
707.9321134139647
 20
1253.417337910787
 30
0.0
 41
12.0
 42
12.0
 43
12.0
  0
INSERT
  5
2C2F
330
282C
100
AcDbEntity
  8
SIZE
100
AcDbBlockReference
  2
_DOTBLANK
 10
327.9321134139648
 20
1253.417337910787
 30
0.0
 41
12.0
 42
12.0
 43
12.0
 50
180.0
  0
MTEXT
  5
2C30
330
282C
100
AcDbEntity
  8
SIZE
100
AcDbMText
 10
517.3762357799716
 20
1295.417337910787
 30
0.0
 40
64.0
 41
0.0
 71
     5
 72
     1
  1
\A1;380
 73
     1
 44
1.0
  0
LINE
  5
2C31
330
282C
100
AcDbEntity
  8
DETAIL
100
AcDbLine
 10
310.4321134139648
 20
1082.48524690117
 30
0.0
 11
310.4321134139648
 21
1092.48524690117
 31
0.0
  0
LINE
  5
2C32
330
282C
100
AcDbEntity
  8
DETAIL
100
AcDbLine
 10
344.4321134139648
 20
1082.48524690117
 30
0.0
 11
344.4321134139648
 21
1029.48524690117
 31
0.0
  0
LINE
  5
2C33
330
282C
100
AcDbEntity
  8
DETAIL
100
AcDbLine
 10
360.0321134139634
 20
1001.88524690117
 30
0.0
 11
675.8321134139662
 21
1001.88524690117
 31
0.0
  0
CIRCLE
  5
2C34
330
282C
100
AcDbEntity
  8
ARRANGE
100
AcDbCircle
 10
517.9321134139646
 20
1093.085246802496
 30
0.0
 40
40.0
  0
LINE
  5
2C35
330
282C
100
AcDbEntity
  8
OUTLINE
100
AcDbLine
 10
691.4321134139647
 20
1082.48524690117
 30
0.0
 11
691.4321134139647
 21
1029.48524690117
 31
0.0
  0
LINE
  5
2C36
330
282C
100
AcDbEntity
  8
DETAIL
100
AcDbLine
 10
691.4321134139647
 20
1082.48524690117
 30
0.0
 11
691.4321134139647
 21
1029.48524690117
 31
0.0
  0
LINE
  5
2C37
330
282C
100
AcDbEntity
  8
DETAIL
100
AcDbLine
 10
725.4321134139646
 20
1082.48524690117
 30
0.0
 11
725.4321134139646
 21
1092.48524690117
 31
0.0
  0
LINE
  5
2C38
330
282C
100
AcDbEntity
  8
DETAIL
100
AcDbLine
 10
333.4321134139648
 20
712.4852469011702
 30
0.0
 11
702.4321134139646
 21
712.4852469011702
 31
0.0
  0
LINE
  5
2C39
330
282C
100
AcDbEntity
  8
SIZE
100
AcDbLine
 10
702.4321134139646
 20
692.4852469011701
 30
0.0
 11
702.4321134139646
 21
517.2719902358854
 31
0.0
  0
LINE
  5
2C3A
330
282C
100
AcDbEntity
  8
SIZE
100
AcDbLine
 10
333.4321134139648
 20
692.4852469011701
 30
0.0
 11
333.4321134139648
 21
517.2719902358854
 31
0.0
  0
LINE
  5
2C3B
330
282C
100
AcDbEntity
  8
SIZE
100
AcDbLine
 10
690.4321134139646
 20
537.2719902358853
 30
0.0
 11
345.4321134139648
 21
537.2719902358853
 31
0.0
  0
INSERT
  5
2C3C
330
282C
100
AcDbEntity
  8
SIZE
100
AcDbBlockReference
  2
_DOTBLANK
 10
702.4321134139646
 20
537.2719902358853
 30
0.0
 41
12.0
 42
12.0
 43
12.0
  0
INSERT
  5
2C3D
330
282C
100
AcDbEntity
  8
SIZE
100
AcDbBlockReference
  2
_DOTBLANK
 10
333.4321134139648
 20
537.2719902358853
 30
0.0
 41
12.0
 42
12.0
 43
12.0
 50
180.0
  0
MTEXT
  5
2C3E
330
282C
100
AcDbEntity
  8
SIZE
100
AcDbMText
 10
517.9321134139646
 20
579.2719902358852
 30
0.0
 40
64.0
 41
0.0
 71
     5
 72
     1
  1
\A1;369
 73
     1
 44
1.0
  0
LINE
  5
2C3F
330
282C
100
AcDbEntity
  8
DETAIL
100
AcDbLine
 10
360.0321134139634
 20
728.0852469011701
 30
0.0
 11
675.8321134139662
 21
728.0852469011701
 31
0.0
  0
LINE
  5
2C40
330
282C
100
AcDbEntity
  8
DETAIL
100
AcDbLine
 10
344.4321134139648
 20
700.4852469011701
 30
0.0
 11
691.4321134139647
 21
700.4852469011697
 31
0.0
  0
LINE
  5
2C41
330
282C
100
AcDbEntity
  8
SIZE
100
AcDbLine
 10
290.4321134139648
 20
1092.48524690117
 30
0.0
 11
180.3946298160484
 21
1092.48524690117
 31
0.0
  0
LINE
  5
2C42
330
282C
100
AcDbEntity
  8
SIZE
100
AcDbLine
 10
313.4321134139648
 20
712.4852469011702
 30
0.0
 11
180.3946298160484
 21
712.4852469011702
 31
0.0
  0
LINE
  5
2C43
330
282C
100
AcDbEntity
  8
SIZE
100
AcDbLine
 10
200.3946298160484
 20
1080.48524690117
 30
0.0
 11
200.3946298160484
 21
724.4852469011702
 31
0.0
  0
INSERT
  5
2C44
330
282C
100
AcDbEntity
  8
SIZE
100
AcDbBlockReference
  2
_DOTBLANK
 10
200.3946298160484
 20
1092.48524690117
 30
0.0
 41
12.0
 42
12.0
 43
12.0
 50
90.0
  0
INSERT
  5
2C45
330
282C
100
AcDbEntity
  8
SIZE
100
AcDbBlockReference
  2
_DOTBLANK
 10
200.3946298160484
 20
712.4852469011702
 30
0.0
 41
12.0
 42
12.0
 43
12.0
 50
270.0
  0
MTEXT
  5
2C46
330
282C
100
AcDbEntity
  8
SIZE
100
AcDbMText
 10
158.3946298160484
 20
902.4852469011666
 30
0.0
 40
64.0
 41
0.0
 71
     5
 72
     1
  1
\A1;380
 11
0.0000000000000001
 21
1.0
 31
0.0
 73
     1
 44
1.0
  0
INSERT
  5
2C47
330
282C
100
AcDbEntity
  8
NOTE
100
AcDbBlockReference
  2
_OPEN30
 10
327.9321134139648
 20
1092.48524690117
 30
0.0
 41
11.99999999999906
 42
12.0
 43
12.0
 50
312.6090116116846
1001
ACAD
1000
DSTYLE
1002
{
1070
    41
1040
12.0
1070
    42
1040
20.0
1070
    43
1040
200.0
1070
    44
1040
20.0
1070
    73
1070
     0
1070
    74
1070
     0
1070
    77
1070
     1
1070
    78
1070
     8
1070
   140
1040
64.0
1070
   147
1040
50.0
1070
   172
1070
     1
1070
   174
1070
     1
1070
   275
1070
     0
1070
   284
1070
     0
1070
   285
1070
     0
1070
   286
1070
     0
1070
   341
1005
287B
1070
   342
1005
2879
1002
}
  0
LWPOLYLINE
  5
2C48
330
282C
100
AcDbEntity
  8
NOTE
100
AcDbPolyline
 90
        3
 70
     0
 43
0.0
 10
319.8082125777767
 20
1101.317134310086
 10
240.0627134217105
 20
1188.012341959184
 10
-308.5201437211469
 20
1188.012341959184
1001
ACAD
1000
DSTYLE
1002
{
1070
    41
1040
12.0
1070
    42
1040
20.0
1070
    43
1040
200.0
1070
    44
1040
20.0
1070
    73
1070
     0
1070
    74
1070
     0
1070
    77
1070
     1
1070
    78
1070
     8
1070
   140
1040
64.0
1070
   147
1040
50.0
1070
   172
1070
     1
1070
   174
1070
     1
1070
   275
1070
     0
1070
   284
1070
     0
1070
   285
1070
     0
1070
   286
1070
     0
1070
   341
1005
287B
1070
   342
1005
2879
1002
}
  0
TEXT
  5
2C49
330
282C
100
AcDbEntity
  8
NOTE
100
AcDbText
 10
-316.7487151497186
 20
1206.012341959184
 30
0.0
 40
64.0
  1
4×φ10取付穴
 41
0.9
100
AcDbText
  0
LINE
  5
2C4A
330
282C
100
AcDbEntity
  8
OUTLINE
100
AcDbLine
 10
691.4321134139647
 20
1017.48524690117
 30
0.0
 11
691.4321134139647
 21
700.4852469011697
 31
0.0
  0
LINE
  5
2C4B
330
282C
100
AcDbEntity
  8
OUTLINE
100
AcDbLine
 10
344.4321134139648
 20
1017.48524690117
 30
0.0
 11
344.4321134139648
 21
700.4852469011701
 31
0.0
  0
LINE
  5
2C4C
330
282C
100
AcDbEntity
  8
OUTLINE
100
AcDbLine
 10
702.4321134139646
 20
1029.48524690117
 30
0.0
 11
702.4321134139646
 21
712.4852469011702
 31
0.0
  0
LINE
  5
2C4D
330
282C
100
AcDbEntity
  8
OUTLINE
100
AcDbLine
 10
333.4321134139648
 20
1029.48524690117
 30
0.0
 11
333.4321134139648
 21
712.4852469011702
 31
0.0
  0
LINE
  5
2C4E
330
282C
100
AcDbEntity
  8
OUTLINE
100
AcDbLine
 10
333.4321134139648
 20
1029.48524690117
 30
0.0
 11
702.4321134139646
 21
1029.48524690117
 31
0.0
  0
LINE
  5
2C4F
330
282C
100
AcDbEntity
  8
OUTLINE
100
AcDbLine
 10
344.4321134139648
 20
1017.48524690117
 30
0.0
 11
691.4321134139647
 21
1017.48524690117
 31
0.0
  0
LINE
  5
2C50
330
282C
100
AcDbEntity
  8
OUTLINE
100
AcDbLine
 10
310.4321134139648
 20
1082.48524690117
 30
0.0
 11
725.4321134139646
 21
1082.48524690117
 31
0.0
  0
LINE
  5
2C51
330
282C
100
AcDbEntity
  8
OUTLINE
100
AcDbLine
 10
310.4321134139648
 20
1082.48524690117
 30
0.0
 11
310.4321134139648
 21
1092.48524690117
 31
0.0
  0
LINE
  5
2C52
330
282C
100
AcDbEntity
  8
OUTLINE
100
AcDbLine
 10
344.4321134139648
 20
1082.48524690117
 30
0.0
 11
344.4321134139648
 21
1029.48524690117
 31
0.0
  0
LINE
  5
2C53
330
282C
100
AcDbEntity
  8
OUTLINE
100
AcDbLine
 10
691.4321134139647
 20
1082.48524690117
 30
0.0
 11
691.4321134139647
 21
1029.48524690117
 31
0.0
  0
LINE
  5
2C54
330
282C
100
AcDbEntity
  8
OUTLINE
100
AcDbLine
 10
725.4321134139646
 20
1082.48524690117
 30
0.0
 11
725.4321134139646
 21
1092.48524690117
 31
0.0
  0
LINE
  5
2C55
330
282C
100
AcDbEntity
  8
OUTLINE
100
AcDbLine
 10
333.4321134139648
 20
712.4852469011702
 30
0.0
 11
702.4321134139646
 21
712.4852469011702
 31
0.0
  0
LINE
  5
2C56
330
282C
100
AcDbEntity
  8
OUTLINE
100
AcDbLine
 10
344.4321134139648
 20
700.4852469011701
 30
0.0
 11
691.4321134139647
 21
700.4852469011697
 31
0.0
  0
LINE
  5
2C57
330
282C
100
AcDbEntity
  8
NOTE
100
AcDbLine
 10
327.9321134139648
 20
1104.98524690117
 30
0.0
 11
327.9321134139648
 21
1079.98524690117
 31
0.0
  0
LINE
  5
2C58
330
282C
100
AcDbEntity
  8
NOTE
100
AcDbLine
 10
707.9321134139647
 20
1104.98524690117
 30
0.0
 11
707.9321134139647
 21
1079.98524690117
 31
0.0
  0
LINE
  5
2C59
330
282C
100
AcDbEntity
  8
NOTE
100
AcDbLine
 10
340.4321134139648
 20
1092.48524690117
 30
0.0
 11
315.4321134139648
 21
1092.48524690117
 31
0.0
  0
LINE
  5
2C5A
330
282C
100
AcDbEntity
  8
NOTE
100
AcDbLine
 10
720.4321134139647
 20
1092.48524690117
 30
0.0
 11
695.4321134139647
 21
1092.48524690117
 31
0.0
  0
LINE
  5
2C5B
330
282C
100
AcDbEntity
  8
OUTLINE
100
AcDbLine
 39
50.0
 10
310.4321134139648
 20
1092.48524690117
 30
0.0
 11
725.4321134139646
 21
1092.48524690117
 31
0.0
  0
LINE
  5
2C5C
330
282C
100
AcDbEntity
  8
SIZE
100
AcDbLine
 10
745.4321134139647
 20
1092.48524690117
 30
0.0
 11
864.3344016013582
 21
1092.48524690117
 31
0.0
  0
LINE
  5
2C5D
330
282C
100
AcDbEntity
  8
SIZE
100
AcDbLine
 10
745.4321134139647
 20
1082.48524690117
 30
0.0
 11
864.3344016013582
 21
1082.48524690117
 31
0.0
  0
LINE
  5
2C5E
330
282C
100
AcDbEntity
  8
SIZE
100
AcDbLine
 10
844.3344016013581
 20
1104.48524690117
 30
0.0
 11
844.3344016013581
 21
1116.48524690117
 31
0.0
  0
LINE
  5
2C5F
330
282C
100
AcDbEntity
  8
SIZE
100
AcDbLine
 10
844.3344016013581
 20
1070.48524690117
 30
0.0
 11
844.3344016013581
 21
953.4566754725986
 31
0.0
  0
LINE
  5
2C60
330
282C
100
AcDbEntity
  8
SIZE
100
AcDbLine
 10
844.3344016013581
 20
1092.48524690117
 30
0.0
 11
844.3344016013581
 21
1082.48524690117
 31
0.0
  0
INSERT
  5
2C61
330
282C
100
AcDbEntity
  8
SIZE
100
AcDbBlockReference
  2
_DOTBLANK
 10
844.3344016013581
 20
1092.48524690117
 30
0.0
 41
12.0
 42
12.0
 43
12.0
 50
270.0
  0
INSERT
  5
2C62
330
282C
100
AcDbEntity
  8
SIZE
100
AcDbBlockReference
  2
_DOTBLANK
 10
844.3344016013581
 20
1082.48524690117
 30
0.0
 41
12.0
 42
12.0
 43
12.0
 50
90.0
  0
MTEXT
  5
2C63
330
282C
100
AcDbEntity
  8
SIZE
100
AcDbMText
 10
802.3344016013581
 20
1005.970961186881
 30
0.0
 40
64.0
 41
0.0
 71
     5
 72
     1
  1
\A1;10
 11
0.0000000000000001
 21
1.0
 31
0.0
 73
     1
 44
1.0
  0
LINE
  5
2C64
330
282C
100
AcDbEntity
  8
SIZE
100
AcDbLine
 10
313.4321134139648
 20
712.4852469011702
 30
0.0
 11
180.3946298160484
 21
712.4852469011702
 31
0.0
  0
LINE
  5
2C65
330
282C
100
AcDbEntity
  8
SIZE
100
AcDbLine
 10
324.4321134139648
 20
700.4852469011701
 30
0.0
 11
180.3946298160484
 21
700.4852469011701
 31
0.0
  0
LINE
  5
2C66
330
282C
100
AcDbEntity
  8
SIZE
100
AcDbLine
 10
200.3946298160484
 20
724.4852469011702
 30
0.0
 11
200.3946298160484
 21
736.4852469011701
 31
0.0
  0
LINE
  5
2C67
330
282C
100
AcDbEntity
  8
SIZE
100
AcDbLine
 10
200.3946298160484
 20
688.4852469011701
 30
0.0
 11
200.3946298160484
 21
571.4566754725987
 31
0.0
  0
LINE
  5
2C68
330
282C
100
AcDbEntity
  8
SIZE
100
AcDbLine
 10
200.3946298160484
 20
712.4852469011702
 30
0.0
 11
200.3946298160484
 21
700.4852469011701
 31
0.0
  0
INSERT
  5
2C69
330
282C
100
AcDbEntity
  8
SIZE
100
AcDbBlockReference
  2
_DOTBLANK
 10
200.3946298160484
 20
712.4852469011702
 30
0.0
 41
12.0
 42
12.0
 43
12.0
 50
270.0
  0
INSERT
  5
2C6A
330
282C
100
AcDbEntity
  8
SIZE
100
AcDbBlockReference
  2
_DOTBLANK
 10
200.3946298160484
 20
700.4852469011701
 30
0.0
 41
12.0
 42
12.0
 43
12.0
 50
90.0
  0
MTEXT
  5
2C6B
330
282C
100
AcDbEntity
  8
SIZE
100
AcDbMText
 10
158.3946298160484
 20
623.9709611868811
 30
0.0
 40
64.0
 41
0.0
 71
     5
 72
     1
  1
\A1;12
 11
0.0000000000000001
 21
1.0
 31
0.0
 73
     1
 44
1.0
  0
LINE
  5
2C6C
330
282C
100
AcDbEntity
  8
DETAIL
100
AcDbLine
 10
675.8321134139662
 20
1001.88524690117
 30
0.0
 11
675.8321134139662
 21
728.0852469011701
 31
0.0
  0
LINE
  5
2C6D
330
282C
100
AcDbEntity
  8
DETAIL
100
AcDbLine
 10
360.0321134139634
 20
1001.88524690117
 30
0.0
 11
360.0321134139634
 21
728.0852469011701
 31
0.0
  0
LINE
  5
2C6E
330
282C
100
AcDbEntity
  8
DETAIL
100
AcDbLine
 10
360.0321134139634
 20
1001.88524690117
 30
0.0
 11
675.8321134139662
 21
1001.88524690117
 31
0.0
  0
LINE
  5
2C6F
330
282C
100
AcDbEntity
  8
DETAIL
100
AcDbLine
 10
360.0321134139634
 20
728.0852469011701
 30
0.0
 11
675.8321134139662
 21
728.0852469011701
 31
0.0
  0
LINE
  5
2C70
330
282C
100
AcDbEntity
  8
DETAIL
100
AcDbLine
 10
671.5947118212755
 20
1001.88524690117
 30
0.0
 11
675.8321134139588
 21
999.8674376830326
 31
0.0
1001
ACAD
1010
0.0
1020
0.0
1030
0.0
1001
ACADANNOTATIVE
1000
AnnotativeData
1002
{
1070
     1
1070
     1
1002
}
  0
LINE
  5
2C71
330
282C
100
AcDbEntity
  8
DETAIL
100
AcDbLine
 10
650.5948020842809
 20
1001.88524690117
 30
0.0
 11
675.8321134139588
 21
989.867485938897
 31
0.0
1001
ACAD
1010
0.0
1020
0.0
1030
0.0
1001
ACADANNOTATIVE
1000
AnnotativeData
1002
{
1070
     1
1070
     1
1002
}
  0
LINE
  5
2C72
330
282C
100
AcDbEntity
  8
DETAIL
100
AcDbLine
 10
629.5948923472934
 20
1001.88524690117
 30
0.0
 11
675.8321134139588
 21
979.8675341947653
 31
0.0
1001
ACAD
1010
0.0
1020
0.0
1030
0.0
1001
ACADANNOTATIVE
1000
AnnotativeData
1002
{
1070
     1
1070
     1
1002
}
  0
LINE
  5
2C73
330
282C
100
AcDbEntity
  8
DETAIL
100
AcDbLine
 10
608.5949826103026
 20
1001.88524690117
 30
0.0
 11
675.8321134139588
 21
969.8675824506294
 31
0.0
1001
ACAD
1010
0.0
1020
0.0
1030
0.0
1001
ACADANNOTATIVE
1000
AnnotativeData
1002
{
1070
     1
1070
     1
1002
}
  0
LINE
  5
2C74
330
282C
100
AcDbEntity
  8
DETAIL
100
AcDbLine
 10
587.5950728733116
 20
1001.88524690117
 30
0.0
 11
675.8321134139588
 21
959.8676307064936
 31
0.0
1001
ACAD
1010
0.0
1020
0.0
1030
0.0
1001
ACADANNOTATIVE
1000
AnnotativeData
1002
{
1070
     1
1070
     1
1002
}
  0
LINE
  5
2C75
330
282C
100
AcDbEntity
  8
DETAIL
100
AcDbLine
 10
566.5951631363169
 20
1001.88524690117
 30
0.0
 11
675.8321134139588
 21
949.8676789623599
 31
0.0
1001
ACAD
1010
0.0
1020
0.0
1030
0.0
1001
ACADANNOTATIVE
1000
AnnotativeData
1002
{
1070
     1
1070
     1
1002
}
  0
LINE
  5
2C76
330
282C
100
AcDbEntity
  8
DETAIL
100
AcDbLine
 10
545.5952533993296
 20
1001.88524690117
 30
0.0
 11
675.8321134139588
 21
939.8677272182244
 31
0.0
1001
ACAD
1010
0.0
1020
0.0
1030
0.0
1001
ACADANNOTATIVE
1000
AnnotativeData
1002
{
1070
     1
1070
     1
1002
}
  0
LINE
  5
2C77
330
282C
100
AcDbEntity
  8
DETAIL
100
AcDbLine
 10
524.5953436623351
 20
1001.885246901172
 30
0.0
 11
675.8321134139588
 21
929.8677754740923
 31
0.0
1001
ACAD
1010
0.0
1020
0.0
1030
0.0
1001
ACADANNOTATIVE
1000
AnnotativeData
1002
{
1070
     1
1070
     1
1002
}
  0
LINE
  5
2C78
330
282C
100
AcDbEntity
  8
DETAIL
100
AcDbLine
 10
503.5954339253478
 20
1001.885246901172
 30
0.0
 11
675.8321134139588
 21
919.8678237299569
 31
0.0
1001
ACAD
1010
0.0
1020
0.0
1030
0.0
1001
ACADANNOTATIVE
1000
AnnotativeData
1002
{
1070
     1
1070
     1
1002
}
  0
LINE
  5
2C79
330
282C
100
AcDbEntity
  8
DETAIL
100
AcDbLine
 10
482.5955241883568
 20
1001.885246901171
 30
0.0
 11
675.8321134139588
 21
909.8678719858231
 31
0.0
1001
ACAD
1010
0.0
1020
0.0
1030
0.0
1001
ACADANNOTATIVE
1000
AnnotativeData
1002
{
1070
     1
1070
     1
1002
}
  0
LINE
  5
2C7A
330
282C
100
AcDbEntity
  8
DETAIL
100
AcDbLine
 10
461.5956144513623
 20
1001.885246901171
 30
0.0
 11
675.8321134139588
 21
899.8679202416875
 31
0.0
1001
ACAD
1010
0.0
1020
0.0
1030
0.0
1001
ACADANNOTATIVE
1000
AnnotativeData
1002
{
1070
     1
1070
     1
1002
}
  0
LINE
  5
2C7B
330
282C
100
AcDbEntity
  8
DETAIL
100
AcDbLine
 10
440.595704714375
 20
1001.885246901169
 30
0.0
 11
460.032113413956
 21
992.6298190679396
 31
0.0
1001
ACAD
1010
0.0
1020
0.0
1030
0.0
1001
ACADANNOTATIVE
1000
AnnotativeData
1002
{
1070
     1
1070
     1
1002
}
  0
LINE
  5
2C7C
330
282C
100
AcDbEntity
  8
DETAIL
100
AcDbLine
 10
460.0321134139597
 20
992.6298190679377
 30
0.0
 11
675.8321134139588
 21
889.8679684975537
 31
0.0
1001
ACAD
1010
0.0
1020
0.0
1030
0.0
1001
ACADANNOTATIVE
1000
AnnotativeData
1002
{
1070
     1
1070
     1
1002
}
  0
LINE
  5
2C7D
330
282C
100
AcDbEntity
  8
DETAIL
100
AcDbLine
 10
419.5957949773877
 20
1001.885246901168
 30
0.0
 11
460.032113413956
 21
982.629867323804
 31
0.0
1001
ACAD
1010
0.0
1020
0.0
1030
0.0
1001
ACADANNOTATIVE
1000
AnnotativeData
1002
{
1070
     1
1070
     1
1002
}
  0
LINE
  5
2C7E
330
282C
100
AcDbEntity
  8
DETAIL
100
AcDbLine
 10
460.0321134139597
 20
982.6298673238021
 30
0.0
 11
675.8321134139588
 21
879.8680167534181
 31
0.0
1001
ACAD
1010
0.0
1020
0.0
1030
0.0
1001
ACADANNOTATIVE
1000
AnnotativeData
1002
{
1070
     1
1070
     1
1002
}
  0
LINE
  5
2C7F
330
282C
100
AcDbEntity
  8
DETAIL
100
AcDbLine
 10
398.5958852403966
 20
1001.88524690117
 30
0.0
 11
460.032113413956
 21
972.6299155796718
 31
0.0
1001
ACAD
1010
0.0
1020
0.0
1030
0.0
1001
ACADANNOTATIVE
1000
AnnotativeData
1002
{
1070
     1
1070
     1
1002
}
  0
LINE
  5
2C80
330
282C
100
AcDbEntity
  8
DETAIL
100
AcDbLine
 10
460.0321134139597
 20
972.6299155796699
 30
0.0
 11
675.8321134139588
 21
869.8680650092851
 31
0.0
1001
ACAD
1010
0.0
1020
0.0
1030
0.0
1001
ACADANNOTATIVE
1000
AnnotativeData
1002
{
1070
     1
1070
     1
1002
}
  0
LINE
  5
2C81
330
282C
100
AcDbEntity
  8
DETAIL
100
AcDbLine
 10
377.5959755034059
 20
1001.885246901169
 30
0.0
 11
460.032113413956
 21
962.629963835536
 31
0.0
1001
ACAD
1010
0.0
1020
0.0
1030
0.0
1001
ACADANNOTATIVE
1000
AnnotativeData
1002
{
1070
     1
1070
     1
1002
}
  0
LINE
  5
2C82
330
282C
100
AcDbEntity
  8
DETAIL
100
AcDbLine
 10
460.0321134139597
 20
962.6299638355343
 30
0.0
 11
675.8321134139588
 21
859.8681132651503
 31
0.0
1001
ACAD
1010
0.0
1020
0.0
1030
0.0
1001
ACADANNOTATIVE
1000
AnnotativeData
1002
{
1070
     1
1070
     1
1002
}
  0
LINE
  5
2C83
330
282C
100
AcDbEntity
  8
DETAIL
100
AcDbLine
 10
360.0321134139562
 20
1000.24903459853
 30
0.0
 11
460.032113413956
 21
952.6300120914024
 31
0.0
1001
ACAD
1010
0.0
1020
0.0
1030
0.0
1001
ACADANNOTATIVE
1000
AnnotativeData
1002
{
1070
     1
1070
     1
1002
}
  0
LINE
  5
2C84
330
282C
100
AcDbEntity
  8
DETAIL
100
AcDbLine
 10
460.032113413956
 20
952.6300120914006
 30
0.0
 11
675.8321134139588
 21
849.8681615210157
 31
0.0
1001
ACAD
1010
0.0
1020
0.0
1030
0.0
1001
ACADANNOTATIVE
1000
AnnotativeData
1002
{
1070
     1
1070
     1
1002
}
  0
LINE
  5
2C85
330
282C
100
AcDbEntity
  8
DETAIL
100
AcDbLine
 10
360.0321134139562
 20
990.2490828543962
 30
0.0
 11
460.032113413956
 21
942.6300603472666
 31
0.0
1001
ACAD
1010
0.0
1020
0.0
1030
0.0
1001
ACADANNOTATIVE
1000
AnnotativeData
1002
{
1070
     1
1070
     1
1002
}
  0
LINE
  5
2C86
330
282C
100
AcDbEntity
  8
DETAIL
100
AcDbLine
 10
460.0321134139597
 20
942.630060347265
 30
0.0
 11
675.8321134139588
 21
839.8682097768817
 31
0.0
1001
ACAD
1010
0.0
1020
0.0
1030
0.0
1001
ACADANNOTATIVE
1000
AnnotativeData
1002
{
1070
     1
1070
     1
1002
}
  0
LINE
  5
2C87
330
282C
100
AcDbEntity
  8
DETAIL
100
AcDbLine
 10
360.0321134139562
 20
980.2491311102608
 30
0.0
 11
460.032113413956
 21
932.630108603133
 31
0.0
1001
ACAD
1010
0.0
1020
0.0
1030
0.0
1001
ACADANNOTATIVE
1000
AnnotativeData
1002
{
1070
     1
1070
     1
1002
}
  0
LINE
  5
2C88
330
282C
100
AcDbEntity
  8
DETAIL
100
AcDbLine
 10
460.0321134139597
 20
932.6301086031303
 30
0.0
 11
675.8321134139588
 21
829.8682580327463
 31
0.0
1001
ACAD
1010
0.0
1020
0.0
1030
0.0
1001
ACADANNOTATIVE
1000
AnnotativeData
1002
{
1070
     1
1070
     1
1002
}
  0
LINE
  5
2C89
330
282C
100
AcDbEntity
  8
DETAIL
100
AcDbLine
 10
360.0321134139562
 20
970.2491793661287
 30
0.0
 11
460.032113413956
 21
922.6301568589992
 31
0.0
1001
ACAD
1010
0.0
1020
0.0
1030
0.0
1001
ACADANNOTATIVE
1000
AnnotativeData
1002
{
1070
     1
1070
     1
1002
}
  0
LINE
  5
2C8A
330
282C
100
AcDbEntity
  8
DETAIL
100
AcDbLine
 10
460.0321134139597
 20
922.6301568589972
 30
0.0
 11
675.8321134139588
 21
819.8683062886143
 31
0.0
1001
ACAD
1010
0.0
1020
0.0
1030
0.0
1001
ACADANNOTATIVE
1000
AnnotativeData
1002
{
1070
     1
1070
     1
1002
}
  0
LINE
  5
2C8B
330
282C
100
AcDbEntity
  8
DETAIL
100
AcDbLine
 10
360.0321134139562
 20
960.2492276219932
 30
0.0
 11
460.0321134139597
 21
912.6302051148636
 31
0.0
1001
ACAD
1010
0.0
1020
0.0
1030
0.0
1001
ACADANNOTATIVE
1000
AnnotativeData
1002
{
1070
     1
1070
     1
1002
}
  0
LINE
  5
2C8C
330
282C
100
AcDbEntity
  8
DETAIL
100
AcDbLine
 10
460.0321134139597
 20
912.6302051148629
 30
0.0
 11
675.8321134139588
 21
809.8683545444787
 31
0.0
1001
ACAD
1010
0.0
1020
0.0
1030
0.0
1001
ACADANNOTATIVE
1000
AnnotativeData
1002
{
1070
     1
1070
     1
1002
}
  0
LINE
  5
2C8D
330
282C
100
AcDbEntity
  8
DETAIL
100
AcDbLine
 10
360.0321134139562
 20
950.2492758778592
 30
0.0
 11
460.0321134139597
 21
902.630253370728
 31
0.0
1001
ACAD
1010
0.0
1020
0.0
1030
0.0
1001
ACADANNOTATIVE
1000
AnnotativeData
1002
{
1070
     1
1070
     1
1002
}
  0
LINE
  5
2C8E
330
282C
100
AcDbEntity
  8
DETAIL
100
AcDbLine
 10
658.5767317025895
 20
808.085246901172
 30
0.0
 11
675.8321134139552
 21
799.8684028003448
 31
0.0
1001
ACAD
1010
0.0
1020
0.0
1030
0.0
1001
ACADANNOTATIVE
1000
AnnotativeData
1002
{
1070
     1
1070
     1
1002
}
  0
LINE
  5
2C8F
330
282C
100
AcDbEntity
  8
DETAIL
100
AcDbLine
 10
460.0321134139597
 20
902.630253370728
 30
0.0
 11
658.5767317025895
 21
808.085246901172
 31
0.0
1001
ACAD
1010
0.0
1020
0.0
1030
0.0
1001
ACADANNOTATIVE
1000
AnnotativeData
1002
{
1070
     1
1070
     1
1002
}
  0
LINE
  5
2C90
330
282C
100
AcDbEntity
  8
DETAIL
100
AcDbLine
 10
360.0321134139562
 20
940.2493241337236
 30
0.0
 11
460.0321134139632
 21
892.6303016265933
 31
0.0
1001
ACAD
1010
0.0
1020
0.0
1030
0.0
1001
ACADANNOTATIVE
1000
AnnotativeData
1002
{
1070
     1
1070
     1
1002
}
  0
LINE
  5
2C91
330
282C
100
AcDbEntity
  8
DETAIL
100
AcDbLine
 10
637.5768219656022
 20
808.0852469011702
 30
0.0
 11
675.8321134139588
 21
789.8684510562092
 31
0.0
1001
ACAD
1010
0.0
1020
0.0
1030
0.0
1001
ACADANNOTATIVE
1000
AnnotativeData
1002
{
1070
     1
1070
     1
1002
}
  0
LINE
  5
2C92
330
282C
100
AcDbEntity
  8
DETAIL
100
AcDbLine
 10
460.0321134139632
 20
892.6303016265933
 30
0.0
 11
637.5768219656022
 21
808.0852469011702
 31
0.0
1001
ACAD
1010
0.0
1020
0.0
1030
0.0
1001
ACADANNOTATIVE
1000
AnnotativeData
1002
{
1070
     1
1070
     1
1002
}
  0
LINE
  5
2C93
330
282C
100
AcDbEntity
  8
DETAIL
100
AcDbLine
 10
360.0321134139562
 20
930.2493723895883
 30
0.0
 11
460.032113413956
 21
882.6303498824595
 31
0.0
1001
ACAD
1010
0.0
1020
0.0
1030
0.0
1001
ACADANNOTATIVE
1000
AnnotativeData
1002
{
1070
     1
1070
     1
1002
}
  0
LINE
  5
2C94
330
282C
100
AcDbEntity
  8
DETAIL
100
AcDbLine
 10
616.5769122286112
 20
808.0852469011702
 30
0.0
 11
675.8321134139588
 21
779.8684993120738
 31
0.0
1001
ACAD
1010
0.0
1020
0.0
1030
0.0
1001
ACADANNOTATIVE
1000
AnnotativeData
1002
{
1070
     1
1070
     1
1002
}
  0
LINE
  5
2C95
330
282C
100
AcDbEntity
  8
DETAIL
100
AcDbLine
 10
460.032113413956
 20
882.6303498824595
 30
0.0
 11
616.5769122286112
 21
808.0852469011702
 31
0.0
1001
ACAD
1010
0.0
1020
0.0
1030
0.0
1001
ACADANNOTATIVE
1000
AnnotativeData
1002
{
1070
     1
1070
     1
1002
}
  0
LINE
  5
2C96
330
282C
100
AcDbEntity
  8
DETAIL
100
AcDbLine
 10
360.0321134139562
 20
920.2494206454559
 30
0.0
 11
460.0321134139597
 21
872.6303981383258
 31
0.0
1001
ACAD
1010
0.0
1020
0.0
1030
0.0
1001
ACADANNOTATIVE
1000
AnnotativeData
1002
{
1070
     1
1070
     1
1002
}
  0
LINE
  5
2C97
330
282C
100
AcDbEntity
  8
DETAIL
100
AcDbLine
 10
595.5770024916238
 20
808.0852469011702
 30
0.0
 11
675.8321134139588
 21
769.8685475679417
 31
0.0
1001
ACAD
1010
0.0
1020
0.0
1030
0.0
1001
ACADANNOTATIVE
1000
AnnotativeData
1002
{
1070
     1
1070
     1
1002
}
  0
LINE
  5
2C98
330
282C
100
AcDbEntity
  8
DETAIL
100
AcDbLine
 10
460.0321134139597
 20
872.6303981383258
 30
0.0
 11
595.5770024916238
 21
808.0852469011702
 31
0.0
1001
ACAD
1010
0.0
1020
0.0
1030
0.0
1001
ACADANNOTATIVE
1000
AnnotativeData
1002
{
1070
     1
1070
     1
1002
}
  0
LINE
  5
2C99
330
282C
100
AcDbEntity
  8
DETAIL
100
AcDbLine
 10
360.0321134139562
 20
910.2494689013203
 30
0.0
 11
460.032113413956
 21
862.6304463941917
 31
0.0
1001
ACAD
1010
0.0
1020
0.0
1030
0.0
1001
ACADANNOTATIVE
1000
AnnotativeData
1002
{
1070
     1
1070
     1
1002
}
  0
LINE
  5
2C9A
330
282C
100
AcDbEntity
  8
DETAIL
100
AcDbLine
 10
574.5770927546328
 20
808.0852469011702
 30
0.0
 11
675.8321134139588
 21
759.8685958238061
 31
0.0
1001
ACAD
1010
0.0
1020
0.0
1030
0.0
1001
ACADANNOTATIVE
1000
AnnotativeData
1002
{
1070
     1
1070
     1
1002
}
  0
LINE
  5
2C9B
330
282C
100
AcDbEntity
  8
DETAIL
100
AcDbLine
 10
460.0321134139632
 20
862.6304463941901
 30
0.0
 11
574.5770927546328
 21
808.0852469011702
 31
0.0
1001
ACAD
1010
0.0
1020
0.0
1030
0.0
1001
ACADANNOTATIVE
1000
AnnotativeData
1002
{
1070
     1
1070
     1
1002
}
  0
LINE
  5
2C9C
330
282C
100
AcDbEntity
  8
DETAIL
100
AcDbLine
 10
360.0321134139562
 20
900.2495171571867
 30
0.0
 11
460.0321134139597
 21
852.6304946500562
 31
0.0
1001
ACAD
1010
0.0
1020
0.0
1030
0.0
1001
ACADANNOTATIVE
1000
AnnotativeData
1002
{
1070
     1
1070
     1
1002
}
  0
LINE
  5
2C9D
330
282C
100
AcDbEntity
  8
DETAIL
100
AcDbLine
 10
553.577183017642
 20
808.0852469011693
 30
0.0
 11
675.8321134139588
 21
749.8686440796721
 31
0.0
1001
ACAD
1010
0.0
1020
0.0
1030
0.0
1001
ACADANNOTATIVE
1000
AnnotativeData
1002
{
1070
     1
1070
     1
1002
}
  0
LINE
  5
2C9E
330
282C
100
AcDbEntity
  8
DETAIL
100
AcDbLine
 10
460.0321134139597
 20
852.6304946500562
 30
0.0
 11
553.577183017642
 21
808.0852469011693
 31
0.0
1001
ACAD
1010
0.0
1020
0.0
1030
0.0
1001
ACADANNOTATIVE
1000
AnnotativeData
1002
{
1070
     1
1070
     1
1002
}
  0
LINE
  5
2C9F
330
282C
100
AcDbEntity
  8
DETAIL
100
AcDbLine
 10
360.0321134139562
 20
890.249565413052
 30
0.0
 11
460.0321134139597
 21
842.6305429059206
 31
0.0
1001
ACAD
1010
0.0
1020
0.0
1030
0.0
1001
ACADANNOTATIVE
1000
AnnotativeData
1002
{
1070
     1
1070
     1
1002
}
  0
LINE
  5
2CA0
330
282C
100
AcDbEntity
  8
DETAIL
100
AcDbLine
 10
532.5772732806511
 20
808.0852469011693
 30
0.0
 11
675.8321134139588
 21
739.8686923355366
 31
0.0
1001
ACAD
1010
0.0
1020
0.0
1030
0.0
1001
ACADANNOTATIVE
1000
AnnotativeData
1002
{
1070
     1
1070
     1
1002
}
  0
LINE
  5
2CA1
330
282C
100
AcDbEntity
  8
DETAIL
100
AcDbLine
 10
460.0321134139597
 20
842.6305429059206
 30
0.0
 11
532.5772732806511
 21
808.0852469011693
 31
0.0
1001
ACAD
1010
0.0
1020
0.0
1030
0.0
1001
ACADANNOTATIVE
1000
AnnotativeData
1002
{
1070
     1
1070
     1
1002
}
  0
LINE
  5
2CA2
330
282C
100
AcDbEntity
  8
DETAIL
100
AcDbLine
 10
360.0321134139562
 20
880.2496136689173
 30
0.0
 11
460.0321134139597
 21
832.6305911617868
 31
0.0
1001
ACAD
1010
0.0
1020
0.0
1030
0.0
1001
ACADANNOTATIVE
1000
AnnotativeData
1002
{
1070
     1
1070
     1
1002
}
  0
LINE
  5
2CA3
330
282C
100
AcDbEntity
  8
DETAIL
100
AcDbLine
 10
511.5773635436564
 20
808.0852469011693
 30
0.0
 11
675.8321134139552
 21
729.8687405914029
 31
0.0
1001
ACAD
1010
0.0
1020
0.0
1030
0.0
1001
ACADANNOTATIVE
1000
AnnotativeData
1002
{
1070
     1
1070
     1
1002
}
  0
LINE
  5
2CA4
330
282C
100
AcDbEntity
  8
DETAIL
100
AcDbLine
 10
460.0321134139597
 20
832.6305911617868
 30
0.0
 11
511.5773635436564
 21
808.0852469011693
 31
0.0
1001
ACAD
1010
0.0
1020
0.0
1030
0.0
1001
ACADANNOTATIVE
1000
AnnotativeData
1002
{
1070
     1
1070
     1
1002
}
  0
LINE
  5
2CA5
330
282C
100
AcDbEntity
  8
DETAIL
100
AcDbLine
 10
360.0321134139562
 20
870.2496619247826
 30
0.0
 11
460.0321134139632
 21
822.6306394176512
 31
0.0
1001
ACAD
1010
0.0
1020
0.0
1030
0.0
1001
ACADANNOTATIVE
1000
AnnotativeData
1002
{
1070
     1
1070
     1
1002
}
  0
LINE
  5
2CA6
330
282C
100
AcDbEntity
  8
DETAIL
100
AcDbLine
 10
490.5774538066656
 20
808.0852469011693
 30
0.0
 11
658.577542401563
 21
728.0852469011675
 31
0.0
1001
ACAD
1010
0.0
1020
0.0
1030
0.0
1001
ACADANNOTATIVE
1000
AnnotativeData
1002
{
1070
     1
1070
     1
1002
}
  0
LINE
  5
2CA7
330
282C
100
AcDbEntity
  8
DETAIL
100
AcDbLine
 10
460.0321134139632
 20
822.6306394176512
 30
0.0
 11
490.5774538066656
 21
808.0852469011693
 31
0.0
1001
ACAD
1010
0.0
1020
0.0
1030
0.0
1001
ACADANNOTATIVE
1000
AnnotativeData
1002
{
1070
     1
1070
     1
1002
}
  0
LINE
  5
2CA8
330
282C
100
AcDbEntity
  8
DETAIL
100
AcDbLine
 10
360.0321134139562
 20
860.2497101806507
 30
0.0
 11
460.032113413956
 21
812.6306876735194
 31
0.0
1001
ACAD
1010
0.0
1020
0.0
1030
0.0
1001
ACADANNOTATIVE
1000
AnnotativeData
1002
{
1070
     1
1070
     1
1002
}
  0
LINE
  5
2CA9
330
282C
100
AcDbEntity
  8
DETAIL
100
AcDbLine
 10
469.5775440696746
 20
808.0852469011711
 30
0.0
 11
637.5776326645757
 21
728.0852469011692
 31
0.0
1001
ACAD
1010
0.0
1020
0.0
1030
0.0
1001
ACADANNOTATIVE
1000
AnnotativeData
1002
{
1070
     1
1070
     1
1002
}
  0
LINE
  5
2CAA
330
282C
100
AcDbEntity
  8
DETAIL
100
AcDbLine
 10
460.032113413956
 20
812.6306876735194
 30
0.0
 11
469.5775440696746
 21
808.0852469011711
 31
0.0
1001
ACAD
1010
0.0
1020
0.0
1030
0.0
1001
ACADANNOTATIVE
1000
AnnotativeData
1002
{
1070
     1
1070
     1
1002
}
  0
LINE
  5
2CAB
330
282C
100
AcDbEntity
  8
DETAIL
100
AcDbLine
 10
360.0321134139562
 20
850.2497584365151
 30
0.0
 11
616.5777229275811
 21
728.0852469011692
 31
0.0
1001
ACAD
1010
0.0
1020
0.0
1030
0.0
1001
ACADANNOTATIVE
1000
AnnotativeData
1002
{
1070
     1
1070
     1
1002
}
  0
LINE
  5
2CAC
330
282C
100
AcDbEntity
  8
DETAIL
100
AcDbLine
 10
360.0321134139562
 20
840.2498066923792
 30
0.0
 11
595.5778131905937
 21
728.0852469011692
 31
0.0
1001
ACAD
1010
0.0
1020
0.0
1030
0.0
1001
ACADANNOTATIVE
1000
AnnotativeData
1002
{
1070
     1
1070
     1
1002
}
  0
LINE
  5
2CAD
330
282C
100
AcDbEntity
  8
DETAIL
100
AcDbLine
 10
360.0321134139562
 20
830.2498549482457
 30
0.0
 11
574.5779034535992
 21
728.0852469011692
 31
0.0
1001
ACAD
1010
0.0
1020
0.0
1030
0.0
1001
ACADANNOTATIVE
1000
AnnotativeData
1002
{
1070
     1
1070
     1
1002
}
  0
LINE
  5
2CAE
330
282C
100
AcDbEntity
  8
DETAIL
100
AcDbLine
 10
360.0321134139597
 20
820.2499032041098
 30
0.0
 11
553.5779937166081
 21
728.0852469011692
 31
0.0
1001
ACAD
1010
0.0
1020
0.0
1030
0.0
1001
ACADANNOTATIVE
1000
AnnotativeData
1002
{
1070
     1
1070
     1
1002
}
  0
LINE
  5
2CAF
330
282C
100
AcDbEntity
  8
DETAIL
100
AcDbLine
 10
360.0321134139562
 20
810.2499514599781
 30
0.0
 11
532.5780839796173
 21
728.0852469011711
 31
0.0
1001
ACAD
1010
0.0
1020
0.0
1030
0.0
1001
ACADANNOTATIVE
1000
AnnotativeData
1002
{
1070
     1
1070
     1
1002
}
  0
LINE
  5
2CB0
330
282C
100
AcDbEntity
  8
DETAIL
100
AcDbLine
 10
360.0321134139562
 20
800.2499997158425
 30
0.0
 11
511.5781742426263
 21
728.0852469011701
 31
0.0
1001
ACAD
1010
0.0
1020
0.0
1030
0.0
1001
ACADANNOTATIVE
1000
AnnotativeData
1002
{
1070
     1
1070
     1
1002
}
  0
LINE
  5
2CB1
330
282C
100
AcDbEntity
  8
DETAIL
100
AcDbLine
 10
360.0321134139597
 20
790.2500479717067
 30
0.0
 11
490.5782645056354
 21
728.0852469011701
 31
0.0
1001
ACAD
1010
0.0
1020
0.0
1030
0.0
1001
ACADANNOTATIVE
1000
AnnotativeData
1002
{
1070
     1
1070
     1
1002
}
  0
LINE
  5
2CB2
330
282C
100
AcDbEntity
  8
DETAIL
100
AcDbLine
 10
360.0321134139562
 20
780.2500962275729
 30
0.0
 11
469.5783547686445
 21
728.0852469011701
 31
0.0
1001
ACAD
1010
0.0
1020
0.0
1030
0.0
1001
ACADANNOTATIVE
1000
AnnotativeData
1002
{
1070
     1
1070
     1
1002
}
  0
LINE
  5
2CB3
330
282C
100
AcDbEntity
  8
DETAIL
100
AcDbLine
 10
360.0321134139562
 20
770.2501444834373
 30
0.0
 11
448.5784450316535
 21
728.0852469011701
 31
0.0
1001
ACAD
1010
0.0
1020
0.0
1030
0.0
1001
ACADANNOTATIVE
1000
AnnotativeData
1002
{
1070
     1
1070
     1
1002
}
  0
LINE
  5
2CB4
330
282C
100
AcDbEntity
  8
DETAIL
100
AcDbLine
 10
360.0321134139562
 20
760.2501927393035
 30
0.0
 11
427.5785352946662
 21
728.0852469011684
 31
0.0
1001
ACAD
1010
0.0
1020
0.0
1030
0.0
1001
ACADANNOTATIVE
1000
AnnotativeData
1002
{
1070
     1
1070
     1
1002
}
  0
LINE
  5
2CB5
330
282C
100
AcDbEntity
  8
DETAIL
100
AcDbLine
 10
360.0321134139597
 20
750.2502409951699
 30
0.0
 11
406.5786255576751
 21
728.0852469011701
 31
0.0
1001
ACAD
1010
0.0
1020
0.0
1030
0.0
1001
ACADANNOTATIVE
1000
AnnotativeData
1002
{
1070
     1
1070
     1
1002
}
  0
LINE
  5
2CB6
330
282C
100
AcDbEntity
  8
DETAIL
100
AcDbLine
 10
360.0321134139562
 20
740.250289251036
 30
0.0
 11
385.5787158206843
 21
728.0852469011701
 31
0.0
1001
ACAD
1010
0.0
1020
0.0
1030
0.0
1001
ACADANNOTATIVE
1000
AnnotativeData
1002
{
1070
     1
1070
     1
1002
}
  0
LINE
  5
2CB7
330
282C
100
AcDbEntity
  8
DETAIL
100
AcDbLine
 10
360.0321134139562
 20
730.2503375069003
 30
0.0
 11
364.5788060836896
 21
728.0852469011701
 31
0.0
1001
ACAD
1010
0.0
1020
0.0
1030
0.0
1001
ACADANNOTATIVE
1000
AnnotativeData
1002
{
1070
     1
1070
     1
1002
}
  0
LINE
  5
2CB8
330
282C
100
AcDbEntity
  8
DETAIL
100
AcDbLine
 10
360.0321134139634
 20
994.5204409549573
 30
0.0
 11
375.4982140570612
 21
1001.885246901169
 31
0.0
1001
ACAD
1010
0.0
1020
0.0
1030
0.0
1001
ACADANNOTATIVE
1000
AnnotativeData
1002
{
1070
     1
1070
     1
1002
}
  0
LINE
  5
2CB9
330
282C
100
AcDbEntity
  8
DETAIL
100
AcDbLine
 10
360.0321134139634
 20
984.5204892108217
 30
0.0
 11
396.4981237940559
 21
1001.885246901169
 31
0.0
1001
ACAD
1010
0.0
1020
0.0
1030
0.0
1001
ACADANNOTATIVE
1000
AnnotativeData
1002
{
1070
     1
1070
     1
1002
}
  0
LINE
  5
2CBA
330
282C
100
AcDbEntity
  8
DETAIL
100
AcDbLine
 10
360.0321134139634
 20
974.5205374666879
 30
0.0
 11
417.4980335310467
 21
1001.885246901169
 31
0.0
1001
ACAD
1010
0.0
1020
0.0
1030
0.0
1001
ACADANNOTATIVE
1000
AnnotativeData
1002
{
1070
     1
1070
     1
1002
}
  0
LINE
  5
2CBB
330
282C
100
AcDbEntity
  8
DETAIL
100
AcDbLine
 10
360.0321134139634
 20
964.5205857225532
 30
0.0
 11
438.4979432680341
 21
1001.88524690117
 31
0.0
1001
ACAD
1010
0.0
1020
0.0
1030
0.0
1001
ACADANNOTATIVE
1000
AnnotativeData
1002
{
1070
     1
1070
     1
1002
}
  0
LINE
  5
2CBC
330
282C
100
AcDbEntity
  8
DETAIL
100
AcDbLine
 10
360.032113413967
 20
954.5206339784195
 30
0.0
 11
459.4978530050286
 21
1001.88524690117
 31
0.0
1001
ACAD
1010
0.0
1020
0.0
1030
0.0
1001
ACADANNOTATIVE
1000
AnnotativeData
1002
{
1070
     1
1070
     1
1002
}
  0
LINE
  5
2CBD
330
282C
100
AcDbEntity
  8
DETAIL
100
AcDbLine
 10
360.0321134139634
 20
944.5206822342838
 30
0.0
 11
460.0321134139669
 21
992.1397047414153
 31
0.0
1001
ACAD
1010
0.0
1020
0.0
1030
0.0
1001
ACADANNOTATIVE
1000
AnnotativeData
1002
{
1070
     1
1070
     1
1002
}
  0
LINE
  5
2CBE
330
282C
100
AcDbEntity
  8
DETAIL
100
AcDbLine
 10
460.0321134139669
 20
992.1397047414153
 30
0.0
 11
480.497762742016
 21
1001.885246901168
 31
0.0
1001
ACAD
1010
0.0
1020
0.0
1030
0.0
1001
ACADANNOTATIVE
1000
AnnotativeData
1002
{
1070
     1
1070
     1
1002
}
  0
LINE
  5
2CBF
330
282C
100
AcDbEntity
  8
DETAIL
100
AcDbLine
 10
360.0321134139634
 20
934.520730490151
 30
0.0
 11
460.0321134139632
 21
982.1397529972806
 31
0.0
1001
ACAD
1010
0.0
1020
0.0
1030
0.0
1001
ACADANNOTATIVE
1000
AnnotativeData
1002
{
1070
     1
1070
     1
1002
}
  0
LINE
  5
2CC0
330
282C
100
AcDbEntity
  8
DETAIL
100
AcDbLine
 10
460.0321134139632
 20
982.1397529972806
 30
0.0
 11
501.497672479007
 21
1001.885246901169
 31
0.0
1001
ACAD
1010
0.0
1020
0.0
1030
0.0
1001
ACADANNOTATIVE
1000
AnnotativeData
1002
{
1070
     1
1070
     1
1002
}
  0
LINE
  5
2CC1
330
282C
100
AcDbEntity
  8
DETAIL
100
AcDbLine
 10
360.0321134139634
 20
924.5207787460154
 30
0.0
 11
460.0321134139669
 21
972.1398012531468
 31
0.0
1001
ACAD
1010
0.0
1020
0.0
1030
0.0
1001
ACADANNOTATIVE
1000
AnnotativeData
1002
{
1070
     1
1070
     1
1002
}
  0
LINE
  5
2CC2
330
282C
100
AcDbEntity
  8
DETAIL
100
AcDbLine
 10
460.0321134139669
 20
972.1398012531468
 30
0.0
 11
522.4975822159978
 21
1001.885246901169
 31
0.0
1001
ACAD
1010
0.0
1020
0.0
1030
0.0
1001
ACADANNOTATIVE
1000
AnnotativeData
1002
{
1070
     1
1070
     1
1002
}
  0
LINE
  5
2CC3
330
282C
100
AcDbEntity
  8
DETAIL
100
AcDbLine
 10
360.032113413967
 20
914.5208270018816
 30
0.0
 11
460.0321134139669
 21
962.1398495090112
 31
0.0
1001
ACAD
1010
0.0
1020
0.0
1030
0.0
1001
ACADANNOTATIVE
1000
AnnotativeData
1002
{
1070
     1
1070
     1
1002
}
  0
LINE
  5
2CC4
330
282C
100
AcDbEntity
  8
DETAIL
100
AcDbLine
 10
460.0321134139669
 20
962.1398495090112
 30
0.0
 11
543.4974919529889
 21
1001.885246901169
 31
0.0
1001
ACAD
1010
0.0
1020
0.0
1030
0.0
1001
ACADANNOTATIVE
1000
AnnotativeData
1002
{
1070
     1
1070
     1
1002
}
  0
LINE
  5
2CC5
330
282C
100
AcDbEntity
  8
DETAIL
100
AcDbLine
 10
360.0321134139634
 20
904.5208752577467
 30
0.0
 11
460.0321134139706
 21
952.1398977648782
 31
0.0
1001
ACAD
1010
0.0
1020
0.0
1030
0.0
1001
ACADANNOTATIVE
1000
AnnotativeData
1002
{
1070
     1
1070
     1
1002
}
  0
LINE
  5
2CC6
330
282C
100
AcDbEntity
  8
DETAIL
100
AcDbLine
 10
460.0321134139706
 20
952.1398977648782
 30
0.0
 11
564.4974016899833
 21
1001.88524690117
 31
0.0
1001
ACAD
1010
0.0
1020
0.0
1030
0.0
1001
ACADANNOTATIVE
1000
AnnotativeData
1002
{
1070
     1
1070
     1
1002
}
  0
LINE
  5
2CC7
330
282C
100
AcDbEntity
  8
DETAIL
100
AcDbLine
 10
360.0321134139634
 20
894.5209235136113
 30
0.0
 11
460.0321134139669
 21
942.1399460207426
 31
0.0
1001
ACAD
1010
0.0
1020
0.0
1030
0.0
1001
ACADANNOTATIVE
1000
AnnotativeData
1002
{
1070
     1
1070
     1
1002
}
  0
LINE
  5
2CC8
330
282C
100
AcDbEntity
  8
DETAIL
100
AcDbLine
 10
460.0321134139669
 20
942.1399460207426
 30
0.0
 11
585.4973114269707
 21
1001.88524690117
 31
0.0
1001
ACAD
1010
0.0
1020
0.0
1030
0.0
1001
ACADANNOTATIVE
1000
AnnotativeData
1002
{
1070
     1
1070
     1
1002
}
  0
LINE
  5
2CC9
330
282C
100
AcDbEntity
  8
DETAIL
100
AcDbLine
 10
360.0321134139634
 20
884.5209717694782
 30
0.0
 11
460.0321134139669
 21
932.1399942766095
 31
0.0
1001
ACAD
1010
0.0
1020
0.0
1030
0.0
1001
ACADANNOTATIVE
1000
AnnotativeData
1002
{
1070
     1
1070
     1
1002
}
  0
LINE
  5
2CCA
330
282C
100
AcDbEntity
  8
DETAIL
100
AcDbLine
 10
460.0321134139669
 20
932.1399942766095
 30
0.0
 11
606.4972211639617
 21
1001.885246901171
 31
0.0
1001
ACAD
1010
0.0
1020
0.0
1030
0.0
1001
ACADANNOTATIVE
1000
AnnotativeData
1002
{
1070
     1
1070
     1
1002
}
  0
LINE
  5
2CCB
330
282C
100
AcDbEntity
  8
DETAIL
100
AcDbLine
 10
360.0321134139634
 20
874.5210200253428
 30
0.0
 11
460.0321134139669
 21
922.1400425324739
 31
0.0
1001
ACAD
1010
0.0
1020
0.0
1030
0.0
1001
ACADANNOTATIVE
1000
AnnotativeData
1002
{
1070
     1
1070
     1
1002
}
  0
LINE
  5
2CCC
330
282C
100
AcDbEntity
  8
DETAIL
100
AcDbLine
 10
460.0321134139669
 20
922.1400425324739
 30
0.0
 11
627.4971309009562
 21
1001.885246901171
 31
0.0
1001
ACAD
1010
0.0
1020
0.0
1030
0.0
1001
ACADANNOTATIVE
1000
AnnotativeData
1002
{
1070
     1
1070
     1
1002
}
  0
LINE
  5
2CCD
330
282C
100
AcDbEntity
  8
DETAIL
100
AcDbLine
 10
360.032113413967
 20
864.521068281209
 30
0.0
 11
460.0321134139706
 21
912.1400907883403
 31
0.0
1001
ACAD
1010
0.0
1020
0.0
1030
0.0
1001
ACADANNOTATIVE
1000
AnnotativeData
1002
{
1070
     1
1070
     1
1002
}
  0
LINE
  5
2CCE
330
282C
100
AcDbEntity
  8
DETAIL
100
AcDbLine
 10
460.0321134139706
 20
912.1400907883403
 30
0.0
 11
648.4970406379436
 21
1001.885246901171
 31
0.0
1001
ACAD
1010
0.0
1020
0.0
1030
0.0
1001
ACADANNOTATIVE
1000
AnnotativeData
1002
{
1070
     1
1070
     1
1002
}
  0
LINE
  5
2CCF
330
282C
100
AcDbEntity
  8
DETAIL
100
AcDbLine
 10
360.0321134139634
 20
854.5211165370742
 30
0.0
 11
460.0321134139669
 21
902.1401390442056
 31
0.0
1001
ACAD
1010
0.0
1020
0.0
1030
0.0
1001
ACADANNOTATIVE
1000
AnnotativeData
1002
{
1070
     1
1070
     1
1002
}
  0
LINE
  5
2CD0
330
282C
100
AcDbEntity
  8
DETAIL
100
AcDbLine
 10
460.0321134139669
 20
902.1401390442056
 30
0.0
 11
669.4969503749346
 21
1001.88524690117
 31
0.0
1001
ACAD
1010
0.0
1020
0.0
1030
0.0
1001
ACADANNOTATIVE
1000
AnnotativeData
1002
{
1070
     1
1070
     1
1002
}
  0
LINE
  5
2CD1
330
282C
100
AcDbEntity
  8
DETAIL
100
AcDbLine
 10
360.032113413967
 20
844.5211647929403
 30
0.0
 11
460.0321134139669
 21
892.1401873000698
 31
0.0
1001
ACAD
1010
0.0
1020
0.0
1030
0.0
1001
ACADANNOTATIVE
1000
AnnotativeData
1002
{
1070
     1
1070
     1
1002
}
  0
LINE
  5
2CD2
330
282C
100
AcDbEntity
  8
DETAIL
100
AcDbLine
 10
460.0321134139669
 20
892.1401873000698
 30
0.0
 11
675.8321134139662
 21
994.9020378704547
 31
0.0
1001
ACAD
1010
0.0
1020
0.0
1030
0.0
1001
ACADANNOTATIVE
1000
AnnotativeData
1002
{
1070
     1
1070
     1
1002
}
  0
LINE
  5
2CD3
330
282C
100
AcDbEntity
  8
DETAIL
100
AcDbLine
 10
360.0321134139634
 20
834.5212130488057
 30
0.0
 11
460.0321134139669
 21
882.1402355559373
 31
0.0
1001
ACAD
1010
0.0
1020
0.0
1030
0.0
1001
ACADANNOTATIVE
1000
AnnotativeData
1002
{
1070
     1
1070
     1
1002
}
  0
LINE
  5
2CD4
330
282C
100
AcDbEntity
  8
DETAIL
100
AcDbLine
 10
460.0321134139669
 20
882.1402355559373
 30
0.0
 11
675.8321134139662
 21
984.902086126322
 31
0.0
1001
ACAD
1010
0.0
1020
0.0
1030
0.0
1001
ACADANNOTATIVE
1000
AnnotativeData
1002
{
1070
     1
1070
     1
1002
}
  0
LINE
  5
2CD5
330
282C
100
AcDbEntity
  8
DETAIL
100
AcDbLine
 10
360.0321134139634
 20
824.5212613046719
 30
0.0
 11
460.0321134139669
 21
872.1402838118013
 31
0.0
1001
ACAD
1010
0.0
1020
0.0
1030
0.0
1001
ACADANNOTATIVE
1000
AnnotativeData
1002
{
1070
     1
1070
     1
1002
}
  0
LINE
  5
2CD6
330
282C
100
AcDbEntity
  8
DETAIL
100
AcDbLine
 10
460.0321134139669
 20
872.1402838118013
 30
0.0
 11
675.8321134139626
 21
974.9021343821864
 31
0.0
1001
ACAD
1010
0.0
1020
0.0
1030
0.0
1001
ACADANNOTATIVE
1000
AnnotativeData
1002
{
1070
     1
1070
     1
1002
}
  0
LINE
  5
2CD7
330
282C
100
AcDbEntity
  8
DETAIL
100
AcDbLine
 10
360.032113413967
 20
814.5213095605361
 30
0.0
 11
460.0321134139706
 21
862.1403320676677
 31
0.0
1001
ACAD
1010
0.0
1020
0.0
1030
0.0
1001
ACADANNOTATIVE
1000
AnnotativeData
1002
{
1070
     1
1070
     1
1002
}
  0
LINE
  5
2CD8
330
282C
100
AcDbEntity
  8
DETAIL
100
AcDbLine
 10
460.0321134139706
 20
862.1403320676677
 30
0.0
 11
675.8321134139662
 21
964.9021826380526
 31
0.0
1001
ACAD
1010
0.0
1020
0.0
1030
0.0
1001
ACADANNOTATIVE
1000
AnnotativeData
1002
{
1070
     1
1070
     1
1002
}
  0
LINE
  5
2CD9
330
282C
100
AcDbEntity
  8
DETAIL
100
AcDbLine
 10
360.0321134139634
 20
804.5213578164034
 30
0.0
 11
460.0321134139669
 21
852.140380323533
 31
0.0
1001
ACAD
1010
0.0
1020
0.0
1030
0.0
1001
ACADANNOTATIVE
1000
AnnotativeData
1002
{
1070
     1
1070
     1
1002
}
  0
LINE
  5
2CDA
330
282C
100
AcDbEntity
  8
DETAIL
100
AcDbLine
 10
460.0321134139669
 20
852.140380323533
 30
0.0
 11
675.8321134139662
 21
954.902230893918
 31
0.0
1001
ACAD
1010
0.0
1020
0.0
1030
0.0
1001
ACADANNOTATIVE
1000
AnnotativeData
1002
{
1070
     1
1070
     1
1002
}
  0
LINE
  5
2CDB
330
282C
100
AcDbEntity
  8
DETAIL
100
AcDbLine
 10
360.0321134139634
 20
794.5214060722677
 30
0.0
 11
460.0321134139706
 21
842.1404285793991
 31
0.0
1001
ACAD
1010
0.0
1020
0.0
1030
0.0
1001
ACADANNOTATIVE
1000
AnnotativeData
1002
{
1070
     1
1070
     1
1002
}
  0
LINE
  5
2CDC
330
282C
100
AcDbEntity
  8
DETAIL
100
AcDbLine
 10
460.0321134139706
 20
842.1404285793991
 30
0.0
 11
675.8321134139662
 21
944.9022791497839
 31
0.0
1001
ACAD
1010
0.0
1020
0.0
1030
0.0
1001
ACADANNOTATIVE
1000
AnnotativeData
1002
{
1070
     1
1070
     1
1002
}
  0
LINE
  5
2CDD
330
282C
100
AcDbEntity
  8
DETAIL
100
AcDbLine
 10
360.0321134139634
 20
784.521454328134
 30
0.0
 11
460.0321134139669
 21
832.1404768352634
 31
0.0
1001
ACAD
1010
0.0
1020
0.0
1030
0.0
1001
ACADANNOTATIVE
1000
AnnotativeData
1002
{
1070
     1
1070
     1
1002
}
  0
LINE
  5
2CDE
330
282C
100
AcDbEntity
  8
DETAIL
100
AcDbLine
 10
460.0321134139669
 20
832.1404768352634
 30
0.0
 11
675.8321134139662
 21
934.9023274056483
 31
0.0
1001
ACAD
1010
0.0
1020
0.0
1030
0.0
1001
ACADANNOTATIVE
1000
AnnotativeData
1002
{
1070
     1
1070
     1
1002
}
  0
LINE
  5
2CDF
330
282C
100
AcDbEntity
  8
DETAIL
100
AcDbLine
 10
360.0321134139634
 20
774.5215025839992
 30
0.0
 11
460.0321134139669
 21
822.1405250911287
 31
0.0
1001
ACAD
1010
0.0
1020
0.0
1030
0.0
1001
ACADANNOTATIVE
1000
AnnotativeData
1002
{
1070
     1
1070
     1
1002
}
  0
LINE
  5
2CE0
330
282C
100
AcDbEntity
  8
DETAIL
100
AcDbLine
 10
460.0321134139669
 20
822.1405250911287
 30
0.0
 11
675.8321134139662
 21
924.9023756615157
 31
0.0
1001
ACAD
1010
0.0
1020
0.0
1030
0.0
1001
ACADANNOTATIVE
1000
AnnotativeData
1002
{
1070
     1
1070
     1
1002
}
  0
LINE
  5
2CE1
330
282C
100
AcDbEntity
  8
DETAIL
100
AcDbLine
 10
360.0321134139634
 20
764.5215508398655
 30
0.0
 11
460.0321134139706
 21
812.140573346995
 31
0.0
1001
ACAD
1010
0.0
1020
0.0
1030
0.0
1001
ACADANNOTATIVE
1000
AnnotativeData
1002
{
1070
     1
1070
     1
1002
}
  0
LINE
  5
2CE2
330
282C
100
AcDbEntity
  8
DETAIL
100
AcDbLine
 10
460.0321134139706
 20
812.140573346995
 30
0.0
 11
675.8321134139662
 21
914.9024239173799
 31
0.0
1001
ACAD
1010
0.0
1020
0.0
1030
0.0
1001
ACADANNOTATIVE
1000
AnnotativeData
1002
{
1070
     1
1070
     1
1002
}
  0
LINE
  5
2CE3
330
282C
100
AcDbEntity
  8
DETAIL
100
AcDbLine
 10
360.032113413967
 20
754.5215990957318
 30
0.0
 11
472.5158331237073
 21
808.0852469011684
 31
0.0
1001
ACAD
1010
0.0
1020
0.0
1030
0.0
1001
ACADANNOTATIVE
1000
AnnotativeData
1002
{
1070
     1
1070
     1
1002
}
  0
LINE
  5
2CE4
330
282C
100
AcDbEntity
  8
DETAIL
100
AcDbLine
 10
472.5158331237073
 20
808.0852469011684
 30
0.0
 11
675.8321134139662
 21
904.9024721732463
 31
0.0
1001
ACAD
1010
0.0
1020
0.0
1030
0.0
1001
ACADANNOTATIVE
1000
AnnotativeData
1002
{
1070
     1
1070
     1
1002
}
  0
LINE
  5
2CE5
330
282C
100
AcDbEntity
  8
DETAIL
100
AcDbLine
 10
360.0321134139634
 20
744.521647351597
 30
0.0
 11
493.5157428606983
 21
808.0852469011693
 31
0.0
1001
ACAD
1010
0.0
1020
0.0
1030
0.0
1001
ACADANNOTATIVE
1000
AnnotativeData
1002
{
1070
     1
1070
     1
1002
}
  0
LINE
  5
2CE6
330
282C
100
AcDbEntity
  8
DETAIL
100
AcDbLine
 10
493.5157428606983
 20
808.0852469011693
 30
0.0
 11
675.8321134139662
 21
894.9025204291116
 31
0.0
1001
ACAD
1010
0.0
1020
0.0
1030
0.0
1001
ACADANNOTATIVE
1000
AnnotativeData
1002
{
1070
     1
1070
     1
1002
}
  0
LINE
  5
2CE7
330
282C
100
AcDbEntity
  8
DETAIL
100
AcDbLine
 10
360.032113413967
 20
734.5216956074632
 30
0.0
 11
514.5156525976893
 21
808.0852469011693
 31
0.0
1001
ACAD
1010
0.0
1020
0.0
1030
0.0
1001
ACADANNOTATIVE
1000
AnnotativeData
1002
{
1070
     1
1070
     1
1002
}
  0
LINE
  5
2CE8
330
282C
100
AcDbEntity
  8
DETAIL
100
AcDbLine
 10
514.5156525976893
 20
808.0852469011693
 30
0.0
 11
675.8321134139662
 21
884.9025686849758
 31
0.0
1001
ACAD
1010
0.0
1020
0.0
1030
0.0
1001
ACADANNOTATIVE
1000
AnnotativeData
1002
{
1070
     1
1070
     1
1002
}
  0
LINE
  5
2CE9
330
282C
100
AcDbEntity
  8
DETAIL
100
AcDbLine
 10
367.5154737397828
 20
728.0852469011684
 30
0.0
 11
535.5155623346802
 21
808.0852469011702
 31
0.0
1001
ACAD
1010
0.0
1020
0.0
1030
0.0
1001
ACADANNOTATIVE
1000
AnnotativeData
1002
{
1070
     1
1070
     1
1002
}
  0
LINE
  5
2CEA
330
282C
100
AcDbEntity
  8
DETAIL
100
AcDbLine
 10
535.5155623346802
 20
808.0852469011702
 30
0.0
 11
675.8321134139662
 21
874.9026169408432
 31
0.0
1001
ACAD
1010
0.0
1020
0.0
1030
0.0
1001
ACADANNOTATIVE
1000
AnnotativeData
1002
{
1070
     1
1070
     1
1002
}
  0
LINE
  5
2CEB
330
282C
100
AcDbEntity
  8
DETAIL
100
AcDbLine
 10
388.5153834767737
 20
728.0852469011684
 30
0.0
 11
556.5154720716711
 21
808.0852469011702
 31
0.0
1001
ACAD
1010
0.0
1020
0.0
1030
0.0
1001
ACADANNOTATIVE
1000
AnnotativeData
1002
{
1070
     1
1070
     1
1002
}
  0
LINE
  5
2CEC
330
282C
100
AcDbEntity
  8
DETAIL
100
AcDbLine
 10
556.5154720716711
 20
808.0852469011702
 30
0.0
 11
675.8321134139626
 21
864.9026651967075
 31
0.0
1001
ACAD
1010
0.0
1020
0.0
1030
0.0
1001
ACADANNOTATIVE
1000
AnnotativeData
1002
{
1070
     1
1070
     1
1002
}
  0
LINE
  5
2CED
330
282C
100
AcDbEntity
  8
DETAIL
100
AcDbLine
 10
409.5152932137646
 20
728.0852469011684
 30
0.0
 11
577.5153818086621
 21
808.0852469011684
 31
0.0
1001
ACAD
1010
0.0
1020
0.0
1030
0.0
1001
ACADANNOTATIVE
1000
AnnotativeData
1002
{
1070
     1
1070
     1
1002
}
  0
LINE
  5
2CEE
330
282C
100
AcDbEntity
  8
DETAIL
100
AcDbLine
 10
577.5153818086621
 20
808.0852469011684
 30
0.0
 11
675.8321134139698
 21
854.9027134525736
 31
0.0
1001
ACAD
1010
0.0
1020
0.0
1030
0.0
1001
ACADANNOTATIVE
1000
AnnotativeData
1002
{
1070
     1
1070
     1
1002
}
  0
LINE
  5
2CEF
330
282C
100
AcDbEntity
  8
DETAIL
100
AcDbLine
 10
430.5152029507556
 20
728.0852469011692
 30
0.0
 11
598.5152915456493
 21
808.0852469011693
 31
0.0
1001
ACAD
1010
0.0
1020
0.0
1030
0.0
1001
ACADANNOTATIVE
1000
AnnotativeData
1002
{
1070
     1
1070
     1
1002
}
  0
LINE
  5
2CF0
330
282C
100
AcDbEntity
  8
DETAIL
100
AcDbLine
 10
598.5152915456493
 20
808.0852469011693
 30
0.0
 11
675.8321134139662
 21
844.9027617084389
 31
0.0
1001
ACAD
1010
0.0
1020
0.0
1030
0.0
1001
ACADANNOTATIVE
1000
AnnotativeData
1002
{
1070
     1
1070
     1
1002
}
  0
LINE
  5
2CF1
330
282C
100
AcDbEntity
  8
DETAIL
100
AcDbLine
 10
451.5151126877466
 20
728.0852469011692
 30
0.0
 11
619.5152012826404
 21
808.0852469011693
 31
0.0
1001
ACAD
1010
0.0
1020
0.0
1030
0.0
1001
ACADANNOTATIVE
1000
AnnotativeData
1002
{
1070
     1
1070
     1
1002
}
  0
LINE
  5
2CF2
330
282C
100
AcDbEntity
  8
DETAIL
100
AcDbLine
 10
619.5152012826404
 20
808.0852469011693
 30
0.0
 11
675.8321134139662
 21
834.9028099643051
 31
0.0
1001
ACAD
1010
0.0
1020
0.0
1030
0.0
1001
ACADANNOTATIVE
1000
AnnotativeData
1002
{
1070
     1
1070
     1
1002
}
  0
LINE
  5
2CF3
330
282C
100
AcDbEntity
  8
DETAIL
100
AcDbLine
 10
472.5150224247411
 20
728.0852469011701
 30
0.0
 11
640.5151110196348
 21
808.0852469011702
 31
0.0
1001
ACAD
1010
0.0
1020
0.0
1030
0.0
1001
ACADANNOTATIVE
1000
AnnotativeData
1002
{
1070
     1
1070
     1
1002
}
  0
LINE
  5
2CF4
330
282C
100
AcDbEntity
  8
DETAIL
100
AcDbLine
 10
640.5151110196348
 20
808.0852469011702
 30
0.0
 11
675.8321134139662
 21
824.9028582201704
 31
0.0
1001
ACAD
1010
0.0
1020
0.0
1030
0.0
1001
ACADANNOTATIVE
1000
AnnotativeData
1002
{
1070
     1
1070
     1
1002
}
  0
LINE
  5
2CF5
330
282C
100
AcDbEntity
  8
DETAIL
100
AcDbLine
 10
493.5149321617283
 20
728.0852469011701
 30
0.0
 11
661.5150207566222
 21
808.0852469011702
 31
0.0
1001
ACAD
1010
0.0
1020
0.0
1030
0.0
1001
ACADANNOTATIVE
1000
AnnotativeData
1002
{
1070
     1
1070
     1
1002
}
  0
LINE
  5
2CF6
330
282C
100
AcDbEntity
  8
DETAIL
100
AcDbLine
 10
661.5150207566222
 20
808.0852469011702
 30
0.0
 11
675.8321134139626
 21
814.9029064760346
 31
0.0
1001
ACAD
1010
0.0
1020
0.0
1030
0.0
1001
ACADANNOTATIVE
1000
AnnotativeData
1002
{
1070
     1
1070
     1
1002
}
  0
LINE
  5
2CF7
330
282C
100
AcDbEntity
  8
DETAIL
100
AcDbLine
 10
514.5148418987156
 20
728.0852469011684
 30
0.0
 11
675.8321134139662
 21
804.902954731901
 31
0.0
1001
ACAD
1010
0.0
1020
0.0
1030
0.0
1001
ACADANNOTATIVE
1000
AnnotativeData
1002
{
1070
     1
1070
     1
1002
}
  0
LINE
  5
2CF8
330
282C
100
AcDbEntity
  8
DETAIL
100
AcDbLine
 10
535.5147516357102
 20
728.0852469011692
 30
0.0
 11
675.8321134139662
 21
794.9030029877662
 31
0.0
1001
ACAD
1010
0.0
1020
0.0
1030
0.0
1001
ACADANNOTATIVE
1000
AnnotativeData
1002
{
1070
     1
1070
     1
1002
}
  0
LINE
  5
2CF9
330
282C
100
AcDbEntity
  8
DETAIL
100
AcDbLine
 10
556.5146613726977
 20
728.0852469011692
 30
0.0
 11
675.8321134139662
 21
784.9030512436325
 31
0.0
1001
ACAD
1010
0.0
1020
0.0
1030
0.0
1001
ACADANNOTATIVE
1000
AnnotativeData
1002
{
1070
     1
1070
     1
1002
}
  0
LINE
  5
2CFA
330
282C
100
AcDbEntity
  8
DETAIL
100
AcDbLine
 10
577.5145711096886
 20
728.0852469011692
 30
0.0
 11
675.8321134139662
 21
774.9030994994967
 31
0.0
1001
ACAD
1010
0.0
1020
0.0
1030
0.0
1001
ACADANNOTATIVE
1000
AnnotativeData
1002
{
1070
     1
1070
     1
1002
}
  0
LINE
  5
2CFB
330
282C
100
AcDbEntity
  8
DETAIL
100
AcDbLine
 10
598.5144808466832
 20
728.0852469011701
 30
0.0
 11
675.8321134139662
 21
764.903147755364
 31
0.0
1001
ACAD
1010
0.0
1020
0.0
1030
0.0
1001
ACADANNOTATIVE
1000
AnnotativeData
1002
{
1070
     1
1070
     1
1002
}
  0
LINE
  5
2CFC
330
282C
100
AcDbEntity
  8
DETAIL
100
AcDbLine
 10
619.5143905836742
 20
728.0852469011701
 30
0.0
 11
675.8321134139662
 21
754.9031960112284
 31
0.0
1001
ACAD
1010
0.0
1020
0.0
1030
0.0
1001
ACADANNOTATIVE
1000
AnnotativeData
1002
{
1070
     1
1070
     1
1002
}
  0
LINE
  5
2CFD
330
282C
100
AcDbEntity
  8
DETAIL
100
AcDbLine
 10
640.5143003206651
 20
728.0852469011684
 30
0.0
 11
675.8321134139662
 21
744.9032442670945
 31
0.0
1001
ACAD
1010
0.0
1020
0.0
1030
0.0
1001
ACADANNOTATIVE
1000
AnnotativeData
1002
{
1070
     1
1070
     1
1002
}
  0
LINE
  5
2CFE
330
282C
100
AcDbEntity
  8
DETAIL
100
AcDbLine
 10
661.514210057656
 20
728.0852469011692
 30
0.0
 11
675.8321134139662
 21
734.9032925229598
 31
0.0
1001
ACAD
1010
0.0
1020
0.0
1030
0.0
1001
ACADANNOTATIVE
1000
AnnotativeData
1002
{
1070
     1
1070
     1
1002
}
  0
ENDSEC
  0
SECTION
  2
OBJECTS
  0
DICTIONARY
  5
27C4
330
0
100
AcDbDictionary
281
     1
  3
ACAD_2007HEADERVARS_RT
350
2DE7
  3
ACAD_COLOR
350
2822
  3
ACAD_GROUP
350
27C5
  3
ACAD_LAYOUT
350
2821
  3
ACAD_MATERIAL
350
27C8
  3
ACAD_MLEADERSTYLE
350
2825
  3
ACAD_MLINESTYLE
350
281E
  3
ACAD_PLOTSETTINGS
350
2820
  3
ACAD_PLOTSTYLENAME
350
27C6
  3
ACAD_SCALELIST
350
27F2
  3
ACAD_TABLESTYLE
350
2823
  3
ACAD_VISUALSTYLE
350
27E1
  3
ACDB_RECOMPOSE_DATA
350
292E
  3
AcDbVariableDictionary
350
2925
  3
AcmDictionary
350
29F4
  3
AMG
350
2941
  3
AMGSNAPSETTINGS
350
2A1C
  3
MAPISURF_MODULE
350
2D8B
  0
DICTIONARY
  5
2B22
330
27BA
100
AcDbDictionary
280
     1
281
     1
  3
ACAD_LAYERSTATES
360
2B23
  0
DICTIONARY
  5
290F
330
2814
100
AcDbDictionary
280
     1
281
     1
  3
ADSK_XREC_LAYER_RECONCILED
360
2910
  0
DICTIONARY
  5
2911
330
2843
100
AcDbDictionary
280
     1
281
     1
  3
ADSK_XREC_LAYER_RECONCILED
360
2912
  0
DICTIONARY
  5
2913
330
2844
100
AcDbDictionary
280
     1
281
     1
  3
ADSK_XREC_LAYER_RECONCILED
360
2914
  0
DICTIONARY
  5
2915
330
2845
100
AcDbDictionary
280
     1
281
     1
  3
ADSK_XREC_LAYER_RECONCILED
360
2916
  0
DICTIONARY
  5
2917
330
2846
100
AcDbDictionary
280
     1
281
     1
  3
ADSK_XREC_LAYER_RECONCILED
360
2918
  0
DICTIONARY
  5
2919
330
2847
100
AcDbDictionary
280
     1
281
     1
  3
ADSK_XREC_LAYER_RECONCILED
360
291A
  0
DICTIONARY
  5
291B
330
2849
100
AcDbDictionary
280
     1
281
     1
  3
ADSK_XREC_LAYER_RECONCILED
360
291C
  0
DICTIONARY
  5
291D
330
284A
100
AcDbDictionary
280
     1
281
     1
  3
ADSK_XREC_LAYER_RECONCILED
360
291E
  0
DICTIONARY
  5
291F
330
284B
100
AcDbDictionary
280
     1
281
     1
  3
ADSK_XREC_LAYER_RECONCILED
360
2920
  0
DICTIONARY
  5
2921
330
284C
100
AcDbDictionary
280
     1
281
     1
  3
ADSK_XREC_LAYER_RECONCILED
360
2922
  0
DICTIONARY
  5
2923
330
284D
100
AcDbDictionary
280
     1
281
     1
  3
ADSK_XREC_LAYER_RECONCILED
360
2924
  0
DICTIONARY
  5
2A23
330
282C
100
AcDbDictionary
280
     1
281
     1
  3
ACAD_INDEX
360
2A24
  0
DICTIONARY
  5
2DE7
102
{ACAD_REACTORS
330
27C4
102
}
330
27C4
100
AcDbDictionary
281
     1
  3
DIMARCSYM
350
2DE8
  3
DIMLTEX1
350
2DEA
  3
DIMLTEX2
350
2DEB
  3
DIMLTYPE
350
2DE9
  0
DICTIONARY
  5
2822
102
{ACAD_REACTORS
330
27C4
102
}
330
27C4
100
AcDbDictionary
281
     1
  0
DICTIONARY
  5
27C5
102
{ACAD_REACTORS
330
27C4
102
}
330
27C4
100
AcDbDictionary
281
     1
  0
DICTIONARY
  5
2821
102
{ACAD_REACTORS
330
27C4
102
}
330
27C4
100
AcDbDictionary
281
     1
  3
Model
350
282F
  3
レイアウト1
350
282B
  0
DICTIONARY
  5
27C8
102
{ACAD_REACTORS
330
27C4
102
}
330
27C4
100
AcDbDictionary
281
     1
  3
ByBlock
350
27D1
  3
ByLayer
350
27C9
  3
Global
350
27D9
  0
DICTIONARY
  5
2825
102
{ACAD_REACTORS
330
27C4
102
}
330
27C4
100
AcDbDictionary
281
     1
  3
Standard
350
2826
  0
DICTIONARY
  5
281E
102
{ACAD_REACTORS
330
27C4
102
}
330
27C4
100
AcDbDictionary
281
     1
  3
Standard
350
281F
  0
DICTIONARY
  5
2820
102
{ACAD_REACTORS
330
27C4
102
}
330
27C4
100
AcDbDictionary
281
     1
  0
ACDBDICTIONARYWDFLT
  5
27C6
102
{ACAD_REACTORS
330
27C4
102
}
330
27C4
100
AcDbDictionary
281
     1
  3
Normal
350
27C7
100
AcDbDictionaryWithDefault
340
27C7
  0
DICTIONARY
  5
27F2
102
{ACAD_REACTORS
330
27C4
102
}
330
27C4
100
AcDbDictionary
281
     1
  3
A0
350
27F3
  3
A1
350
27F4
  3
A2
350
27F5
  3
A3
350
27F6
  3
A4
350
27F7
  3
A5
350
27F8
  3
A6
350
27F9
  3
A7
350
27FA
  3
A8
350
27FB
  3
A9
350
27FC
  3
B0
350
27FD
  3
B1
350
27FE
  3
B2
350
27FF
  3
B3
350
2800
  3
B4
350
2801
  3
B5
350
2802
  3
B6
350
2803
  3
B7
350
2804
  3
B8
350
2805
  3
B9
350
2806
  3
C0
350
2807
  3
C1
350
2808
  3
C2
350
2809
  3
C3
350
280A
  3
C4
350
280B
  3
C5
350
280C
  3
C6
350
280D
  3
C7
350
280E
  3
C8
350
280F
  3
C9
350
2810
  3
D0
350
2811
  3
D1
350
2812
  3
D2
350
2813
  0
DICTIONARY
  5
2823
102
{ACAD_REACTORS
330
27C4
102
}
330
27C4
100
AcDbDictionary
281
     1
  3
Standard
350
2824
  0
DICTIONARY
  5
27E1
102
{ACAD_REACTORS
330
27C4
102
}
330
27C4
100
AcDbDictionary
281
     1
  3
2dWireframe
350
27E7
  3
3D Hidden
350
27E9
  3
3dWireframe
350
27E8
  3
Basic
350
27E6
  3
Brighten
350
27ED
  3
ColorChange
350
27F1
  3
Conceptual
350
27EA
  3
Dim
350
27EC
  3
Facepattern
350
27F0
  3
Flat
350
27E2
  3
FlatWithEdges
350
27E3
  3
Gouraud
350
27E4
  3
GouraudWithEdges
350
27E5
  3
Linepattern
350
27EF
  3
Realistic
350
27EB
  3
Thicken
350
27EE
  0
XRECORD
  5
292E
102
{ACAD_REACTORS
330
27C4
102
}
330
27C4
100
AcDbXrecord
280
     1
 90
        1
330
2824
  0
DICTIONARY
  5
2925
102
{ACAD_REACTORS
330
27C4
102
}
330
27C4
100
AcDbDictionary
281
     1
  3
CANNOSCALE
350
2928
  3
CMLEADERSTYLE
350
2927
  3
CTABLESTYLE
350
2926
  3
DIMASSOC
350
292B
  3
INDEXCTL
350
292A
  3
LAYEREVAL
350
2D01
  3
LAYERNOTIFY
350
2D02
  3
LIGHTINGUNITS
350
2D00
  3
LOFTANG1
350
2DE3
  3
LOFTANG2
350
2DE4
  3
LONGITUDE
350
2DE5
  3
MSLTSCALE
350
2CFF
  3
SORTENTS
350
2929
  0
DICTIONARY
  5
29F4
102
{ACAD_REACTORS
330
27C4
102
}
330
27C4
100
AcDbDictionary
281
     1
  3
AcmStdDictionary
350
2A02
  0
DICTIONARY
  5
2941
102
{ACAD_REACTORS
330
27C4
102
}
330
27C4
100
AcDbDictionary
281
     1
  3
AcMgSettings
350
2942
  0
DICTIONARY
  5
2A1C
102
{ACAD_REACTORS
330
27C4
102
}
330
27C4
100
AcDbDictionary
281
     1
  3
DIMENSION
350
2A21
  3
FEA
350
2A20
  3
HATCH (1)
350
2A1D
  3
HATCH (2)
350
2A1E
  3
SIMPLE WELD
350
2A22
  3
SYMBOLS
350
2A1F
  0
DICTIONARY
  5
2B23
102
{ACAD_REACTORS
330
2B22
102
}
330
2B22
100
AcDbDictionary
281
     1
  0
XRECORD
  5
2910
102
{ACAD_REACTORS
330
290F
102
}
330
290F
100
AcDbXrecord
280
     1
290
     1
  0
XRECORD
  5
2912
102
{ACAD_REACTORS
330
2911
102
}
330
2911
100
AcDbXrecord
280
     1
290
     1
  0
XRECORD
  5
2914
102
{ACAD_REACTORS
330
2913
102
}
330
2913
100
AcDbXrecord
280
     1
290
     1
  0
XRECORD
  5
2916
102
{ACAD_REACTORS
330
2915
102
}
330
2915
100
AcDbXrecord
280
     1
290
     1
  0
XRECORD
  5
2918
102
{ACAD_REACTORS
330
2917
102
}
330
2917
100
AcDbXrecord
280
     1
290
     1
  0
XRECORD
  5
291A
102
{ACAD_REACTORS
330
2919
102
}
330
2919
100
AcDbXrecord
280
     1
290
     1
  0
XRECORD
  5
291C
102
{ACAD_REACTORS
330
291B
102
}
330
291B
100
AcDbXrecord
280
     1
290
     1
  0
XRECORD
  5
291E
102
{ACAD_REACTORS
330
291D
102
}
330
291D
100
AcDbXrecord
280
     1
290
     1
  0
XRECORD
  5
2920
102
{ACAD_REACTORS
330
291F
102
}
330
291F
100
AcDbXrecord
280
     1
290
     1
  0
XRECORD
  5
2922
102
{ACAD_REACTORS
330
2921
102
}
330
2921
100
AcDbXrecord
280
     1
290
     1
  0
XRECORD
  5
2924
102
{ACAD_REACTORS
330
2923
102
}
330
2923
100
AcDbXrecord
280
     1
290
     1
  0
DICTIONARY
  5
2A24
102
{ACAD_REACTORS
330
2A23
102
}
330
2A23
100
AcDbDictionary
281
     1
  3
*A1
350
2A25
  0
XRECORD
  5
2DE8
102
{ACAD_REACTORS
330
2DE7
102
}
330
2DE7
100
AcDbXrecord
280
     1
 70
     1
  0
XRECORD
  5
2DEA
102
{ACAD_REACTORS
330
2DE7
102
}
330
2DE7
100
AcDbXrecord
280
     1
340
281A
  0
XRECORD
  5
2DEB
102
{ACAD_REACTORS
330
2DE7
102
}
330
2DE7
100
AcDbXrecord
280
     1
340
281A
  0
XRECORD
  5
2DE9
102
{ACAD_REACTORS
330
2DE7
102
}
330
2DE7
100
AcDbXrecord
280
     1
340
281A
  0
LAYOUT
  5
282F
102
{ACAD_REACTORS
330
2821
102
}
330
2821
100
AcDbPlotSettings
  1

  2
LBP3970
  4

  6

 40
0.0
 41
0.0
 42
0.0
 43
0.0
 44
0.0
 45
0.0
 46
0.0
 47
0.0
 48
0.0
 49
0.0
140
0.0
141
0.0
142
1.0
143
1.0
 70
  1712
 72
     0
 73
     0
 74
     0
  7

 75
     0
147
1.0
 76
     0
 77
     2
 78
   300
148
0.0
149
0.0
100
AcDbLayout
  1
Model
 70
     1
 71
     0
 10
0.0
 20
0.0
 11
12.0
 21
9.0
 12
0.0
 22
0.0
 32
0.0
 14
0.0
 24
0.0
 34
0.0
 15
0.0
 25
0.0
 35
0.0
146
0.0
 13
0.0
 23
0.0
 33
0.0
 16
1.0
 26
0.0
 36
0.0
 17
0.0
 27
1.0
 37
0.0
 76
     0
330
282C
331
2830
  0
LAYOUT
  5
282B
102
{ACAD_REACTORS
330
2821
102
}
330
2821
100
AcDbPlotSettings
  1

  2
LBP3970
  4

  6

 40
0.0
 41
0.0
 42
0.0
 43
0.0
 44
0.0
 45
0.0
 46
0.0
 47
0.0
 48
0.0
 49
0.0
140
0.0
141
0.0
142
1.0
143
1.0
 70
   688
 72
     0
 73
     0
 74
     5
  7

 75
    16
147
1.0
 76
     0
 77
     2
 78
   300
148
0.0
149
0.0
100
AcDbLayout
  1
レイアウト1
 70
     1
 71
     1
 10
0.0
 20
0.0
 11
12.0
 21
9.0
 12
0.0
 22
0.0
 32
0.0
 14
1.000000000000000E+20
 24
1.000000000000000E+20
 34
1.000000000000000E+20
 15
-1.000000000000000E+20
 25
-1.000000000000000E+20
 35
-1.000000000000000E+20
146
0.0
 13
0.0
 23
0.0
 33
0.0
 16
1.0
 26
0.0
 36
0.0
 17
0.0
 27
1.0
 37
0.0
 76
     0
330
2828
  0
MATERIAL
  5
27D1
102
{ACAD_XDICTIONARY
360
27D2
102
}
102
{ACAD_REACTORS
330
27C8
102
}
330
27C8
100
AcDbMaterial
  1
ByBlock
 72
     0
 43
0.0208333333333333
 43
0.0
 43
0.0
 43
0.0
 43
0.0
 43
0.0208333333333333
 43
0.0
 43
0.0
 43
0.0
 43
0.0
 43
1.0
 43
0.0
 43
0.0
 43
0.0
 43
0.0
 43
1.0
 77
     0
 47
0.0208333333333333
 47
0.0
 47
0.0
 47
0.0
 47
0.0
 47
0.0208333333333333
 47
0.0
 47
0.0
 47
0.0
 47
0.0
 47
1.0
 47
0.0
 47
0.0
 47
0.0
 47
0.0
 47
1.0
171
     0
 49
0.0208333333333333
 49
0.0
 49
0.0
 49
0.0
 49
0.0
 49
0.0208333333333333
 49
0.0
 49
0.0
 49
0.0
 49
0.0
 49
1.0
 49
0.0
 49
0.0
 49
0.0
 49
0.0
 49
1.0
175
     0
142
0.0208333333333333
142
0.0
142
0.0
142
0.0
142
0.0
142
0.0208333333333333
142
0.0
142
0.0
142
0.0
142
0.0
142
1.0
142
0.0
142
0.0
142
0.0
142
0.0
142
1.0
179
     0
144
0.0208333333333333
144
0.0
144
0.0
144
0.0
144
0.0
144
0.0208333333333333
144
0.0
144
0.0
144
0.0
144
0.0
144
1.0
144
0.0
144
0.0
144
0.0
144
0.0
144
1.0
147
0.0208333333333333
147
0.0
147
0.0
147
0.0
147
0.0
147
0.0208333333333333
147
0.0
147
0.0
147
0.0
147
0.0
147
1.0
147
0.0
147
0.0
147
0.0
147
0.0
147
1.0
  0
MATERIAL
  5
27C9
102
{ACAD_XDICTIONARY
360
27CA
102
}
102
{ACAD_REACTORS
330
27C8
102
}
330
27C8
100
AcDbMaterial
  1
ByLayer
 72
     0
 43
0.0208333333333333
 43
0.0
 43
0.0
 43
0.0
 43
0.0
 43
0.0208333333333333
 43
0.0
 43
0.0
 43
0.0
 43
0.0
 43
1.0
 43
0.0
 43
0.0
 43
0.0
 43
0.0
 43
1.0
 77
     0
 47
0.0208333333333333
 47
0.0
 47
0.0
 47
0.0
 47
0.0
 47
0.0208333333333333
 47
0.0
 47
0.0
 47
0.0
 47
0.0
 47
1.0
 47
0.0
 47
0.0
 47
0.0
 47
0.0
 47
1.0
171
     0
 49
0.0208333333333333
 49
0.0
 49
0.0
 49
0.0
 49
0.0
 49
0.0208333333333333
 49
0.0
 49
0.0
 49
0.0
 49
0.0
 49
1.0
 49
0.0
 49
0.0
 49
0.0
 49
0.0
 49
1.0
175
     0
142
0.0208333333333333
142
0.0
142
0.0
142
0.0
142
0.0
142
0.0208333333333333
142
0.0
142
0.0
142
0.0
142
0.0
142
1.0
142
0.0
142
0.0
142
0.0
142
0.0
142
1.0
179
     0
144
0.0208333333333333
144
0.0
144
0.0
144
0.0
144
0.0
144
0.0208333333333333
144
0.0
144
0.0
144
0.0
144
0.0
144
1.0
144
0.0
144
0.0
144
0.0
144
0.0
144
1.0
147
0.0208333333333333
147
0.0
147
0.0
147
0.0
147
0.0
147
0.0208333333333333
147
0.0
147
0.0
147
0.0
147
0.0
147
1.0
147
0.0
147
0.0
147
0.0
147
0.0
147
1.0
  0
MATERIAL
  5
27D9
102
{ACAD_XDICTIONARY
360
27DA
102
}
102
{ACAD_REACTORS
330
27C8
102
}
330
27C8
100
AcDbMaterial
  1
Global
 72
     0
 43
0.0208333333333333
 43
0.0
 43
0.0
 43
0.0
 43
0.0
 43
0.0208333333333333
 43
0.0
 43
0.0
 43
0.0
 43
0.0
 43
1.0
 43
0.0
 43
0.0
 43
0.0
 43
0.0
 43
1.0
 77
     0
 47
0.0208333333333333
 47
0.0
 47
0.0
 47
0.0
 47
0.0
 47
0.0208333333333333
 47
0.0
 47
0.0
 47
0.0
 47
0.0
 47
1.0
 47
0.0
 47
0.0
 47
0.0
 47
0.0
 47
1.0
171
     0
 49
0.0208333333333333
 49
0.0
 49
0.0
 49
0.0
 49
0.0
 49
0.0208333333333333
 49
0.0
 49
0.0
 49
0.0
 49
0.0
 49
1.0
 49
0.0
 49
0.0
 49
0.0
 49
0.0
 49
1.0
175
     0
142
0.0208333333333333
142
0.0
142
0.0
142
0.0
142
0.0
142
0.0208333333333333
142
0.0
142
0.0
142
0.0
142
0.0
142
1.0
142
0.0
142
0.0
142
0.0
142
0.0
142
1.0
179
     0
144
0.0208333333333333
144
0.0
144
0.0
144
0.0
144
0.0
144
0.0208333333333333
144
0.0
144
0.0
144
0.0
144
0.0
144
1.0
144
0.0
144
0.0
144
0.0
144
0.0
144
1.0
147
0.0208333333333333
147
0.0
147
0.0
147
0.0
147
0.0
147
0.0208333333333333
147
0.0
147
0.0
147
0.0
147
0.0
147
1.0
147
0.0
147
0.0
147
0.0
147
0.0
147
1.0
  0
MLEADERSTYLE
  5
2826
102
{ACAD_REACTORS
330
2825
102
}
330
2825
100
AcDbMLeaderStyle
170
     2
171
     1
172
     0
 90
        2
 40
0.0
 41
0.0
173
     1
 91
-1056964608
340
281A
 92
       -2
290
     1
 42
0.09
291
     1
 43
0.36
  3
Standard
 44
0.18
300

342
2815
174
     1
178
     6
175
     1
176
     0
 93
-1056964608
 45
0.18
292
     0
297
     0
 46
0.18
 94
-1056964608
 47
1.0
 49
1.0
140
1.0
293
     1
141
0.0
294
     1
177
     0
142
1.0
295
     0
296
     0
143
0.125
1001
ACAD_MLEADERVER
1070
     2
  0
MLINESTYLE
  5
281F
102
{ACAD_REACTORS
330
281E
102
}
330
281E
100
AcDbMlineStyle
  2
STANDARD
 70
     0
  3

 62
   256
 51
90.0
 52
90.0
 71
     2
 49
0.5
 62
   256
  6
BYLAYER
 49
-0.5
 62
   256
  6
BYLAYER
  0
ACDBPLACEHOLDER
  5
27C7
102
{ACAD_REACTORS
330
27C6
102
}
330
27C6
  0
SCALE
  5
27F3
102
{ACAD_REACTORS
330
27F2
102
}
330
27F2
100
AcDbScale
 70
     0
300
1:1
140
1.0
141
1.0
290
     1
  0
SCALE
  5
27F4
102
{ACAD_REACTORS
330
27F2
102
}
330
27F2
100
AcDbScale
 70
     0
300
1:2
140
1.0
141
2.0
290
     0
  0
SCALE
  5
27F5
102
{ACAD_REACTORS
330
27F2
102
}
330
27F2
100
AcDbScale
 70
     0
300
1:4
140
1.0
141
4.0
290
     0
  0
SCALE
  5
27F6
102
{ACAD_REACTORS
330
27F2
102
}
330
27F2
100
AcDbScale
 70
     0
300
1:5
140
1.0
141
5.0
290
     0
  0
SCALE
  5
27F7
102
{ACAD_REACTORS
330
27F2
102
}
330
27F2
100
AcDbScale
 70
     0
300
1:8
140
1.0
141
8.0
290
     0
  0
SCALE
  5
27F8
102
{ACAD_REACTORS
330
27F2
102
}
330
27F2
100
AcDbScale
 70
     0
300
1:10
140
1.0
141
10.0
290
     0
  0
SCALE
  5
27F9
102
{ACAD_REACTORS
330
27F2
102
}
330
27F2
100
AcDbScale
 70
     0
300
1:16
140
1.0
141
16.0
290
     0
  0
SCALE
  5
27FA
102
{ACAD_REACTORS
330
27F2
102
}
330
27F2
100
AcDbScale
 70
     0
300
1:20
140
1.0
141
20.0
290
     0
  0
SCALE
  5
27FB
102
{ACAD_REACTORS
330
27F2
102
}
330
27F2
100
AcDbScale
 70
     0
300
1:30
140
1.0
141
30.0
290
     0
  0
SCALE
  5
27FC
102
{ACAD_REACTORS
330
27F2
102
}
330
27F2
100
AcDbScale
 70
     0
300
1:40
140
1.0
141
40.0
290
     0
  0
SCALE
  5
27FD
102
{ACAD_REACTORS
330
27F2
102
}
330
27F2
100
AcDbScale
 70
     0
300
1:50
140
1.0
141
50.0
290
     0
  0
SCALE
  5
27FE
102
{ACAD_REACTORS
330
27F2
102
}
330
27F2
100
AcDbScale
 70
     0
300
1:100
140
1.0
141
100.0
290
     0
  0
SCALE
  5
27FF
102
{ACAD_REACTORS
330
27F2
102
}
330
27F2
100
AcDbScale
 70
     0
300
2:1
140
2.0
141
1.0
290
     0
  0
SCALE
  5
2800
102
{ACAD_REACTORS
330
27F2
102
}
330
27F2
100
AcDbScale
 70
     0
300
4:1
140
4.0
141
1.0
290
     0
  0
SCALE
  5
2801
102
{ACAD_REACTORS
330
27F2
102
}
330
27F2
100
AcDbScale
 70
     0
300
8:1
140
8.0
141
1.0
290
     0
  0
SCALE
  5
2802
102
{ACAD_REACTORS
330
27F2
102
}
330
27F2
100
AcDbScale
 70
     0
300
10:1
140
10.0
141
1.0
290
     0
  0
SCALE
  5
2803
102
{ACAD_REACTORS
330
27F2
102
}
330
27F2
100
AcDbScale
 70
     0
300
100:1
140
100.0
141
1.0
290
     0
  0
SCALE
  5
2804
102
{ACAD_REACTORS
330
27F2
102
}
330
27F2
100
AcDbScale
 70
     0
300
1/128" = 1'-0"
140
0.0078125
141
12.0
290
     0
  0
SCALE
  5
2805
102
{ACAD_REACTORS
330
27F2
102
}
330
27F2
100
AcDbScale
 70
     0
300
1/64" = 1'-0"
140
0.015625
141
12.0
290
     0
  0
SCALE
  5
2806
102
{ACAD_REACTORS
330
27F2
102
}
330
27F2
100
AcDbScale
 70
     0
300
1/32" = 1'-0"
140
0.03125
141
12.0
290
     0
  0
SCALE
  5
2807
102
{ACAD_REACTORS
330
27F2
102
}
330
27F2
100
AcDbScale
 70
     0
300
1/16" = 1'-0"
140
0.0625
141
12.0
290
     0
  0
SCALE
  5
2808
102
{ACAD_REACTORS
330
27F2
102
}
330
27F2
100
AcDbScale
 70
     0
300
3/32" = 1'-0"
140
0.09375
141
12.0
290
     0
  0
SCALE
  5
2809
102
{ACAD_REACTORS
330
27F2
102
}
330
27F2
100
AcDbScale
 70
     0
300
1/8" = 1'-0"
140
0.125
141
12.0
290
     0
  0
SCALE
  5
280A
102
{ACAD_REACTORS
330
27F2
102
}
330
27F2
100
AcDbScale
 70
     0
300
3/16" = 1'-0"
140
0.1875
141
12.0
290
     0
  0
SCALE
  5
280B
102
{ACAD_REACTORS
330
27F2
102
}
330
27F2
100
AcDbScale
 70
     0
300
1/4" = 1'-0"
140
0.25
141
12.0
290
     0
  0
SCALE
  5
280C
102
{ACAD_REACTORS
330
27F2
102
}
330
27F2
100
AcDbScale
 70
     0
300
3/8" = 1'-0"
140
0.375
141
12.0
290
     0
  0
SCALE
  5
280D
102
{ACAD_REACTORS
330
27F2
102
}
330
27F2
100
AcDbScale
 70
     0
300
1/2" = 1'-0"
140
0.5
141
12.0
290
     0
  0
SCALE
  5
280E
102
{ACAD_REACTORS
330
27F2
102
}
330
27F2
100
AcDbScale
 70
     0
300
3/4" = 1'-0"
140
0.75
141
12.0
290
     0
  0
SCALE
  5
280F
102
{ACAD_REACTORS
330
27F2
102
}
330
27F2
100
AcDbScale
 70
     0
300
1" = 1'-0"
140
1.0
141
12.0
290
     0
  0
SCALE
  5
2810
102
{ACAD_REACTORS
330
27F2
102
}
330
27F2
100
AcDbScale
 70
     0
300
1-1/2" = 1'-0"
140
1.5
141
12.0
290
     0
  0
SCALE
  5
2811
102
{ACAD_REACTORS
330
27F2
102
}
330
27F2
100
AcDbScale
 70
     0
300
3" = 1'-0"
140
3.0
141
12.0
290
     0
  0
SCALE
  5
2812
102
{ACAD_REACTORS
330
27F2
102
}
330
27F2
100
AcDbScale
 70
     0
300
6" = 1'-0"
140
6.0
141
12.0
290
     0
  0
SCALE
  5
2813
102
{ACAD_REACTORS
330
27F2
102
}
330
27F2
100
AcDbScale
 70
     0
300
1'-0" = 1'-0"
140
12.0
141
12.0
290
     0
  0
TABLESTYLE
  5
2824
102
{ACAD_XDICTIONARY
360
292C
102
}
102
{ACAD_REACTORS
330
2823
102
}
330
2823
100
AcDbTableStyle
  3
Standard
 70
     0
 71
     0
 40
0.06
 41
0.06
280
     0
281
     0
  7
STANDARD
140
0.18
170
     2
 62
     0
 63
     7
283
     0
274
    -2
284
     1
 64
     0
275
    -2
285
     1
 65
     0
276
    -2
286
     1
 66
     0
277
    -2
287
     1
 67
     0
278
    -2
288
     1
 68
     0
279
    -2
289
     1
 69
     0
  7
STANDARD
140
0.25
170
     5
 62
     0
 63
     7
283
     0
274
    -2
284
     1
 64
     0
275
    -2
285
     1
 65
     0
276
    -2
286
     1
 66
     0
277
    -2
287
     1
 67
     0
278
    -2
288
     1
 68
     0
279
    -2
289
     1
 69
     0
  7
STANDARD
140
0.18
170
     5
 62
     0
 63
     7
283
     0
274
    -2
284
     1
 64
     0
275
    -2
285
     1
 65
     0
276
    -2
286
     1
 66
     0
277
    -2
287
     1
 67
     0
278
    -2
288
     1
 68
     0
279
    -2
289
     1
 69
     0
  0
VISUALSTYLE
  5
27E7
102
{ACAD_REACTORS
330
27E1
102
}
330
27E1
100
AcDbVisualStyle
  2
2dWireframe
 70
     4
 71
     0
 72
     2
 73
     0
 90
        0
 40
-0.6
 41
-30.0
 62
     5
 63
     7
 74
     1
 91
        4
 64
     7
 65
   257
 75
     1
175
     1
 42
1.0
 92
        0
 66
   257
 43
1.0
 76
     1
 77
     6
 78
     2
 67
     7
 79
     5
170
     0
171
     0
290
     0
174
     0
 93
        1
 44
0.0
173
     0
291
     0
 45
0.0
1001
ACAD
1000
AcDbSavedByObjectVersion
1070
     0
1000
AcDbSavedByObjectVersion
1070
     0
1000
AcDbSavedByObjectVersion
1070
     0
  0
VISUALSTYLE
  5
27E9
102
{ACAD_REACTORS
330
27E1
102
}
330
27E1
100
AcDbVisualStyle
  2
3D Hidden
 70
     6
 71
     1
 72
     2
 73
     2
 90
        0
 40
-0.6
 41
-30.0
 62
     5
 63
     7
 74
     2
 91
        2
 64
     7
 65
   257
 75
     2
175
     1
 42
40.0
 92
        0
 66
   257
 43
1.0
 76
     1
 77
     6
 78
     2
 67
     7
 79
     3
170
     0
171
     0
290
     0
174
     0
 93
        1
 44
0.0
173
     0
291
     0
 45
0.0
1001
ACAD
1000
AcDbSavedByObjectVersion
1070
     0
1000
AcDbSavedByObjectVersion
1070
     0
1000
AcDbSavedByObjectVersion
1070
     0
  0
VISUALSTYLE
  5
27E8
102
{ACAD_REACTORS
330
27E1
102
}
330
27E1
100
AcDbVisualStyle
  2
3dWireframe
 70
     5
 71
     0
 72
     2
 73
     0
 90
        0
 40
-0.6
 41
-30.0
 62
     5
 63
     7
 74
     1
 91
        4
 64
     7
 65
   257
 75
     1
175
     1
 42
1.0
 92
        0
 66
   257
 43
1.0
 76
     1
 77
     6
 78
     2
 67
     7
 79
     5
170
     0
171
     0
290
     0
174
     0
 93
        1
 44
0.0
173
     0
291
     0
 45
0.0
1001
ACAD
1000
AcDbSavedByObjectVersion
1070
     0
1000
AcDbSavedByObjectVersion
1070
     0
1000
AcDbSavedByObjectVersion
1070
     0
  0
VISUALSTYLE
  5
27E6
102
{ACAD_REACTORS
330
27E1
102
}
330
27E1
100
AcDbVisualStyle
  2
Basic
 70
     7
 71
     1
 72
     0
 73
     1
 90
        0
 40
-0.6
 41
-30.0
 62
     5
 63
     7
 74
     0
 91
        4
 64
     7
 65
   257
 75
     1
175
     1
 42
1.0
 92
        8
 66
     7
 43
1.0
 76
     1
 77
     6
 78
     2
 67
     7
 79
     5
170
     0
171
     0
290
     0
174
     0
 93
        1
 44
0.0
173
     0
291
     1
 45
0.0
1001
ACAD
1000
AcDbSavedByObjectVersion
1070
     0
1000
AcDbSavedByObjectVersion
1070
     0
1000
AcDbSavedByObjectVersion
1070
     0
  0
VISUALSTYLE
  5
27ED
102
{ACAD_REACTORS
330
27E1
102
}
330
27E1
100
AcDbVisualStyle
  2
Brighten
 70
    12
 71
     2
 72
     2
 73
     0
 90
        0
 40
-0.6
 41
-30.0
 62
     5
 63
     7
 74
     1
 91
        4
 64
     7
 65
   257
 75
     1
175
     1
 42
1.0
 92
        8
 66
     7
 43
1.0
 76
     1
 77
     6
 78
     2
 67
     7
 79
     5
170
     0
171
     0
290
     0
174
     0
 93
        1
 44
50.0
173
     0
291
     1
 45
0.0
1001
ACAD
1000
AcDbSavedByObjectVersion
1070
     0
1000
AcDbSavedByObjectVersion
1070
     0
1000
AcDbSavedByObjectVersion
1070
     0
  0
VISUALSTYLE
  5
27F1
102
{ACAD_REACTORS
330
27E1
102
}
330
27E1
100
AcDbVisualStyle
  2
ColorChange
 70
    16
 71
     2
 72
     2
 73
     3
 90
        0
 40
-0.6
 41
-30.0
 62
     5
 63
     8
 74
     1
 91
        4
 64
     7
 65
   257
 75
     1
175
     1
 42
1.0
 92
        8
 66
     8
 43
1.0
 76
     1
 77
     6
 78
     2
 67
     7
 79
     5
170
     0
171
     0
290
     0
174
     0
 93
        1
 44
0.0
173
     0
291
     1
 45
0.0
1001
ACAD
1000
AcDbSavedByObjectVersion
1070
     0
1000
AcDbSavedByObjectVersion
1070
     0
1000
AcDbSavedByObjectVersion
1070
     0
  0
VISUALSTYLE
  5
27EA
102
{ACAD_REACTORS
330
27E1
102
}
330
27E1
100
AcDbVisualStyle
  2
Conceptual
 70
     9
 71
     3
 72
     2
 73
     0
 90
        0
 40
-0.6
 41
-30.0
 62
     5
 63
     7
 74
     2
 91
        2
 64
     7
 65
   257
 75
     1
175
     1
 42
40.0
 92
        8
 66
     7
 43
1.0
 76
     1
 77
     6
 78
     2
 67
     7
 79
     3
170
     0
171
     0
290
     0
174
     0
 93
        1
 44
0.0
173
     0
291
     0
 45
0.0
1001
ACAD
1000
AcDbSavedByObjectVersion
1070
     0
1000
AcDbSavedByObjectVersion
1070
     0
1000
AcDbSavedByObjectVersion
1070
     0
  0
VISUALSTYLE
  5
27EC
102
{ACAD_REACTORS
330
27E1
102
}
330
27E1
100
AcDbVisualStyle
  2
Dim
 70
    11
 71
     2
 72
     2
 73
     0
 90
        0
 40
-0.6
 41
-30.0
 62
     5
 63
     7
 74
     1
 91
        4
 64
     7
 65
   257
 75
     1
175
     1
 42
1.0
 92
        8
 66
     7
 43
1.0
 76
     1
 77
     6
 78
     2
 67
     7
 79
     5
170
     0
171
     0
290
     0
174
     0
 93
        1
 44
-50.0
173
     0
291
     1
 45
0.0
1001
ACAD
1000
AcDbSavedByObjectVersion
1070
     0
1000
AcDbSavedByObjectVersion
1070
     0
1000
AcDbSavedByObjectVersion
1070
     0
  0
VISUALSTYLE
  5
27F0
102
{ACAD_REACTORS
330
27E1
102
}
330
27E1
100
AcDbVisualStyle
  2
Facepattern
 70
    15
 71
     2
 72
     2
 73
     0
 90
        0
 40
-0.6
 41
-30.0
 62
     5
 63
     7
 74
     1
 91
        4
 64
     7
 65
   257
 75
     1
175
     1
 42
1.0
 92
        8
 66
     7
 43
1.0
 76
     1
 77
     6
 78
     2
 67
     7
 79
     5
170
     0
171
     0
290
     0
174
     0
 93
        1
 44
0.0
173
     0
291
     1
 45
0.0
1001
ACAD
1000
AcDbSavedByObjectVersion
1070
     0
1000
AcDbSavedByObjectVersion
1070
     0
1000
AcDbSavedByObjectVersion
1070
     0
  0
VISUALSTYLE
  5
27E2
102
{ACAD_REACTORS
330
27E1
102
}
330
27E1
100
AcDbVisualStyle
  2
Flat
 70
     0
 71
     2
 72
     1
 73
     1
 90
        2
 40
-0.6
 41
30.0
 62
     5
 63
     7
 74
     0
 91
        4
 64
     7
 65
   257
 75
     1
175
     1
 42
1.0
 92
        8
 66
     7
 43
1.0
 76
     1
 77
     6
 78
     2
 67
     7
 79
     5
170
     0
171
     0
290
     0
174
     0
 93
       13
 44
0.0
173
     0
291
     1
 45
0.0
1001
ACAD
1000
AcDbSavedByObjectVersion
1070
     0
1000
AcDbSavedByObjectVersion
1070
     0
1000
AcDbSavedByObjectVersion
1070
     0
  0
VISUALSTYLE
  5
27E3
102
{ACAD_REACTORS
330
27E1
102
}
330
27E1
100
AcDbVisualStyle
  2
FlatWithEdges
 70
     1
 71
     2
 72
     1
 73
     1
 90
        2
 40
-0.6
 41
30.0
 62
     5
 63
     7
 74
     1
 91
        4
 64
     7
 65
   257
 75
     1
175
     1
 42
1.0
 92
        0
 66
   257
 43
1.0
 76
     1
 77
     6
 78
     2
 67
     7
 79
     5
170
     0
171
     0
290
     0
174
     0
 93
       13
 44
0.0
173
     0
291
     1
 45
0.0
1001
ACAD
1000
AcDbSavedByObjectVersion
1070
     0
1000
AcDbSavedByObjectVersion
1070
     0
1000
AcDbSavedByObjectVersion
1070
     0
  0
VISUALSTYLE
  5
27E4
102
{ACAD_REACTORS
330
27E1
102
}
330
27E1
100
AcDbVisualStyle
  2
Gouraud
 70
     2
 71
     2
 72
     2
 73
     1
 90
        2
 40
-0.6
 41
30.0
 62
     5
 63
     7
 74
     0
 91
        4
 64
     7
 65
   257
 75
     1
175
     1
 42
1.0
 92
        0
 66
     7
 43
1.0
 76
     1
 77
     6
 78
     2
 67
     7
 79
     5
170
     0
171
     0
290
     0
174
     0
 93
       13
 44
0.0
173
     0
291
     1
 45
0.0
1001
ACAD
1000
AcDbSavedByObjectVersion
1070
     0
1000
AcDbSavedByObjectVersion
1070
     0
1000
AcDbSavedByObjectVersion
1070
     0
  0
VISUALSTYLE
  5
27E5
102
{ACAD_REACTORS
330
27E1
102
}
330
27E1
100
AcDbVisualStyle
  2
GouraudWithEdges
 70
     3
 71
     2
 72
     2
 73
     1
 90
        2
 40
-0.6
 41
30.0
 62
     5
 63
     7
 74
     1
 91
        4
 64
     7
 65
   257
 75
     1
175
     1
 42
1.0
 92
        0
 66
   257
 43
1.0
 76
     1
 77
     6
 78
     2
 67
     7
 79
     5
170
     0
171
     0
290
     0
174
     0
 93
       13
 44
0.0
173
     0
291
     1
 45
0.0
1001
ACAD
1000
AcDbSavedByObjectVersion
1070
     0
1000
AcDbSavedByObjectVersion
1070
     0
1000
AcDbSavedByObjectVersion
1070
     0
  0
VISUALSTYLE
  5
27EF
102
{ACAD_REACTORS
330
27E1
102
}
330
27E1
100
AcDbVisualStyle
  2
Linepattern
 70
    14
 71
     2
 72
     2
 73
     0
 90
        0
 40
-0.6
 41
-30.0
 62
     5
 63
     7
 74
     1
 91
        4
 64
     7
 65
   257
 75
     7
175
     7
 42
1.0
 92
        8
 66
     7
 43
1.0
 76
     1
 77
     6
 78
     2
 67
     7
 79
     5
170
     0
171
     0
290
     0
174
     0
 93
        1
 44
0.0
173
     0
291
     1
 45
0.0
1001
ACAD
1000
AcDbSavedByObjectVersion
1070
     0
1000
AcDbSavedByObjectVersion
1070
     0
1000
AcDbSavedByObjectVersion
1070
     0
  0
VISUALSTYLE
  5
27EB
102
{ACAD_REACTORS
330
27E1
102
}
330
27E1
100
AcDbVisualStyle
  2
Realistic
 70
     8
 71
     2
 72
     2
 73
     0
 90
        0
 40
-0.6
 41
-30.0
 62
     5
 63
     7
 74
     1
 91
        0
 64
     7
 65
   257
 75
     1
175
     1
 42
1.0
 92
        8
 66
     8
 43
1.0
 76
     1
 77
     6
 78
     2
 67
     7
 79
     5
170
     0
171
     0
290
     0
174
     0
 93
       13
 44
0.0
173
     0
291
     0
 45
0.0
1001
ACAD
1000
AcDbSavedByObjectVersion
1070
     0
1000
AcDbSavedByObjectVersion
1070
     0
1000
AcDbSavedByObjectVersion
1070
     0
  0
VISUALSTYLE
  5
27EE
102
{ACAD_REACTORS
330
27E1
102
}
330
27E1
100
AcDbVisualStyle
  2
Thicken
 70
    13
 71
     2
 72
     2
 73
     0
 90
        0
 40
-0.6
 41
-30.0
 62
     5
 63
     7
 74
     1
 91
        4
 64
     7
 65
   257
 75
     1
175
     1
 42
1.0
 92
       12
 66
     7
 43
1.0
 76
     1
 77
     6
 78
     2
 67
     7
 79
     5
170
     0
171
     0
290
     0
174
     0
 93
        1
 44
0.0
173
     0
291
     1
 45
0.0
1001
ACAD
1000
AcDbSavedByObjectVersion
1070
     0
1000
AcDbSavedByObjectVersion
1070
     0
1000
AcDbSavedByObjectVersion
1070
     0
  0
DICTIONARYVAR
  5
2928
102
{ACAD_REACTORS
330
2925
102
}
330
2925
100
DictionaryVariables
280
     0
  1
1:1
  0
DICTIONARYVAR
  5
2927
102
{ACAD_REACTORS
330
2925
102
}
330
2925
100
DictionaryVariables
280
     0
  1
STANDARD
  0
DICTIONARYVAR
  5
2926
102
{ACAD_REACTORS
330
2925
102
}
330
2925
100
DictionaryVariables
280
     0
  1
STANDARD
  0
DICTIONARYVAR
  5
292B
102
{ACAD_REACTORS
330
2925
102
}
330
2925
100
DictionaryVariables
280
     0
  1
1
  0
DICTIONARYVAR
  5
292A
102
{ACAD_REACTORS
330
2925
102
}
330
2925
100
DictionaryVariables
280
     0
  1
1
  0
DICTIONARYVAR
  5
2D01
102
{ACAD_REACTORS
330
2925
102
}
330
2925
100
DictionaryVariables
280
     0
  1
1
  0
DICTIONARYVAR
  5
2D02
102
{ACAD_REACTORS
330
2925
102
}
330
2925
100
DictionaryVariables
280
     0
  1
15
  0
DICTIONARYVAR
  5
2D00
102
{ACAD_REACTORS
330
2925
102
}
330
2925
100
DictionaryVariables
280
     0
  1
0
  0
DICTIONARYVAR
  5
2DE3
102
{ACAD_REACTORS
330
2925
102
}
330
2925
100
DictionaryVariables
280
     0
  1
1.570796
  0
DICTIONARYVAR
  5
2DE4
102
{ACAD_REACTORS
330
2925
102
}
330
2925
100
DictionaryVariables
280
     0
  1
1.570796
  0
DICTIONARYVAR
  5
2DE5
102
{ACAD_REACTORS
330
2925
102
}
330
2925
100
DictionaryVariables
280
     0
  1
-122.394000
  0
DICTIONARYVAR
  5
2CFF
102
{ACAD_REACTORS
330
2925
102
}
330
2925
100
DictionaryVariables
280
     0
  1
0
  0
DICTIONARYVAR
  5
2929
102
{ACAD_REACTORS
330
2925
102
}
330
2925
100
DictionaryVariables
280
     0
  1
127
  0
DICTIONARY
  5
2A02
102
{ACAD_REACTORS
330
29F4
102
}
330
29F4
100
AcDbDictionary
281
     1
  0
DICTIONARY
  5
2942
102
{ACAD_REACTORS
330
2941
102
}
330
2941
100
AcDbDictionary
281
     1
  3
DWGSETTINGS
350
2D0D
  3
TRANSSETTINGS
350
2D0E
  0
ACAMGFILTERDAT
  5
2A21
102
{ACAD_REACTORS
330
2A1C
102
}
330
2A1C
100
AcAmgFilterDat
 70
    15
  1
DIMENSION,AMDT_*_DIM
  2
*
  3
*
  4
*
  5
*
290
     1
  0
ACAMGFILTERDAT
  5
2A20
102
{ACAD_REACTORS
330
2A1C
102
}
330
2A1C
100
AcAmgFilterDat
 70
    15
  1
*
  2
AM_FEA-AM_*
  3
*
  4
*
  5
*
290
     1
  0
ACAMGFILTERDAT
  5
2A1D
102
{ACAD_REACTORS
330
2A1C
102
}
330
2A1C
100
AcAmgFilterDat
 70
    15
  1
HATCH
  2
*
  3
*
  4
*
  5
*
290
     1
  0
ACAMGFILTERDAT
  5
2A1E
102
{ACAD_REACTORS
330
2A1C
102
}
330
2A1C
100
AcAmgFilterDat
 70
    15
  1
LINE
  2
8,8N,*-8,*-8N,AM_8,AM_8N,*-AM_8,*-AM_8N
  3
*
  4
*
  5
INSERT,STDPART2D
290
     1
  0
ACAMGFILTERDAT
  5
2A22
102
{ACAD_REACTORS
330
2A1C
102
}
330
2A1C
100
AcAmgFilterDat
 70
    15
  1
ARC
  2
AM_5
  3
*
  4
2
  5
INSERT
290
     0
  0
ACAMGFILTERDAT
  5
2A1F
102
{ACAD_REACTORS
330
2A1C
102
}
330
2A1C
100
AcAmgFilterDat
 70
    15
  1
ACMFCFRAME,ACMDATUMTARGET,ACMDATUMID,ACMWELDSYM,ACMSURFSYM,ACMFEATID,ACMPARTREF,ACMBALLOON,AMDTEDGESYM,AMGSCREWCALCTABLE,ACMMARKSTAMP
  2
*
  3
*
  4
*
  5
*
290
     1
  0
LAYER_INDEX
  5
2A25
102
{ACAD_REACTORS
330
2A24
102
}
330
2A24
100
AcDbIndex
 40
2457491.530029722
100
AcDbLayerIndex
  8
0
360
2A26
 90
        0
  8
OUTLINE
360
2A27
 90
       22
  8
SIZE
360
2A28
 90
       40
  8
BASIS
360
2A29
 90
        1
  8
DETAIL
360
2A2A
 90
      165
  8
ARRANGE
360
2A2B
 90
        2
  8
DEFPOINTS
360
2A2C
 90
        0
  8
ETC
360
2A2D
 90
        3
  8
FIX
360
2A2E
 90
        0
  8
NOTE
360
2A2F
 90
        7
  8
SERVICESPACE
360
2A30
 90
        0
  8
SYMBOLLINE
360
2A31
 90
        0
  0
DICTIONARY
  5
27D2
330
27D1
100
AcDbDictionary
280
     1
281
     1
  3
ACAD_XREC_ROUNDTRIP
360
2931
  3
BUMPTILE
360
27D4
  3
DIFFUSETILE
360
27D3
  3
OPACITYTILE
360
27D7
  3
REFLECTIONTILE
360
27D6
  3
REFRACTIONTILE
360
27D8
  3
SPECULARTILE
360
27D5
  0
DICTIONARY
  5
27CA
330
27C9
100
AcDbDictionary
280
     1
281
     1
  3
ACAD_XREC_ROUNDTRIP
360
2930
  3
BUMPTILE
360
27CC
  3
DIFFUSETILE
360
27CB
  3
OPACITYTILE
360
27CF
  3
REFLECTIONTILE
360
27CE
  3
REFRACTIONTILE
360
27D0
  3
SPECULARTILE
360
27CD
  0
DICTIONARY
  5
27DA
330
27D9
100
AcDbDictionary
280
     1
281
     1
  3
ACAD_XREC_ROUNDTRIP
360
2932
  3
BUMPTILE
360
27DC
  3
DIFFUSETILE
360
27DB
  3
OPACITYTILE
360
27DF
  3
REFLECTIONTILE
360
27DE
  3
REFRACTIONTILE
360
27E0
  3
SPECULARTILE
360
27DD
  0
DICTIONARY
  5
292C
330
2824
100
AcDbDictionary
280
     1
281
     1
  3
ACAD_ROUNDTRIP_2008_TABLESTYLE_CELLSTYLEMAP
360
2DE6
  3
ACAD_XREC_ROUNDTRIP
360
2DEC
  0
IDBUFFER
  5
2A26
330
0
100
AcDbIdBuffer
  0
IDBUFFER
  5
2A27
330
0
100
AcDbIdBuffer
330
953
330
954
330
955
330
956
330
957
330
958
330
2C19
330
2C35
330
2C4A
330
2C4B
330
2C4C
330
2C4D
330
2C4E
330
2C4F
330
2C50
330
2C51
330
2C52
330
2C53
330
2C54
330
2C55
330
2C56
330
2C5B
  0
IDBUFFER
  5
2A28
330
0
100
AcDbIdBuffer
330
2C25
330
2C26
330
2C27
330
2C28
330
2C29
330
2C2A
330
2C2B
330
2C2C
330
2C2D
330
2C2E
330
2C2F
330
2C30
330
2C39
330
2C3A
330
2C3B
330
2C3C
330
2C3D
330
2C3E
330
2C41
330
2C42
330
2C43
330
2C44
330
2C45
330
2C46
330
2C5C
330
2C5D
330
2C5E
330
2C5F
330
2C60
330
2C61
330
2C62
330
2C63
330
2C64
330
2C65
330
2C66
330
2C67
330
2C68
330
2C69
330
2C6A
330
2C6B
  0
IDBUFFER
  5
2A29
330
0
100
AcDbIdBuffer
330
2C20
  0
IDBUFFER
  5
2A2A
330
0
100
AcDbIdBuffer
330
2C1A
330
2C1B
330
2C1C
330
2C1D
330
2C1E
330
2C1F
330
2C21
330
2C22
330
2C23
330
2C24
330
2C31
330
2C32
330
2C33
330
2C36
330
2C37
330
2C38
330
2C3F
330
2C40
330
2C6C
330
2C6D
330
2C6E
330
2C6F
330
2C70
330
2C71
330
2C72
330
2C73
330
2C74
330
2C75
330
2C76
330
2C77
330
2C78
330
2C79
330
2C7A
330
2C7B
330
2C7C
330
2C7D
330
2C7E
330
2C7F
330
2C80
330
2C81
330
2C82
330
2C83
330
2C84
330
2C85
330
2C86
330
2C87
330
2C88
330
2C89
330
2C8A
330
2C8B
330
2C8C
330
2C8D
330
2C8E
330
2C8F
330
2C90
330
2C91
330
2C92
330
2C93
330
2C94
330
2C95
330
2C96
330
2C97
330
2C98
330
2C99
330
2C9A
330
2C9B
330
2C9C
330
2C9D
330
2C9E
330
2C9F
330
2CA0
330
2CA1
330
2CA2
330
2CA3
330
2CA4
330
2CA5
330
2CA6
330
2CA7
330
2CA8
330
2CA9
330
2CAA
330
2CAB
330
2CAC
330
2CAD
330
2CAE
330
2CAF
330
2CB0
330
2CB1
330
2CB2
330
2CB3
330
2CB4
330
2CB5
330
2CB6
330
2CB7
330
2CB8
330
2CB9
330
2CBA
330
2CBB
330
2CBC
330
2CBD
330
2CBE
330
2CBF
330
2CC0
330
2CC1
330
2CC2
330
2CC3
330
2CC4
330
2CC5
330
2CC6
330
2CC7
330
2CC8
330
2CC9
330
2CCA
330
2CCB
330
2CCC
330
2CCD
330
2CCE
330
2CCF
330
2CD0
330
2CD1
330
2CD2
330
2CD3
330
2CD4
330
2CD5
330
2CD6
330
2CD7
330
2CD8
330
2CD9
330
2CDA
330
2CDB
330
2CDC
330
2CDD
330
2CDE
330
2CDF
330
2CE0
330
2CE1
330
2CE2
330
2CE3
330
2CE4
330
2CE5
330
2CE6
330
2CE7
330
2CE8
330
2CE9
330
2CEA
330
2CEB
330
2CEC
330
2CED
330
2CEE
330
2CEF
330
2CF0
330
2CF1
330
2CF2
330
2CF3
330
2CF4
330
2CF5
330
2CF6
330
2CF7
330
2CF8
330
2CF9
330
2CFA
330
2CFB
330
2CFC
330
2CFD
330
2CFE
  0
IDBUFFER
  5
2A2B
330
0
100
AcDbIdBuffer
330
2C18
330
2C34
  0
IDBUFFER
  5
2A2C
330
0
100
AcDbIdBuffer
  0
IDBUFFER
  5
2A2D
330
0
100
AcDbIdBuffer
330
2C15
330
2C16
330
2C17
  0
IDBUFFER
  5
2A2E
330
0
100
AcDbIdBuffer
  0
IDBUFFER
  5
2A2F
330
0
100
AcDbIdBuffer
330
2C47
330
2C48
330
2C49
330
2C57
330
2C58
330
2C59
330
2C5A
  0
IDBUFFER
  5
2A30
330
0
100
AcDbIdBuffer
  0
IDBUFFER
  5
2A31
330
0
100
AcDbIdBuffer
  0
XRECORD
  5
2931
102
{ACAD_REACTORS
330
27D2
102
}
330
27D2
100
AcDbXrecord
280
     1
102
MATERIAL
148
0.0
149
0.0
149
0.0
 93
        0
 94
      127
282
     0
 72
     0
 77
     0
171
     0
175
     0
179
     0
273
     0
  0
XRECORD
  5
27D4
102
{ACAD_REACTORS
330
27D2
102
}
330
27D2
100
AcDbXrecord
280
     1
270
     1
271
     1
  0
XRECORD
  5
27D3
102
{ACAD_REACTORS
330
27D2
102
}
330
27D2
100
AcDbXrecord
280
     1
270
     1
271
     1
  0
XRECORD
  5
27D7
102
{ACAD_REACTORS
330
27D2
102
}
330
27D2
100
AcDbXrecord
280
     1
270
     1
271
     1
  0
XRECORD
  5
27D6
102
{ACAD_REACTORS
330
27D2
102
}
330
27D2
100
AcDbXrecord
280
     1
270
     1
271
     1
  0
XRECORD
  5
27D8
102
{ACAD_REACTORS
330
27D2
102
}
330
27D2
100
AcDbXrecord
280
     1
270
     1
271
     1
  0
XRECORD
  5
27D5
102
{ACAD_REACTORS
330
27D2
102
}
330
27D2
100
AcDbXrecord
280
     1
270
     1
271
     1
  0
XRECORD
  5
2930
102
{ACAD_REACTORS
330
27CA
102
}
330
27CA
100
AcDbXrecord
280
     1
102
MATERIAL
148
0.0
149
0.0
149
0.0
 93
        0
 94
      127
282
     0
 72
     0
 77
     0
171
     0
175
     0
179
     0
273
     0
  0
XRECORD
  5
27CC
102
{ACAD_REACTORS
330
27CA
102
}
330
27CA
100
AcDbXrecord
280
     1
270
     1
271
     1
  0
XRECORD
  5
27CB
102
{ACAD_REACTORS
330
27CA
102
}
330
27CA
100
AcDbXrecord
280
     1
270
     1
271
     1
  0
XRECORD
  5
27CF
102
{ACAD_REACTORS
330
27CA
102
}
330
27CA
100
AcDbXrecord
280
     1
270
     1
271
     1
  0
XRECORD
  5
27CE
102
{ACAD_REACTORS
330
27CA
102
}
330
27CA
100
AcDbXrecord
280
     1
270
     1
271
     1
  0
XRECORD
  5
27D0
102
{ACAD_REACTORS
330
27CA
102
}
330
27CA
100
AcDbXrecord
280
     1
270
     1
271
     1
  0
XRECORD
  5
27CD
102
{ACAD_REACTORS
330
27CA
102
}
330
27CA
100
AcDbXrecord
280
     1
270
     1
271
     1
  0
XRECORD
  5
2932
102
{ACAD_REACTORS
330
27DA
102
}
330
27DA
100
AcDbXrecord
280
     1
102
MATERIAL
148
0.0
149
0.0
149
0.0
 93
        0
 94
      127
282
     0
 72
     0
 77
     0
171
     0
175
     0
179
     0
273
     0
  0
XRECORD
  5
27DC
102
{ACAD_REACTORS
330
27DA
102
}
330
27DA
100
AcDbXrecord
280
     1
270
     1
271
     1
  0
XRECORD
  5
27DB
102
{ACAD_REACTORS
330
27DA
102
}
330
27DA
100
AcDbXrecord
280
     1
270
     1
271
     1
  0
XRECORD
  5
27DF
102
{ACAD_REACTORS
330
27DA
102
}
330
27DA
100
AcDbXrecord
280
     1
270
     1
271
     1
  0
XRECORD
  5
27DE
102
{ACAD_REACTORS
330
27DA
102
}
330
27DA
100
AcDbXrecord
280
     1
270
     1
271
     1
  0
XRECORD
  5
27E0
102
{ACAD_REACTORS
330
27DA
102
}
330
27DA
100
AcDbXrecord
280
     1
270
     1
271
     1
  0
XRECORD
  5
27DD
102
{ACAD_REACTORS
330
27DA
102
}
330
27DA
100
AcDbXrecord
280
     1
270
     1
271
     1
  0
CELLSTYLEMAP
  5
2DE6
102
{ACAD_REACTORS
330
292C
102
}
330
292C
100
AcDbCellStyleMap
 90
        3
300
CELLSTYLE
  1
TABLEFORMAT_BEGIN
 90
        5
170
     1
 91
        0
 92
    32768
 62
   257
 93
        1
300
CONTENTFORMAT
  1
CONTENTFORMAT_BEGIN
 90
        0
 91
        0
 92
      512
 93
        0
300

 40
0.0
140
1.0
 94
        5
 62
     0
340
2815
144
0.25
309
CONTENTFORMAT_END
171
     1
301
MARGIN
  1
CELLMARGIN_BEGIN
 40
0.06
 40
0.06
 40
0.06
 40
0.06
 40
0.18
 40
0.18
309
CELLMARGIN_END
 94
        6
 95
        1
302
GRIDFORMAT
  1
GRIDFORMAT_BEGIN
 90
        0
 91
        1
 62
     0
 92
       -2
340
0
 93
        0
 40
0.045
309
GRIDFORMAT_END
 95
        2
302
GRIDFORMAT
  1
GRIDFORMAT_BEGIN
 90
        0
 91
        1
 62
     0
 92
       -2
340
0
 93
        0
 40
0.045
309
GRIDFORMAT_END
 95
        4
302
GRIDFORMAT
  1
GRIDFORMAT_BEGIN
 90
        0
 91
        1
 62
     0
 92
       -2
340
0
 93
        0
 40
0.045
309
GRIDFORMAT_END
 95
        8
302
GRIDFORMAT
  1
GRIDFORMAT_BEGIN
 90
        0
 91
        1
 62
     0
 92
       -2
340
0
 93
        0
 40
0.045
309
GRIDFORMAT_END
 95
       16
302
GRIDFORMAT
  1
GRIDFORMAT_BEGIN
 90
        0
 91
        1
 62
     0
 92
       -2
340
0
 93
        0
 40
0.045
309
GRIDFORMAT_END
 95
       32
302
GRIDFORMAT
  1
GRIDFORMAT_BEGIN
 90
        0
 91
        1
 62
     0
 92
       -2
340
0
 93
        0
 40
0.045
309
GRIDFORMAT_END
309
TABLEFORMAT_END
  1
CELLSTYLE_BEGIN
 90
        1
 91
        1
300
_TITLE
309
CELLSTYLE_END
300
CELLSTYLE
  1
TABLEFORMAT_BEGIN
 90
        5
170
     1
 91
        0
 92
        0
 62
   257
 93
        1
300
CONTENTFORMAT
  1
CONTENTFORMAT_BEGIN
 90
        0
 91
        0
 92
      512
 93
        0
300

 40
0.0
140
1.0
 94
        5
 62
     0
340
2815
144
0.18
309
CONTENTFORMAT_END
171
     1
301
MARGIN
  1
CELLMARGIN_BEGIN
 40
0.06
 40
0.06
 40
0.06
 40
0.06
 40
0.18
 40
0.18
309
CELLMARGIN_END
 94
        6
 95
        1
302
GRIDFORMAT
  1
GRIDFORMAT_BEGIN
 90
        0
 91
        1
 62
     0
 92
       -2
340
0
 93
        0
 40
0.045
309
GRIDFORMAT_END
 95
        2
302
GRIDFORMAT
  1
GRIDFORMAT_BEGIN
 90
        0
 91
        1
 62
     0
 92
       -2
340
0
 93
        0
 40
0.045
309
GRIDFORMAT_END
 95
        4
302
GRIDFORMAT
  1
GRIDFORMAT_BEGIN
 90
        0
 91
        1
 62
     0
 92
       -2
340
0
 93
        0
 40
0.045
309
GRIDFORMAT_END
 95
        8
302
GRIDFORMAT
  1
GRIDFORMAT_BEGIN
 90
        0
 91
        1
 62
     0
 92
       -2
340
0
 93
        0
 40
0.045
309
GRIDFORMAT_END
 95
       16
302
GRIDFORMAT
  1
GRIDFORMAT_BEGIN
 90
        0
 91
        1
 62
     0
 92
       -2
340
0
 93
        0
 40
0.045
309
GRIDFORMAT_END
 95
       32
302
GRIDFORMAT
  1
GRIDFORMAT_BEGIN
 90
        0
 91
        1
 62
     0
 92
       -2
340
0
 93
        0
 40
0.045
309
GRIDFORMAT_END
309
TABLEFORMAT_END
  1
CELLSTYLE_BEGIN
 90
        2
 91
        1
300
_HEADER
309
CELLSTYLE_END
300
CELLSTYLE
  1
TABLEFORMAT_BEGIN
 90
        5
170
     1
 91
        0
 92
        0
 62
   257
 93
        1
300
CONTENTFORMAT
  1
CONTENTFORMAT_BEGIN
 90
        0
 91
        0
 92
      512
 93
        0
300

 40
0.0
140
1.0
 94
        2
 62
     0
340
2815
144
0.18
309
CONTENTFORMAT_END
171
     1
301
MARGIN
  1
CELLMARGIN_BEGIN
 40
0.06
 40
0.06
 40
0.06
 40
0.06
 40
0.18
 40
0.18
309
CELLMARGIN_END
 94
        6
 95
        1
302
GRIDFORMAT
  1
GRIDFORMAT_BEGIN
 90
        0
 91
        1
 62
     0
 92
       -2
340
0
 93
        0
 40
0.045
309
GRIDFORMAT_END
 95
        2
302
GRIDFORMAT
  1
GRIDFORMAT_BEGIN
 90
        0
 91
        1
 62
     0
 92
       -2
340
0
 93
        0
 40
0.045
309
GRIDFORMAT_END
 95
        4
302
GRIDFORMAT
  1
GRIDFORMAT_BEGIN
 90
        0
 91
        1
 62
     0
 92
       -2
340
0
 93
        0
 40
0.045
309
GRIDFORMAT_END
 95
        8
302
GRIDFORMAT
  1
GRIDFORMAT_BEGIN
 90
        0
 91
        1
 62
     0
 92
       -2
340
0
 93
        0
 40
0.045
309
GRIDFORMAT_END
 95
       16
302
GRIDFORMAT
  1
GRIDFORMAT_BEGIN
 90
        0
 91
        1
 62
     0
 92
       -2
340
0
 93
        0
 40
0.045
309
GRIDFORMAT_END
 95
       32
302
GRIDFORMAT
  1
GRIDFORMAT_BEGIN
 90
        0
 91
        1
 62
     0
 92
       -2
340
0
 93
        0
 40
0.045
309
GRIDFORMAT_END
309
TABLEFORMAT_END
  1
CELLSTYLE_BEGIN
 90
        3
 91
        2
300
_DATA
309
CELLSTYLE_END
  0
XRECORD
  5
2DEC
102
{ACAD_REACTORS
330
292C
102
}
330
292C
100
AcDbXrecord
280
     1
102
ACAD_ROUNDTRIP_PRE2007_TABLESTYLE
 90
      512
 91
        0
  1

 92
      512
 93
        0
  2

 94
      512
 95
        0
  3

  0
ENDSEC
  0
EOF
