  0
SECTION
  2
HEADER
  9
$ACADVER
  1
AC1015
  9
$ACADMAINTVER
 70
    20
  9
$DWGCODEPAGE
  3
ANSI_932
  9
$INSBASE
 10
0.0
 20
0.0
 30
0.0
  9
$EXTMIN
 10
-958.7093999922547
 20
-848.7957524387136
 30
0.0
  9
$EXTMAX
 10
1201.849591127441
 20
623.3264701421712
 30
50.0
  9
$LIMMIN
 10
-2970.0
 20
-2100.0
  9
$LIMMAX
 10
2970.0
 20
2100.0
  9
$ORTHOMODE
 70
     1
  9
$REGENMODE
 70
     0
  9
$FILLMODE
 70
     1
  9
$QTEXTMODE
 70
     0
  9
$MIRRTEXT
 70
     0
  9
$LTSCALE
 40
20.0
  9
$ATTMODE
 70
     1
  9
$TEXTSIZE
 40
64.0
  9
$TRACEWID
 40
0.05
  9
$TEXTSTYLE
  7
STANDARD
  9
$CLAYER
  8
0
  9
$CELTYPE
  6
ByLayer
  9
$CECOLOR
 62
   256
  9
$CELTSCALE
 40
1.0
  9
$DISPSILH
 70
     0
  9
$DIMSCALE
 40
1.0
  9
$DIMASZ
 40
0.12
  9
$DIMEXO
 40
0.05
  9
$DIMDLI
 40
0.5
  9
$DIMRND
 40
0.0
  9
$DIMDLE
 40
0.0
  9
$DIMEXE
 40
0.1
  9
$DIMTP
 40
0.1
  9
$DIMTM
 40
0.1
  9
$DIMTXT
 40
0.12
  9
$DIMCEN
 40
0.0
  9
$DIMTSZ
 40
0.0
  9
$DIMTOL
 70
     0
  9
$DIMLIM
 70
     0
  9
$DIMTIH
 70
     1
  9
$DIMTOH
 70
     1
  9
$DIMSE1
 70
     0
  9
$DIMSE2
 70
     0
  9
$DIMTAD
 70
     0
  9
$DIMZIN
 70
     7
  9
$DIMBLK
  1

  9
$DIMASO
 70
     1
  9
$DIMSHO
 70
     0
  9
$DIMPOST
  1

  9
$DIMAPOST
  1
mm
  9
$DIMALT
 70
     0
  9
$DIMALTD
 70
     2
  9
$DIMALTF
 40
25.4
  9
$DIMLFAC
 40
1.0
  9
$DIMTOFL
 70
     0
  9
$DIMTVP
 40
0.0
  9
$DIMTIX
 70
     0
  9
$DIMSOXD
 70
     0
  9
$DIMSAH
 70
     0
  9
$DIMBLK1
  1

  9
$DIMBLK2
  1

  9
$DIMSTYLE
  2
AM_ANSI
  9
$DIMCLRD
 70
   256
  9
$DIMCLRE
 70
   256
  9
$DIMCLRT
 70
     2
  9
$DIMTFAC
 40
0.71
  9
$DIMGAP
 40
0.06
  9
$DIMJUST
 70
     0
  9
$DIMSD1
 70
     0
  9
$DIMSD2
 70
     0
  9
$DIMTOLJ
 70
     1
  9
$DIMTZIN
 70
     7
  9
$DIMALTZ
 70
     0
  9
$DIMALTTZ
 70
     0
  9
$DIMUPT
 70
     0
  9
$DIMDEC
 70
     4
  9
$DIMTDEC
 70
     4
  9
$DIMALTU
 70
     2
  9
$DIMALTTD
 70
     4
  9
$DIMTXSTY
  7
STANDARD
  9
$DIMAUNIT
 70
     0
  9
$DIMADEC
 70
     0
  9
$DIMALTRND
 40
0.0
  9
$DIMAZIN
 70
     2
  9
$DIMDSEP
 70
    46
  9
$DIMATFIT
 70
     3
  9
$DIMFRAC
 70
     0
  9
$DIMLDRBLK
  1

  9
$DIMLUNIT
 70
     2
  9
$DIMLWD
 70
    -1
  9
$DIMLWE
 70
    -1
  9
$DIMTMOVE
 70
     0
  9
$LUNITS
 70
     2
  9
$LUPREC
 70
     4
  9
$SKETCHINC
 40
0.1
  9
$FILLETRAD
 40
4.0
  9
$AUNITS
 70
     1
  9
$AUPREC
 70
     3
  9
$MENU
  1
ACAD
  9
$ELEVATION
 40
0.0
  9
$PELEVATION
 40
0.0
  9
$THICKNESS
 40
50.0
  9
$LIMCHECK
 70
     0
  9
$CHAMFERA
 40
0.0
  9
$CHAMFERB
 40
0.0
  9
$CHAMFERC
 40
0.0
  9
$CHAMFERD
 40
0.0
  9
$SKPOLY
 70
     0
  9
$TDCREATE
 40
2452321.396199653
  9
$TDUCREATE
 40
2452321.021199653
  9
$TDUPDATE
 40
2456212.874436192
  9
$TDUUPDATE
 40
2456212.499436192
  9
$TDINDWG
 40
1.0401765394
  9
$TDUSRTIMER
 40
1.0401707639
  9
$USRTIMER
 70
     1
  9
$ANGBASE
 50
0.0
  9
$ANGDIR
 70
     0
  9
$PDMODE
 70
     3
  9
$PDSIZE
 40
-2.0
  9
$PLINEWID
 40
0.0
  9
$SPLFRAME
 70
     0
  9
$SPLINETYPE
 70
     6
  9
$SPLINESEGS
 70
     8
  9
$HANDSEED
  5
302D
  9
$SURFTAB1
 70
     6
  9
$SURFTAB2
 70
     6
  9
$SURFTYPE
 70
     6
  9
$SURFU
 70
     6
  9
$SURFV
 70
     6
  9
$UCSBASE
  2

  9
$UCSNAME
  2

  9
$UCSORG
 10
0.0
 20
0.0
 30
0.0
  9
$UCSXDIR
 10
1.0
 20
0.0
 30
0.0
  9
$UCSYDIR
 10
0.0
 20
1.0
 30
0.0
  9
$UCSORTHOREF
  2

  9
$UCSORTHOVIEW
 70
     0
  9
$UCSORGTOP
 10
0.0
 20
0.0
 30
0.0
  9
$UCSORGBOTTOM
 10
0.0
 20
0.0
 30
0.0
  9
$UCSORGLEFT
 10
0.0
 20
0.0
 30
0.0
  9
$UCSORGRIGHT
 10
0.0
 20
0.0
 30
0.0
  9
$UCSORGFRONT
 10
0.0
 20
0.0
 30
0.0
  9
$UCSORGBACK
 10
0.0
 20
0.0
 30
0.0
  9
$PUCSBASE
  2

  9
$PUCSNAME
  2

  9
$PUCSORG
 10
0.0
 20
0.0
 30
0.0
  9
$PUCSXDIR
 10
1.0
 20
0.0
 30
0.0
  9
$PUCSYDIR
 10
0.0
 20
1.0
 30
0.0
  9
$PUCSORTHOREF
  2

  9
$PUCSORTHOVIEW
 70
     0
  9
$PUCSORGTOP
 10
0.0
 20
0.0
 30
0.0
  9
$PUCSORGBOTTOM
 10
0.0
 20
0.0
 30
0.0
  9
$PUCSORGLEFT
 10
0.0
 20
0.0
 30
0.0
  9
$PUCSORGRIGHT
 10
0.0
 20
0.0
 30
0.0
  9
$PUCSORGFRONT
 10
0.0
 20
0.0
 30
0.0
  9
$PUCSORGBACK
 10
0.0
 20
0.0
 30
0.0
  9
$USERI1
 70
     0
  9
$USERI2
 70
     0
  9
$USERI3
 70
     0
  9
$USERI4
 70
     0
  9
$USERI5
 70
     0
  9
$USERR1
 40
20.0
  9
$USERR2
 40
0.0
  9
$USERR3
 40
0.0
  9
$USERR4
 40
0.0
  9
$USERR5
 40
0.0
  9
$WORLDVIEW
 70
     1
  9
$SHADEDGE
 70
     3
  9
$SHADEDIF
 70
    70
  9
$TILEMODE
 70
     1
  9
$MAXACTVP
 70
    64
  9
$PINSBASE
 10
0.0
 20
0.0
 30
0.0
  9
$PLIMCHECK
 70
     0
  9
$PEXTMIN
 10
1.000000000000000E+20
 20
1.000000000000000E+20
 30
1.000000000000000E+20
  9
$PEXTMAX
 10
-1.000000000000000E+20
 20
-1.000000000000000E+20
 30
-1.000000000000000E+20
  9
$PLIMMIN
 10
0.0
 20
0.0
  9
$PLIMMAX
 10
12.0
 20
9.0
  9
$UNITMODE
 70
     0
  9
$VISRETAIN
 70
     1
  9
$PLINEGEN
 70
     0
  9
$PSLTSCALE
 70
     1
  9
$TREEDEPTH
 70
  3020
  9
$CMLSTYLE
  2
Standard
  9
$CMLJUST
 70
     0
  9
$CMLSCALE
 40
1.0
  9
$PROXYGRAPHICS
 70
     1
  9
$MEASUREMENT
 70
     0
  9
$CELWEIGHT
370
    -1
  9
$ENDCAPS
280
     0
  9
$JOINSTYLE
280
     0
  9
$LWDISPLAY
290
     0
  9
$INSUNITS
 70
     0
  9
$HYPERLINKBASE
  1

  9
$STYLESHEET
  1

  9
$XEDIT
290
     1
  9
$CEPSNTYPE
380
     0
  9
$PSTYLEMODE
290
     1
  9
$FINGERPRINTGUID
  2
{FC660D6F-A682-4299-B1E4-34E7FE4360D5}
  9
$VERSIONGUID
  2
{1C143A05-5E6C-47B8-AE16-FCDCB0DAF145}
  9
$EXTNAMES
290
     1
  9
$PSVPSCALE
 40
0.0
  9
$OLESTARTUP
290
     0
  0
ENDSEC
  0
SECTION
  2
CLASSES
  0
CLASS
  1
ACDBDICTIONARYWDFLT
  2
AcDbDictionaryWithDefault
  3
ObjectDBX Classes
 90
        0
280
     0
281
     0
  0
CLASS
  1
MATERIAL
  2
AcDbMaterial
  3
ObjectDBX Classes
 90
     1153
280
     0
281
     0
  0
CLASS
  1
VISUALSTYLE
  2
AcDbVisualStyle
  3
ObjectDBX Classes
 90
     4095
280
     0
281
     0
  0
CLASS
  1
SCALE
  2
AcDbScale
  3
ObjectDBX Classes
 90
     1153
280
     0
281
     0
  0
CLASS
  1
TABLESTYLE
  2
AcDbTableStyle
  3
ObjectDBX Classes
 90
     4095
280
     0
281
     0
  0
CLASS
  1
MLEADERSTYLE
  2
AcDbMLeaderStyle
  3
ACDB_MLEADERSTYLE_CLASS
 90
     4095
280
     0
281
     0
  0
CLASS
  1
AMGSETTINGSOBJ
  2
AmgSettingsObj
  3
"AcadM|Product Description: AutoCAD Mechanical|Company: Autodesk, Inc."
 90
     1024
280
     0
281
     0
  0
CLASS
  1
ACME_DOCUMENT
  2
AcMeDbDoc
  3
AcMeServices
 90
     1024
280
     0
281
     0
  0
CLASS
  1
ACMESCOPE
  2
AcMeScope
  3
AcMeServices
 90
     1024
280
     0
281
     0
  0
CLASS
  1
ACMECOMMANDHISTORY
  2
AcMeCommandHistory
  3
AcMeServices
 90
     1024
280
     0
281
     0
  0
CLASS
  1
ACIMSYSVARMAN
  2
AcImSysVarManager
  3
AcMeServices
 90
     1024
280
     0
281
     0
  0
CLASS
  1
ACIMREALSYSVAR
  2
AcImRealSysVar
  3
AcMeServices
 90
     1024
280
     0
281
     0
  0
CLASS
  1
ACIMINTSYSVAR
  2
AcImIntSysVar
  3
AcMeServices
 90
     1024
280
     0
281
     0
  0
CLASS
  1
ACMEDRAWINGMAN
  2
AcMeDrawingMan
  3
AcMeServices
 90
     1024
280
     0
281
     0
  0
CLASS
  1
ACMEVIEW
  2
AcMeView
  3
AcMeServices
 90
     1024
280
     0
281
     0
  0
CLASS
  1
ACDBENTITYCACHE
  2
AcMeEntityCache
  3
AcMeServices
 90
     1024
280
     0
281
     0
  0
CLASS
  1
GSMANAGER
  2
AcMeGSManager
  3
AcMeServices
 90
     1024
280
     0
281
     0
  0
CLASS
  1
AMDTINTERNALREACTOR
  2
AmdtInternalReactor
  3
AcMeServices
 90
     1024
280
     0
281
     0
  0
CLASS
  1
ACMESTATEMGR
  2
AcMeStateMgr
  3
AcMeServices
 90
     1024
280
     0
281
     0
  0
CLASS
  1
ACGREFMASTER
  2
AcGrefMaster
  3
AcAttribServices
 90
     1024
280
     0
281
     0
  0
CLASS
  1
AM_DRAWING_MGR
  2
AcDmDwgMgr
  3
AcMechDwgViewMgmt
 90
     1024
280
     0
281
     0
  0
CLASS
  1
AM_DWG_DOCUMENT
  2
AcDmDwgDocument
  3
AcMechDwgViewMgmt
 90
     1024
280
     0
281
     0
  0
CLASS
  1
AM_DWG_SHEET
  2
AcDmSheet
  3
AcMechDwgViewMgmt
 90
     1024
280
     0
281
     0
  0
CLASS
  1
AM_VIEWDIMPARMAP
  2
AcDmViewDimParMap
  3
AcMechDwgViewMgmt
 90
     1024
280
     0
281
     0
  0
CLASS
  1
AM_DWGMGR_NAME
  2
AcDmDwgMgrName
  3
AcMechDwgViewMgmt
 90
     1024
280
     0
281
     0
  0
CLASS
  1
ACME_DATABASE
  2
AcMeDbDatabase
  3
AcMeServices
 90
     1024
280
     0
281
     0
  0
CLASS
  1
ACRFINSADJUSTERMGR
  2
AcRfInsAdjusterMgr
  3
AcMeServices
 90
     1024
280
     0
281
     0
  0
CLASS
  1
ACGREFACADMASTER
  2
AcGrefacadMaster
  3
AcGrefServices
 90
     1024
280
     0
281
     0
  0
CLASS
  1
AMDTMENUSTATEMGR
  2
AmdtMenuStateMgr
  3
McadcomServices
 90
     1024
280
     0
281
     0
  0
CLASS
  1
AMDTMCOMMENUSTATE
  2
AmdtMcomMenuState
  3
McadcomServices
 90
     1024
280
     0
281
     0
  0
CLASS
  1
AMIMASTER
  2
AmiMaster
  3
AmiServices
 90
     1024
280
     0
281
     0
  0
CLASS
  1
ASAPP
  2
AcAsAppObject
  3
AutoSurfServices
 90
     1024
280
     0
281
     0
  0
CLASS
  1
IM_STATIC_MAN
  2
AcImStaticVarManager
  3
AcMeServices
 90
     1024
280
     0
281
     0
  0
CLASS
  1
ACIMSTRSYSVAR
  2
AcImStrSysVar
  3
AcMeServices
 90
     1024
280
     0
281
     0
  0
CLASS
  1
ACIMDBLSTATICVAR
  2
AcImDblStaticVar
  3
AcMeServices
 90
     1024
280
     0
281
     0
  0
CLASS
  1
ACIMSTRSTATICVAR
  2
AcImStrStaticVar
  3
AcMeServices
 90
     1024
280
     0
281
     0
  0
CLASS
  1
ACIMINTSTATICVAR
  2
AcImIntStaticVar
  3
AcMeServices
 90
     1024
280
     0
281
     0
  0
CLASS
  1
ACASGREFMASTER
  2
AcAsGrefMaster
  3
AutoSurfResolverServices
 90
     1024
280
     0
281
     0
  0
CLASS
  1
ACADGREFMODULE
  2
AcAdGrefModule
  3
AdGrefServices
 90
     1024
280
     0
281
     0
  0
CLASS
  1
AMDTMAPISURFMOUDULE
  2
AmdtMApiSurfModule
  3
MApiSurfServices
 90
     1024
280
     0
281
     0
  0
CLASS
  1
MAPIAMMOUDLE
  2
MApiAmModule
  3
MApiAmServices
 90
     1024
280
     0
281
     0
  0
CLASS
  1
AMDTADMENUSTATE
  2
AmdtAdMenuState
  3
DesignerServices
 90
     1024
280
     0
281
     0
  0
CLASS
  1
ADAPPL
  2
AcAdAppl
  3
DesignerServices
 90
     1024
280
     0
281
     0
  0
CLASS
  1
DEPMGR
  2
AcAdDepMgr
  3
DesignerServices
 90
     1024
280
     0
281
     0
  0
CLASS
  1
PARAMMGR
  2
AcAdParamMgr
  3
DesignerServices
 90
     1024
280
     0
281
     0
  0
CLASS
  1
PARAMSCOPE
  2
AcAdParamScope
  3
DesignerServices
 90
     1024
280
     0
281
     0
  0
CLASS
  1
NAMEDAPPL
  2
AcAdNamedAppl
  3
DesignerServices
 90
     1024
280
     0
281
     0
  0
CLASS
  1
AMDTDMMENUSTATE
  2
AmdtDmMenuState
  3
AcMechDwgViewMgmt
 90
     1024
280
     0
281
     0
  0
CLASS
  1
MAPIADMODULE
  2
MApiAdModule
  3
MApiAdServices
 90
     1024
280
     0
281
     0
  0
CLASS
  1
AMDTAMMENUSTATE
  2
AmdtAmMenuState
  3
DesignerAssemblies
 90
     1024
280
     0
281
     0
  0
CLASS
  1
ACAMPROJECT
  2
AcAmProject
  3
DesignerAssemblies
 90
     1024
280
     0
281
     0
  0
CLASS
  1
ACAMGRCOMPDEF
  2
AcAmGrCompDef
  3
DesignerAssemblies
 90
     1024
280
     0
281
     0
  0
CLASS
  1
ACCMCONTEXT
  2
AcCmContext
  3
DesignerAssemblies
 90
     1024
280
     0
281
     0
  0
CLASS
  1
ACAMCOMPDEF
  2
AcAmCompDef
  3
DesignerAssemblies
 90
     1024
280
     0
281
     0
  0
CLASS
  1
ACAMCOMPDEFMGR
  2
AcAmCompDefMgr
  3
DesignerAssemblies
 90
     1024
280
     0
281
     0
  0
CLASS
  1
AMCONTEXTMGR
  2
AcAmContextMgr
  3
DesignerAssemblies
 90
     1024
280
     0
281
     0
  0
CLASS
  1
ACAMCONTEXTMODELER
  2
AcAmContextModeler
  3
DesignerAssemblies
 90
     1024
280
     0
281
     0
  0
CLASS
  1
ACMDATADICTIONARY
  2
AcmDataDictionary
  3
"AcmSymBB|Product Description: AutoCAD Mechanical|Company: Autodesk, Inc."
 90
     1024
280
     0
281
     0
  0
CLASS
  1
ACMDATAENTRYBLOCK
  2
AcmDataEntryBlock
  3
AcmSymBB|Product Description: AutoCAD Mechanical|Company: Autodesk, Inc.
 90
     1024
280
     0
281
     0
  0
CLASS
  1
ACRFATTGENMGR
  2
AcRfAttGeneralMgr
  3
AcAttribServices
 90
     1024
280
     0
281
     0
  0
CLASS
  1
ACRFOBJATTMGR
  2
AcRfObjAttGroupMgr
  3
AcAttribServices
 90
     1024
280
     0
281
     0
  0
CLASS
  1
ACRFMCADAPIATTHOLDER
  2
AcRfMCADAPIAttHolder
  3
AcAttribServices
 90
     1024
280
     0
281
     0
  0
CLASS
  1
AMDTSYSATTR
  2
AmdtSystemAttribute
  3
AcAttribServices
 90
     1024
280
     0
281
     0
  0
CLASS
  1
CATALOGSTATE
  2
AcAmCatalogState
  3
DesignerAssemblies
 90
     1024
280
     0
281
     0
  0
CLASS
  1
ACAMGRCOMPDEFSET
  2
AcAmGrCompDefSet
  3
DesignerAssemblies
 90
     1024
280
     0
281
     0
  0
CLASS
  1
AMDTBROWSERDBTAB
  2
AmdtBrowserDbTab
  3
McadcomServices
 90
     1024
280
     0
281
     0
  0
CLASS
  1
CBROWSERAPPOBJECT
  2
CBrowserAppObject
  3
McadcomServices
 90
     1024
280
     0
281
     0
  0
CLASS
  1
DM_PLACEHOLDER
  2
AcDmSelsetPlaceholder
  3
AcMechDwgViewMgmt
 90
     1024
280
     0
281
     0
  0
CLASS
  1
ACMSTANDARDANSI
  2
AcmStandardANSI
  3
"Amdt_StdImp|Product Description: AutoCAD Mechanical|Company: Autodesk, Inc."
 90
     1024
280
     0
281
     0
  0
CLASS
  1
ACMSURFSTANDARDANSI
  2
AcmSurfTextStdANSI
  3
"Amdt_StdImp|Product Description: AutoCAD Mechanical|Company: Autodesk, Inc."
 90
     1024
280
     0
281
     0
  0
CLASS
  1
ACMFCFSTANDARDANSI
  2
AcmFCFStdANSI
  3
"Amdt_StdImp|Product Description: AutoCAD Mechanical|Company: Autodesk, Inc."
 90
     1024
280
     0
281
     0
  0
CLASS
  1
ACMWELDSTANDARDANSI
  2
AcmWeldingStdANSI
  3
"Amdt_StdImp|Product Description: AutoCAD Mechanical|Company: Autodesk, Inc."
 90
     1024
280
     0
281
     0
  0
CLASS
  1
ACMIDSTANDARDANSI
  2
AcmIdStdANSI
  3
"Amdt_StdImp|Product Description: AutoCAD Mechanical|Company: Autodesk, Inc."
 90
     1024
280
     0
281
     0
  0
CLASS
  1
ACMDATUMSTANDARDANSI
  2
AcmDatumStdANSI
  3
"Amdt_StdImp|Product Description: AutoCAD Mechanical|Company: Autodesk, Inc."
 90
     1024
280
     0
281
     0
  0
CLASS
  1
ACMBOMSTANDARDANSI
  2
AcmBOMStdANSI
  3
"Amdt_StdImp|Product Description: AutoCAD Mechanical|Company: Autodesk, Inc."
 90
     1024
280
     0
281
     0
  0
CLASS
  1
ACMDETAILSTANDARDANSI
  2
AmdtDetailSymStdANSI
  3
"Amdt_StdImp|Product Description: AutoCAD Mechanical|Company: Autodesk, Inc."
 90
     1024
280
     0
281
     0
  0
CLASS
  1
ACMSECTIONSTANDARDANSI
  2
AmdtSectionSymStdANSI
  3
"Amdt_StdImp|Product Description: AutoCAD Mechanical|Company: Autodesk, Inc."
 90
     1024
280
     0
281
     0
  0
CLASS
  1
ACMCENTERLINESTANDARDANSI
  2
AmdtCenterLineStdANSI
  3
"Amdt_StdImp|Product Description: AutoCAD Mechanical|Company: Autodesk, Inc."
 90
     1024
280
     0
281
     0
  0
CLASS
  1
ACMTHREADLINESTANDARDANSI
  2
AmdtThreadLineStdANSI
  3
"Amdt_StdImp|Product Description: AutoCAD Mechanical|Company: Autodesk, Inc."
 90
     1024
280
     0
281
     0
  0
CLASS
  1
ACMNOTESTANDARDANSI
  2
AmdtNoteStdANSI
  3
"Amdt_StdImp|Product Description: AutoCAD Mechanical|Company: Autodesk, Inc."
 90
     1024
280
     0
281
     0
  0
CLASS
  1
ACMTAPERSTANDARDANSI
  2
AcmTaperStdANSI
  3
"Amdt_StdImp|Product Description: AutoCAD Mechanical|Company: Autodesk, Inc."
 90
     1024
280
     0
281
     0
  0
CLASS
  1
ACMANOOTATIONVIEWSTANDARDANSI
  2
AmdtAnViewStdANSI
  3
"Amdt_StdImp|Product Description: AutoCAD Mechanical|Company: Autodesk, Inc."
 90
     1024
280
     0
281
     0
  0
CLASS
  1
ACAMGLAYSTD
  2
AcAmgLayStd
  3
"AmgLay|Product Description: AutoCAD Mechanical|Company: Autodesk, Inc."
 90
     1024
280
     0
281
     0
  0
CLASS
  1
ACAMGDIMSTD
  2
AcAmgDimStd
  3
"AmgDim|Product Description: AutoCAD Mechanical|Company: Autodesk, Inc."
 90
     1024
280
     0
281
     0
  0
CLASS
  1
ACAMGHOLECHARTSTDANSI
  2
AcAmgHoleChartStdANSI
  3
AmgDim|Product Description: AutoCAD Mechanical|Company: Autodesk, Inc.
 90
     1024
280
     0
281
     0
  0
CLASS
  1
AMGOBJPROPCFG
  2
AmgObjPropCfg
  3
"AmgLay|Product Description: AutoCAD Mechanical|Company: Autodesk, Inc."
 90
     1025
280
     0
281
     0
  0
CLASS
  1
ACAMGTITLESTD
  2
AcAmgTitleStd
  3
"AmgTitle|Product Description: AutoCAD Mechanical|Company: Autodesk, Inc."
 90
     4095
280
     0
281
     0
  0
CLASS
  1
AMDTNOTETEMPLATEDB
  2
AmdtNoteTemplateDB
  3
AcmSymBB|Product Description: AutoCAD Mechanical|Company: Autodesk, Inc.
 90
     1024
280
     0
281
     0
  0
CLASS
  1
LAYER_INDEX
  2
AcDbLayerIndex
  3
ObjectDBX Classes
 90
        0
280
     0
281
     0
  0
CLASS
  1
IDBUFFER
  2
AcDbIdBuffer
  3
ObjectDBX Classes
 90
        0
280
     0
281
     0
  0
CLASS
  1
DICTIONARYVAR
  2
AcDbDictionaryVar
  3
ObjectDBX Classes
 90
        0
280
     0
281
     0
  0
CLASS
  1
CELLSTYLEMAP
  2
AcDbCellStyleMap
  3
ObjectDBX Classes
 90
     1152
280
     0
281
     0
  0
CLASS
  1
ACDBPLACEHOLDER
  2
AcDbPlaceHolder
  3
ObjectDBX Classes
 90
        0
280
     0
281
     0
  0
CLASS
  1
LAYOUT
  2
AcDbLayout
  3
ObjectDBX Classes
 90
        0
280
     0
281
     0
  0
ENDSEC
  0
SECTION
  2
TABLES
  0
TABLE
  2
VPORT
  5
2DC1
330
0
100
AcDbSymbolTable
 70
     1
  0
VPORT
  5
2E31
330
2DC1
100
AcDbSymbolTableRecord
100
AcDbViewportTableRecord
  2
*ACTIVE
 70
     0
 10
0.0
 20
0.0
 11
1.0
 21
1.0
 12
0.0
 22
0.0
 13
0.0
 23
0.0
 14
1.0
 24
1.0
 15
0.0
 25
0.0
 16
0.0
 26
0.0
 36
1.0
 17
121.6804644112474
 27
-112.6327418170786
 37
0.0
 40
1482.115638482606
 41
1.712555066079295
 42
50.0
 43
0.0
 44
0.0
 50
0.0
 51
0.0
 71
     0
 72
   100
 73
     1
 74
     0
 75
     0
 76
     0
 77
     0
 78
     0
281
     0
 65
     0
110
0.0
120
0.0
130
0.0
111
1.0
121
0.0
131
0.0
112
0.0
122
1.0
132
0.0
 79
     0
146
0.0
  0
ENDTAB
  0
TABLE
  2
LTYPE
  5
2DBE
330
0
100
AcDbSymbolTable
 70
    19
  0
LTYPE
  5
2E1B
330
2DBE
100
AcDbSymbolTableRecord
100
AcDbLinetypeTableRecord
  2
ByBlock
 70
     0
  3

 72
    65
 73
     0
 40
0.0
  0
LTYPE
  5
2E1C
330
2DBE
100
AcDbSymbolTableRecord
100
AcDbLinetypeTableRecord
  2
ByLayer
 70
     0
  3

 72
    65
 73
     0
 40
0.0
  0
LTYPE
  5
2E1D
330
2DBE
100
AcDbSymbolTableRecord
100
AcDbLinetypeTableRecord
  2
CONTINUOUS
 70
     0
  3
実線
 72
    65
 73
     0
 40
0.0
  0
LTYPE
  5
2E32
330
2DBE
100
AcDbSymbolTableRecord
100
AcDbLinetypeTableRecord
  2
DASHDOT
 70
     0
  3
____ _ ____ _ ____ _ ____ _ ____ _ ____ _ ____
 72
    65
 73
     4
 40
5.5
 49
4.0
 74
     0
 49
-0.6
 74
     0
 49
0.3
 74
     0
 49
-0.6
 74
     0
  0
LTYPE
  5
2E33
330
2DBE
100
AcDbSymbolTableRecord
100
AcDbLinetypeTableRecord
  2
HIDDEN
 70
     0
  3
Hidden __ __ __ __ __ __ __ __ __ __ __ __ __ _
 72
    65
 73
     2
 40
0.375
 49
0.25
 74
     0
 49
-0.125
 74
     0
  0
LTYPE
  5
2E34
330
2DBE
100
AcDbSymbolTableRecord
100
AcDbLinetypeTableRecord
  2
PHANTOM2
 70
     0
  3
Phantom (.5x) ___ _ _ ___ _ _ ___ _ _ ___ _ _
 72
    65
 73
     6
 40
1.25
 49
0.625
 74
     0
 49
-0.125
 74
     0
 49
0.125
 74
     0
 49
-0.125
 74
     0
 49
0.125
 74
     0
 49
-0.125
 74
     0
  0
LTYPE
  5
2E35
330
2DBE
100
AcDbSymbolTableRecord
100
AcDbLinetypeTableRecord
  2
CENTER
 70
     0
  3
Center ____ _ ____ _ ____ _ ____ _ ____ _ ____
 72
    65
 73
     4
 40
2.0
 49
1.25
 74
     0
 49
-0.25
 74
     0
 49
0.25
 74
     0
 49
-0.25
 74
     0
  0
LTYPE
  5
2E36
330
2DBE
100
AcDbSymbolTableRecord
100
AcDbLinetypeTableRecord
  2
ASULTYPE
 70
     0
  3
実線
 72
    65
 73
     2
 40
3.0
 49
2.5
 74
     0
 49
0.5
 74
     0
  0
LTYPE
  5
2E37
330
2DBE
100
AcDbSymbolTableRecord
100
AcDbLinetypeTableRecord
  2
ASVLTYPE
 70
     0
  3
__ __ __ __ __ __ __ __ __ __ __ __ __ __ __ __ __ __ __ __ __
 72
    65
 73
     2
 40
0.75
 49
0.5
 74
     0
 49
-0.25
 74
     0
  0
LTYPE
  5
2E38
330
2DBE
100
AcDbSymbolTableRecord
100
AcDbLinetypeTableRecord
  2
AM_ISO02W050
 70
     0
  3
__ __ __ __ __ __ __ __ __ __ __ __ __ __ __
 72
    65
 73
     2
 40
7.5
 49
6.0
 74
     0
 49
-1.5
 74
     0
  0
LTYPE
  5
2E39
330
2DBE
100
AcDbSymbolTableRecord
100
AcDbLinetypeTableRecord
  2
AM_ISO08W050
 70
     0
  3
____ . ____ . ____ . ____ . ____ . ____ . ____
 72
    65
 73
     4
 40
18.0
 49
12.0
 74
     0
 49
-1.5
 74
     0
 49
3.0
 74
     0
 49
-1.5
 74
     0
  0
LTYPE
  5
2E3A
330
2DBE
100
AcDbSymbolTableRecord
100
AcDbLinetypeTableRecord
  2
AM_ISO09W050
 70
     0
  3
_____ . . _____ . . _____ . . ____ .. ____
 72
    65
 73
     6
 40
22.5
 49
12.0
 74
     0
 49
-1.5
 74
     0
 49
3.0
 74
     0
 49
-1.5
 74
     0
 49
3.0
 74
     0
 49
-1.5
 74
     0
  0
LTYPE
  5
2E3B
330
2DBE
100
AcDbSymbolTableRecord
100
AcDbLinetypeTableRecord
  2
AMCONSTR
 70
     0
  3
_______________________
 72
    65
 73
     2
 40
9999.0
 49
9999.0
 74
     0
 49
0.0
 74
     0
  0
LTYPE
  5
2E3C
330
2DBE
100
AcDbSymbolTableRecord
100
AcDbLinetypeTableRecord
  2
AM_ISO08W050X2
 70
     0
  3
__ . __ . __ . __ . __ . __
 72
    65
 73
     4
 40
9.0
 49
6.0
 74
     0
 49
-0.75
 74
     0
 49
1.5
 74
     0
 49
-0.75
 74
     0
  0
LTYPE
  5
2E3D
330
2DBE
100
AcDbSymbolTableRecord
100
AcDbLinetypeTableRecord
  2
AM_ISO02W050X2
 70
     0
  3
 _ _ _ _ _ _ _ _ _ _ _ _
 72
    65
 73
     2
 40
3.75
 49
3.0
 74
     0
 49
-0.75
 74
     0
  0
LTYPE
  5
2E3E
330
2DBE
100
AcDbSymbolTableRecord
100
AcDbLinetypeTableRecord
  2
AMZIGZAG
 70
     0
  3
/\/-/\/-/\/-/\/-/\/-/\/
 72
    65
 73
     2
 40
11.0001
 49
0.0001
 74
     0
 49
-11.0
 74
     0
  0
LTYPE
  5
2E3F
330
2DBE
100
AcDbSymbolTableRecord
100
AcDbLinetypeTableRecord
  2
CENTER2
 70
     0
  3
Center (.5x) ___ _ ___ _ ___ _ ___ _ ___ _ ___
 72
    65
 73
     4
 40
1.125
 49
0.75
 74
     0
 49
-0.125
 74
     0
 49
0.125
 74
     0
 49
-0.125
 74
     0
  0
LTYPE
  5
2E40
330
2DBE
100
AcDbSymbolTableRecord
100
AcDbLinetypeTableRecord
  2
HIDDEN2
 70
     0
  3
Hidden (.5x) _ _ _ _ _ _ _ _ _ _ _ _ _ _ _ _ _
 72
    65
 73
     2
 40
0.1875
 49
0.125
 74
     0
 49
-0.0625
 74
     0
  0
LTYPE
  5
2E41
330
2DBE
100
AcDbSymbolTableRecord
100
AcDbLinetypeTableRecord
  2
AMZIGZAG2
 70
     0
  3
/\/-/\/-/\/-/\/-/\/-/\/
 72
    65
 73
     2
 40
0.4401
 49
0.0001
 74
     0
 49
-0.4400000000000003
 74
     0
  0
LTYPE
  5
2E42
330
2DBE
100
AcDbSymbolTableRecord
100
AcDbLinetypeTableRecord
  2
ACANSTGB
 70
     0
  3
__ . . __ . .
 72
    65
 73
     6
 40
0.35433070866
 49
0.15748031496
 74
     0
 49
-0.03937007874
 74
     0
 49
0.03937007874
 74
     0
 49
-0.03937007874
 74
     0
 49
0.03937007874
 74
     0
 49
-0.03937007874
 74
     0
  0
LTYPE
  5
2E43
330
2DBE
100
AcDbSymbolTableRecord
100
AcDbLinetypeTableRecord
  2
ACANSTGL
 70
     0
  3
_ _ _ _ _
 72
    65
 73
     2
 40
0.11811023622
 49
0.07874015748
 74
     0
 49
-0.03937007874
 74
     0
  0
ENDTAB
  0
TABLE
  2
LAYER
  5
2DBB
330
0
100
AcDbSymbolTable
 70
    12
  0
LAYER
  5
2E15
102
{ACAD_XDICTIONARY
360
2FEC
102
}
330
2DBB
100
AcDbSymbolTableRecord
100
AcDbLayerTableRecord
  2
0
 70
     0
 62
     7
  6
CONTINUOUS
370
    -3
390
2DC8
  0
LAYER
  5
2E44
102
{ACAD_XDICTIONARY
360
2FEE
102
}
330
2DBB
100
AcDbSymbolTableRecord
100
AcDbLayerTableRecord
  2
OUTLINE
 70
     0
 62
     3
  6
CONTINUOUS
370
    -3
390
2DC8
  0
LAYER
  5
2E45
102
{ACAD_XDICTIONARY
360
2FF0
102
}
330
2DBB
100
AcDbSymbolTableRecord
100
AcDbLayerTableRecord
  2
SIZE
 70
     0
 62
    30
  6
CONTINUOUS
370
    -3
390
2DC8
  0
LAYER
  5
2E46
102
{ACAD_XDICTIONARY
360
2FF2
102
}
330
2DBB
100
AcDbSymbolTableRecord
100
AcDbLayerTableRecord
  2
BASIS
 70
     0
 62
     6
  6
DASHDOT
370
    -3
390
2DC8
  0
LAYER
  5
2E47
102
{ACAD_XDICTIONARY
360
2FF4
102
}
330
2DBB
100
AcDbSymbolTableRecord
100
AcDbLayerTableRecord
  2
DETAIL
 70
     0
 62
     5
  6
CONTINUOUS
370
    -3
390
2DC8
  0
LAYER
  5
2E48
102
{ACAD_XDICTIONARY
360
2FF6
102
}
330
2DBB
100
AcDbSymbolTableRecord
100
AcDbLayerTableRecord
  2
ARRANGE
 70
     0
 62
     1
  6
CONTINUOUS
370
    -3
390
2DC8
  0
LAYER
  5
2E49
330
2DBB
100
AcDbSymbolTableRecord
100
AcDbLayerTableRecord
  2
DEFPOINTS
 70
     0
 62
     7
  6
CONTINUOUS
290
     0
370
    -3
390
2DC8
  0
LAYER
  5
2E4A
102
{ACAD_XDICTIONARY
360
2FF8
102
}
330
2DBB
100
AcDbSymbolTableRecord
100
AcDbLayerTableRecord
  2
ETC
 70
     0
 62
    61
  6
CONTINUOUS
370
    -3
390
2DC8
  0
LAYER
  5
2E4B
102
{ACAD_XDICTIONARY
360
2FFA
102
}
330
2DBB
100
AcDbSymbolTableRecord
100
AcDbLayerTableRecord
  2
FIX
 70
     0
 62
    11
  6
CONTINUOUS
370
    -3
390
2DC8
  0
LAYER
  5
2E4C
102
{ACAD_XDICTIONARY
360
2FFC
102
}
330
2DBB
100
AcDbSymbolTableRecord
100
AcDbLayerTableRecord
  2
NOTE
 70
     0
 62
     4
  6
CONTINUOUS
370
    -3
390
2DC8
  0
LAYER
  5
2E4D
102
{ACAD_XDICTIONARY
360
2FFE
102
}
330
2DBB
100
AcDbSymbolTableRecord
100
AcDbLayerTableRecord
  2
SERVICESPACE
 70
     0
 62
     2
  6
DASHDOT
370
    -3
390
2DC8
  0
LAYER
  5
2E4E
102
{ACAD_XDICTIONARY
360
3000
102
}
330
2DBB
100
AcDbSymbolTableRecord
100
AcDbLayerTableRecord
  2
SYMBOLLINE
 70
     0
 62
    15
  6
CONTINUOUS
370
    -3
390
2DC8
  0
ENDTAB
  0
TABLE
  2
STYLE
  5
2DBC
330
0
100
AcDbSymbolTable
 70
     5
  0
STYLE
  5
2E16
330
2DBC
100
AcDbSymbolTableRecord
100
AcDbTextStyleTableRecord
  2
STANDARD
 70
     0
 40
64.0
 41
0.9
 50
0.0
 71
     0
 42
64.0
  3
SIMPLEX.shx
  4
BIGFONT.shx
  0
STYLE
  5
2E1A
330
2DBC
100
AcDbSymbolTableRecord
100
AcDbTextStyleTableRecord
  2
ANNOTATIVE
 70
     0
 40
0.0
 41
1.0
 50
0.0
 71
     0
 42
0.2
  3
txt
  4

1001
ACADANNOTATIVE
1000
AnnotativeData
1002
{
1070
     1
1070
     1
1002
}
  0
STYLE
  5
2E4F
330
2DBC
100
AcDbSymbolTableRecord
100
AcDbTextStyleTableRecord
  2

 70
     1
 40
0.0
 41
1.0
 50
0.0
 71
     0
 42
64.0
  3
genltshp.shx
  4

  0
STYLE
  5
2E50
330
2DBC
100
AcDbSymbolTableRecord
100
AcDbTextStyleTableRecord
  2
ACANSTS
 70
     0
 40
1.0
 41
1.0
 50
0.0
 71
     0
 42
64.0
  3
romans.shx
  4
extfont.shx
  0
STYLE
  5
2E51
330
2DBC
100
AcDbSymbolTableRecord
100
AcDbTextStyleTableRecord
  2
ACANSGDT
 70
     0
 40
0.0
 41
1.0
 50
0.0
 71
     0
 42
64.0
  3
amgdt.shx
  4

  0
ENDTAB
  0
TABLE
  2
VIEW
  5
2DBF
330
0
100
AcDbSymbolTable
 70
     1
  0
VIEW
  5
2E52
330
2DBF
100
AcDbSymbolTableRecord
100
AcDbViewTableRecord
  2
ALL
 70
     0
 40
4282.619807999997
 10
0.0
 20
41.30990399999999
 41
5940.0
 11
0.0
 21
0.0
 31
1.0
 12
0.0
 22
0.0
 32
0.0
 42
50.0
 43
0.0
 44
0.0
 50
0.0
 71
     0
281
     0
 72
     1
110
0.0
120
0.0
130
0.0
111
1.0
121
0.0
131
0.0
112
0.0
122
1.0
132
0.0
 79
     0
146
0.0
  0
ENDTAB
  0
TABLE
  2
UCS
  5
2DC0
330
0
100
AcDbSymbolTable
 70
     0
  0
ENDTAB
  0
TABLE
  2
APPID
  5
2DC2
330
0
100
AcDbSymbolTable
 70
    27
  0
APPID
  5
2E17
330
2DC2
100
AcDbSymbolTableRecord
100
AcDbRegAppTableRecord
  2
ACAD
 70
     0
  0
APPID
  5
2E1E
330
2DC2
100
AcDbSymbolTableRecord
100
AcDbRegAppTableRecord
  2
ACADANNOTATIVE
 70
     0
  0
APPID
  5
2E28
330
2DC2
100
AcDbSymbolTableRecord
100
AcDbRegAppTableRecord
  2
ACAD_MLEADERVER
 70
     0
  0
APPID
  5
2E53
330
2DC2
100
AcDbSymbolTableRecord
100
AcDbRegAppTableRecord
  2
GENIUS_GENDIM_13
 70
     0
  0
APPID
  5
2E54
330
2DC2
100
AcDbSymbolTableRecord
100
AcDbRegAppTableRecord
  2
GENIUS_GENDTOL_13
 70
     0
  0
APPID
  5
2E55
330
2DC2
100
AcDbSymbolTableRecord
100
AcDbRegAppTableRecord
  2
GENIUS_GE3DTOL_13
 70
     0
  0
APPID
  5
2E56
330
2DC2
100
AcDbSymbolTableRecord
100
AcDbRegAppTableRecord
  2
MCAD_NO_VIS
 70
     0
  0
APPID
  5
2E57
330
2DC2
100
AcDbSymbolTableRecord
100
AcDbRegAppTableRecord
  2
ACAD_TEMP_GRAPHIC
 70
     0
  0
APPID
  5
2E58
330
2DC2
100
AcDbSymbolTableRecord
100
AcDbRegAppTableRecord
  2
AD_DRAW
 70
     0
  0
APPID
  5
2E59
330
2DC2
100
AcDbSymbolTableRecord
100
AcDbRegAppTableRecord
  2
ACATTRIBSERVICES
 70
     0
  0
APPID
  5
2E5A
330
2DC2
100
AcDbSymbolTableRecord
100
AcDbRegAppTableRecord
  2
ASURF_PCURVE_APPNAME
 70
     0
  0
APPID
  5
2E5B
330
2DC2
100
AcDbSymbolTableRecord
100
AcDbRegAppTableRecord
  2
AMG_3D2D_5_0
 70
     0
  0
APPID
  5
2E5C
330
2DC2
100
AcDbSymbolTableRecord
100
AcDbRegAppTableRecord
  2
DESIGNERASSEMBLIES
 70
     0
  0
APPID
  5
2E5D
330
2DC2
100
AcDbSymbolTableRecord
100
AcDbRegAppTableRecord
  2
ACADM_DIM_EDIT
 70
     0
  0
APPID
  5
2E5E
330
2DC2
100
AcDbSymbolTableRecord
100
AcDbRegAppTableRecord
  2
AMDT_DM_ADJ
 70
     0
  0
APPID
  5
2E5F
330
2DC2
100
AcDbSymbolTableRecord
100
AcDbRegAppTableRecord
  2
ACAD_DSTYLE_DIMARC_LENGTH_
 70
     0
  0
APPID
  5
2E60
330
2DC2
100
AcDbSymbolTableRecord
100
AcDbRegAppTableRecord
  2
ACAD_DSTYLE_DIMJOGGED_JOGA
 70
     0
  0
APPID
  5
2E61
330
2DC2
100
AcDbSymbolTableRecord
100
AcDbRegAppTableRecord
  2
ACAD_PSEXT
 70
     0
  0
APPID
  5
2E62
330
2DC2
100
AcDbSymbolTableRecord
100
AcDbRegAppTableRecord
  2
ACAD_EXEMPT_FROM_CAD_STANDARDS
 70
     0
  0
APPID
  5
2E63
330
2DC2
100
AcDbSymbolTableRecord
100
AcDbRegAppTableRecord
  2
ACAD_DSTYLE_DIMJAG
 70
     0
  0
APPID
  5
2E64
330
2DC2
100
AcDbSymbolTableRecord
100
AcDbRegAppTableRecord
  2
ACAD_DSTYLE_DIMTALN
 70
     0
  0
APPID
  5
2E65
330
2DC2
100
AcDbSymbolTableRecord
100
AcDbRegAppTableRecord
  2
AMG_3D2D_5_00
 70
     0
  0
APPID
  5
2F93
330
2DC2
100
AcDbSymbolTableRecord
100
AcDbRegAppTableRecord
  2
AMG_3D2D_5.0
 70
     0
  0
APPID
  5
3029
330
2DC2
100
AcDbSymbolTableRecord
100
AcDbRegAppTableRecord
  2
ACAD_DSTYLE_DIMARC_LENGTH_SYMBOL
 70
     0
  0
APPID
  5
302A
330
2DC2
100
AcDbSymbolTableRecord
100
AcDbRegAppTableRecord
  2
ACAD_DSTYLE_DIM_LINETYPE
 70
     0
  0
APPID
  5
302B
330
2DC2
100
AcDbSymbolTableRecord
100
AcDbRegAppTableRecord
  2
ACAD_DSTYLE_DIM_EXT1_LINETYPE
 70
     0
  0
APPID
  5
302C
330
2DC2
100
AcDbSymbolTableRecord
100
AcDbRegAppTableRecord
  2
ACAD_DSTYLE_DIM_EXT2_LINETYPE
 70
     0
  0
ENDTAB
  0
TABLE
  2
DIMSTYLE
  5
2DC3
330
0
100
AcDbSymbolTable
 70
    10
100
AcDbDimStyleTable
 71
     1
340
2E66
  0
DIMSTYLE
105
2E18
330
2DC3
100
AcDbSymbolTableRecord
100
AcDbDimStyleTableRecord
  2
STANDARD
 70
     0
 41
12.0
 42
20.0
 44
20.0
 77
     1
 78
     8
140
64.0
141
0.0
147
10.0
275
     1
279
     2
284
     7
285
     7
286
     7
340
2E16
  0
DIMSTYLE
105
2E19
330
2DC3
100
AcDbSymbolTableRecord
100
AcDbDimStyleTableRecord
  2
ANNOTATIVE
 70
     0
275
     1
279
     2
284
     7
285
     7
286
     7
340
2E16
1001
ACADANNOTATIVE
1000
AnnotativeData
1002
{
1070
     1
1070
     1
1002
}
  0
DIMSTYLE
105
2E66
330
2DC3
100
AcDbSymbolTableRecord
100
AcDbDimStyleTableRecord
  2
AM_ANSI
 70
     0
  4
mm
 41
0.12
 42
0.05
 43
0.5
 44
0.1
 47
0.1
 48
0.1
 78
     7
 79
     2
140
0.12
141
0.0
146
0.71
147
0.06
176
   256
177
   256
178
     2
274
     4
284
     7
340
2E16
371
    -1
372
    -1
1001
ACAD_DSTYLE_DIMARC_LENGTH_SYMBOL
1070
   379
1070
     1
1001
ACAD_DSTYLE_DIM_LINETYPE
1070
   380
1005
2E1B
1001
ACAD_DSTYLE_DIM_EXT1_LINETYPE
1070
   381
1005
2E1B
1001
ACAD_DSTYLE_DIM_EXT2_LINETYPE
1070
   382
1005
2E1B
  0
DIMSTYLE
105
2E67
330
2DC3
100
AcDbSymbolTableRecord
100
AcDbDimStyleTableRecord
  2
AM_ANSI$3
 70
     0
  4
mm
 41
0.12
 42
0.05
 43
0.5
 44
0.1
 47
0.1
 48
0.1
 78
     7
 79
     2
140
0.12
141
0.0
146
0.71
147
0.06
176
   256
177
   256
178
     2
274
     4
284
     7
288
     1
289
     0
340
2E16
371
    -1
372
    -1
1001
ACAD_DSTYLE_DIMARC_LENGTH_SYMBOL
1070
   379
1070
     1
1001
ACAD_DSTYLE_DIM_LINETYPE
1070
   380
1005
2E1B
1001
ACAD_DSTYLE_DIM_EXT1_LINETYPE
1070
   381
1005
2E1B
1001
ACAD_DSTYLE_DIM_EXT2_LINETYPE
1070
   382
1005
2E1B
  0
DIMSTYLE
105
2E68
330
2DC3
100
AcDbSymbolTableRecord
100
AcDbDimStyleTableRecord
  2
AM_ANSI$4
 70
     0
  4
mm
 41
0.12
 42
0.05
 43
0.5
 44
0.1
 47
0.1
 48
0.1
 78
     7
 79
     2
140
0.12
141
0.0
146
0.71
147
0.06
176
   256
177
   256
178
     2
274
     4
284
     7
340
2E16
371
    -1
372
    -1
1001
ACAD_DSTYLE_DIMARC_LENGTH_SYMBOL
1070
   379
1070
     1
1001
ACAD_DSTYLE_DIM_LINETYPE
1070
   380
1005
2E1B
1001
ACAD_DSTYLE_DIM_EXT1_LINETYPE
1070
   381
1005
2E1B
1001
ACAD_DSTYLE_DIM_EXT2_LINETYPE
1070
   382
1005
2E1B
  0
DIMSTYLE
105
2E69
330
2DC3
100
AcDbSymbolTableRecord
100
AcDbDimStyleTableRecord
  2
AM_ANSI$7
 70
     0
  4
mm
 41
0.12
 42
0.05
 43
0.5
 44
0.1
 47
0.1
 48
0.1
 78
     7
 79
     2
140
0.12
141
0.0
146
0.71
147
0.06
176
   256
177
   256
178
     2
274
     4
284
     7
340
2E16
371
    -1
372
    -1
1001
ACAD_DSTYLE_DIMARC_LENGTH_SYMBOL
1070
   379
1070
     1
1001
ACAD_DSTYLE_DIM_LINETYPE
1070
   380
1005
2E1B
1001
ACAD_DSTYLE_DIM_EXT1_LINETYPE
1070
   381
1005
2E1B
1001
ACAD_DSTYLE_DIM_EXT2_LINETYPE
1070
   382
1005
2E1B
  0
DIMSTYLE
105
2E6A
330
2DC3
100
AcDbSymbolTableRecord
100
AcDbDimStyleTableRecord
  2
AM_ANSI$SF
 70
     0
  4
mm
 41
0.12
 42
0.05
 43
0.5
 44
0.1
 47
0.1
 48
0.1
 75
     1
 76
     1
 78
     7
 79
     2
140
0.12
141
0.0
146
0.71
147
0.06
176
   256
177
   256
178
     2
274
     4
284
     7
340
2E16
371
    -1
372
    -1
1001
ACAD_DSTYLE_DIMARC_LENGTH_SYMBOL
1070
   379
1070
     1
1001
ACAD_DSTYLE_DIM_LINETYPE
1070
   380
1005
2E1B
1001
ACAD_DSTYLE_DIM_EXT1_LINETYPE
1070
   381
1005
2E1B
1001
ACAD_DSTYLE_DIM_EXT2_LINETYPE
1070
   382
1005
2E1B
  0
DIMSTYLE
105
2E6B
330
2DC3
100
AcDbSymbolTableRecord
100
AcDbDimStyleTableRecord
  2
AM_ANSI$SH
 70
     0
  4
mm
 41
0.12
 42
0.05
 43
0.5
 44
0.1
 47
0.1
 48
0.1
 75
     1
 76
     1
 78
     7
 79
     2
140
0.12
141
0.0
146
0.71
147
0.06
173
     1
176
   256
177
   256
178
     2
274
     4
284
     7
340
2E16
343
2E8B
371
    -1
372
    -1
1001
ACAD_DSTYLE_DIMARC_LENGTH_SYMBOL
1070
   379
1070
     1
1001
ACAD_DSTYLE_DIM_LINETYPE
1070
   380
1005
2E1B
1001
ACAD_DSTYLE_DIM_EXT1_LINETYPE
1070
   381
1005
2E1B
1001
ACAD_DSTYLE_DIM_EXT2_LINETYPE
1070
   382
1005
2E1B
  0
DIMSTYLE
105
2E6C
330
2DC3
100
AcDbSymbolTableRecord
100
AcDbDimStyleTableRecord
  2
STANDARD1
 70
     0
 40
6.0
 41
2.5
 42
0.625
 43
6.0
 44
1.25
 47
1.0
 48
0.5
 77
     1
 78
     8
140
2.5
141
0.0
146
0.6
147
1.0
173
     1
275
     1
279
     2
284
     7
285
     7
286
     7
340
2E16
  0
DIMSTYLE
105
2E6D
330
2DC3
100
AcDbSymbolTableRecord
100
AcDbDimStyleTableRecord
  2
STANDARD$0
 70
     0
 41
12.0
 42
20.0
 44
20.0
 73
     0
 74
     0
 77
     1
 78
     8
140
64.0
141
0.0
147
10.0
275
     1
279
     2
284
     7
285
     7
286
     7
340
2E16
  0
ENDTAB
  0
TABLE
  2
BLOCK_RECORD
  5
2DBA
330
0
100
AcDbSymbolTable
 70
    79
  0
BLOCK_RECORD
  5
2E2D
102
{ACAD_XDICTIONARY
360
3002
102
}
330
2DBA
100
AcDbSymbolTableRecord
100
AcDbBlockTableRecord
  2
*Model_Space
340
2E30
  0
BLOCK_RECORD
  5
2E29
330
2DBA
100
AcDbSymbolTableRecord
100
AcDbBlockTableRecord
  2
*Paper_Space
340
2E2C
  0
BLOCK_RECORD
  5
2E75
330
2DBA
100
AcDbSymbolTableRecord
100
AcDbBlockTableRecord
  2
$MODEL_SPACE
340
0
  0
BLOCK_RECORD
  5
2E77
330
2DBA
100
AcDbSymbolTableRecord
100
AcDbBlockTableRecord
  2
$PAPER_SPACE
340
0
  0
BLOCK_RECORD
  5
2E79
330
2DBA
100
AcDbSymbolTableRecord
100
AcDbBlockTableRecord
  2
_ORIGIN
340
0
  0
BLOCK_RECORD
  5
2E7B
330
2DBA
100
AcDbSymbolTableRecord
100
AcDbBlockTableRecord
  2
_DOTBLANK
340
0
102
{BLKREFS
331
1299
331
129A
331
11AA
331
11AB
331
E80
331
E81
331
1123
331
1124
331
11C2
331
11C3
331
11EC
331
11ED
331
11F9
331
11FA
331
1287
331
1288
331
1417
331
1418
331
1423
331
1424
331
142F
331
1430
331
143B
331
143C
331
166E
331
166F
331
1677
331
1678
331
1680
331
1681
331
1689
331
168A
331
1696
331
1697
331
16A3
331
16A4
331
16AF
331
16B0
331
16BB
331
16BC
331
16C7
331
16C8
331
16D3
331
16D4
331
1D86
331
1D87
331
1D8F
331
1D90
331
1D98
331
1D99
331
1DA1
331
1DA2
331
1DAB
331
1DAC
331
1DB5
331
1DB6
331
2AE7
331
2AE8
331
2AEC
331
2AED
331
2AF2
331
2AF3
331
2AF7
331
2AF8
331
2AFD
331
2AFE
331
2B02
331
2B03
102
}
  0
BLOCK_RECORD
  5
2E7D
330
2DBA
100
AcDbSymbolTableRecord
100
AcDbBlockTableRecord
  2
_OPEN30
340
0
102
{BLKREFS
331
2087
331
216D
331
2386
331
2496
331
25C1
331
26F0
102
}
  0
BLOCK_RECORD
  5
2E7F
330
2DBA
100
AcDbSymbolTableRecord
100
AcDbBlockTableRecord
  2
*D5
340
0
  0
BLOCK_RECORD
  5
2E81
330
2DBA
100
AcDbSymbolTableRecord
100
AcDbBlockTableRecord
  2
*U6
340
0
102
{BLKREFS
331
129B
102
}
  0
BLOCK_RECORD
  5
2E83
330
2DBA
100
AcDbSymbolTableRecord
100
AcDbBlockTableRecord
  2
*D7
340
0
  0
BLOCK_RECORD
  5
2E85
330
2DBA
100
AcDbSymbolTableRecord
100
AcDbBlockTableRecord
  2
*U8
340
0
102
{BLKREFS
331
11AC
102
}
  0
BLOCK_RECORD
  5
2E87
330
2DBA
100
AcDbSymbolTableRecord
100
AcDbBlockTableRecord
  2
*D9
340
0
  0
BLOCK_RECORD
  5
2E89
330
2DBA
100
AcDbSymbolTableRecord
100
AcDbBlockTableRecord
  2
*U10
340
0
102
{BLKREFS
331
E82
102
}
  0
BLOCK_RECORD
  5
2E8B
330
2DBA
100
AcDbSymbolTableRecord
100
AcDbBlockTableRecord
  2
GENAXEH
340
0
  0
BLOCK_RECORD
  5
2E8D
330
2DBA
100
AcDbSymbolTableRecord
100
AcDbBlockTableRecord
  2
*D12
340
0
  0
BLOCK_RECORD
  5
2E8F
330
2DBA
100
AcDbSymbolTableRecord
100
AcDbBlockTableRecord
  2
*U13
340
0
102
{BLKREFS
331
1125
102
}
  0
BLOCK_RECORD
  5
2E91
330
2DBA
100
AcDbSymbolTableRecord
100
AcDbBlockTableRecord
  2
*D14
340
0
  0
BLOCK_RECORD
  5
2E93
330
2DBA
100
AcDbSymbolTableRecord
100
AcDbBlockTableRecord
  2
*U15
340
0
102
{BLKREFS
331
11C4
102
}
  0
BLOCK_RECORD
  5
2E95
330
2DBA
100
AcDbSymbolTableRecord
100
AcDbBlockTableRecord
  2
*D16
340
0
  0
BLOCK_RECORD
  5
2E97
330
2DBA
100
AcDbSymbolTableRecord
100
AcDbBlockTableRecord
  2
*U17
340
0
102
{BLKREFS
331
11EE
102
}
  0
BLOCK_RECORD
  5
2E99
330
2DBA
100
AcDbSymbolTableRecord
100
AcDbBlockTableRecord
  2
*D18
340
0
  0
BLOCK_RECORD
  5
2E9B
330
2DBA
100
AcDbSymbolTableRecord
100
AcDbBlockTableRecord
  2
*U19
340
0
102
{BLKREFS
331
11FB
102
}
  0
BLOCK_RECORD
  5
2E9D
330
2DBA
100
AcDbSymbolTableRecord
100
AcDbBlockTableRecord
  2
*D20
340
0
  0
BLOCK_RECORD
  5
2E9F
330
2DBA
100
AcDbSymbolTableRecord
100
AcDbBlockTableRecord
  2
*U21
340
0
102
{BLKREFS
331
1289
102
}
  0
BLOCK_RECORD
  5
2EA1
330
2DBA
100
AcDbSymbolTableRecord
100
AcDbBlockTableRecord
  2
*D22
340
0
  0
BLOCK_RECORD
  5
2EA3
330
2DBA
100
AcDbSymbolTableRecord
100
AcDbBlockTableRecord
  2
*U23
340
0
102
{BLKREFS
331
1419
102
}
  0
BLOCK_RECORD
  5
2EA5
330
2DBA
100
AcDbSymbolTableRecord
100
AcDbBlockTableRecord
  2
*D24
340
0
  0
BLOCK_RECORD
  5
2EA7
330
2DBA
100
AcDbSymbolTableRecord
100
AcDbBlockTableRecord
  2
*U25
340
0
102
{BLKREFS
331
1425
102
}
  0
BLOCK_RECORD
  5
2EA9
330
2DBA
100
AcDbSymbolTableRecord
100
AcDbBlockTableRecord
  2
*D26
340
0
  0
BLOCK_RECORD
  5
2EAB
330
2DBA
100
AcDbSymbolTableRecord
100
AcDbBlockTableRecord
  2
*U27
340
0
102
{BLKREFS
331
1431
102
}
  0
BLOCK_RECORD
  5
2EAD
330
2DBA
100
AcDbSymbolTableRecord
100
AcDbBlockTableRecord
  2
*D28
340
0
  0
BLOCK_RECORD
  5
2EAF
330
2DBA
100
AcDbSymbolTableRecord
100
AcDbBlockTableRecord
  2
*U29
340
0
102
{BLKREFS
331
143D
102
}
  0
BLOCK_RECORD
  5
2EB1
330
2DBA
100
AcDbSymbolTableRecord
100
AcDbBlockTableRecord
  2
*D30
340
0
  0
BLOCK_RECORD
  5
2EB3
330
2DBA
100
AcDbSymbolTableRecord
100
AcDbBlockTableRecord
  2
*U31
340
0
102
{BLKREFS
331
1670
102
}
  0
BLOCK_RECORD
  5
2EB5
330
2DBA
100
AcDbSymbolTableRecord
100
AcDbBlockTableRecord
  2
*D32
340
0
  0
BLOCK_RECORD
  5
2EB7
330
2DBA
100
AcDbSymbolTableRecord
100
AcDbBlockTableRecord
  2
*U33
340
0
102
{BLKREFS
331
1679
102
}
  0
BLOCK_RECORD
  5
2EB9
330
2DBA
100
AcDbSymbolTableRecord
100
AcDbBlockTableRecord
  2
*D34
340
0
  0
BLOCK_RECORD
  5
2EBB
330
2DBA
100
AcDbSymbolTableRecord
100
AcDbBlockTableRecord
  2
*U35
340
0
102
{BLKREFS
331
1682
102
}
  0
BLOCK_RECORD
  5
2EBD
330
2DBA
100
AcDbSymbolTableRecord
100
AcDbBlockTableRecord
  2
*D36
340
0
  0
BLOCK_RECORD
  5
2EBF
330
2DBA
100
AcDbSymbolTableRecord
100
AcDbBlockTableRecord
  2
*U37
340
0
102
{BLKREFS
331
168B
102
}
  0
BLOCK_RECORD
  5
2EC1
330
2DBA
100
AcDbSymbolTableRecord
100
AcDbBlockTableRecord
  2
*U38
340
0
  0
BLOCK_RECORD
  5
2EC3
330
2DBA
100
AcDbSymbolTableRecord
100
AcDbBlockTableRecord
  2
*D39
340
0
  0
BLOCK_RECORD
  5
2EC5
330
2DBA
100
AcDbSymbolTableRecord
100
AcDbBlockTableRecord
  2
*U40
340
0
102
{BLKREFS
331
1698
102
}
  0
BLOCK_RECORD
  5
2EC7
330
2DBA
100
AcDbSymbolTableRecord
100
AcDbBlockTableRecord
  2
*D41
340
0
  0
BLOCK_RECORD
  5
2EC9
330
2DBA
100
AcDbSymbolTableRecord
100
AcDbBlockTableRecord
  2
*U42
340
0
102
{BLKREFS
331
16A5
102
}
  0
BLOCK_RECORD
  5
2ECB
330
2DBA
100
AcDbSymbolTableRecord
100
AcDbBlockTableRecord
  2
*D43
340
0
  0
BLOCK_RECORD
  5
2ECD
330
2DBA
100
AcDbSymbolTableRecord
100
AcDbBlockTableRecord
  2
*U44
340
0
102
{BLKREFS
331
16B1
102
}
  0
BLOCK_RECORD
  5
2ECF
330
2DBA
100
AcDbSymbolTableRecord
100
AcDbBlockTableRecord
  2
*D45
340
0
  0
BLOCK_RECORD
  5
2ED1
330
2DBA
100
AcDbSymbolTableRecord
100
AcDbBlockTableRecord
  2
*U46
340
0
102
{BLKREFS
331
16BD
102
}
  0
BLOCK_RECORD
  5
2ED3
330
2DBA
100
AcDbSymbolTableRecord
100
AcDbBlockTableRecord
  2
*D47
340
0
  0
BLOCK_RECORD
  5
2ED5
330
2DBA
100
AcDbSymbolTableRecord
100
AcDbBlockTableRecord
  2
*U48
340
0
102
{BLKREFS
331
16C9
102
}
  0
BLOCK_RECORD
  5
2ED7
330
2DBA
100
AcDbSymbolTableRecord
100
AcDbBlockTableRecord
  2
*D49
340
0
  0
BLOCK_RECORD
  5
2ED9
330
2DBA
100
AcDbSymbolTableRecord
100
AcDbBlockTableRecord
  2
*U50
340
0
102
{BLKREFS
331
16D5
102
}
  0
BLOCK_RECORD
  5
2EDB
330
2DBA
100
AcDbSymbolTableRecord
100
AcDbBlockTableRecord
  2
*D51
340
0
  0
BLOCK_RECORD
  5
2EDD
330
2DBA
100
AcDbSymbolTableRecord
100
AcDbBlockTableRecord
  2
*U52
340
0
102
{BLKREFS
331
1D88
102
}
  0
BLOCK_RECORD
  5
2EDF
330
2DBA
100
AcDbSymbolTableRecord
100
AcDbBlockTableRecord
  2
*D53
340
0
  0
BLOCK_RECORD
  5
2EE1
330
2DBA
100
AcDbSymbolTableRecord
100
AcDbBlockTableRecord
  2
*U54
340
0
102
{BLKREFS
331
1D91
102
}
  0
BLOCK_RECORD
  5
2EE3
330
2DBA
100
AcDbSymbolTableRecord
100
AcDbBlockTableRecord
  2
*D55
340
0
  0
BLOCK_RECORD
  5
2EE5
330
2DBA
100
AcDbSymbolTableRecord
100
AcDbBlockTableRecord
  2
*U56
340
0
102
{BLKREFS
331
1D9A
102
}
  0
BLOCK_RECORD
  5
2EE7
330
2DBA
100
AcDbSymbolTableRecord
100
AcDbBlockTableRecord
  2
*D57
340
0
  0
BLOCK_RECORD
  5
2EE9
330
2DBA
100
AcDbSymbolTableRecord
100
AcDbBlockTableRecord
  2
*U58
340
0
102
{BLKREFS
331
1DA3
102
}
  0
BLOCK_RECORD
  5
2EEB
330
2DBA
100
AcDbSymbolTableRecord
100
AcDbBlockTableRecord
  2
*D59
340
0
  0
BLOCK_RECORD
  5
2EED
330
2DBA
100
AcDbSymbolTableRecord
100
AcDbBlockTableRecord
  2
*U60
340
0
102
{BLKREFS
331
1DAD
102
}
  0
BLOCK_RECORD
  5
2EEF
330
2DBA
100
AcDbSymbolTableRecord
100
AcDbBlockTableRecord
  2
*D61
340
0
  0
BLOCK_RECORD
  5
2EF1
330
2DBA
100
AcDbSymbolTableRecord
100
AcDbBlockTableRecord
  2
*U62
340
0
102
{BLKREFS
331
1DB7
102
}
  0
BLOCK_RECORD
  5
2EF3
330
2DBA
100
AcDbSymbolTableRecord
100
AcDbBlockTableRecord
  2
*U63
340
0
  0
BLOCK_RECORD
  5
2EF5
330
2DBA
100
AcDbSymbolTableRecord
100
AcDbBlockTableRecord
  2
*U64
340
0
  0
BLOCK_RECORD
  5
2EF7
330
2DBA
100
AcDbSymbolTableRecord
100
AcDbBlockTableRecord
  2
*U65
340
0
  0
BLOCK_RECORD
  5
2EF9
330
2DBA
100
AcDbSymbolTableRecord
100
AcDbBlockTableRecord
  2
*U66
340
0
  0
BLOCK_RECORD
  5
2EFB
330
2DBA
100
AcDbSymbolTableRecord
100
AcDbBlockTableRecord
  2
*U67
340
0
  0
BLOCK_RECORD
  5
2EFD
330
2DBA
100
AcDbSymbolTableRecord
100
AcDbBlockTableRecord
  2
*U68
340
0
  0
BLOCK_RECORD
  5
2EFF
330
2DBA
100
AcDbSymbolTableRecord
100
AcDbBlockTableRecord
  2
*U69
340
0
  0
BLOCK_RECORD
  5
2F01
330
2DBA
100
AcDbSymbolTableRecord
100
AcDbBlockTableRecord
  2
*U70
340
0
  0
BLOCK_RECORD
  5
2F03
330
2DBA
100
AcDbSymbolTableRecord
100
AcDbBlockTableRecord
  2
*U71
340
0
  0
BLOCK_RECORD
  5
2F05
330
2DBA
100
AcDbSymbolTableRecord
100
AcDbBlockTableRecord
  2
*U72
340
0
  0
BLOCK_RECORD
  5
2F07
330
2DBA
100
AcDbSymbolTableRecord
100
AcDbBlockTableRecord
  2
*U73
340
0
  0
BLOCK_RECORD
  5
2F09
330
2DBA
100
AcDbSymbolTableRecord
100
AcDbBlockTableRecord
  2
*U74
340
0
102
{BLKREFS
331
2AB6
102
}
  0
BLOCK_RECORD
  5
2F0B
330
2DBA
100
AcDbSymbolTableRecord
100
AcDbBlockTableRecord
  2
*U75
340
0
102
{BLKREFS
331
2AB7
102
}
  0
BLOCK_RECORD
  5
2F0D
330
2DBA
100
AcDbSymbolTableRecord
100
AcDbBlockTableRecord
  2
*X76
340
0
102
{BLKREFS
331
2ADE
102
}
  0
BLOCK_RECORD
  5
2F0F
330
2DBA
100
AcDbSymbolTableRecord
100
AcDbBlockTableRecord
  2
*X77
340
0
102
{BLKREFS
331
2ADF
102
}
  0
ENDTAB
  0
ENDSEC
  0
SECTION
  2
BLOCKS
  0
BLOCK
  5
2E2E
330
2E2D
100
AcDbEntity
  8
0
100
AcDbBlockBegin
  2
*Model_Space
 70
     0
 10
0.0
 20
0.0
 30
0.0
  3
*Model_Space
  1

  0
ENDBLK
  5
2E2F
330
2E2D
100
AcDbEntity
  8
0
100
AcDbBlockEnd
  0
BLOCK
  5
2E2A
330
2E29
100
AcDbEntity
 67
     1
  8
0
100
AcDbBlockBegin
  2
*Paper_Space
 70
     0
 10
0.0
 20
0.0
 30
0.0
  3
*Paper_Space
  1

  0
ENDBLK
  5
2E2B
330
2E29
100
AcDbEntity
 67
     1
  8
0
100
AcDbBlockEnd
  0
BLOCK
  5
2E76
330
2E75
100
AcDbEntity
  8
0
100
AcDbBlockBegin
  2
$MODEL_SPACE
 70
     0
 10
0.0
 20
0.0
 30
0.0
  3
$MODEL_SPACE
  1

  0
ENDBLK
  5
2BBB
330
2E75
100
AcDbEntity
  8
0
100
AcDbBlockEnd
  0
BLOCK
  5
2E78
330
2E77
100
AcDbEntity
  8
0
100
AcDbBlockBegin
  2
$PAPER_SPACE
 70
     0
 10
0.0
 20
0.0
 30
0.0
  3
$PAPER_SPACE
  1

  0
ENDBLK
  5
2BB7
330
2E77
100
AcDbEntity
  8
0
100
AcDbBlockEnd
  0
BLOCK
  5
2E7A
330
2E79
100
AcDbEntity
  8
0
100
AcDbBlockBegin
  2
_ORIGIN
 70
     0
 10
0.0
 20
0.0
 30
0.0
  3
_ORIGIN
  1

  0
CIRCLE
  5
880
330
2E79
100
AcDbEntity
  8
0
  6
Continuous
 62
     7
100
AcDbCircle
 10
0.0
 20
0.0
 30
0.0
 40
0.5
  0
LINE
  5
881
330
2E79
100
AcDbEntity
  8
0
  6
Continuous
 62
     7
100
AcDbLine
 10
0.0
 20
0.0
 30
0.0
 11
-1.0
 21
0.0
 31
0.0
  0
ENDBLK
  5
882
330
2E79
100
AcDbEntity
  8
0
100
AcDbBlockEnd
  0
BLOCK
  5
2E7C
330
2E7B
100
AcDbEntity
  8
0
 62
     1
100
AcDbBlockBegin
  2
_DOTBLANK
 70
     0
 10
0.0
 20
0.0
 30
0.0
  3
_DOTBLANK
  1

  0
CIRCLE
  5
AB3
330
2E7B
100
AcDbEntity
  8
0
  6
ByBlock
 62
     0
100
AcDbCircle
 10
0.0
 20
0.0
 30
0.0
 40
0.5
  0
LINE
  5
AB4
330
2E7B
100
AcDbEntity
  8
0
  6
ByBlock
 62
     0
100
AcDbLine
 10
-0.5
 20
0.0
 30
0.0
 11
-1.0
 21
0.0
 31
0.0
  0
ENDBLK
  5
AB6
330
2E7B
100
AcDbEntity
  8
0
 62
     1
100
AcDbBlockEnd
  0
BLOCK
  5
2E7E
330
2E7D
100
AcDbEntity
  8
0
 62
     1
100
AcDbBlockBegin
  2
_OPEN30
 70
     0
 10
0.0
 20
0.0
 30
0.0
  3
_OPEN30
  1

  0
LINE
  5
AB8
330
2E7D
100
AcDbEntity
  8
0
  6
ByBlock
 62
     0
100
AcDbLine
 10
-1.0
 20
0.26794919
 30
0.0
 11
0.0
 21
0.0
 31
0.0
  0
LINE
  5
AB9
330
2E7D
100
AcDbEntity
  8
0
  6
ByBlock
 62
     0
100
AcDbLine
 10
0.0
 20
0.0
 30
0.0
 11
-1.0
 21
-0.26794919
 31
0.0
  0
LINE
  5
ABA
330
2E7D
100
AcDbEntity
  8
0
  6
ByBlock
 62
     0
100
AcDbLine
 10
0.0
 20
0.0
 30
0.0
 11
-1.0
 21
0.0
 31
0.0
  0
ENDBLK
  5
ABC
330
2E7D
100
AcDbEntity
  8
0
 62
     1
100
AcDbBlockEnd
  0
BLOCK
  5
2E80
330
2E7F
100
AcDbEntity
  8
0
100
AcDbBlockBegin
  2
*D5
 70
     1
 10
0.0
 20
0.0
 30
0.0
  3
*D5
  1

  0
LINE
  5
1296
330
2E7F
100
AcDbEntity
  8
SIZE
 62
     0
100
AcDbLine
 10
-134.5
 20
-320.0
 30
0.0
 11
-134.5
 21
-468.0173952306001
 31
0.0
  0
LINE
  5
1297
330
2E7F
100
AcDbEntity
  8
SIZE
 62
     0
100
AcDbLine
 10
134.5
 20
-320.0
 30
0.0
 11
134.5
 21
-468.0173952306001
 31
0.0
  0
LINE
  5
1298
330
2E7F
100
AcDbEntity
  8
SIZE
 62
     0
100
AcDbLine
 10
-122.5
 20
-448.0173952306
 30
0.0
 11
122.5
 21
-448.0173952306
 31
0.0
  0
INSERT
  5
1299
330
2E7F
100
AcDbEntity
  8
SIZE
 62
     0
100
AcDbBlockReference
  2
_DOTBLANK
 10
-134.5
 20
-448.0173952306
 30
0.0
 41
12.0
 42
12.0
 43
12.0
 50
180.0
  0
INSERT
  5
129A
330
2E7F
100
AcDbEntity
  8
SIZE
 62
     0
100
AcDbBlockReference
  2
_DOTBLANK
 10
134.5
 20
-448.0173952306
 30
0.0
 41
12.0
 42
12.0
 43
12.0
  0
INSERT
  5
129B
330
2E7F
100
AcDbEntity
  8
0
100
AcDbBlockReference
  2
*U6
 10
0.0
 20
0.0
 30
0.0
  0
POINT
  5
129C
330
2E7F
100
AcDbEntity
  8
DEFPOINTS
 62
     0
100
AcDbPoint
 10
-134.5
 20
-300.0
 30
0.0
  0
POINT
  5
129D
330
2E7F
100
AcDbEntity
  8
DEFPOINTS
 62
     0
100
AcDbPoint
 10
134.5
 20
-300.0
 30
0.0
  0
POINT
  5
129E
330
2E7F
100
AcDbEntity
  8
DEFPOINTS
 62
     0
100
AcDbPoint
 10
134.5
 20
-448.0173952306
 30
0.0
  0
ENDBLK
  5
D72
330
2E7F
100
AcDbEntity
  8
0
100
AcDbBlockEnd
  0
BLOCK
  5
2E82
330
2E81
100
AcDbEntity
  8
0
100
AcDbBlockBegin
  2
*U6
 70
     1
 10
0.0
 20
0.0
 30
0.0
  3
*U6
  1

  0
TEXT
  5
1EF5
330
2E81
100
AcDbEntity
  8
SIZE
 62
     0
100
AcDbText
 10
-72.68571428571426
 20
-438.0173952305999
 30
0.0
 40
64.0
  1
269
 41
0.9
100
AcDbText
  0
ENDBLK
  5
1EF7
330
2E81
100
AcDbEntity
  8
0
100
AcDbBlockEnd
  0
BLOCK
  5
2E84
330
2E83
100
AcDbEntity
  8
0
100
AcDbBlockBegin
  2
*D7
 70
     1
 10
0.0
 20
0.0
 30
0.0
  3
*D7
  1

  0
LINE
  5
11A7
330
2E83
100
AcDbEntity
  8
SIZE
  6
Continuous
 62
     0
100
AcDbLine
 10
143.5
 20
-300.0
 30
0.0
 11
304.6432844803791
 21
-300.0
 31
0.0
  0
LINE
  5
11A8
330
2E83
100
AcDbEntity
  8
SIZE
  6
Continuous
 62
     0
100
AcDbLine
 10
177.5
 20
-0.0000000000000057
 30
0.0
 11
304.6432844803792
 21
-0.0000000000000417
 31
0.0
  0
LINE
  5
11A9
330
2E83
100
AcDbEntity
  8
SIZE
  6
Continuous
 62
     0
100
AcDbLine
 10
284.6432844803791
 20
-288.0000000000001
 30
0.0
 11
284.6432844803792
 21
-12.00000000000003
 31
0.0
  0
INSERT
  5
11AA
330
2E83
100
AcDbEntity
  8
SIZE
  6
Continuous
 62
     0
100
AcDbBlockReference
  2
_DOTBLANK
 10
284.6432844803791
 20
-300.0
 30
0.0
 41
12.0
 42
12.0
 43
12.0
 50
270.0
  0
INSERT
  5
11AB
330
2E83
100
AcDbEntity
  8
SIZE
  6
Continuous
 62
     0
100
AcDbBlockReference
  2
_DOTBLANK
 10
284.6432844803792
 20
-0.000000000000036
 30
0.0
 41
12.0
 42
12.0
 43
12.0
 50
90.0
  0
INSERT
  5
11AC
330
2E83
100
AcDbEntity
  8
0
100
AcDbBlockReference
  2
*U8
 10
0.0
 20
0.0
 30
0.0
  0
POINT
  5
11AD
330
2E83
100
AcDbEntity
  8
DEFPOINTS
  6
Continuous
 62
     0
100
AcDbPoint
 10
123.5
 20
-300.0
 30
0.0
  0
POINT
  5
11AE
330
2E83
100
AcDbEntity
  8
DEFPOINTS
  6
Continuous
 62
     0
100
AcDbPoint
 10
157.5
 20
0.0
 30
0.0
  0
POINT
  5
11AF
330
2E83
100
AcDbEntity
  8
DEFPOINTS
  6
Continuous
 62
     0
100
AcDbPoint
 10
284.6432844803792
 20
-0.000000000000036
 30
0.0
  0
ENDBLK
  5
E11
330
2E83
100
AcDbEntity
  8
0
100
AcDbBlockEnd
  0
BLOCK
  5
2E86
330
2E85
100
AcDbEntity
  8
0
100
AcDbBlockBegin
  2
*U8
 70
     1
 10
0.0
 20
0.0
 30
0.0
  3
*U8
  1

  0
TEXT
  5
1EE1
330
2E85
100
AcDbEntity
  8
SIZE
 62
     0
100
AcDbText
 10
274.6432844803792
 20
-224.0571428571429
 30
0.0
 40
64.0
  1
300
 50
90.0
 41
0.9
100
AcDbText
  0
ENDBLK
  5
1EE3
330
2E85
100
AcDbEntity
  8
0
100
AcDbBlockEnd
  0
BLOCK
  5
2E88
330
2E87
100
AcDbEntity
  8
0
100
AcDbBlockBegin
  2
*D9
 70
     1
 10
0.0
 20
0.0
 30
0.0
  3
*D9
  1

  0
LINE
  5
E7D
330
2E87
100
AcDbEntity
  8
SIZE
 62
     0
100
AcDbLine
 10
-139.9999999999998
 20
32.46448280219375
 30
0.0
 11
-139.9999999999998
 21
136.4516878685508
 31
0.0
  0
LINE
  5
E7E
330
2E87
100
AcDbEntity
  8
SIZE
 62
     0
100
AcDbLine
 10
140.0
 20
32.46448280219375
 30
0.0
 11
140.0
 21
136.4516878685508
 31
0.0
  0
LINE
  5
E7F
330
2E87
100
AcDbEntity
  8
SIZE
 62
     0
100
AcDbLine
 10
-128.0
 20
116.4516878685508
 30
0.0
 11
128.0
 21
116.4516878685508
 31
0.0
  0
INSERT
  5
E80
330
2E87
100
AcDbEntity
  8
SIZE
 62
     0
100
AcDbBlockReference
  2
_DOTBLANK
 10
-139.9999999999998
 20
116.4516878685508
 30
0.0
 41
12.0
 42
12.0
 43
12.0
 50
180.0
  0
INSERT
  5
E81
330
2E87
100
AcDbEntity
  8
SIZE
 62
     0
100
AcDbBlockReference
  2
_DOTBLANK
 10
140.0
 20
116.4516878685508
 30
0.0
 41
12.0
 42
12.0
 43
12.0
  0
INSERT
  5
E82
330
2E87
100
AcDbEntity
  8
0
100
AcDbBlockReference
  2
*U10
 10
0.0
 20
0.0
 30
0.0
  0
POINT
  5
E83
330
2E87
100
AcDbEntity
  8
DEFPOINTS
 62
     0
100
AcDbPoint
 10
-139.9999999999998
 20
12.46448280219374
 30
0.0
  0
POINT
  5
E84
330
2E87
100
AcDbEntity
  8
DEFPOINTS
 62
     0
100
AcDbPoint
 10
140.0
 20
12.46448280219374
 30
0.0
  0
POINT
  5
E85
330
2E87
100
AcDbEntity
  8
DEFPOINTS
 62
     0
100
AcDbPoint
 10
140.0
 20
116.4516878685508
 30
0.0
  0
ENDBLK
  5
E7C
330
2E87
100
AcDbEntity
  8
0
100
AcDbBlockEnd
  0
BLOCK
  5
2E8A
330
2E89
100
AcDbEntity
  8
0
100
AcDbBlockBegin
  2
*U10
 70
     1
 10
0.0
 20
0.0
 30
0.0
  3
*U10
  1

  0
TEXT
  5
1ED8
330
2E89
100
AcDbEntity
  8
SIZE
 62
     0
100
AcDbText
 10
-74.05714285714281
 20
126.4516878685508
 30
0.0
 40
64.0
  1
280
 41
0.9
100
AcDbText
  0
ENDBLK
  5
1EDA
330
2E89
100
AcDbEntity
  8
0
100
AcDbBlockEnd
  0
BLOCK
  5
2E8C
330
2E8B
100
AcDbEntity
  8
0
100
AcDbBlockBegin
  2
GENAXEH
 70
     0
 10
0.0
 20
0.0
 30
0.0
  3
GENAXEH
  1

  0
LINE
  5
FDB
330
2E8B
100
AcDbEntity
  8
0
100
AcDbLine
 10
-1.0
 20
0.0
 30
0.0
 11
1.0
 21
0.0
 31
0.0
  0
ENDBLK
  5
FDD
330
2E8B
100
AcDbEntity
  8
0
100
AcDbBlockEnd
  0
BLOCK
  5
2E8E
330
2E8D
100
AcDbEntity
  8
0
100
AcDbBlockBegin
  2
*D12
 70
     1
 10
0.0
 20
0.0
 30
0.0
  3
*D12
  1

  0
LINE
  5
1120
330
2E8D
100
AcDbEntity
  8
SIZE
 62
     0
100
AcDbLine
 10
-157.5
 20
20.0
 30
0.0
 11
-157.5
 21
245.5794621189598
 31
0.0
  0
LINE
  5
1121
330
2E8D
100
AcDbEntity
  8
SIZE
 62
     0
100
AcDbLine
 10
157.5
 20
20.0
 30
0.0
 11
157.5
 21
245.5794621189598
 31
0.0
  0
LINE
  5
1122
330
2E8D
100
AcDbEntity
  8
SIZE
 62
     0
100
AcDbLine
 10
-145.5
 20
225.5794621189598
 30
0.0
 11
145.5
 21
225.5794621189598
 31
0.0
  0
INSERT
  5
1123
330
2E8D
100
AcDbEntity
  8
SIZE
 62
     0
100
AcDbBlockReference
  2
_DOTBLANK
 10
-157.5
 20
225.5794621189598
 30
0.0
 41
12.0
 42
12.0
 43
12.0
 50
180.0
  0
INSERT
  5
1124
330
2E8D
100
AcDbEntity
  8
SIZE
 62
     0
100
AcDbBlockReference
  2
_DOTBLANK
 10
157.5
 20
225.5794621189598
 30
0.0
 41
12.0
 42
12.0
 43
12.0
  0
INSERT
  5
1125
330
2E8D
100
AcDbEntity
  8
0
100
AcDbBlockReference
  2
*U13
 10
0.0
 20
0.0
 30
0.0
  0
POINT
  5
1126
330
2E8D
100
AcDbEntity
  8
DEFPOINTS
 62
     0
100
AcDbPoint
 10
-157.5
 20
0.0
 30
0.0
  0
POINT
  5
1127
330
2E8D
100
AcDbEntity
  8
DEFPOINTS
 62
     0
100
AcDbPoint
 10
157.5
 20
0.0
 30
0.0
  0
POINT
  5
1128
330
2E8D
100
AcDbEntity
  8
DEFPOINTS
 62
     0
100
AcDbPoint
 10
157.5
 20
225.5794621189598
 30
0.0
  0
ENDBLK
  5
111F
330
2E8D
100
AcDbEntity
  8
0
100
AcDbBlockEnd
  0
BLOCK
  5
2E90
330
2E8F
100
AcDbEntity
  8
0
100
AcDbBlockBegin
  2
*U13
 70
     1
 10
0.0
 20
0.0
 30
0.0
  3
*U13
  1

  0
TEXT
  5
1EDD
330
2E8F
100
AcDbEntity
  8
SIZE
 62
     0
100
AcDbText
 10
-68.57142857142857
 20
235.5794621189599
 30
0.0
 40
64.0
  1
315
 41
0.9
100
AcDbText
  0
ENDBLK
  5
1EDF
330
2E8F
100
AcDbEntity
  8
0
100
AcDbBlockEnd
  0
BLOCK
  5
2E92
330
2E91
100
AcDbEntity
  8
0
100
AcDbBlockBegin
  2
*D14
 70
     1
 10
0.0
 20
0.0
 30
0.0
  3
*D14
  1

  0
LINE
  5
11BD
330
2E91
100
AcDbEntity
  8
NOTE
 62
     0
100
AcDbLine
 10
-123.4999999999999
 20
-320.0
 30
0.0
 11
-123.4999999999999
 21
-354.9529861856111
 31
0.0
  0
LINE
  5
11BE
330
2E91
100
AcDbEntity
  8
NOTE
 62
     0
100
AcDbLine
 10
-133.4999999999998
 20
-331.2126909923287
 30
0.0
 11
-133.4999999999998
 21
-354.9529861856111
 31
0.0
  0
LINE
  5
11BF
330
2E91
100
AcDbEntity
  8
NOTE
 62
     0
100
AcDbLine
 10
-111.4999999999999
 20
-334.9529861856112
 30
0.0
 11
-99.4999999999999
 21
-334.9529861856112
 31
0.0
  0
LINE
  5
11C0
330
2E91
100
AcDbEntity
  8
NOTE
 62
     0
100
AcDbLine
 10
-145.4999999999998
 20
-334.9529861856112
 30
0.0
 11
-157.4999999999998
 21
-334.9529861856112
 31
0.0
  0
LINE
  5
11C1
330
2E91
100
AcDbEntity
  8
NOTE
 62
     0
100
AcDbLine
 10
-123.4999999999999
 20
-334.9529861856112
 30
0.0
 11
-133.4999999999998
 21
-334.9529861856112
 31
0.0
  0
INSERT
  5
11C2
330
2E91
100
AcDbEntity
  8
NOTE
 62
     0
100
AcDbBlockReference
  2
_DOTBLANK
 10
-123.4999999999999
 20
-334.9529861856112
 30
0.0
 41
12.0
 42
12.0
 43
12.0
 50
180.0
  0
INSERT
  5
11C3
330
2E91
100
AcDbEntity
  8
NOTE
 62
     0
100
AcDbBlockReference
  2
_DOTBLANK
 10
-133.4999999999998
 20
-334.9529861856112
 30
0.0
 41
12.0
 42
12.0
 43
12.0
  0
INSERT
  5
11C4
330
2E91
100
AcDbEntity
  8
0
100
AcDbBlockReference
  2
*U15
 10
0.0
 20
0.0
 30
0.0
  0
POINT
  5
11C5
330
2E91
100
AcDbEntity
  8
DEFPOINTS
 62
     0
100
AcDbPoint
 10
-123.4999999999999
 20
-300.0
 30
0.0
  0
POINT
  5
11C6
330
2E91
100
AcDbEntity
  8
DEFPOINTS
 62
     0
100
AcDbPoint
 10
-133.4999999999998
 20
-311.2126909923287
 30
0.0
  0
POINT
  5
11C7
330
2E91
100
AcDbEntity
  8
DEFPOINTS
 62
     0
100
AcDbPoint
 10
-133.4999999999998
 20
-334.9529861856112
 30
0.0
  0
ENDBLK
  5
11BC
330
2E91
100
AcDbEntity
  8
0
100
AcDbBlockEnd
  0
BLOCK
  5
2E94
330
2E93
100
AcDbEntity
  8
0
100
AcDbBlockBegin
  2
*U15
 70
     1
 10
0.0
 20
0.0
 30
0.0
  3
*U15
  1

  0
TEXT
  5
1EE5
330
2E93
100
AcDbEntity
  8
NOTE
 62
     0
100
AcDbText
 10
-169.642857142857
 20
-324.9529861856112
 30
0.0
 40
64.0
  1
10
 41
0.9
100
AcDbText
  0
ENDBLK
  5
1EE7
330
2E93
100
AcDbEntity
  8
0
100
AcDbBlockEnd
  0
BLOCK
  5
2E96
330
2E95
100
AcDbEntity
  8
0
100
AcDbBlockBegin
  2
*D16
 70
     1
 10
0.0
 20
0.0
 30
0.0
  3
*D16
  1

  0
LINE
  5
11E7
330
2E95
100
AcDbEntity
  8
NOTE
 62
     0
100
AcDbLine
 10
-135.5
 20
-333.2126909923287
 30
0.0
 11
-135.5
 21
-386.2569421441843
 31
0.0
  0
LINE
  5
11E8
330
2E95
100
AcDbEntity
  8
NOTE
 62
     0
100
AcDbLine
 10
-123.4999999999999
 20
-320.0
 30
0.0
 11
-123.4999999999999
 21
-386.2569421441843
 31
0.0
  0
LINE
  5
11E9
330
2E95
100
AcDbEntity
  8
NOTE
 62
     0
100
AcDbLine
 10
-147.5
 20
-366.2569421441844
 30
0.0
 11
-159.5
 21
-366.2569421441844
 31
0.0
  0
LINE
  5
11EA
330
2E95
100
AcDbEntity
  8
NOTE
 62
     0
100
AcDbLine
 10
-111.4999999999999
 20
-366.2569421441844
 30
0.0
 11
-99.4999999999999
 21
-366.2569421441844
 31
0.0
  0
LINE
  5
11EB
330
2E95
100
AcDbEntity
  8
NOTE
 62
     0
100
AcDbLine
 10
-135.5
 20
-366.2569421441844
 30
0.0
 11
-123.4999999999999
 21
-366.2569421441844
 31
0.0
  0
INSERT
  5
11EC
330
2E95
100
AcDbEntity
  8
NOTE
 62
     0
100
AcDbBlockReference
  2
_DOTBLANK
 10
-135.5
 20
-366.2569421441844
 30
0.0
 41
12.0
 42
12.0
 43
12.0
  0
INSERT
  5
11ED
330
2E95
100
AcDbEntity
  8
NOTE
 62
     0
100
AcDbBlockReference
  2
_DOTBLANK
 10
-123.4999999999999
 20
-366.2569421441844
 30
0.0
 41
12.0
 42
12.0
 43
12.0
 50
180.0
  0
INSERT
  5
11EE
330
2E95
100
AcDbEntity
  8
0
100
AcDbBlockReference
  2
*U17
 10
0.0
 20
0.0
 30
0.0
  0
POINT
  5
11EF
330
2E95
100
AcDbEntity
  8
DEFPOINTS
 62
     0
100
AcDbPoint
 10
-135.5
 20
-313.2126909923287
 30
0.0
  0
POINT
  5
11F0
330
2E95
100
AcDbEntity
  8
DEFPOINTS
 62
     0
100
AcDbPoint
 10
-123.4999999999999
 20
-300.0
 30
0.0
  0
POINT
  5
11F1
330
2E95
100
AcDbEntity
  8
DEFPOINTS
 62
     0
100
AcDbPoint
 10
-123.4999999999999
 20
-366.2569421441844
 30
0.0
  0
ENDBLK
  5
11E6
330
2E95
100
AcDbEntity
  8
0
100
AcDbBlockEnd
  0
BLOCK
  5
2E98
330
2E97
100
AcDbEntity
  8
0
100
AcDbBlockBegin
  2
*U17
 70
     1
 10
0.0
 20
0.0
 30
0.0
  3
*U17
  1

  0
TEXT
  5
1EE9
330
2E97
100
AcDbEntity
  8
NOTE
 62
     0
100
AcDbText
 10
-170.642857142857
 20
-356.2569421441843
 30
0.0
 40
64.0
  1
12
 41
0.9
100
AcDbText
  0
ENDBLK
  5
1EEB
330
2E97
100
AcDbEntity
  8
0
100
AcDbBlockEnd
  0
BLOCK
  5
2E9A
330
2E99
100
AcDbEntity
  8
0
100
AcDbBlockBegin
  2
*D18
 70
     1
 10
0.0
 20
0.0
 30
0.0
  3
*D18
  1

  0
LINE
  5
11F6
330
2E99
100
AcDbEntity
  8
NOTE
 62
     0
100
AcDbLine
 10
-123.4999999999999
 20
-320.0
 30
0.0
 11
-123.4999999999999
 21
-583.8286022818904
 31
0.0
  0
LINE
  5
11F7
330
2E99
100
AcDbEntity
  8
NOTE
 62
     0
100
AcDbLine
 10
123.5
 20
-320.0
 30
0.0
 11
123.5
 21
-583.8286022818904
 31
0.0
  0
LINE
  5
11F8
330
2E99
100
AcDbEntity
  8
NOTE
 62
     0
100
AcDbLine
 10
-111.4999999999999
 20
-563.8286022818904
 30
0.0
 11
111.5
 21
-563.8286022818904
 31
0.0
  0
INSERT
  5
11F9
330
2E99
100
AcDbEntity
  8
NOTE
 62
     0
100
AcDbBlockReference
  2
_DOTBLANK
 10
-123.4999999999999
 20
-563.8286022818904
 30
0.0
 41
12.0
 42
12.0
 43
12.0
 50
180.0
  0
INSERT
  5
11FA
330
2E99
100
AcDbEntity
  8
NOTE
 62
     0
100
AcDbBlockReference
  2
_DOTBLANK
 10
123.5
 20
-563.8286022818904
 30
0.0
 41
12.0
 42
12.0
 43
12.0
  0
INSERT
  5
11FB
330
2E99
100
AcDbEntity
  8
0
100
AcDbBlockReference
  2
*U19
 10
0.0
 20
0.0
 30
0.0
  0
POINT
  5
11FC
330
2E99
100
AcDbEntity
  8
DEFPOINTS
 62
     0
100
AcDbPoint
 10
-123.4999999999999
 20
-300.0
 30
0.0
  0
POINT
  5
11FD
330
2E99
100
AcDbEntity
  8
DEFPOINTS
 62
     0
100
AcDbPoint
 10
123.5
 20
-300.0
 30
0.0
  0
POINT
  5
11FE
330
2E99
100
AcDbEntity
  8
DEFPOINTS
 62
     0
100
AcDbPoint
 10
123.5
 20
-563.8286022818904
 30
0.0
  0
ENDBLK
  5
11F5
330
2E99
100
AcDbEntity
  8
0
100
AcDbBlockEnd
  0
BLOCK
  5
2E9C
330
2E9B
100
AcDbEntity
  8
0
100
AcDbBlockBegin
  2
*U19
 70
     1
 10
0.0
 20
0.0
 30
0.0
  3
*U19
  1

  0
TEXT
  5
1EED
330
2E9B
100
AcDbEntity
  8
NOTE
 62
     0
100
AcDbText
 10
-74.05714285714281
 20
-553.8286022818904
 30
0.0
 40
64.0
  1
247
 41
0.9
100
AcDbText
  0
ENDBLK
  5
1EEF
330
2E9B
100
AcDbEntity
  8
0
100
AcDbBlockEnd
  0
BLOCK
  5
2E9E
330
2E9D
100
AcDbEntity
  8
0
100
AcDbBlockBegin
  2
*D20
 70
     1
 10
0.0
 20
0.0
 30
0.0
  3
*D20
  1

  0
LINE
  5
1284
330
2E9D
100
AcDbEntity
  8
NOTE
 62
     0
100
AcDbLine
 10
-123.5
 20
12.0
 30
0.0
 11
-123.5
 21
71.83630134534229
 31
0.0
  0
LINE
  5
1285
330
2E9D
100
AcDbEntity
  8
NOTE
 62
     0
100
AcDbLine
 10
123.5
 20
12.0
 30
0.0
 11
123.5
 21
71.83630134534229
 31
0.0
  0
LINE
  5
1286
330
2E9D
100
AcDbEntity
  8
NOTE
 62
     0
100
AcDbLine
 10
-111.5
 20
51.83630134534229
 30
0.0
 11
111.5
 21
51.83630134534229
 31
0.0
  0
INSERT
  5
1287
330
2E9D
100
AcDbEntity
  8
NOTE
 62
     0
100
AcDbBlockReference
  2
_DOTBLANK
 10
-123.5
 20
51.83630134534229
 30
0.0
 41
12.0
 42
12.0
 43
12.0
 50
180.0
  0
INSERT
  5
1288
330
2E9D
100
AcDbEntity
  8
NOTE
 62
     0
100
AcDbBlockReference
  2
_DOTBLANK
 10
123.5
 20
51.83630134534229
 30
0.0
 41
12.0
 42
12.0
 43
12.0
  0
INSERT
  5
1289
330
2E9D
100
AcDbEntity
  8
0
100
AcDbBlockReference
  2
*U21
 10
0.0
 20
0.0
 30
0.0
  0
POINT
  5
128A
330
2E9D
100
AcDbEntity
  8
DEFPOINTS
 62
     0
100
AcDbPoint
 10
-123.5
 20
-8.0
 30
0.0
  0
POINT
  5
128B
330
2E9D
100
AcDbEntity
  8
DEFPOINTS
 62
     0
100
AcDbPoint
 10
123.5
 20
-8.0
 30
0.0
  0
POINT
  5
128C
330
2E9D
100
AcDbEntity
  8
DEFPOINTS
 62
     0
100
AcDbPoint
 10
123.5
 20
51.83630134534229
 30
0.0
  0
ENDBLK
  5
1283
330
2E9D
100
AcDbEntity
  8
0
100
AcDbBlockEnd
  0
BLOCK
  5
2EA0
330
2E9F
100
AcDbEntity
  8
0
100
AcDbBlockBegin
  2
*U21
 70
     1
 10
0.0
 20
0.0
 30
0.0
  3
*U21
  1

  0
TEXT
  5
1EF1
330
2E9F
100
AcDbEntity
  8
NOTE
 62
     0
100
AcDbText
 10
-74.05714285714283
 20
61.83630134534229
 30
0.0
 40
64.0
  1
247
 41
0.9
100
AcDbText
  0
ENDBLK
  5
1EF3
330
2E9F
100
AcDbEntity
  8
0
100
AcDbBlockEnd
  0
BLOCK
  5
2EA2
330
2EA1
100
AcDbEntity
  8
0
100
AcDbBlockBegin
  2
*D22
 70
     1
 10
0.0
 20
0.0
 30
0.0
  3
*D22
  1

  0
LINE
  5
1414
330
2EA1
100
AcDbEntity
  8
SIZE
 62
     0
100
AcDbLine
 10
-22313.11521613997
 20
7365.702971374808
 30
0.0
 11
-22313.11521613997
 21
7217.685576144207
 31
0.0
  0
LINE
  5
1415
330
2EA1
100
AcDbEntity
  8
SIZE
 62
     0
100
AcDbLine
 10
-22044.11521613997
 20
7365.702971374808
 30
0.0
 11
-22044.11521613997
 21
7217.685576144207
 31
0.0
  0
LINE
  5
1416
330
2EA1
100
AcDbEntity
  8
SIZE
 62
     0
100
AcDbLine
 10
-22301.11521613997
 20
7237.685576144207
 30
0.0
 11
-22056.11521613997
 21
7237.685576144207
 31
0.0
  0
INSERT
  5
1417
330
2EA1
100
AcDbEntity
  8
SIZE
 62
     0
100
AcDbBlockReference
  2
_DOTBLANK
 10
-22313.11521613997
 20
7237.685576144207
 30
0.0
 41
12.0
 42
12.0
 43
12.0
 50
180.0
  0
INSERT
  5
1418
330
2EA1
100
AcDbEntity
  8
SIZE
 62
     0
100
AcDbBlockReference
  2
_DOTBLANK
 10
-22044.11521613997
 20
7237.685576144207
 30
0.0
 41
12.0
 42
12.0
 43
12.0
  0
INSERT
  5
1419
330
2EA1
100
AcDbEntity
  8
0
100
AcDbBlockReference
  2
*U23
 10
0.0
 20
0.0
 30
0.0
  0
POINT
  5
141A
330
2EA1
100
AcDbEntity
  8
DEFPOINTS
 62
     0
100
AcDbPoint
 10
-22313.11521613997
 20
7385.702971374808
 30
0.0
  0
POINT
  5
141B
330
2EA1
100
AcDbEntity
  8
DEFPOINTS
 62
     0
100
AcDbPoint
 10
-22044.11521613997
 20
7385.702971374808
 30
0.0
  0
POINT
  5
141C
330
2EA1
100
AcDbEntity
  8
DEFPOINTS
 62
     0
100
AcDbPoint
 10
-22044.11521613997
 20
7237.685576144207
 30
0.0
  0
ENDBLK
  5
141D
330
2EA1
100
AcDbEntity
  8
0
100
AcDbBlockEnd
  0
BLOCK
  5
2EA4
330
2EA3
100
AcDbEntity
  8
0
100
AcDbBlockBegin
  2
*U23
 70
     1
 10
0.0
 20
0.0
 30
0.0
  3
*U23
  1

  0
TEXT
  5
1EF9
330
2EA3
100
AcDbEntity
  8
SIZE
 62
     0
100
AcDbText
 10
-22251.30093042568
 20
7247.685576144205
 30
0.0
 40
64.0
  1
269
 41
0.9
100
AcDbText
  0
ENDBLK
  5
1EFB
330
2EA3
100
AcDbEntity
  8
0
100
AcDbBlockEnd
  0
BLOCK
  5
2EA6
330
2EA5
100
AcDbEntity
  8
0
100
AcDbBlockBegin
  2
*D24
 70
     1
 10
0.0
 20
0.0
 30
0.0
  3
*D24
  1

  0
LINE
  5
1420
330
2EA5
100
AcDbEntity
  8
SIZE
  6
Continuous
 62
     0
100
AcDbLine
 10
-22035.11521613997
 20
7385.702971374808
 30
0.0
 11
-21873.97193165959
 21
7385.702971374808
 31
0.0
  0
LINE
  5
1421
330
2EA5
100
AcDbEntity
  8
SIZE
  6
Continuous
 62
     0
100
AcDbLine
 10
-22001.11521613997
 20
7685.702971374808
 30
0.0
 11
-21873.97193165959
 21
7685.702971374808
 31
0.0
  0
LINE
  5
1422
330
2EA5
100
AcDbEntity
  8
SIZE
  6
Continuous
 62
     0
100
AcDbLine
 10
-21893.97193165959
 20
7397.702971374808
 30
0.0
 11
-21893.97193165959
 21
7673.702971374808
 31
0.0
  0
INSERT
  5
1423
330
2EA5
100
AcDbEntity
  8
SIZE
  6
Continuous
 62
     0
100
AcDbBlockReference
  2
_DOTBLANK
 10
-21893.97193165959
 20
7385.702971374808
 30
0.0
 41
12.0
 42
12.0
 43
12.0
 50
270.0
  0
INSERT
  5
1424
330
2EA5
100
AcDbEntity
  8
SIZE
  6
Continuous
 62
     0
100
AcDbBlockReference
  2
_DOTBLANK
 10
-21893.97193165959
 20
7685.702971374808
 30
0.0
 41
12.0
 42
12.0
 43
12.0
 50
90.0
  0
INSERT
  5
1425
330
2EA5
100
AcDbEntity
  8
0
100
AcDbBlockReference
  2
*U25
 10
0.0
 20
0.0
 30
0.0
  0
POINT
  5
1426
330
2EA5
100
AcDbEntity
  8
DEFPOINTS
  6
Continuous
 62
     0
100
AcDbPoint
 10
-22055.11521613997
 20
7385.702971374808
 30
0.0
  0
POINT
  5
1427
330
2EA5
100
AcDbEntity
  8
DEFPOINTS
  6
Continuous
 62
     0
100
AcDbPoint
 10
-22021.11521613997
 20
7685.702971374808
 30
0.0
  0
POINT
  5
1428
330
2EA5
100
AcDbEntity
  8
DEFPOINTS
  6
Continuous
 62
     0
100
AcDbPoint
 10
-21893.97193165959
 20
7685.702971374808
 30
0.0
  0
ENDBLK
  5
1429
330
2EA5
100
AcDbEntity
  8
0
100
AcDbBlockEnd
  0
BLOCK
  5
2EA8
330
2EA7
100
AcDbEntity
  8
0
100
AcDbBlockBegin
  2
*U25
 70
     1
 10
0.0
 20
0.0
 30
0.0
  3
*U25
  1

  0
TEXT
  5
1EFD
330
2EA7
100
AcDbEntity
  8
SIZE
 62
     0
100
AcDbText
 10
-21903.97193165959
 20
7461.645828517662
 30
0.0
 40
64.0
  1
300
 50
90.0
 41
0.9
100
AcDbText
  0
ENDBLK
  5
1EFF
330
2EA7
100
AcDbEntity
  8
0
100
AcDbBlockEnd
  0
BLOCK
  5
2EAA
330
2EA9
100
AcDbEntity
  8
0
100
AcDbBlockBegin
  2
*D26
 70
     1
 10
0.0
 20
0.0
 30
0.0
  3
*D26
  1

  0
LINE
  5
142C
330
2EA9
100
AcDbEntity
  8
SIZE
 62
     0
100
AcDbLine
 10
-22318.61521613997
 20
7718.167454177002
 30
0.0
 11
-22318.61521613997
 21
7822.154659243358
 31
0.0
  0
LINE
  5
142D
330
2EA9
100
AcDbEntity
  8
SIZE
 62
     0
100
AcDbLine
 10
-22038.61521613997
 20
7718.167454177002
 30
0.0
 11
-22038.61521613997
 21
7822.154659243358
 31
0.0
  0
LINE
  5
142E
330
2EA9
100
AcDbEntity
  8
SIZE
 62
     0
100
AcDbLine
 10
-22306.61521613997
 20
7802.154659243358
 30
0.0
 11
-22050.61521613997
 21
7802.154659243358
 31
0.0
  0
INSERT
  5
142F
330
2EA9
100
AcDbEntity
  8
SIZE
 62
     0
100
AcDbBlockReference
  2
_DOTBLANK
 10
-22318.61521613997
 20
7802.154659243358
 30
0.0
 41
12.0
 42
12.0
 43
12.0
 50
180.0
  0
INSERT
  5
1430
330
2EA9
100
AcDbEntity
  8
SIZE
 62
     0
100
AcDbBlockReference
  2
_DOTBLANK
 10
-22038.61521613997
 20
7802.154659243358
 30
0.0
 41
12.0
 42
12.0
 43
12.0
  0
INSERT
  5
1431
330
2EA9
100
AcDbEntity
  8
0
100
AcDbBlockReference
  2
*U27
 10
0.0
 20
0.0
 30
0.0
  0
POINT
  5
1432
330
2EA9
100
AcDbEntity
  8
DEFPOINTS
 62
     0
100
AcDbPoint
 10
-22318.61521613997
 20
7698.167454177002
 30
0.0
  0
POINT
  5
1433
330
2EA9
100
AcDbEntity
  8
DEFPOINTS
 62
     0
100
AcDbPoint
 10
-22038.61521613997
 20
7698.167454177002
 30
0.0
  0
POINT
  5
1434
330
2EA9
100
AcDbEntity
  8
DEFPOINTS
 62
     0
100
AcDbPoint
 10
-22038.61521613997
 20
7802.154659243358
 30
0.0
  0
ENDBLK
  5
1435
330
2EA9
100
AcDbEntity
  8
0
100
AcDbBlockEnd
  0
BLOCK
  5
2EAC
330
2EAB
100
AcDbEntity
  8
0
100
AcDbBlockBegin
  2
*U27
 70
     1
 10
0.0
 20
0.0
 30
0.0
  3
*U27
  1

  0
TEXT
  5
1F01
330
2EAB
100
AcDbEntity
  8
SIZE
 62
     0
100
AcDbText
 10
-22252.6723589971
 20
7812.154659243358
 30
0.0
 40
64.0
  1
280
 41
0.9
100
AcDbText
  0
ENDBLK
  5
1F03
330
2EAB
100
AcDbEntity
  8
0
100
AcDbBlockEnd
  0
BLOCK
  5
2EAE
330
2EAD
100
AcDbEntity
  8
0
100
AcDbBlockBegin
  2
*D28
 70
     1
 10
0.0
 20
0.0
 30
0.0
  3
*D28
  1

  0
LINE
  5
1438
330
2EAD
100
AcDbEntity
  8
SIZE
 62
     0
100
AcDbLine
 10
-22336.11521613997
 20
7705.702971374808
 30
0.0
 11
-22336.11521613997
 21
7931.282433493766
 31
0.0
  0
LINE
  5
1439
330
2EAD
100
AcDbEntity
  8
SIZE
 62
     0
100
AcDbLine
 10
-22021.11521613997
 20
7705.702971374808
 30
0.0
 11
-22021.11521613997
 21
7931.282433493766
 31
0.0
  0
LINE
  5
143A
330
2EAD
100
AcDbEntity
  8
SIZE
 62
     0
100
AcDbLine
 10
-22324.11521613997
 20
7911.282433493766
 30
0.0
 11
-22033.11521613997
 21
7911.282433493766
 31
0.0
  0
INSERT
  5
143B
330
2EAD
100
AcDbEntity
  8
SIZE
 62
     0
100
AcDbBlockReference
  2
_DOTBLANK
 10
-22336.11521613997
 20
7911.282433493766
 30
0.0
 41
12.0
 42
12.0
 43
12.0
 50
180.0
  0
INSERT
  5
143C
330
2EAD
100
AcDbEntity
  8
SIZE
 62
     0
100
AcDbBlockReference
  2
_DOTBLANK
 10
-22021.11521613997
 20
7911.282433493766
 30
0.0
 41
12.0
 42
12.0
 43
12.0
  0
INSERT
  5
143D
330
2EAD
100
AcDbEntity
  8
0
100
AcDbBlockReference
  2
*U29
 10
0.0
 20
0.0
 30
0.0
  0
POINT
  5
143E
330
2EAD
100
AcDbEntity
  8
DEFPOINTS
 62
     0
100
AcDbPoint
 10
-22336.11521613997
 20
7685.702971374808
 30
0.0
  0
POINT
  5
143F
330
2EAD
100
AcDbEntity
  8
DEFPOINTS
 62
     0
100
AcDbPoint
 10
-22021.11521613997
 20
7685.702971374808
 30
0.0
  0
POINT
  5
1440
330
2EAD
100
AcDbEntity
  8
DEFPOINTS
 62
     0
100
AcDbPoint
 10
-22021.11521613997
 20
7911.282433493766
 30
0.0
  0
ENDBLK
  5
1441
330
2EAD
100
AcDbEntity
  8
0
100
AcDbBlockEnd
  0
BLOCK
  5
2EB0
330
2EAF
100
AcDbEntity
  8
0
100
AcDbBlockBegin
  2
*U29
 70
     1
 10
0.0
 20
0.0
 30
0.0
  3
*U29
  1

  0
TEXT
  5
1F05
330
2EAF
100
AcDbEntity
  8
SIZE
 62
     0
100
AcDbText
 10
-22247.18664471139
 20
7921.282433493766
 30
0.0
 40
64.0
  1
315
 41
0.9
100
AcDbText
  0
ENDBLK
  5
1F07
330
2EAF
100
AcDbEntity
  8
0
100
AcDbBlockEnd
  0
BLOCK
  5
2EB2
330
2EB1
100
AcDbEntity
  8
0
100
AcDbBlockBegin
  2
*D30
 70
     1
 10
0.0
 20
0.0
 30
0.0
  3
*D30
  1

  0
LINE
  5
166B
330
2EB1
100
AcDbEntity
  8
SIZE
 62
     0
100
AcDbLine
 10
-134.5
 20
-320.0
 30
0.0
 11
-134.5
 21
-468.0173952306001
 31
0.0
  0
LINE
  5
166C
330
2EB1
100
AcDbEntity
  8
SIZE
 62
     0
100
AcDbLine
 10
134.5
 20
-320.0
 30
0.0
 11
134.5
 21
-468.0173952306001
 31
0.0
  0
LINE
  5
166D
330
2EB1
100
AcDbEntity
  8
SIZE
 62
     0
100
AcDbLine
 10
-122.5
 20
-448.0173952306
 30
0.0
 11
122.5
 21
-448.0173952306
 31
0.0
  0
INSERT
  5
166E
330
2EB1
100
AcDbEntity
  8
SIZE
 62
     0
100
AcDbBlockReference
  2
_DOTBLANK
 10
-134.5
 20
-448.0173952306
 30
0.0
 41
12.0
 42
12.0
 43
12.0
 50
180.0
  0
INSERT
  5
166F
330
2EB1
100
AcDbEntity
  8
SIZE
 62
     0
100
AcDbBlockReference
  2
_DOTBLANK
 10
134.5
 20
-448.0173952306
 30
0.0
 41
12.0
 42
12.0
 43
12.0
  0
INSERT
  5
1670
330
2EB1
100
AcDbEntity
  8
0
100
AcDbBlockReference
  2
*U31
 10
0.0
 20
0.0
 30
0.0
  0
POINT
  5
1671
330
2EB1
100
AcDbEntity
  8
DEFPOINTS
 62
     0
100
AcDbPoint
 10
-134.5
 20
-300.0
 30
0.0
  0
POINT
  5
1672
330
2EB1
100
AcDbEntity
  8
DEFPOINTS
 62
     0
100
AcDbPoint
 10
134.5
 20
-300.0
 30
0.0
  0
POINT
  5
1673
330
2EB1
100
AcDbEntity
  8
DEFPOINTS
 62
     0
100
AcDbPoint
 10
134.5
 20
-448.0173952306
 30
0.0
  0
ENDBLK
  5
14A7
330
2EB1
100
AcDbEntity
  8
0
100
AcDbBlockEnd
  0
BLOCK
  5
2EB4
330
2EB3
100
AcDbEntity
  8
0
100
AcDbBlockBegin
  2
*U31
 70
     1
 10
0.0
 20
0.0
 30
0.0
  3
*U31
  1

  0
TEXT
  5
1F09
330
2EB3
100
AcDbEntity
  8
SIZE
 62
     0
100
AcDbText
 10
-72.68571428571426
 20
-438.0173952306002
 30
0.0
 40
64.0
  1
269
 41
0.9
100
AcDbText
  0
ENDBLK
  5
1F0B
330
2EB3
100
AcDbEntity
  8
0
100
AcDbBlockEnd
  0
BLOCK
  5
2EB6
330
2EB5
100
AcDbEntity
  8
0
100
AcDbBlockBegin
  2
*D32
 70
     1
 10
0.0
 20
0.0
 30
0.0
  3
*D32
  1

  0
LINE
  5
1674
330
2EB5
100
AcDbEntity
  8
SIZE
  6
Continuous
 62
     0
100
AcDbLine
 10
143.5
 20
-300.0
 30
0.0
 11
304.6432844803784
 21
-300.0
 31
0.0
  0
LINE
  5
1675
330
2EB5
100
AcDbEntity
  8
SIZE
  6
Continuous
 62
     0
100
AcDbLine
 10
177.5
 20
-0.0000000000000057
 30
0.0
 11
304.6432844803785
 21
-0.0000000000000417
 31
0.0
  0
LINE
  5
1676
330
2EB5
100
AcDbEntity
  8
SIZE
  6
Continuous
 62
     0
100
AcDbLine
 10
284.6432844803784
 20
-288.0000000000001
 30
0.0
 11
284.6432844803785
 21
-12.00000000000003
 31
0.0
  0
INSERT
  5
1677
330
2EB5
100
AcDbEntity
  8
SIZE
  6
Continuous
 62
     0
100
AcDbBlockReference
  2
_DOTBLANK
 10
284.6432844803784
 20
-300.0
 30
0.0
 41
12.0
 42
12.0
 43
12.0
 50
270.0
  0
INSERT
  5
1678
330
2EB5
100
AcDbEntity
  8
SIZE
  6
Continuous
 62
     0
100
AcDbBlockReference
  2
_DOTBLANK
 10
284.6432844803785
 20
-0.000000000000036
 30
0.0
 41
12.0
 42
12.0
 43
12.0
 50
90.0
  0
INSERT
  5
1679
330
2EB5
100
AcDbEntity
  8
0
100
AcDbBlockReference
  2
*U33
 10
0.0
 20
0.0
 30
0.0
  0
POINT
  5
167A
330
2EB5
100
AcDbEntity
  8
DEFPOINTS
  6
Continuous
 62
     0
100
AcDbPoint
 10
123.5
 20
-300.0
 30
0.0
  0
POINT
  5
167B
330
2EB5
100
AcDbEntity
  8
DEFPOINTS
  6
Continuous
 62
     0
100
AcDbPoint
 10
157.5
 20
0.0
 30
0.0
  0
POINT
  5
167C
330
2EB5
100
AcDbEntity
  8
DEFPOINTS
  6
Continuous
 62
     0
100
AcDbPoint
 10
284.6432844803785
 20
-0.000000000000036
 30
0.0
  0
ENDBLK
  5
14B3
330
2EB5
100
AcDbEntity
  8
0
100
AcDbBlockEnd
  0
BLOCK
  5
2EB8
330
2EB7
100
AcDbEntity
  8
0
100
AcDbBlockBegin
  2
*U33
 70
     1
 10
0.0
 20
0.0
 30
0.0
  3
*U33
  1

  0
TEXT
  5
1F0D
330
2EB7
100
AcDbEntity
  8
SIZE
 62
     0
100
AcDbText
 10
274.6432844803785
 20
-224.0571428571429
 30
0.0
 40
64.0
  1
300
 50
90.0
 41
0.9
100
AcDbText
  0
ENDBLK
  5
1F0F
330
2EB7
100
AcDbEntity
  8
0
100
AcDbBlockEnd
  0
BLOCK
  5
2EBA
330
2EB9
100
AcDbEntity
  8
0
100
AcDbBlockBegin
  2
*D34
 70
     1
 10
0.0
 20
0.0
 30
0.0
  3
*D34
  1

  0
LINE
  5
167D
330
2EB9
100
AcDbEntity
  8
SIZE
 62
     0
100
AcDbLine
 10
-140.0
 20
32.46448280219375
 30
0.0
 11
-140.0
 21
136.4516878685507
 31
0.0
  0
LINE
  5
167E
330
2EB9
100
AcDbEntity
  8
SIZE
 62
     0
100
AcDbLine
 10
140.0
 20
32.46448280219375
 30
0.0
 11
140.0
 21
136.4516878685507
 31
0.0
  0
LINE
  5
167F
330
2EB9
100
AcDbEntity
  8
SIZE
 62
     0
100
AcDbLine
 10
-128.0
 20
116.4516878685508
 30
0.0
 11
128.0
 21
116.4516878685508
 31
0.0
  0
INSERT
  5
1680
330
2EB9
100
AcDbEntity
  8
SIZE
 62
     0
100
AcDbBlockReference
  2
_DOTBLANK
 10
-140.0
 20
116.4516878685508
 30
0.0
 41
12.0
 42
12.0
 43
12.0
 50
180.0
  0
INSERT
  5
1681
330
2EB9
100
AcDbEntity
  8
SIZE
 62
     0
100
AcDbBlockReference
  2
_DOTBLANK
 10
140.0
 20
116.4516878685508
 30
0.0
 41
12.0
 42
12.0
 43
12.0
  0
INSERT
  5
1682
330
2EB9
100
AcDbEntity
  8
0
100
AcDbBlockReference
  2
*U35
 10
0.0
 20
0.0
 30
0.0
  0
POINT
  5
1683
330
2EB9
100
AcDbEntity
  8
DEFPOINTS
 62
     0
100
AcDbPoint
 10
-140.0
 20
12.46448280219374
 30
0.0
  0
POINT
  5
1684
330
2EB9
100
AcDbEntity
  8
DEFPOINTS
 62
     0
100
AcDbPoint
 10
140.0
 20
12.46448280219374
 30
0.0
  0
POINT
  5
1685
330
2EB9
100
AcDbEntity
  8
DEFPOINTS
 62
     0
100
AcDbPoint
 10
140.0
 20
116.4516878685508
 30
0.0
  0
ENDBLK
  5
14BF
330
2EB9
100
AcDbEntity
  8
0
100
AcDbBlockEnd
  0
BLOCK
  5
2EBC
330
2EBB
100
AcDbEntity
  8
0
100
AcDbBlockBegin
  2
*U35
 70
     1
 10
0.0
 20
0.0
 30
0.0
  3
*U35
  1

  0
TEXT
  5
1F11
330
2EBB
100
AcDbEntity
  8
SIZE
 62
     0
100
AcDbText
 10
-74.05714285714283
 20
126.4516878685507
 30
0.0
 40
64.0
  1
280
 41
0.9
100
AcDbText
  0
ENDBLK
  5
1F13
330
2EBB
100
AcDbEntity
  8
0
100
AcDbBlockEnd
  0
BLOCK
  5
2EBE
330
2EBD
100
AcDbEntity
  8
0
100
AcDbBlockBegin
  2
*D36
 70
     1
 10
0.0
 20
0.0
 30
0.0
  3
*D36
  1

  0
LINE
  5
1686
330
2EBD
100
AcDbEntity
  8
SIZE
 62
     0
100
AcDbLine
 10
-157.5
 20
20.0
 30
0.0
 11
-157.5
 21
245.5794621189598
 31
0.0
  0
LINE
  5
1687
330
2EBD
100
AcDbEntity
  8
SIZE
 62
     0
100
AcDbLine
 10
157.5
 20
20.0
 30
0.0
 11
157.5
 21
245.5794621189598
 31
0.0
  0
LINE
  5
1688
330
2EBD
100
AcDbEntity
  8
SIZE
 62
     0
100
AcDbLine
 10
-145.5
 20
225.5794621189598
 30
0.0
 11
145.5
 21
225.5794621189598
 31
0.0
  0
INSERT
  5
1689
330
2EBD
100
AcDbEntity
  8
SIZE
 62
     0
100
AcDbBlockReference
  2
_DOTBLANK
 10
-157.5
 20
225.5794621189598
 30
0.0
 41
12.0
 42
12.0
 43
12.0
 50
180.0
  0
INSERT
  5
168A
330
2EBD
100
AcDbEntity
  8
SIZE
 62
     0
100
AcDbBlockReference
  2
_DOTBLANK
 10
157.5
 20
225.5794621189598
 30
0.0
 41
12.0
 42
12.0
 43
12.0
  0
INSERT
  5
168B
330
2EBD
100
AcDbEntity
  8
0
100
AcDbBlockReference
  2
*U37
 10
0.0
 20
0.0
 30
0.0
  0
POINT
  5
168C
330
2EBD
100
AcDbEntity
  8
DEFPOINTS
 62
     0
100
AcDbPoint
 10
-157.5
 20
0.0
 30
0.0
  0
POINT
  5
168D
330
2EBD
100
AcDbEntity
  8
DEFPOINTS
 62
     0
100
AcDbPoint
 10
157.5
 20
0.0
 30
0.0
  0
POINT
  5
168E
330
2EBD
100
AcDbEntity
  8
DEFPOINTS
 62
     0
100
AcDbPoint
 10
157.5
 20
225.5794621189598
 30
0.0
  0
ENDBLK
  5
14CB
330
2EBD
100
AcDbEntity
  8
0
100
AcDbBlockEnd
  0
BLOCK
  5
2EC0
330
2EBF
100
AcDbEntity
  8
0
100
AcDbBlockBegin
  2
*U37
 70
     1
 10
0.0
 20
0.0
 30
0.0
  3
*U37
  1

  0
TEXT
  5
1F15
330
2EBF
100
AcDbEntity
  8
SIZE
 62
     0
100
AcDbText
 10
-68.57142857142857
 20
235.5794621189598
 30
0.0
 40
64.0
  1
315
 41
0.9
100
AcDbText
  0
ENDBLK
  5
1F17
330
2EBF
100
AcDbEntity
  8
0
100
AcDbBlockEnd
  0
BLOCK
  5
2EC2
330
2EC1
100
AcDbEntity
  8
0
100
AcDbBlockBegin
  2
*U38
 70
     1
 10
0.0
 20
0.0
 30
0.0
  3
*U38
  1

  0
ENDBLK
  5
15CF
330
2EC1
100
AcDbEntity
  8
0
100
AcDbBlockEnd
  0
BLOCK
  5
2EC4
330
2EC3
100
AcDbEntity
  8
0
100
AcDbBlockBegin
  2
*D39
 70
     1
 10
0.0
 20
0.0
 30
0.0
  3
*D39
  1

  0
LINE
  5
1692
330
2EC3
100
AcDbEntity
  8
SIZE
 62
     0
100
AcDbLine
 10
-25844.51823276502
 20
7685.702971374808
 30
0.0
 11
-25981.04465488371
 21
7685.702971374808
 31
0.0
  0
LINE
  5
1693
330
2EC3
100
AcDbEntity
  8
SIZE
 62
     0
100
AcDbLine
 10
-25844.51823276502
 20
7677.702971374808
 30
0.0
 11
-25981.04465488371
 21
7677.702971374808
 31
0.0
  0
LINE
  5
1694
330
2EC3
100
AcDbEntity
  8
SIZE
 62
     0
100
AcDbLine
 10
-25961.04465488371
 20
7697.702971374808
 30
0.0
 11
-25961.04465488371
 21
7709.702971374809
 31
0.0
  0
LINE
  5
1695
330
2EC3
100
AcDbEntity
  8
SIZE
 62
     0
100
AcDbLine
 10
-25961.04465488371
 20
7665.70297137481
 30
0.0
 11
-25961.04465488371
 21
7595.302971374808
 31
0.0
  0
INSERT
  5
1696
330
2EC3
100
AcDbEntity
  8
SIZE
 62
     0
100
AcDbBlockReference
  2
_DOTBLANK
 10
-25961.04465488371
 20
7685.702971374808
 30
0.0
 41
12.0
 42
12.0
 43
12.0
 50
270.0
  0
INSERT
  5
1697
330
2EC3
100
AcDbEntity
  8
SIZE
 62
     0
100
AcDbBlockReference
  2
_DOTBLANK
 10
-25961.04465488371
 20
7677.702971374808
 30
0.0
 41
12.0
 42
12.0
 43
12.0
 50
90.0
  0
INSERT
  5
1698
330
2EC3
100
AcDbEntity
  8
0
100
AcDbBlockReference
  2
*U40
 10
0.0
 20
0.0
 30
0.0
  0
POINT
  5
1699
330
2EC3
100
AcDbEntity
  8
DEFPOINTS
 62
     0
100
AcDbPoint
 10
-25824.51823276501
 20
7685.702971374808
 30
0.0
  0
POINT
  5
169A
330
2EC3
100
AcDbEntity
  8
DEFPOINTS
 62
     0
100
AcDbPoint
 10
-25824.51823276501
 20
7677.702971374808
 30
0.0
  0
POINT
  5
169B
330
2EC3
100
AcDbEntity
  8
DEFPOINTS
 62
     0
100
AcDbPoint
 10
-25961.04465488371
 20
7677.702971374808
 30
0.0
  0
ENDBLK
  5
169C
330
2EC3
100
AcDbEntity
  8
0
100
AcDbBlockEnd
  0
BLOCK
  5
2EC6
330
2EC5
100
AcDbEntity
  8
0
100
AcDbBlockBegin
  2
*U40
 70
     1
 10
0.0
 20
0.0
 30
0.0
  3
*U40
  1

  0
TEXT
  5
1F19
330
2EC5
100
AcDbEntity
  8
SIZE
 62
     0
100
AcDbText
 10
-25971.04465488371
 20
7605.302971374804
 30
0.0
 40
64.0
  1
8
 50
90.0
 41
0.9
100
AcDbText
  0
ENDBLK
  5
1F1B
330
2EC5
100
AcDbEntity
  8
0
100
AcDbBlockEnd
  0
BLOCK
  5
2EC8
330
2EC7
100
AcDbEntity
  8
0
100
AcDbBlockBegin
  2
*D41
 70
     1
 10
0.0
 20
0.0
 30
0.0
  3
*D41
  1

  0
LINE
  5
169F
330
2EC7
100
AcDbEntity
  8
SIZE
 62
     0
100
AcDbLine
 10
-25512.51823276502
 20
7385.702971374808
 30
0.0
 11
-25362.37494828464
 21
7385.702971374808
 31
0.0
  0
LINE
  5
16A0
330
2EC7
100
AcDbEntity
  8
SIZE
 62
     0
100
AcDbLine
 10
-25523.51823276501
 20
7373.702971374808
 30
0.0
 11
-25362.37494828464
 21
7373.702971374808
 31
0.0
  0
LINE
  5
16A1
330
2EC7
100
AcDbEntity
  8
SIZE
 62
     0
100
AcDbLine
 10
-25382.37494828464
 20
7397.702971374808
 30
0.0
 11
-25382.37494828464
 21
7409.70297137481
 31
0.0
  0
LINE
  5
16A2
330
2EC7
100
AcDbEntity
  8
SIZE
 62
     0
100
AcDbLine
 10
-25382.37494828464
 20
7361.702971374808
 30
0.0
 11
-25382.37494828464
 21
7244.674399946237
 31
0.0
  0
INSERT
  5
16A3
330
2EC7
100
AcDbEntity
  8
SIZE
 62
     0
100
AcDbBlockReference
  2
_DOTBLANK
 10
-25382.37494828464
 20
7385.702971374808
 30
0.0
 41
12.0
 42
12.0
 43
12.0
 50
270.0
  0
INSERT
  5
16A4
330
2EC7
100
AcDbEntity
  8
SIZE
 62
     0
100
AcDbBlockReference
  2
_DOTBLANK
 10
-25382.37494828464
 20
7373.702971374808
 30
0.0
 41
12.0
 42
12.0
 43
12.0
 50
90.0
  0
INSERT
  5
16A5
330
2EC7
100
AcDbEntity
  8
0
100
AcDbBlockReference
  2
*U42
 10
0.0
 20
0.0
 30
0.0
  0
POINT
  5
16A6
330
2EC7
100
AcDbEntity
  8
DEFPOINTS
 62
     0
100
AcDbPoint
 10
-25532.51823276502
 20
7385.702971374808
 30
0.0
  0
POINT
  5
16A7
330
2EC7
100
AcDbEntity
  8
DEFPOINTS
 62
     0
100
AcDbPoint
 10
-25543.51823276502
 20
7373.702971374808
 30
0.0
  0
POINT
  5
16A8
330
2EC7
100
AcDbEntity
  8
DEFPOINTS
 62
     0
100
AcDbPoint
 10
-25382.37494828464
 20
7373.702971374808
 30
0.0
  0
ENDBLK
  5
16A9
330
2EC7
100
AcDbEntity
  8
0
100
AcDbBlockEnd
  0
BLOCK
  5
2ECA
330
2EC9
100
AcDbEntity
  8
0
100
AcDbBlockBegin
  2
*U42
 70
     1
 10
0.0
 20
0.0
 30
0.0
  3
*U42
  1

  0
TEXT
  5
1F1D
330
2EC9
100
AcDbEntity
  8
SIZE
 62
     0
100
AcDbText
 10
-25392.37494828464
 20
7256.045828517662
 30
0.0
 40
64.0
  1
12
 50
90.0
 41
0.9
100
AcDbText
  0
ENDBLK
  5
1F1F
330
2EC9
100
AcDbEntity
  8
0
100
AcDbBlockEnd
  0
BLOCK
  5
2ECC
330
2ECB
100
AcDbEntity
  8
0
100
AcDbBlockBegin
  2
*D43
 70
     1
 10
0.0
 20
0.0
 30
0.0
  3
*D43
  1

  0
LINE
  5
16AC
330
2ECB
100
AcDbEntity
  8
SIZE
 62
     0
100
AcDbLine
 10
-25801.51823276501
 20
7365.702971374808
 30
0.0
 11
-25801.51823276501
 21
7217.685576144207
 31
0.0
  0
LINE
  5
16AD
330
2ECB
100
AcDbEntity
  8
SIZE
 62
     0
100
AcDbLine
 10
-25532.51823276502
 20
7365.702971374808
 30
0.0
 11
-25532.51823276502
 21
7217.685576144207
 31
0.0
  0
LINE
  5
16AE
330
2ECB
100
AcDbEntity
  8
SIZE
 62
     0
100
AcDbLine
 10
-25789.51823276502
 20
7237.685576144207
 30
0.0
 11
-25544.51823276501
 21
7237.685576144207
 31
0.0
  0
INSERT
  5
16AF
330
2ECB
100
AcDbEntity
  8
SIZE
 62
     0
100
AcDbBlockReference
  2
_DOTBLANK
 10
-25801.51823276501
 20
7237.685576144207
 30
0.0
 41
12.0
 42
12.0
 43
12.0
 50
180.0
  0
INSERT
  5
16B0
330
2ECB
100
AcDbEntity
  8
SIZE
 62
     0
100
AcDbBlockReference
  2
_DOTBLANK
 10
-25532.51823276502
 20
7237.685576144207
 30
0.0
 41
12.0
 42
12.0
 43
12.0
  0
INSERT
  5
16B1
330
2ECB
100
AcDbEntity
  8
0
100
AcDbBlockReference
  2
*U44
 10
0.0
 20
0.0
 30
0.0
  0
POINT
  5
16B2
330
2ECB
100
AcDbEntity
  8
DEFPOINTS
 62
     0
100
AcDbPoint
 10
-25801.51823276501
 20
7385.702971374808
 30
0.0
  0
POINT
  5
16B3
330
2ECB
100
AcDbEntity
  8
DEFPOINTS
 62
     0
100
AcDbPoint
 10
-25532.51823276502
 20
7385.702971374808
 30
0.0
  0
POINT
  5
16B4
330
2ECB
100
AcDbEntity
  8
DEFPOINTS
 62
     0
100
AcDbPoint
 10
-25532.51823276502
 20
7237.685576144207
 30
0.0
  0
ENDBLK
  5
16B5
330
2ECB
100
AcDbEntity
  8
0
100
AcDbBlockEnd
  0
BLOCK
  5
2ECE
330
2ECD
100
AcDbEntity
  8
0
100
AcDbBlockBegin
  2
*U44
 70
     1
 10
0.0
 20
0.0
 30
0.0
  3
*U44
  1

  0
TEXT
  5
1F21
330
2ECD
100
AcDbEntity
  8
SIZE
 62
     0
100
AcDbText
 10
-25739.70394705074
 20
7247.685576144205
 30
0.0
 40
64.0
  1
269
 41
0.9
100
AcDbText
  0
ENDBLK
  5
1F23
330
2ECD
100
AcDbEntity
  8
0
100
AcDbBlockEnd
  0
BLOCK
  5
2ED0
330
2ECF
100
AcDbEntity
  8
0
100
AcDbBlockBegin
  2
*D45
 70
     1
 10
0.0
 20
0.0
 30
0.0
  3
*D45
  1

  0
LINE
  5
16B8
330
2ECF
100
AcDbEntity
  8
SIZE
 62
     0
100
AcDbLine
 10
-25512.51823276502
 20
7385.702971374808
 30
0.0
 11
-25362.37494828464
 21
7385.702971374808
 31
0.0
  0
LINE
  5
16B9
330
2ECF
100
AcDbEntity
  8
SIZE
 62
     0
100
AcDbLine
 10
-25489.51823276501
 20
7685.702971374808
 30
0.0
 11
-25362.37494828464
 21
7685.702971374808
 31
0.0
  0
LINE
  5
16BA
330
2ECF
100
AcDbEntity
  8
SIZE
 62
     0
100
AcDbLine
 10
-25382.37494828464
 20
7397.702971374808
 30
0.0
 11
-25382.37494828464
 21
7673.702971374808
 31
0.0
  0
INSERT
  5
16BB
330
2ECF
100
AcDbEntity
  8
SIZE
 62
     0
100
AcDbBlockReference
  2
_DOTBLANK
 10
-25382.37494828464
 20
7385.702971374808
 30
0.0
 41
12.0
 42
12.0
 43
12.0
 50
270.0
  0
INSERT
  5
16BC
330
2ECF
100
AcDbEntity
  8
SIZE
 62
     0
100
AcDbBlockReference
  2
_DOTBLANK
 10
-25382.37494828464
 20
7685.702971374808
 30
0.0
 41
12.0
 42
12.0
 43
12.0
 50
90.0
  0
INSERT
  5
16BD
330
2ECF
100
AcDbEntity
  8
0
100
AcDbBlockReference
  2
*U46
 10
0.0
 20
0.0
 30
0.0
  0
POINT
  5
16BE
330
2ECF
100
AcDbEntity
  8
DEFPOINTS
 62
     0
100
AcDbPoint
 10
-25532.51823276502
 20
7385.702971374808
 30
0.0
  0
POINT
  5
16BF
330
2ECF
100
AcDbEntity
  8
DEFPOINTS
 62
     0
100
AcDbPoint
 10
-25509.51823276502
 20
7685.702971374808
 30
0.0
  0
POINT
  5
16C0
330
2ECF
100
AcDbEntity
  8
DEFPOINTS
 62
     0
100
AcDbPoint
 10
-25382.37494828464
 20
7685.702971374808
 30
0.0
  0
ENDBLK
  5
16C1
330
2ECF
100
AcDbEntity
  8
0
100
AcDbBlockEnd
  0
BLOCK
  5
2ED2
330
2ED1
100
AcDbEntity
  8
0
100
AcDbBlockBegin
  2
*U46
 70
     1
 10
0.0
 20
0.0
 30
0.0
  3
*U46
  1

  0
TEXT
  5
1F25
330
2ED1
100
AcDbEntity
  8
SIZE
 62
     0
100
AcDbText
 10
-25392.37494828464
 20
7461.645828517662
 30
0.0
 40
64.0
  1
300
 50
90.0
 41
0.9
100
AcDbText
  0
ENDBLK
  5
1F27
330
2ED1
100
AcDbEntity
  8
0
100
AcDbBlockEnd
  0
BLOCK
  5
2ED4
330
2ED3
100
AcDbEntity
  8
0
100
AcDbBlockBegin
  2
*D47
 70
     1
 10
0.0
 20
0.0
 30
0.0
  3
*D47
  1

  0
LINE
  5
16C4
330
2ED3
100
AcDbEntity
  8
SIZE
 62
     0
100
AcDbLine
 10
-25807.01823276501
 20
7718.167454177002
 30
0.0
 11
-25807.01823276501
 21
7822.154659243358
 31
0.0
  0
LINE
  5
16C5
330
2ED3
100
AcDbEntity
  8
SIZE
 62
     0
100
AcDbLine
 10
-25527.01823276501
 20
7718.167454177002
 30
0.0
 11
-25527.01823276501
 21
7822.154659243358
 31
0.0
  0
LINE
  5
16C6
330
2ED3
100
AcDbEntity
  8
SIZE
 62
     0
100
AcDbLine
 10
-25795.01823276502
 20
7802.154659243358
 30
0.0
 11
-25539.01823276501
 21
7802.154659243358
 31
0.0
  0
INSERT
  5
16C7
330
2ED3
100
AcDbEntity
  8
SIZE
 62
     0
100
AcDbBlockReference
  2
_DOTBLANK
 10
-25807.01823276501
 20
7802.154659243358
 30
0.0
 41
12.0
 42
12.0
 43
12.0
 50
180.0
  0
INSERT
  5
16C8
330
2ED3
100
AcDbEntity
  8
SIZE
 62
     0
100
AcDbBlockReference
  2
_DOTBLANK
 10
-25527.01823276501
 20
7802.154659243358
 30
0.0
 41
12.0
 42
12.0
 43
12.0
  0
INSERT
  5
16C9
330
2ED3
100
AcDbEntity
  8
0
100
AcDbBlockReference
  2
*U48
 10
0.0
 20
0.0
 30
0.0
  0
POINT
  5
16CA
330
2ED3
100
AcDbEntity
  8
DEFPOINTS
 62
     0
100
AcDbPoint
 10
-25807.01823276501
 20
7698.167454177002
 30
0.0
  0
POINT
  5
16CB
330
2ED3
100
AcDbEntity
  8
DEFPOINTS
 62
     0
100
AcDbPoint
 10
-25527.01823276501
 20
7698.167454177002
 30
0.0
  0
POINT
  5
16CC
330
2ED3
100
AcDbEntity
  8
DEFPOINTS
 62
     0
100
AcDbPoint
 10
-25527.01823276501
 20
7802.154659243358
 30
0.0
  0
ENDBLK
  5
16CD
330
2ED3
100
AcDbEntity
  8
0
100
AcDbBlockEnd
  0
BLOCK
  5
2ED6
330
2ED5
100
AcDbEntity
  8
0
100
AcDbBlockBegin
  2
*U48
 70
     1
 10
0.0
 20
0.0
 30
0.0
  3
*U48
  1

  0
TEXT
  5
1F29
330
2ED5
100
AcDbEntity
  8
SIZE
 62
     0
100
AcDbText
 10
-25741.07537562216
 20
7812.154659243358
 30
0.0
 40
64.0
  1
280
 41
0.9
100
AcDbText
  0
ENDBLK
  5
1F2B
330
2ED5
100
AcDbEntity
  8
0
100
AcDbBlockEnd
  0
BLOCK
  5
2ED8
330
2ED7
100
AcDbEntity
  8
0
100
AcDbBlockBegin
  2
*D49
 70
     1
 10
0.0
 20
0.0
 30
0.0
  3
*D49
  1

  0
LINE
  5
16D0
330
2ED7
100
AcDbEntity
  8
SIZE
 62
     0
100
AcDbLine
 10
-25824.51823276501
 20
7705.702971374808
 30
0.0
 11
-25824.51823276501
 21
7931.282433493766
 31
0.0
  0
LINE
  5
16D1
330
2ED7
100
AcDbEntity
  8
SIZE
 62
     0
100
AcDbLine
 10
-25509.51823276502
 20
7705.702971374808
 30
0.0
 11
-25509.51823276502
 21
7931.282433493766
 31
0.0
  0
LINE
  5
16D2
330
2ED7
100
AcDbEntity
  8
SIZE
 62
     0
100
AcDbLine
 10
-25812.51823276502
 20
7911.282433493766
 30
0.0
 11
-25521.51823276501
 21
7911.282433493766
 31
0.0
  0
INSERT
  5
16D3
330
2ED7
100
AcDbEntity
  8
SIZE
 62
     0
100
AcDbBlockReference
  2
_DOTBLANK
 10
-25824.51823276501
 20
7911.282433493766
 30
0.0
 41
12.0
 42
12.0
 43
12.0
 50
180.0
  0
INSERT
  5
16D4
330
2ED7
100
AcDbEntity
  8
SIZE
 62
     0
100
AcDbBlockReference
  2
_DOTBLANK
 10
-25509.51823276502
 20
7911.282433493766
 30
0.0
 41
12.0
 42
12.0
 43
12.0
  0
INSERT
  5
16D5
330
2ED7
100
AcDbEntity
  8
0
100
AcDbBlockReference
  2
*U50
 10
0.0
 20
0.0
 30
0.0
  0
POINT
  5
16D6
330
2ED7
100
AcDbEntity
  8
DEFPOINTS
 62
     0
100
AcDbPoint
 10
-25824.51823276501
 20
7685.702971374808
 30
0.0
  0
POINT
  5
16D7
330
2ED7
100
AcDbEntity
  8
DEFPOINTS
 62
     0
100
AcDbPoint
 10
-25509.51823276502
 20
7685.702971374808
 30
0.0
  0
POINT
  5
16D8
330
2ED7
100
AcDbEntity
  8
DEFPOINTS
 62
     0
100
AcDbPoint
 10
-25509.51823276502
 20
7911.282433493766
 30
0.0
  0
ENDBLK
  5
16D9
330
2ED7
100
AcDbEntity
  8
0
100
AcDbBlockEnd
  0
BLOCK
  5
2EDA
330
2ED9
100
AcDbEntity
  8
0
100
AcDbBlockBegin
  2
*U50
 70
     1
 10
0.0
 20
0.0
 30
0.0
  3
*U50
  1

  0
TEXT
  5
1F2D
330
2ED9
100
AcDbEntity
  8
SIZE
 62
     0
100
AcDbText
 10
-25735.58966133645
 20
7921.282433493766
 30
0.0
 40
64.0
  1
315
 41
0.9
100
AcDbText
  0
ENDBLK
  5
1F2F
330
2ED9
100
AcDbEntity
  8
0
100
AcDbBlockEnd
  0
BLOCK
  5
2EDC
330
2EDB
100
AcDbEntity
  8
0
100
AcDbBlockBegin
  2
*D51
 70
     1
 10
0.0
 20
0.0
 30
0.0
  3
*D51
  1

  0
LINE
  5
1D83
330
2EDB
100
AcDbEntity
  8
SIZE
 62
     0
100
AcDbLine
 10
-134.5
 20
-320.0
 30
0.0
 11
-134.5
 21
-468.0173952306001
 31
0.0
  0
LINE
  5
1D84
330
2EDB
100
AcDbEntity
  8
SIZE
 62
     0
100
AcDbLine
 10
134.5
 20
-320.0
 30
0.0
 11
134.5
 21
-468.0173952306001
 31
0.0
  0
LINE
  5
1D85
330
2EDB
100
AcDbEntity
  8
SIZE
 62
     0
100
AcDbLine
 10
-122.5
 20
-448.0173952306
 30
0.0
 11
122.5
 21
-448.0173952306
 31
0.0
  0
INSERT
  5
1D86
330
2EDB
100
AcDbEntity
  8
SIZE
 62
     0
100
AcDbBlockReference
  2
_DOTBLANK
 10
-134.5
 20
-448.0173952306
 30
0.0
 41
12.0
 42
12.0
 43
12.0
 50
180.0
  0
INSERT
  5
1D87
330
2EDB
100
AcDbEntity
  8
SIZE
 62
     0
100
AcDbBlockReference
  2
_DOTBLANK
 10
134.5
 20
-448.0173952306
 30
0.0
 41
12.0
 42
12.0
 43
12.0
  0
INSERT
  5
1D88
330
2EDB
100
AcDbEntity
  8
0
100
AcDbBlockReference
  2
*U52
 10
0.0
 20
0.0
 30
0.0
  0
POINT
  5
1D89
330
2EDB
100
AcDbEntity
  8
DEFPOINTS
 62
     0
100
AcDbPoint
 10
-134.5
 20
-300.0
 30
0.0
  0
POINT
  5
1D8A
330
2EDB
100
AcDbEntity
  8
DEFPOINTS
 62
     0
100
AcDbPoint
 10
134.5
 20
-300.0
 30
0.0
  0
POINT
  5
1D8B
330
2EDB
100
AcDbEntity
  8
DEFPOINTS
 62
     0
100
AcDbPoint
 10
134.5
 20
-448.0173952306
 30
0.0
  0
ENDBLK
  5
173D
330
2EDB
100
AcDbEntity
  8
0
100
AcDbBlockEnd
  0
BLOCK
  5
2EDE
330
2EDD
100
AcDbEntity
  8
0
100
AcDbBlockBegin
  2
*U52
 70
     1
 10
0.0
 20
0.0
 30
0.0
  3
*U52
  1

  0
TEXT
  5
1F31
330
2EDD
100
AcDbEntity
  8
SIZE
 62
     0
100
AcDbText
 10
-72.68571428571426
 20
-438.0173952306003
 30
0.0
 40
64.0
  1
269
 41
0.9
100
AcDbText
  0
ENDBLK
  5
1F33
330
2EDD
100
AcDbEntity
  8
0
100
AcDbBlockEnd
  0
BLOCK
  5
2EE0
330
2EDF
100
AcDbEntity
  8
0
100
AcDbBlockBegin
  2
*D53
 70
     1
 10
0.0
 20
0.0
 30
0.0
  3
*D53
  1

  0
LINE
  5
1D8C
330
2EDF
100
AcDbEntity
  8
SIZE
 62
     0
100
AcDbLine
 10
154.5
 20
-300.0
 30
0.0
 11
304.6432844803784
 21
-300.0
 31
0.0
  0
LINE
  5
1D8D
330
2EDF
100
AcDbEntity
  8
SIZE
 62
     0
100
AcDbLine
 10
177.5
 20
-0.0000000000000057
 30
0.0
 11
304.6432844803785
 21
-0.0000000000000417
 31
0.0
  0
LINE
  5
1D8E
330
2EDF
100
AcDbEntity
  8
SIZE
 62
     0
100
AcDbLine
 10
284.6432844803784
 20
-288.0
 30
0.0
 11
284.6432844803785
 21
-12.00000000000003
 31
0.0
  0
INSERT
  5
1D8F
330
2EDF
100
AcDbEntity
  8
SIZE
 62
     0
100
AcDbBlockReference
  2
_DOTBLANK
 10
284.6432844803784
 20
-300.0
 30
0.0
 41
12.0
 42
12.0
 43
12.0
 50
270.0
  0
INSERT
  5
1D90
330
2EDF
100
AcDbEntity
  8
SIZE
 62
     0
100
AcDbBlockReference
  2
_DOTBLANK
 10
284.6432844803785
 20
-0.000000000000036
 30
0.0
 41
12.0
 42
12.0
 43
12.0
 50
90.0
  0
INSERT
  5
1D91
330
2EDF
100
AcDbEntity
  8
0
100
AcDbBlockReference
  2
*U54
 10
0.0
 20
0.0
 30
0.0
  0
POINT
  5
1D92
330
2EDF
100
AcDbEntity
  8
DEFPOINTS
 62
     0
100
AcDbPoint
 10
134.5
 20
-300.0
 30
0.0
  0
POINT
  5
1D93
330
2EDF
100
AcDbEntity
  8
DEFPOINTS
 62
     0
100
AcDbPoint
 10
157.5
 20
0.0
 30
0.0
  0
POINT
  5
1D94
330
2EDF
100
AcDbEntity
  8
DEFPOINTS
 62
     0
100
AcDbPoint
 10
284.6432844803785
 20
-0.000000000000036
 30
0.0
  0
ENDBLK
  5
1749
330
2EDF
100
AcDbEntity
  8
0
100
AcDbBlockEnd
  0
BLOCK
  5
2EE2
330
2EE1
100
AcDbEntity
  8
0
100
AcDbBlockBegin
  2
*U54
 70
     1
 10
0.0
 20
0.0
 30
0.0
  3
*U54
  1

  0
TEXT
  5
1F35
330
2EE1
100
AcDbEntity
  8
SIZE
 62
     0
100
AcDbText
 10
274.6432844803785
 20
-224.0571428571429
 30
0.0
 40
64.0
  1
300
 50
90.0
 41
0.9
100
AcDbText
  0
ENDBLK
  5
1F37
330
2EE1
100
AcDbEntity
  8
0
100
AcDbBlockEnd
  0
BLOCK
  5
2EE4
330
2EE3
100
AcDbEntity
  8
0
100
AcDbBlockBegin
  2
*D55
 70
     1
 10
0.0
 20
0.0
 30
0.0
  3
*D55
  1

  0
LINE
  5
1D95
330
2EE3
100
AcDbEntity
  8
SIZE
 62
     0
100
AcDbLine
 10
-140.0
 20
32.46448280219375
 30
0.0
 11
-140.0
 21
136.4516878685508
 31
0.0
  0
LINE
  5
1D96
330
2EE3
100
AcDbEntity
  8
SIZE
 62
     0
100
AcDbLine
 10
140.0
 20
32.46448280219375
 30
0.0
 11
140.0
 21
136.4516878685508
 31
0.0
  0
LINE
  5
1D97
330
2EE3
100
AcDbEntity
  8
SIZE
 62
     0
100
AcDbLine
 10
-128.0
 20
116.4516878685508
 30
0.0
 11
128.0
 21
116.4516878685508
 31
0.0
  0
INSERT
  5
1D98
330
2EE3
100
AcDbEntity
  8
SIZE
 62
     0
100
AcDbBlockReference
  2
_DOTBLANK
 10
-140.0
 20
116.4516878685508
 30
0.0
 41
12.0
 42
12.0
 43
12.0
 50
180.0
  0
INSERT
  5
1D99
330
2EE3
100
AcDbEntity
  8
SIZE
 62
     0
100
AcDbBlockReference
  2
_DOTBLANK
 10
140.0
 20
116.4516878685508
 30
0.0
 41
12.0
 42
12.0
 43
12.0
  0
INSERT
  5
1D9A
330
2EE3
100
AcDbEntity
  8
0
100
AcDbBlockReference
  2
*U56
 10
0.0
 20
0.0
 30
0.0
  0
POINT
  5
1D9B
330
2EE3
100
AcDbEntity
  8
DEFPOINTS
 62
     0
100
AcDbPoint
 10
-140.0
 20
12.46448280219374
 30
0.0
  0
POINT
  5
1D9C
330
2EE3
100
AcDbEntity
  8
DEFPOINTS
 62
     0
100
AcDbPoint
 10
140.0
 20
12.46448280219374
 30
0.0
  0
POINT
  5
1D9D
330
2EE3
100
AcDbEntity
  8
DEFPOINTS
 62
     0
100
AcDbPoint
 10
140.0
 20
116.4516878685508
 30
0.0
  0
ENDBLK
  5
1755
330
2EE3
100
AcDbEntity
  8
0
100
AcDbBlockEnd
  0
BLOCK
  5
2EE6
330
2EE5
100
AcDbEntity
  8
0
100
AcDbBlockBegin
  2
*U56
 70
     1
 10
0.0
 20
0.0
 30
0.0
  3
*U56
  1

  0
TEXT
  5
1F39
330
2EE5
100
AcDbEntity
  8
SIZE
 62
     0
100
AcDbText
 10
-74.05714285714283
 20
126.4516878685508
 30
0.0
 40
64.0
  1
280
 41
0.9
100
AcDbText
  0
ENDBLK
  5
1F3B
330
2EE5
100
AcDbEntity
  8
0
100
AcDbBlockEnd
  0
BLOCK
  5
2EE8
330
2EE7
100
AcDbEntity
  8
0
100
AcDbBlockBegin
  2
*D57
 70
     1
 10
0.0
 20
0.0
 30
0.0
  3
*D57
  1

  0
LINE
  5
1D9E
330
2EE7
100
AcDbEntity
  8
SIZE
 62
     0
100
AcDbLine
 10
-157.5
 20
20.0
 30
0.0
 11
-157.5
 21
245.5794621189598
 31
0.0
  0
LINE
  5
1D9F
330
2EE7
100
AcDbEntity
  8
SIZE
 62
     0
100
AcDbLine
 10
157.5
 20
20.0
 30
0.0
 11
157.5
 21
245.5794621189598
 31
0.0
  0
LINE
  5
1DA0
330
2EE7
100
AcDbEntity
  8
SIZE
 62
     0
100
AcDbLine
 10
-145.5
 20
225.5794621189598
 30
0.0
 11
145.5
 21
225.5794621189598
 31
0.0
  0
INSERT
  5
1DA1
330
2EE7
100
AcDbEntity
  8
SIZE
 62
     0
100
AcDbBlockReference
  2
_DOTBLANK
 10
-157.5
 20
225.5794621189598
 30
0.0
 41
12.0
 42
12.0
 43
12.0
 50
180.0
  0
INSERT
  5
1DA2
330
2EE7
100
AcDbEntity
  8
SIZE
 62
     0
100
AcDbBlockReference
  2
_DOTBLANK
 10
157.5
 20
225.5794621189598
 30
0.0
 41
12.0
 42
12.0
 43
12.0
  0
INSERT
  5
1DA3
330
2EE7
100
AcDbEntity
  8
0
100
AcDbBlockReference
  2
*U58
 10
0.0
 20
0.0
 30
0.0
  0
POINT
  5
1DA4
330
2EE7
100
AcDbEntity
  8
DEFPOINTS
 62
     0
100
AcDbPoint
 10
-157.5
 20
0.0
 30
0.0
  0
POINT
  5
1DA5
330
2EE7
100
AcDbEntity
  8
DEFPOINTS
 62
     0
100
AcDbPoint
 10
157.5
 20
0.0
 30
0.0
  0
POINT
  5
1DA6
330
2EE7
100
AcDbEntity
  8
DEFPOINTS
 62
     0
100
AcDbPoint
 10
157.5
 20
225.5794621189598
 30
0.0
  0
ENDBLK
  5
1761
330
2EE7
100
AcDbEntity
  8
0
100
AcDbBlockEnd
  0
BLOCK
  5
2EEA
330
2EE9
100
AcDbEntity
  8
0
100
AcDbBlockBegin
  2
*U58
 70
     1
 10
0.0
 20
0.0
 30
0.0
  3
*U58
  1

  0
TEXT
  5
1F3D
330
2EE9
100
AcDbEntity
  8
SIZE
 62
     0
100
AcDbText
 10
-68.57142857142857
 20
235.5794621189599
 30
0.0
 40
64.0
  1
315
 41
0.9
100
AcDbText
  0
ENDBLK
  5
1F3F
330
2EE9
100
AcDbEntity
  8
0
100
AcDbBlockEnd
  0
BLOCK
  5
2EEC
330
2EEB
100
AcDbEntity
  8
0
100
AcDbBlockBegin
  2
*D59
 70
     1
 10
0.0
 20
0.0
 30
0.0
  3
*D59
  1

  0
LINE
  5
1DA7
330
2EEB
100
AcDbEntity
  8
SIZE
 62
     0
100
AcDbLine
 10
-177.5
 20
0.0000000000000057
 30
0.0
 11
-314.0264221186908
 21
0.0000000000000443
 31
0.0
  0
LINE
  5
1DA8
330
2EEB
100
AcDbEntity
  8
SIZE
 62
     0
100
AcDbLine
 10
-177.5
 20
-7.999999999999993
 30
0.0
 11
-314.0264221186908
 21
-7.999999999999958
 31
0.0
  0
LINE
  5
1DA9
330
2EEB
100
AcDbEntity
  8
SIZE
 62
     0
100
AcDbLine
 10
-294.0264221186908
 20
12.00000000000003
 30
0.0
 11
-294.0264221186908
 21
24.00000000000004
 31
0.0
  0
LINE
  5
1DAA
330
2EEB
100
AcDbEntity
  8
SIZE
 62
     0
100
AcDbLine
 10
-294.0264221186908
 20
-19.99999999999996
 30
0.0
 11
-294.0264221186908
 21
-90.39999999999997
 31
0.0
  0
INSERT
  5
1DAB
330
2EEB
100
AcDbEntity
  8
SIZE
 62
     0
100
AcDbBlockReference
  2
_DOTBLANK
 10
-294.0264221186908
 20
0.0000000000000387
 30
0.0
 41
12.0
 42
12.0
 43
12.0
 50
270.0
  0
INSERT
  5
1DAC
330
2EEB
100
AcDbEntity
  8
SIZE
 62
     0
100
AcDbBlockReference
  2
_DOTBLANK
 10
-294.0264221186908
 20
-7.999999999999961
 30
0.0
 41
12.0
 42
12.0
 43
12.0
 50
90.0
  0
INSERT
  5
1DAD
330
2EEB
100
AcDbEntity
  8
0
100
AcDbBlockReference
  2
*U60
 10
0.0
 20
0.0
 30
0.0
  0
POINT
  5
1DAE
330
2EEB
100
AcDbEntity
  8
DEFPOINTS
 62
     0
100
AcDbPoint
 10
-157.5
 20
0.0
 30
0.0
  0
POINT
  5
1DAF
330
2EEB
100
AcDbEntity
  8
DEFPOINTS
 62
     0
100
AcDbPoint
 10
-157.5
 20
-8.000000000000003
 30
0.0
  0
POINT
  5
1DB0
330
2EEB
100
AcDbEntity
  8
DEFPOINTS
 62
     0
100
AcDbPoint
 10
-294.0264221186908
 20
-7.999999999999961
 30
0.0
  0
ENDBLK
  5
176D
330
2EEB
100
AcDbEntity
  8
0
100
AcDbBlockEnd
  0
BLOCK
  5
2EEE
330
2EED
100
AcDbEntity
  8
0
100
AcDbBlockBegin
  2
*U60
 70
     1
 10
0.0
 20
0.0
 30
0.0
  3
*U60
  1

  0
TEXT
  5
1F41
330
2EED
100
AcDbEntity
  8
SIZE
 62
     0
100
AcDbText
 10
-304.0264221186908
 20
-80.4
 30
0.0
 40
64.0
  1
8
 50
90.0
 41
0.9
100
AcDbText
  0
ENDBLK
  5
1F43
330
2EED
100
AcDbEntity
  8
0
100
AcDbBlockEnd
  0
BLOCK
  5
2EF0
330
2EEF
100
AcDbEntity
  8
0
100
AcDbBlockBegin
  2
*D61
 70
     1
 10
0.0
 20
0.0
 30
0.0
  3
*D61
  1

  0
LINE
  5
1DB1
330
2EEF
100
AcDbEntity
  8
SIZE
 62
     0
100
AcDbLine
 10
154.5
 20
-300.0
 30
0.0
 11
304.6432844803785
 21
-300.0
 31
0.0
  0
LINE
  5
1DB2
330
2EEF
100
AcDbEntity
  8
SIZE
 62
     0
100
AcDbLine
 10
143.5
 20
-312.0
 30
0.0
 11
304.6432844803785
 21
-312.0
 31
0.0
  0
LINE
  5
1DB3
330
2EEF
100
AcDbEntity
  8
SIZE
 62
     0
100
AcDbLine
 10
284.6432844803785
 20
-288.0
 30
0.0
 11
284.6432844803785
 21
-276.0
 31
0.0
  0
LINE
  5
1DB4
330
2EEF
100
AcDbEntity
  8
SIZE
 62
     0
100
AcDbLine
 10
284.6432844803785
 20
-324.0000000000001
 30
0.0
 11
284.6432844803784
 21
-438.2857142857143
 31
0.0
  0
INSERT
  5
1DB5
330
2EEF
100
AcDbEntity
  8
SIZE
 62
     0
100
AcDbBlockReference
  2
_DOTBLANK
 10
284.6432844803785
 20
-300.0
 30
0.0
 41
12.0
 42
12.0
 43
12.0
 50
270.0
  0
INSERT
  5
1DB6
330
2EEF
100
AcDbEntity
  8
SIZE
 62
     0
100
AcDbBlockReference
  2
_DOTBLANK
 10
284.6432844803785
 20
-312.0
 30
0.0
 41
12.0
 42
12.0
 43
12.0
 50
90.0
  0
INSERT
  5
1DB7
330
2EEF
100
AcDbEntity
  8
0
100
AcDbBlockReference
  2
*U62
 10
0.0
 20
0.0
 30
0.0
  0
POINT
  5
1DB8
330
2EEF
100
AcDbEntity
  8
DEFPOINTS
 62
     0
100
AcDbPoint
 10
134.5
 20
-300.0
 30
0.0
  0
POINT
  5
1DB9
330
2EEF
100
AcDbEntity
  8
DEFPOINTS
 62
     0
100
AcDbPoint
 10
123.5
 20
-312.0
 30
0.0
  0
POINT
  5
1DBA
330
2EEF
100
AcDbEntity
  8
DEFPOINTS
 62
     0
100
AcDbPoint
 10
284.6432844803785
 20
-312.0
 30
0.0
  0
ENDBLK
  5
177B
330
2EEF
100
AcDbEntity
  8
0
100
AcDbBlockEnd
  0
BLOCK
  5
2EF2
330
2EF1
100
AcDbEntity
  8
0
100
AcDbBlockBegin
  2
*U62
 70
     1
 10
0.0
 20
0.0
 30
0.0
  3
*U62
  1

  0
TEXT
  5
1F45
330
2EF1
100
AcDbEntity
  8
SIZE
 62
     0
100
AcDbText
 10
274.6432844803785
 20
-428.2857142857142
 30
0.0
 40
64.0
  1
12
 50
90.0
 41
0.9
100
AcDbText
  0
ENDBLK
  5
1F47
330
2EF1
100
AcDbEntity
  8
0
100
AcDbBlockEnd
  0
BLOCK
  5
2EF4
330
2EF3
100
AcDbEntity
  8
0
100
AcDbBlockBegin
  2
*U63
 70
     1
 10
0.0
 20
0.0
 30
0.0
  3
*U63
  1

  0
ENDBLK
  5
1D57
330
2EF3
100
AcDbEntity
  8
0
100
AcDbBlockEnd
  0
BLOCK
  5
2EF6
330
2EF5
100
AcDbEntity
  8
0
100
AcDbBlockBegin
  2
*U64
 70
     1
 10
0.0
 20
0.0
 30
0.0
  3
*U64
  1

  0
INSERT
  5
2087
330
2EF5
100
AcDbEntity
  8
NOTE
100
AcDbBlockReference
  2
_OPEN30
 10
-325.0
 20
0.0
 30
0.0
 41
12.0
 42
12.0
 43
12.0
 50
312.6090116116894
  0
POLYLINE
  5
2088
330
2EF5
100
AcDbEntity
  8
NOTE
100
AcDb2dPolyline
 66
     1
 10
0.0
 20
0.0
 30
0.0
  0
VERTEX
  5
2B0E
330
2088
100
AcDbEntity
  8
NOTE
100
AcDbVertex
100
AcDb2dVertex
 10
-333.1239008361895
 20
8.831887408915472
 30
0.0
  0
VERTEX
  5
2B0F
330
2088
100
AcDbEntity
  8
NOTE
100
AcDbVertex
100
AcDb2dVertex
 10
-412.8693999922543
 20
95.5270950580134
 30
0.0
  0
VERTEX
  5
2B10
330
2088
100
AcDbEntity
  8
NOTE
100
AcDbVertex
100
AcDb2dVertex
 10
-961.4522571351114
 20
95.5270950580134
 30
0.0
  0
SEQEND
  5
2B11
330
2088
100
AcDbEntity
  8
NOTE
  0
ENDBLK
  5
2089
330
2EF5
100
AcDbEntity
  8
0
100
AcDbBlockEnd
  0
BLOCK
  5
2EF8
330
2EF7
100
AcDbEntity
  8
0
100
AcDbBlockBegin
  2
*U65
 70
     1
 10
0.0
 20
0.0
 30
0.0
  3
*U65
  1

  0
TEXT
  5
208C
330
2EF7
100
AcDbEntity
  8
NOTE
100
AcDbText
 10
-958.7093999922544
 20
113.5270950580134
 30
0.0
 40
64.0
  1
4×φ15取付穴
 41
0.9
100
AcDbText
  0
ENDBLK
  5
208D
330
2EF7
100
AcDbEntity
  8
0
100
AcDbBlockEnd
  0
BLOCK
  5
2EFA
330
2EF9
100
AcDbEntity
  8
0
100
AcDbBlockBegin
  2
*U66
 70
     1
 10
0.0
 20
0.0
 30
0.0
  3
*U66
  1

  0
INSERT
  5
216D
330
2EF9
100
AcDbEntity
  8
NOTE
100
AcDbBlockReference
  2
_OPEN30
 10
325.0
 20
325.0
 30
0.0
 41
12.0
 42
12.0
 43
12.0
 50
230.7091310502217
  0
POLYLINE
  5
216E
330
2EF9
100
AcDbEntity
  8
NOTE
100
AcDb2dPolyline
 66
     1
 10
0.0
 20
0.0
 30
0.0
  0
VERTEX
  5
2B12
330
216E
100
AcDbEntity
  8
NOTE
100
AcDbVertex
100
AcDb2dVertex
 10
332.599090480922
 20
334.2872936780722
 30
0.0
  0
VERTEX
  5
2B13
330
216E
100
AcDbEntity
  8
NOTE
100
AcDbVertex
100
AcDb2dVertex
 10
388.4345623698608
 20
402.5270950580134
 30
0.0
  0
VERTEX
  5
2B14
330
216E
100
AcDbEntity
  8
NOTE
100
AcDbVertex
100
AcDb2dVertex
 10
937.0174195127182
 20
402.5270950580134
 30
0.0
  0
SEQEND
  5
2B15
330
216E
100
AcDbEntity
  8
NOTE
  0
ENDBLK
  5
216F
330
2EF9
100
AcDbEntity
  8
0
100
AcDbBlockEnd
  0
BLOCK
  5
2EFC
330
2EFB
100
AcDbEntity
  8
0
100
AcDbBlockBegin
  2
*U67
 70
     1
 10
0.0
 20
0.0
 30
0.0
  3
*U67
  1

  0
TEXT
  5
2172
330
2EFB
100
AcDbEntity
  8
NOTE
100
AcDbText
 10
450.4345623698608
 20
420.5270950580134
 30
0.0
 40
64.0
  1
4×φ15取付穴
 41
0.9
100
AcDbText
  0
ENDBLK
  5
2173
330
2EFB
100
AcDbEntity
  8
0
100
AcDbBlockEnd
  0
BLOCK
  5
2EFE
330
2EFD
100
AcDbEntity
  8
0
100
AcDbBlockBegin
  2
*U68
 70
     1
 10
0.0
 20
0.0
 30
0.0
  3
*U68
  1

  0
INSERT
  5
2386
330
2EFD
100
AcDbEntity
  8
NOTE
100
AcDbBlockReference
  2
_OPEN30
 10
325.0
 20
324.9999999999992
 30
0.0
 41
12.0
 42
12.0
 43
12.0
 50
232.3258907693334
  0
POLYLINE
  5
2387
330
2EFD
100
AcDbEntity
  8
NOTE
100
AcDb2dPolyline
 66
     1
 10
0.0
 20
0.0
 30
0.0
  0
VERTEX
  5
2B22
330
2387
100
AcDbEntity
  8
NOTE
100
AcDbVertex
100
AcDb2dVertex
 10
332.3340332839448
 20
334.4979974620955
 30
0.0
  0
VERTEX
  5
2B23
330
2387
100
AcDbEntity
  8
NOTE
100
AcDbVertex
100
AcDb2dVertex
 10
398.7628007872081
 20
420.5270950580112
 30
0.0
  0
VERTEX
  5
2B24
330
2387
100
AcDbEntity
  8
NOTE
100
AcDbVertex
100
AcDb2dVertex
 10
944.6028007872079
 20
420.5270950580112
 30
0.0
  0
SEQEND
  5
2B25
330
2387
100
AcDbEntity
  8
NOTE
  0
ENDBLK
  5
2388
330
2EFD
100
AcDbEntity
  8
0
100
AcDbBlockEnd
  0
BLOCK
  5
2F00
330
2EFF
100
AcDbEntity
  8
0
100
AcDbBlockBegin
  2
*U69
 70
     1
 10
0.0
 20
0.0
 30
0.0
  3
*U69
  1

  0
TEXT
  5
238B
330
2EFF
100
AcDbEntity
  8
NOTE
100
AcDbText
 10
460.762800787208
 20
438.5270950580116
 30
0.0
 40
64.0
  1
4×φ15取付穴
 41
0.9
100
AcDbText
  0
ENDBLK
  5
238C
330
2EFF
100
AcDbEntity
  8
0
100
AcDbBlockEnd
  0
BLOCK
  5
2F02
330
2F01
100
AcDbEntity
  8
0
100
AcDbBlockBegin
  2
*U70
 70
     1
 10
0.0
 20
0.0
 30
0.0
  3
*U70
  1

  0
INSERT
  5
2496
330
2F01
100
AcDbEntity
  8
NOTE
100
AcDbBlockReference
  2
_OPEN30
 10
0.0
 20
325.0
 30
0.0
 41
12.0
 42
12.0
 43
12.0
 50
312.6090116116897
  0
POLYLINE
  5
2497
330
2F01
100
AcDbEntity
  8
NOTE
100
AcDb2dPolyline
 66
     1
 10
0.0
 20
0.0
 30
0.0
  0
VERTEX
  5
2B3A
330
2497
100
AcDbEntity
  8
NOTE
100
AcDbVertex
100
AcDb2dVertex
 10
-8.12390083618952
 20
333.8318874089154
 30
0.0
  0
VERTEX
  5
2B3B
330
2497
100
AcDbEntity
  8
NOTE
100
AcDbVertex
100
AcDb2dVertex
 10
-87.86939999225436
 20
420.5270950580128
 30
0.0
  0
VERTEX
  5
2B3C
330
2497
100
AcDbEntity
  8
NOTE
100
AcDbVertex
100
AcDb2dVertex
 10
-633.7093999922545
 20
420.5270950580128
 30
0.0
  0
SEQEND
  5
2B3D
330
2497
100
AcDbEntity
  8
NOTE
  0
ENDBLK
  5
2498
330
2F01
100
AcDbEntity
  8
0
100
AcDbBlockEnd
  0
BLOCK
  5
2F04
330
2F03
100
AcDbEntity
  8
0
100
AcDbBlockBegin
  2
*U71
 70
     1
 10
0.0
 20
0.0
 30
0.0
  3
*U71
  1

  0
TEXT
  5
249B
330
2F03
100
AcDbEntity
  8
NOTE
100
AcDbText
 10
-633.7093999922545
 20
438.5270950580128
 30
0.0
 40
64.0
  1
4×φ15取付穴
 41
0.9
100
AcDbText
  0
ENDBLK
  5
249C
330
2F03
100
AcDbEntity
  8
0
100
AcDbBlockEnd
  0
BLOCK
  5
2F06
330
2F05
100
AcDbEntity
  8
0
100
AcDbBlockBegin
  2
*U72
 70
     1
 10
0.0
 20
0.0
 30
0.0
  3
*U72
  1

  0
INSERT
  5
25C1
330
2F05
100
AcDbEntity
  8
NOTE
100
AcDbBlockReference
  2
_OPEN30
 10
0.0
 20
325.0
 30
0.0
 41
12.0
 42
12.0
 43
12.0
 50
227.3909883883104
  0
POLYLINE
  5
25C2
330
2F05
100
AcDbEntity
  8
NOTE
100
AcDb2dPolyline
 66
     1
 10
0.0
 20
0.0
 30
0.0
  0
VERTEX
  5
2B3E
330
25C2
100
AcDbEntity
  8
NOTE
100
AcDbVertex
100
AcDb2dVertex
 10
8.12390083618952
 20
333.8318874089154
 30
0.0
  0
VERTEX
  5
2B3F
330
25C2
100
AcDbEntity
  8
NOTE
100
AcDbVertex
100
AcDb2dVertex
 10
87.86939999225436
 20
420.5270950580128
 30
0.0
  0
VERTEX
  5
2B40
330
25C2
100
AcDbEntity
  8
NOTE
100
AcDbVertex
100
AcDb2dVertex
 10
633.7093999922545
 20
420.5270950580128
 30
0.0
  0
SEQEND
  5
2B41
330
25C2
100
AcDbEntity
  8
NOTE
  0
ENDBLK
  5
25C3
330
2F05
100
AcDbEntity
  8
0
100
AcDbBlockEnd
  0
BLOCK
  5
2F08
330
2F07
100
AcDbEntity
  8
0
100
AcDbBlockBegin
  2
*U73
 70
     1
 10
0.0
 20
0.0
 30
0.0
  3
*U73
  1

  0
TEXT
  5
25C6
330
2F07
100
AcDbEntity
  8
NOTE
100
AcDbText
 10
149.8693999922543
 20
438.5270950580128
 30
0.0
 40
64.0
  1
4×φ15取付穴
 41
0.9
100
AcDbText
  0
ENDBLK
  5
25C7
330
2F07
100
AcDbEntity
  8
0
100
AcDbBlockEnd
  0
BLOCK
  5
2F0A
330
2F09
100
AcDbEntity
  8
0
100
AcDbBlockBegin
  2
*U74
 70
     1
 10
0.0
 20
0.0
 30
0.0
  3
*U74
  1

  0
INSERT
  5
26F0
330
2F09
100
AcDbEntity
  8
NOTE
100
AcDbBlockReference
  2
_OPEN30
 10
-325.0
 20
0.0
 30
0.0
 41
12.0
 42
12.0
 43
12.0
 50
312.6090116116895
  0
POLYLINE
  5
26F1
330
2F09
100
AcDbEntity
  8
NOTE
100
AcDb2dPolyline
 66
     1
 10
0.0
 20
0.0
 30
0.0
  0
VERTEX
  5
2B42
330
26F1
100
AcDbEntity
  8
NOTE
100
AcDbVertex
100
AcDb2dVertex
 10
-333.1239008361895
 20
8.831887408915461
 30
0.0
  0
VERTEX
  5
2B43
330
26F1
100
AcDbEntity
  8
NOTE
100
AcDbVertex
100
AcDb2dVertex
 10
-412.8693999922544
 20
95.52709505801338
 30
0.0
  0
VERTEX
  5
2B44
330
26F1
100
AcDbEntity
  8
NOTE
100
AcDbVertex
100
AcDb2dVertex
 10
-958.7093999922547
 20
95.52709505801338
 30
0.0
  0
SEQEND
  5
2B45
330
26F1
100
AcDbEntity
  8
NOTE
  0
ENDBLK
  5
26F2
330
2F09
100
AcDbEntity
  8
0
100
AcDbBlockEnd
  0
BLOCK
  5
2F0C
330
2F0B
100
AcDbEntity
  8
0
100
AcDbBlockBegin
  2
*U75
 70
     1
 10
0.0
 20
0.0
 30
0.0
  3
*U75
  1

  0
TEXT
  5
26F5
330
2F0B
100
AcDbEntity
  8
NOTE
100
AcDbText
 10
-958.7093999922547
 20
113.5270950580134
 30
0.0
 40
64.0
  1
4×φ15取付穴
 41
0.9
100
AcDbText
  0
ENDBLK
  5
26F6
330
2F0B
100
AcDbEntity
  8
0
100
AcDbBlockEnd
  0
BLOCK
  5
2F0E
330
2F0D
100
AcDbEntity
  8
0
100
AcDbBlockBegin
  2
*X76
 70
     1
 10
0.0
 20
0.0
 30
0.0
  3
*X76
  1

  0
LINE
  5
26F9
330
2F0D
100
AcDbEntity
  8
0
 62
     0
100
AcDbLine
 10
293.3388046616856
 20
-644.2000000000007
 30
0.0
 11
295.699999999988
 21
-642.6258737940443
 31
0.0
  0
LINE
  5
26FA
330
2F0D
100
AcDbEntity
  8
0
 62
     0
100
AcDbLine
 10
288.8388433677956
 20
-644.2000000000042
 30
0.0
 11
295.699999999988
 21
-639.6259072586307
 31
0.0
  0
LINE
  5
26FB
330
2F0D
100
AcDbEntity
  8
0
 62
     0
100
AcDbLine
 10
284.3388820739128
 20
-644.2000000000025
 30
0.0
 11
295.699999999988
 21
-636.6259407232136
 31
0.0
  0
LINE
  5
26FC
330
2F0D
100
AcDbEntity
  8
0
 62
     0
100
AcDbLine
 10
279.8389207800247
 20
-644.2000000000042
 30
0.0
 11
295.699999999988
 21
-633.6259741877966
 31
0.0
  0
LINE
  5
26FD
330
2F0D
100
AcDbEntity
  8
0
 62
     0
100
AcDbLine
 10
275.3389594861401
 20
-644.2000000000025
 30
0.0
 11
295.699999999988
 21
-630.6260076523813
 31
0.0
  0
LINE
  5
26FE
330
2F0D
100
AcDbEntity
  8
0
 62
     0
100
AcDbLine
 10
270.8389981922537
 20
-644.2000000000025
 30
0.0
 11
295.699999999988
 21
-627.6260411169623
 31
0.0
  0
LINE
  5
26FF
330
2F0D
100
AcDbEntity
  8
0
 62
     0
100
AcDbLine
 10
266.339036898371
 20
-644.2000000000025
 30
0.0
 11
295.699999999988
 21
-624.6260745815487
 31
0.0
  0
LINE
  5
2700
330
2F0D
100
AcDbEntity
  8
0
 62
     0
100
AcDbLine
 10
261.8390756044828
 20
-644.2000000000025
 30
0.0
 11
295.699999999988
 21
-621.6261080461315
 31
0.0
  0
LINE
  5
2701
330
2F0D
100
AcDbEntity
  8
0
 62
     0
100
AcDbLine
 10
257.3391143105983
 20
-644.2000000000042
 30
0.0
 11
295.699999999988
 21
-618.6261415107162
 31
0.0
  0
LINE
  5
2702
330
2F0D
100
AcDbEntity
  8
0
 62
     0
100
AcDbLine
 10
252.8391530167137
 20
-644.2000000000007
 30
0.0
 11
295.699999999988
 21
-615.6261749752992
 31
0.0
  0
LINE
  5
2703
330
2F0D
100
AcDbEntity
  8
0
 62
     0
100
AcDbLine
 10
248.3391917228273
 20
-644.2000000000025
 30
0.0
 11
295.6999999999898
 21
-612.6262084398823
 31
0.0
  0
LINE
  5
2704
330
2F0D
100
AcDbEntity
  8
0
 62
     0
100
AcDbLine
 10
243.8392304289446
 20
-644.2000000000007
 30
0.0
 11
295.699999999988
 21
-609.626241904467
 31
0.0
  0
LINE
  5
2705
330
2F0D
100
AcDbEntity
  8
0
 62
     0
100
AcDbLine
 10
239.3392691350545
 20
-644.2000000000042
 30
0.0
 11
295.6999999999898
 21
-606.6262753690515
 31
0.0
  0
LINE
  5
2706
330
2F0D
100
AcDbEntity
  8
0
 62
     0
100
AcDbLine
 10
234.83930784117
 20
-644.2000000000025
 30
0.0
 11
295.6999999999862
 21
-603.6263088336345
 31
0.0
  0
LINE
  5
2707
330
2F0D
100
AcDbEntity
  8
0
 62
     0
100
AcDbLine
 10
230.3393465472855
 20
-644.2000000000025
 30
0.0
 11
295.6999999999898
 21
-600.6263422982192
 31
0.0
  0
LINE
  5
2708
330
2F0D
100
AcDbEntity
  8
0
 62
     0
100
AcDbLine
 10
225.8393852534027
 20
-644.2000000000007
 30
0.0
 11
295.699999999988
 21
-597.6263757628021
 31
0.0
  0
LINE
  5
2709
330
2F0D
100
AcDbEntity
  8
0
 62
     0
100
AcDbLine
 10
221.3394239595127
 20
-644.2000000000042
 30
0.0
 11
295.6999999999898
 21
-594.6264092273868
 31
0.0
  0
LINE
  5
270A
330
2F0D
100
AcDbEntity
  8
0
 62
     0
100
AcDbLine
 10
216.8394626656282
 20
-644.2000000000025
 30
0.0
 11
295.6999999999898
 21
-591.6264426919696
 31
0.0
  0
LINE
  5
270B
330
2F0D
100
AcDbEntity
  8
0
 62
     0
100
AcDbLine
 10
212.3395013717436
 20
-644.2000000000025
 30
0.0
 11
295.6999999999898
 21
-588.6264761565525
 31
0.0
  0
LINE
  5
270C
330
2F0D
100
AcDbEntity
  8
0
 62
     0
100
AcDbLine
 10
207.8395400778572
 20
-644.2000000000025
 30
0.0
 11
295.6999999999898
 21
-585.626509621137
 31
0.0
  0
LINE
  5
270D
330
2F0D
100
AcDbEntity
  8
0
 62
     0
100
AcDbLine
 10
203.3395787839727
 20
-644.2000000000007
 30
0.0
 11
295.699999999988
 21
-582.6265430857201
 31
0.0
  0
LINE
  5
270E
330
2F0D
100
AcDbEntity
  8
0
 62
     0
100
AcDbLine
 10
198.8396174900863
 20
-644.2000000000025
 30
0.0
 11
295.6999999999898
 21
-579.6265765503049
 31
0.0
  0
LINE
  5
270F
330
2F0D
100
AcDbEntity
  8
0
 62
     0
100
AcDbLine
 10
194.3396561962036
 20
-644.2000000000007
 30
0.0
 11
295.699999999988
 21
-576.6266100148896
 31
0.0
  0
LINE
  5
2710
330
2F0D
100
AcDbEntity
  8
0
 62
     0
100
AcDbLine
 10
189.8396949023153
 20
-644.2000000000042
 30
0.0
 11
295.6999999999898
 21
-573.6266434794725
 31
0.0
  0
LINE
  5
2711
330
2F0D
100
AcDbEntity
  8
0
 62
     0
100
AcDbLine
 10
185.3397336084308
 20
-644.2000000000007
 30
0.0
 11
295.699999999988
 21
-570.6266769440569
 31
0.0
  0
LINE
  5
2712
330
2F0D
100
AcDbEntity
  8
0
 62
     0
100
AcDbLine
 10
180.8397723145444
 20
-644.2000000000025
 30
0.0
 11
295.6999999999898
 21
-567.6267104086401
 31
0.0
  0
LINE
  5
2713
330
2F0D
100
AcDbEntity
  8
0
 62
     0
100
AcDbLine
 10
176.3398110206617
 20
-644.2000000000007
 30
0.0
 11
295.6999999999898
 21
-564.626743873223
 31
0.0
  0
LINE
  5
2714
330
2F0D
100
AcDbEntity
  8
0
 62
     0
100
AcDbLine
 10
171.8398497267717
 20
-644.2000000000042
 30
0.0
 11
295.6999999999916
 21
-561.6267773378058
 31
0.0
  0
LINE
  5
2715
330
2F0D
100
AcDbEntity
  8
0
 62
     0
100
AcDbLine
 10
167.339888432889
 20
-644.2000000000025
 30
0.0
 11
295.6999999999935
 21
-558.6268108023887
 31
0.0
  0
LINE
  5
2716
330
2F0D
100
AcDbEntity
  8
0
 62
     0
100
AcDbLine
 10
162.8399271390008
 20
-644.2000000000025
 30
0.0
 11
295.6999999999916
 21
-555.6268442669751
 31
0.0
  0
LINE
  5
2717
330
2F0D
100
AcDbEntity
  8
0
 62
     0
100
AcDbLine
 10
158.3399658451199
 20
-644.2000000000007
 30
0.0
 11
295.6999999999935
 21
-552.6268777315562
 31
0.0
  0
LINE
  5
2718
330
2F0D
100
AcDbEntity
  8
0
 62
     0
100
AcDbLine
 10
153.8400045512299
 20
-644.2000000000025
 30
0.0
 11
295.6999999999916
 21
-549.6269111961407
 31
0.0
  0
LINE
  5
2719
330
2F0D
100
AcDbEntity
  8
0
 62
     0
100
AcDbLine
 10
149.3400432573471
 20
-644.2000000000025
 30
0.0
 11
295.6999999999935
 21
-546.6269446607237
 31
0.0
  0
LINE
  5
271A
330
2F0D
100
AcDbEntity
  8
0
 62
     0
100
AcDbLine
 10
144.8400819634607
 20
-644.2000000000025
 30
0.0
 11
295.6999999999935
 21
-543.6269781253066
 31
0.0
  0
LINE
  5
271B
330
2F0D
100
AcDbEntity
  8
0
 62
     0
100
AcDbLine
 10
140.3401206695725
 20
-644.2000000000025
 30
0.0
 11
295.6999999999916
 21
-540.6270115898933
 31
0.0
  0
LINE
  5
271C
330
2F0D
100
AcDbEntity
  8
0
 62
     0
100
AcDbLine
 10
135.8401593756898
 20
-644.2000000000007
 30
0.0
 11
295.6999999999935
 21
-537.6270450544743
 31
0.0
  0
LINE
  5
271D
330
2F0D
100
AcDbEntity
  8
0
 62
     0
100
AcDbLine
 10
131.3401980818034
 20
-644.2000000000025
 30
0.0
 11
295.6999999999916
 21
-534.6270785190609
 31
0.0
  0
LINE
  5
271E
330
2F0D
100
AcDbEntity
  8
0
 62
     0
100
AcDbLine
 10
126.8402367879189
 20
-644.2000000000007
 30
0.0
 11
295.6999999999916
 21
-531.6271119836419
 31
0.0
  0
LINE
  5
271F
330
2F0D
100
AcDbEntity
  8
0
 62
     0
100
AcDbLine
 10
122.3402754940307
 20
-644.2000000000042
 30
0.0
 11
295.6999999999916
 21
-528.6271454482282
 31
0.0
  0
LINE
  5
2720
330
2F0D
100
AcDbEntity
  8
0
 62
     0
100
AcDbLine
 10
117.8403142001462
 20
-644.2000000000007
 30
0.0
 11
295.6999999999916
 21
-525.6271789128112
 31
0.0
  0
LINE
  5
2721
330
2F0D
100
AcDbEntity
  8
0
 62
     0
100
AcDbLine
 10
113.3403529062616
 20
-644.2000000000025
 30
0.0
 11
295.6999999999953
 21
-522.6272123773942
 31
0.0
  0
LINE
  5
2722
330
2F0D
100
AcDbEntity
  8
0
 62
     0
100
AcDbLine
 10
108.840391612377
 20
-644.2000000000007
 30
0.0
 11
295.6999999999916
 21
-519.6272458419789
 31
0.0
  0
LINE
  5
2723
330
2F0D
100
AcDbEntity
  8
0
 62
     0
100
AcDbLine
 10
104.3404303184888
 20
-644.2000000000042
 30
0.0
 11
295.6999999999935
 21
-516.6272793065616
 31
0.0
  0
LINE
  5
2724
330
2F0D
100
AcDbEntity
  8
0
 62
     0
100
AcDbLine
 10
99.84046902460432
 20
-644.2000000000025
 30
0.0
 11
295.6999999999916
 21
-513.6273127711464
 31
0.0
  0
LINE
  5
2725
330
2F0D
100
AcDbEntity
  8
0
 62
     0
100
AcDbLine
 10
95.34050773071795
 20
-644.2000000000007
 30
0.0
 11
295.6999999999916
 21
-510.6273462357274
 31
0.0
  0
LINE
  5
2726
330
2F0D
100
AcDbEntity
  8
0
 62
     0
100
AcDbLine
 10
90.8405464368352
 20
-644.2000000000007
 30
0.0
 11
295.6999999999916
 21
-507.627379700314
 31
0.0
  0
LINE
  5
2727
330
2F0D
100
AcDbEntity
  8
0
 62
     0
100
AcDbLine
 10
86.34058514294883
 20
-644.2000000000007
 30
0.0
 11
295.6999999999916
 21
-504.6274131648968
 31
0.0
  0
LINE
  5
2728
330
2F0D
100
AcDbEntity
  8
0
 62
     0
100
AcDbLine
 10
81.84062384906429
 20
-644.2000000000025
 30
0.0
 11
295.6999999999953
 21
-501.6274466294799
 31
0.0
  0
LINE
  5
2729
330
2F0D
100
AcDbEntity
  8
0
 62
     0
100
AcDbLine
 10
77.34066255517973
 20
-644.2000000000007
 30
0.0
 11
295.6999999999916
 21
-498.6274800940645
 31
0.0
  0
LINE
  5
272A
330
2F0D
100
AcDbEntity
  8
0
 62
     0
100
AcDbLine
 10
72.84070126129155
 20
-644.2000000000025
 30
0.0
 11
295.6999999999953
 21
-495.6275135586475
 31
0.0
  0
LINE
  5
272B
330
2F0D
100
AcDbEntity
  8
0
 62
     0
100
AcDbLine
 10
68.34073996740698
 20
-644.2000000000007
 30
0.0
 11
295.6999999999916
 21
-492.6275470232321
 31
0.0
  0
LINE
  5
272C
330
2F0D
100
AcDbEntity
  8
0
 62
     0
100
AcDbLine
 10
63.84077867352061
 20
-644.2000000000025
 30
0.0
 11
295.6999999999935
 21
-489.6275804878168
 31
0.0
  0
LINE
  5
272D
330
2F0D
100
AcDbEntity
  8
0
 62
     0
100
AcDbLine
 10
59.34081737963788
 20
-644.2000000000007
 30
0.0
 11
295.6999999999916
 21
-486.6276139523994
 31
0.0
  0
LINE
  5
272E
330
2F0D
100
AcDbEntity
  8
0
 62
     0
100
AcDbLine
 10
54.84085608574787
 20
-644.2000000000042
 30
0.0
 11
295.6999999999935
 21
-483.6276474169844
 31
0.0
  0
LINE
  5
272F
330
2F0D
100
AcDbEntity
  8
0
 62
     0
100
AcDbLine
 10
50.34089479186332
 20
-644.2000000000007
 30
0.0
 11
295.6999999999898
 21
-480.6276808815673
 31
0.0
  0
LINE
  5
2730
330
2F0D
100
AcDbEntity
  8
0
 62
     0
100
AcDbLine
 10
45.84093349797877
 20
-644.2000000000025
 30
0.0
 11
295.6999999999935
 21
-477.6277143461519
 31
0.0
  0
LINE
  5
2731
330
2F0D
100
AcDbEntity
  8
0
 62
     0
100
AcDbLine
 10
41.34097220409603
 20
-644.2000000000007
 30
0.0
 11
295.6999999999916
 21
-474.6277478107367
 31
0.0
  0
LINE
  5
2732
330
2F0D
100
AcDbEntity
  8
0
 62
     0
100
AcDbLine
 10
36.84101091020603
 20
-644.2000000000025
 30
0.0
 11
295.6999999999935
 21
-471.6277812753177
 31
0.0
  0
LINE
  5
2733
330
2F0D
100
AcDbEntity
  8
0
 62
     0
100
AcDbLine
 10
32.34104961632147
 20
-644.2000000000025
 30
0.0
 11
295.6999999999935
 21
-468.6278147399025
 31
0.0
  0
LINE
  5
2734
330
2F0D
100
AcDbEntity
  8
0
 62
     0
100
AcDbLine
 10
27.84108832243692
 20
-644.2000000000007
 30
0.0
 11
295.6999999999935
 21
-465.6278482044855
 31
0.0
  0
LINE
  5
2735
330
2F0D
100
AcDbEntity
  8
0
 62
     0
100
AcDbLine
 10
23.34112702854874
 20
-644.2000000000025
 30
0.0
 11
295.6999999999935
 21
-462.6278816690696
 31
0.0
  0
LINE
  5
2736
330
2F0D
100
AcDbEntity
  8
0
 62
     0
100
AcDbLine
 10
18.84116573466599
 20
-644.2000000000007
 30
0.0
 11
295.6999999999916
 21
-459.6279151336547
 31
0.0
  0
LINE
  5
2737
330
2F0D
100
AcDbEntity
  8
0
 62
     0
100
AcDbLine
 10
14.34120444077962
 20
-644.2000000000025
 30
0.0
 11
295.6999999999935
 21
-456.6279485982375
 31
0.0
  0
LINE
  5
2738
330
2F0D
100
AcDbEntity
  8
0
 62
     0
100
AcDbLine
 10
9.841243146895068
 20
-644.2000000000007
 30
0.0
 11
295.6999999999916
 21
-453.6279820628223
 31
0.0
  0
LINE
  5
2739
330
2F0D
100
AcDbEntity
  8
0
 62
     0
100
AcDbLine
 10
5.341281853006876
 20
-644.2000000000042
 30
0.0
 11
295.6999999999935
 21
-450.6280155274053
 31
0.0
  0
LINE
  5
273A
330
2F0D
100
AcDbEntity
  8
0
 62
     0
100
AcDbLine
 10
0.8413205591241419
 20
-644.2000000000007
 30
0.0
 11
295.6999999999935
 21
-447.6280489919878
 31
0.0
  0
LINE
  5
273B
330
2F0D
100
AcDbEntity
  8
0
 62
     0
100
AcDbLine
 10
-3.658640734762228
 20
-644.2000000000025
 30
0.0
 11
295.6999999999935
 21
-444.6280824565747
 31
0.0
  0
LINE
  5
273C
330
2F0D
100
AcDbEntity
  8
0
 62
     0
100
AcDbLine
 10
-8.158602028646784
 20
-644.2000000000007
 30
0.0
 11
295.6999999999935
 21
-441.6281159211557
 31
0.0
  0
LINE
  5
273D
330
2F0D
100
AcDbEntity
  8
0
 62
     0
100
AcDbLine
 10
-12.65856332253679
 20
-644.2000000000042
 30
0.0
 11
295.6999999999916
 21
-438.6281493857421
 31
0.0
  0
LINE
  5
273E
330
2F0D
100
AcDbEntity
  8
0
 62
     0
100
AcDbLine
 10
-17.15852461641771
 20
-644.2000000000007
 30
0.0
 11
295.6999999999935
 21
-435.6281828503234
 31
0.0
  0
LINE
  5
273F
330
2F0D
100
AcDbEntity
  8
0
 62
     0
100
AcDbLine
 10
-21.6584859103059
 20
-644.2000000000007
 30
0.0
 11
295.6999999999916
 21
-432.6282163149079
 31
0.0
  0
LINE
  5
2740
330
2F0D
100
AcDbEntity
  8
0
 62
     0
100
AcDbLine
 10
-26.15844720419045
 20
-644.2000000000025
 30
0.0
 11
295.6999999999935
 21
-429.6282497794924
 31
0.0
  0
LINE
  5
2741
330
2F0D
100
AcDbEntity
  8
0
 62
     0
100
AcDbLine
 10
-30.658408498075
 20
-644.2000000000007
 30
0.0
 11
295.6999999999953
 21
-426.6282832440737
 31
0.0
  0
LINE
  5
2742
330
2F0D
100
AcDbEntity
  8
0
 62
     0
100
AcDbLine
 10
-35.15836979195956
 20
-644.2000000000025
 30
0.0
 11
295.6999999999935
 21
-423.6283167086599
 31
0.0
  0
LINE
  5
2743
330
2F0D
100
AcDbEntity
  8
0
 62
     0
100
AcDbLine
 10
-39.65833108584775
 20
-644.2000000000007
 30
0.0
 11
295.6999999999953
 21
-420.6283501732413
 31
0.0
  0
LINE
  5
2744
330
2F0D
100
AcDbEntity
  8
0
 62
     0
100
AcDbLine
 10
-44.15829237973411
 20
-644.2000000000025
 30
0.0
 11
295.6999999999916
 21
-417.6283836378279
 31
0.0
  0
LINE
  5
2745
330
2F0D
100
AcDbEntity
  8
0
 62
     0
100
AcDbLine
 10
-48.65825367361686
 20
-644.2000000000007
 30
0.0
 11
295.6999999999953
 21
-414.628417102409
 31
0.0
  0
LINE
  5
2746
330
2F0D
100
AcDbEntity
  8
0
 62
     0
100
AcDbLine
 10
-53.15821496750323
 20
-644.2000000000025
 30
0.0
 11
295.6999999999916
 21
-411.6284505669955
 31
0.0
  0
LINE
  5
2747
330
2F0D
100
AcDbEntity
  8
0
 62
     0
100
AcDbLine
 10
-57.65817626138778
 20
-644.2000000000007
 30
0.0
 11
295.6999999999935
 21
-408.6284840315783
 31
0.0
  0
LINE
  5
2748
330
2F0D
100
AcDbEntity
  8
0
 62
     0
100
AcDbLine
 10
-62.15813755527596
 20
-644.2000000000042
 30
0.0
 11
295.6999999999953
 21
-405.6285174961613
 31
0.0
  0
LINE
  5
2749
330
2F0D
100
AcDbEntity
  8
0
 62
     0
100
AcDbLine
 10
-66.65809884916052
 20
-644.2000000000007
 30
0.0
 11
295.6999999999935
 21
-402.6285509607458
 31
0.0
  0
LINE
  5
274A
330
2F0D
100
AcDbEntity
  8
0
 62
     0
100
AcDbLine
 10
-71.15806014304507
 20
-644.2000000000025
 30
0.0
 11
295.6999999999953
 21
-399.6285844253289
 31
0.0
  0
LINE
  5
274B
330
2F0D
100
AcDbEntity
  8
0
 62
     0
100
AcDbLine
 10
-75.65802143693328
 20
-644.2000000000025
 30
0.0
 11
295.6999999999916
 21
-396.6286178899137
 31
0.0
  0
LINE
  5
274C
330
2F0D
100
AcDbEntity
  8
0
 62
     0
100
AcDbLine
 10
-80.15798273081779
 20
-644.2000000000042
 30
0.0
 11
295.6999999999953
 21
-393.6286513544983
 31
0.0
  0
LINE
  5
274D
330
2F0D
100
AcDbEntity
  8
0
 62
     0
100
AcDbLine
 10
-84.65794402470237
 20
-644.2000000000007
 30
0.0
 11
295.6999999999953
 21
-390.6286848190794
 31
0.0
  0
LINE
  5
274E
330
2F0D
100
AcDbEntity
  8
0
 62
     0
100
AcDbLine
 10
-89.15790531858869
 20
-644.2000000000007
 30
0.0
 11
295.6999999999935
 21
-387.6287182836641
 31
0.0
  0
LINE
  5
274F
330
2F0D
100
AcDbEntity
  8
0
 62
     0
100
AcDbLine
 10
-93.6578666124751
 20
-644.2000000000025
 30
0.0
 11
295.6999999999953
 21
-384.6287517482468
 31
0.0
  0
LINE
  5
2750
330
2F0D
100
AcDbEntity
  8
0
 62
     0
100
AcDbLine
 10
-98.15782790635786
 20
-644.2000000000007
 30
0.0
 11
295.6999999999953
 21
-381.6287852128298
 31
0.0
  0
LINE
  5
2751
330
2F0D
100
AcDbEntity
  8
0
 62
     0
100
AcDbLine
 10
-102.6577892002442
 20
-644.2000000000025
 30
0.0
 11
295.6999999999953
 21
-378.6288186774164
 31
0.0
  0
LINE
  5
2752
330
2F0D
100
AcDbEntity
  8
0
 62
     0
100
AcDbLine
 10
-107.1577504941306
 20
-644.2000000000025
 30
0.0
 11
295.6999999999953
 21
-375.6288521419975
 31
0.0
  0
LINE
  5
2753
330
2F0D
100
AcDbEntity
  8
0
 62
     0
100
AcDbLine
 10
-111.657711788017
 20
-644.2000000000025
 30
0.0
 11
295.6999999999953
 21
-372.6288856065839
 31
0.0
  0
LINE
  5
2754
330
2F0D
100
AcDbEntity
  8
0
 62
     0
100
AcDbLine
 10
-116.1576730818997
 20
-644.2000000000007
 30
0.0
 11
295.6999999999953
 21
-369.628919071165
 31
0.0
  0
LINE
  5
2755
330
2F0D
100
AcDbEntity
  8
0
 62
     0
100
AcDbLine
 10
-120.6576343757878
 20
-644.2000000000025
 30
0.0
 11
295.6999999999971
 21
-366.6289525357496
 31
0.0
  0
LINE
  5
2756
330
2F0D
100
AcDbEntity
  8
0
 62
     0
100
AcDbLine
 10
-125.1575956696724
 20
-644.2000000000025
 30
0.0
 11
295.6999999999953
 21
-363.6289860003344
 31
0.0
  0
LINE
  5
2757
330
2F0D
100
AcDbEntity
  8
0
 62
     0
100
AcDbLine
 10
-129.6575569635606
 20
-644.2000000000042
 30
0.0
 11
295.6999999999971
 21
-360.6290194649172
 31
0.0
  0
LINE
  5
2758
330
2F0D
100
AcDbEntity
  8
0
 62
     0
100
AcDbLine
 10
-134.1575182574433
 20
-644.2000000000007
 30
0.0
 11
295.6999999999935
 21
-357.629052929502
 31
0.0
  0
LINE
  5
2759
330
2F0D
100
AcDbEntity
  8
0
 62
     0
100
AcDbLine
 10
-138.6574795513297
 20
-644.2000000000025
 30
0.0
 11
295.6999999999971
 21
-354.6290863940849
 31
0.0
  0
LINE
  5
275A
330
2F0D
100
AcDbEntity
  8
0
 62
     0
100
AcDbLine
 10
-143.1574408452143
 20
-644.2000000000025
 30
0.0
 11
295.6999999999953
 21
-351.6291198586696
 31
0.0
  0
LINE
  5
275B
330
2F0D
100
AcDbEntity
  8
0
 62
     0
100
AcDbLine
 10
-147.6574021391007
 20
-644.2000000000025
 30
0.0
 11
295.6999999999971
 21
-348.6291533232507
 31
0.0
  0
LINE
  5
275C
330
2F0D
100
AcDbEntity
  8
0
 62
     0
100
AcDbLine
 10
-152.1573634329852
 20
-644.2000000000025
 30
0.0
 11
295.6999999999935
 21
-345.6291867878372
 31
0.0
  0
LINE
  5
275D
330
2F0D
100
AcDbEntity
  8
0
 62
     0
100
AcDbLine
 10
-156.6573247268716
 20
-644.2000000000007
 30
0.0
 11
295.6999999999971
 21
-342.6292202524201
 31
0.0
  0
LINE
  5
275E
330
2F0D
100
AcDbEntity
  8
0
 62
     0
100
AcDbLine
 10
-161.1572860207579
 20
-644.2000000000025
 30
0.0
 11
295.6999999999971
 21
-339.629253717003
 31
0.0
  0
LINE
  5
275F
330
2F0D
100
AcDbEntity
  8
0
 62
     0
100
AcDbLine
 10
-165.6572473146424
 20
-644.2000000000007
 30
0.0
 11
295.6999999999953
 21
-336.6292871815876
 31
0.0
  0
LINE
  5
2760
330
2F0D
100
AcDbEntity
  8
0
 62
     0
100
AcDbLine
 10
-170.157208608527
 20
-644.2000000000025
 30
0.0
 11
295.6999999999971
 21
-333.6293206461705
 31
0.0
  0
LINE
  5
2761
330
2F0D
100
AcDbEntity
  8
0
 62
     0
100
AcDbLine
 10
-174.6571699024152
 20
-644.2000000000025
 30
0.0
 11
295.6999999999953
 21
-330.6293541107552
 31
0.0
  0
LINE
  5
2762
330
2F0D
100
AcDbEntity
  8
0
 62
     0
100
AcDbLine
 10
-179.1571311962998
 20
-644.2000000000025
 30
0.0
 11
295.6999999999971
 21
-327.6293875753399
 31
0.0
  0
LINE
  5
2763
330
2F0D
100
AcDbEntity
  8
0
 62
     0
100
AcDbLine
 10
-183.6570924901844
 20
-644.2000000000007
 30
0.0
 11
295.6999999999953
 21
-324.6294210399228
 31
0.0
  0
LINE
  5
2764
330
2F0D
100
AcDbEntity
  8
0
 62
     0
100
AcDbLine
 10
-188.1570537840688
 20
-644.2000000000025
 30
0.0
 11
295.6999999999971
 21
-321.6294545045075
 31
0.0
  0
LINE
  5
2765
330
2F0D
100
AcDbEntity
  8
0
 62
     0
100
AcDbLine
 10
-192.6570150779571
 20
-644.2000000000025
 30
0.0
 11
295.6999999999953
 21
-318.6294879690904
 31
0.0
  0
LINE
  5
2766
330
2F0D
100
AcDbEntity
  8
0
 62
     0
100
AcDbLine
 10
-197.1569763718435
 20
-644.2000000000042
 30
0.0
 11
295.6999999999953
 21
-315.6295214336751
 31
0.0
  0
LINE
  5
2767
330
2F0D
100
AcDbEntity
  8
0
 62
     0
100
AcDbLine
 10
-201.6569376657261
 20
-644.2000000000007
 30
0.0
 11
295.6999999999971
 21
-312.629554898258
 31
0.0
  0
LINE
  5
2768
330
2F0D
100
AcDbEntity
  8
0
 62
     0
100
AcDbLine
 10
-206.1568989596126
 20
-644.2000000000007
 30
0.0
 11
295.6999999999953
 21
-309.6295883628409
 31
0.0
  0
LINE
  5
2769
330
2F0D
100
AcDbEntity
  8
0
 62
     0
100
AcDbLine
 10
291.2444213637045
 20
-309.6000000000004
 30
0.0
 11
295.6999999999953
 21
-306.6296218274274
 31
0.0
  0
LINE
  5
276A
330
2F0D
100
AcDbEntity
  8
0
 62
     0
100
AcDbLine
 10
-210.6568602534971
 20
-644.2000000000025
 30
0.0
 11
291.2444213637045
 21
-309.6000000000004
 31
0.0
  0
LINE
  5
276B
330
2F0D
100
AcDbEntity
  8
0
 62
     0
100
AcDbLine
 10
286.74446006982
 20
-309.5999999999985
 30
0.0
 11
295.6999999999916
 21
-303.6296552920123
 31
0.0
  0
LINE
  5
276C
330
2F0D
100
AcDbEntity
  8
0
 62
     0
100
AcDbLine
 10
-215.1568215473817
 20
-644.2000000000007
 30
0.0
 11
286.7444600698183
 21
-309.6000000000004
 31
0.0
  0
LINE
  5
276D
330
2F0D
100
AcDbEntity
  8
0
 62
     0
100
AcDbLine
 10
282.2444987759354
 20
-309.6000000000004
 30
0.0
 11
295.6999999999953
 21
-300.6296887565949
 31
0.0
  0
LINE
  5
276E
330
2F0D
100
AcDbEntity
  8
0
 62
     0
100
AcDbLine
 10
-219.6567828412681
 20
-644.2000000000025
 30
0.0
 11
282.2444987759354
 21
-309.6000000000004
 31
0.0
  0
LINE
  5
276F
330
2F0D
100
AcDbEntity
  8
0
 62
     0
100
AcDbLine
 10
277.7445374820492
 20
-309.6000000000004
 30
0.0
 11
295.6999999999916
 21
-297.6297222211797
 31
0.0
  0
LINE
  5
2770
330
2F0D
100
AcDbEntity
  8
0
 62
     0
100
AcDbLine
 10
-224.1567441351544
 20
-644.2000000000007
 30
0.0
 11
277.7445374820492
 21
-309.6000000000004
 31
0.0
  0
LINE
  5
2771
330
2F0D
100
AcDbEntity
  8
0
 62
     0
100
AcDbLine
 10
273.2445761881645
 20
-309.5999999999985
 30
0.0
 11
295.6999999999935
 21
-294.6297556857626
 31
0.0
  0
LINE
  5
2772
330
2F0D
100
AcDbEntity
  8
0
 62
     0
100
AcDbLine
 10
-228.6567054290408
 20
-644.2000000000025
 30
0.0
 11
273.2445761881645
 21
-309.5999999999985
 31
0.0
  0
LINE
  5
2773
330
2F0D
100
AcDbEntity
  8
0
 62
     0
100
AcDbLine
 10
268.7446148942763
 20
-309.6000000000004
 30
0.0
 11
295.6999999999916
 21
-291.6297891503473
 31
0.0
  0
LINE
  5
2774
330
2F0D
100
AcDbEntity
  8
0
 62
     0
100
AcDbLine
 10
-233.1566667229235
 20
-644.2000000000007
 30
0.0
 11
268.7446148942763
 21
-309.6000000000004
 31
0.0
  0
LINE
  5
2775
330
2F0D
100
AcDbEntity
  8
0
 62
     0
100
AcDbLine
 10
264.2446536003918
 20
-309.6000000000004
 30
0.0
 11
295.6999999999935
 21
-288.6298226149301
 31
0.0
  0
LINE
  5
2776
330
2F0D
100
AcDbEntity
  8
0
 62
     0
100
AcDbLine
 10
-237.6566280168117
 20
-644.2000000000025
 30
0.0
 11
264.2446536003918
 21
-309.6000000000004
 31
0.0
  0
LINE
  5
2777
330
2F0D
100
AcDbEntity
  8
0
 62
     0
100
AcDbLine
 10
259.7446923065054
 20
-309.6000000000004
 30
0.0
 11
295.6999999999935
 21
-285.6298560795131
 31
0.0
  0
LINE
  5
2778
330
2F0D
100
AcDbEntity
  8
0
 62
     0
100
AcDbLine
 10
-242.1565893106981
 20
-644.2000000000025
 30
0.0
 11
259.7446923065054
 21
-309.6000000000004
 31
0.0
  0
LINE
  5
2779
330
2F0D
100
AcDbEntity
  8
0
 62
     0
100
AcDbLine
 10
255.2447310126225
 20
-309.6000000000004
 30
0.0
 11
295.6999999999935
 21
-282.6298895440995
 31
0.0
  0
LINE
  5
277A
330
2F0D
100
AcDbEntity
  8
0
 62
     0
100
AcDbLine
 10
-246.6565506045827
 20
-644.2000000000025
 30
0.0
 11
255.2447310126225
 21
-309.6000000000004
 31
0.0
  0
LINE
  5
277B
330
2F0D
100
AcDbEntity
  8
0
 62
     0
100
AcDbLine
 10
250.7447697187345
 20
-309.6000000000022
 30
0.0
 11
295.6999999999953
 21
-279.6299230086806
 31
0.0
  0
LINE
  5
277C
330
2F0D
100
AcDbEntity
  8
0
 62
     0
100
AcDbLine
 10
-251.1565118984654
 20
-644.2000000000007
 30
0.0
 11
250.7447697187345
 21
-309.6000000000022
 31
0.0
  0
LINE
  5
277D
330
2F0D
100
AcDbEntity
  8
0
 62
     0
100
AcDbLine
 10
246.2448084248499
 20
-309.6000000000004
 30
0.0
 11
295.6999999999916
 21
-276.6299564732672
 31
0.0
  0
LINE
  5
277E
330
2F0D
100
AcDbEntity
  8
0
 62
     0
100
AcDbLine
 10
-255.6564731923554
 20
-644.2000000000042
 30
0.0
 11
246.2448084248499
 21
-309.6000000000004
 31
0.0
  0
LINE
  5
277F
330
2F0D
100
AcDbEntity
  8
0
 62
     0
100
AcDbLine
 10
241.7448471309636
 20
-309.6000000000004
 30
0.0
 11
295.6999999999935
 21
-273.6299899378482
 31
0.0
  0
LINE
  5
2780
330
2F0D
100
AcDbEntity
  8
0
 62
     0
100
AcDbLine
 10
-260.15643448624
 20
-644.2000000000025
 30
0.0
 11
241.7448471309636
 21
-309.6000000000004
 31
0.0
  0
LINE
  5
2781
330
2F0D
100
AcDbEntity
  8
0
 62
     0
100
AcDbLine
 10
237.2448858370772
 20
-309.6000000000004
 30
0.0
 11
295.6999999999916
 21
-270.6300234024329
 31
0.0
  0
LINE
  5
2782
330
2F0D
100
AcDbEntity
  8
0
 62
     0
100
AcDbLine
 10
-264.6563957801244
 20
-644.2000000000025
 30
0.0
 11
237.2448858370772
 21
-309.6000000000004
 31
0.0
  0
LINE
  5
2783
330
2F0D
100
AcDbEntity
  8
0
 62
     0
100
AcDbLine
 10
232.7449245431908
 20
-309.6000000000022
 30
0.0
 11
295.6999999999935
 21
-267.6300568670176
 31
0.0
  0
LINE
  5
2784
330
2F0D
100
AcDbEntity
  8
0
 62
     0
100
AcDbLine
 10
-269.1563570740091
 20
-644.2000000000007
 30
0.0
 11
232.7449245431908
 21
-309.6000000000022
 31
0.0
  0
LINE
  5
2785
330
2F0D
100
AcDbEntity
  8
0
 62
     0
100
AcDbLine
 10
228.2449632493062
 20
-309.6000000000004
 30
0.0
 11
295.6999999999898
 21
-264.6300903316005
 31
0.0
  0
LINE
  5
2786
330
2F0D
100
AcDbEntity
  8
0
 62
     0
100
AcDbLine
 10
-273.6563183678955
 20
-644.2000000000007
 30
0.0
 11
228.2449632493062
 21
-309.6000000000004
 31
0.0
  0
LINE
  5
2787
330
2F0D
100
AcDbEntity
  8
0
 62
     0
100
AcDbLine
 10
223.7450019554217
 20
-309.6000000000004
 30
0.0
 11
295.6999999999935
 21
-261.6301237961852
 31
0.0
  0
LINE
  5
2788
330
2F0D
100
AcDbEntity
  8
0
 62
     0
100
AcDbLine
 10
-278.1562796617818
 20
-644.2000000000025
 30
0.0
 11
223.7450019554217
 21
-309.6000000000004
 31
0.0
  0
LINE
  5
2789
330
2F0D
100
AcDbEntity
  8
0
 62
     0
100
AcDbLine
 10
219.2450406615335
 20
-309.6000000000004
 30
0.0
 11
295.6999999999898
 21
-258.6301572607699
 31
0.0
  0
LINE
  5
278A
330
2F0D
100
AcDbEntity
  8
0
 62
     0
100
AcDbLine
 10
-282.6562409556664
 20
-644.2000000000007
 30
0.0
 11
219.2450406615335
 21
-309.6000000000004
 31
0.0
  0
LINE
  5
278B
330
2F0D
100
AcDbEntity
  8
0
 62
     0
100
AcDbLine
 10
214.7450793676526
 20
-309.6000000000004
 30
0.0
 11
295.6999999999935
 21
-255.6301907253528
 31
0.0
  0
LINE
  5
278C
330
2F0D
100
AcDbEntity
  8
0
 62
     0
100
AcDbLine
 10
-287.1562022495508
 20
-644.2000000000025
 30
0.0
 11
214.7450793676526
 21
-309.6000000000004
 31
0.0
  0
LINE
  5
278D
330
2F0D
100
AcDbEntity
  8
0
 62
     0
100
AcDbLine
 10
210.2451180737644
 20
-309.6000000000004
 30
0.0
 11
295.6999999999935
 21
-252.6302241899357
 31
0.0
  0
LINE
  5
278E
330
2F0D
100
AcDbEntity
  8
0
 62
     0
100
AcDbLine
 10
-291.6561635434372
 20
-644.2000000000007
 30
0.0
 11
210.2451180737644
 21
-309.6000000000004
 31
0.0
  0
LINE
  5
278F
330
2F0D
100
AcDbEntity
  8
0
 62
     0
100
AcDbLine
 10
205.7451567798817
 20
-309.6000000000004
 30
0.0
 11
295.6999999999935
 21
-249.6302576545204
 31
0.0
  0
LINE
  5
2790
330
2F0D
100
AcDbEntity
  8
0
 62
     0
100
AcDbLine
 10
-295.7000000000044
 20
-643.8959175516082
 30
0.0
 11
205.7451567798817
 21
-309.6000000000004
 31
0.0
  0
LINE
  5
2791
330
2F0D
100
AcDbEntity
  8
0
 62
     0
100
AcDbLine
 10
201.2451954859916
 20
-309.6000000000004
 30
0.0
 11
295.6999999999935
 21
-246.6302911191033
 31
0.0
  0
LINE
  5
2792
330
2F0D
100
AcDbEntity
  8
0
 62
     0
100
AcDbLine
 10
-295.7000000000044
 20
-640.8959510161897
 30
0.0
 11
201.2451954859916
 21
-309.6000000000004
 31
0.0
  0
LINE
  5
2793
330
2F0D
100
AcDbEntity
  8
0
 62
     0
100
AcDbLine
 10
196.7452341921088
 20
-309.6000000000004
 30
0.0
 11
295.6999999999916
 21
-243.630324583688
 31
0.0
  0
LINE
  5
2794
330
2F0D
100
AcDbEntity
  8
0
 62
     0
100
AcDbLine
 10
-295.7000000000044
 20
-637.8959844807741
 30
0.0
 11
196.7452341921088
 21
-309.6000000000004
 31
0.0
  0
LINE
  5
2795
330
2F0D
100
AcDbEntity
  8
0
 62
     0
100
AcDbLine
 10
192.2452728982224
 20
-309.6000000000004
 30
0.0
 11
295.6999999999935
 21
-240.6303580482709
 31
0.0
  0
LINE
  5
2796
330
2F0D
100
AcDbEntity
  8
0
 62
     0
100
AcDbLine
 10
-295.7000000000044
 20
-634.896017945357
 30
0.0
 11
192.2452728982224
 21
-309.6000000000004
 31
0.0
  0
LINE
  5
2797
330
2F0D
100
AcDbEntity
  8
0
 62
     0
100
AcDbLine
 10
187.745311604336
 20
-309.6000000000022
 30
0.0
 11
295.6999999999916
 21
-237.6303915128573
 31
0.0
  0
LINE
  5
2798
330
2F0D
100
AcDbEntity
  8
0
 62
     0
100
AcDbLine
 10
-295.7000000000044
 20
-631.8960514099416
 30
0.0
 11
187.745311604336
 21
-309.6000000000022
 31
0.0
  0
LINE
  5
2799
330
2F0D
100
AcDbEntity
  8
0
 62
     0
100
AcDbLine
 10
183.2453503104479
 20
-309.6000000000022
 30
0.0
 11
295.6999999999916
 21
-234.6304249774385
 31
0.0
  0
LINE
  5
279A
330
2F0D
100
AcDbEntity
  8
0
 62
     0
100
AcDbLine
 10
-295.7000000000062
 20
-628.8960848745264
 30
0.0
 11
183.2453503104479
 21
-309.6000000000022
 31
0.0
  0
LINE
  5
279B
330
2F0D
100
AcDbEntity
  8
0
 62
     0
100
AcDbLine
 10
178.745389016567
 20
-309.5999999999985
 30
0.0
 11
295.6999999999935
 21
-231.6304584420213
 31
0.0
  0
LINE
  5
279C
330
2F0D
100
AcDbEntity
  8
0
 62
     0
100
AcDbLine
 10
-295.7000000000044
 20
-625.8961183391074
 30
0.0
 11
178.745389016567
 21
-309.5999999999985
 31
0.0
  0
LINE
  5
279D
330
2F0D
100
AcDbEntity
  8
0
 62
     0
100
AcDbLine
 10
174.2454277226807
 20
-309.6000000000004
 30
0.0
 11
295.6999999999935
 21
-228.630491906606
 31
0.0
  0
LINE
  5
279E
330
2F0D
100
AcDbEntity
  8
0
 62
     0
100
AcDbLine
 10
-295.7000000000044
 20
-622.896151803694
 30
0.0
 11
174.2454277226807
 21
-309.6000000000004
 31
0.0
  0
LINE
  5
279F
330
2F0D
100
AcDbEntity
  8
0
 62
     0
100
AcDbLine
 10
169.7454664287943
 20
-309.6000000000004
 30
0.0
 11
295.6999999999935
 21
-225.6305253711889
 31
0.0
  0
LINE
  5
27A0
330
2F0D
100
AcDbEntity
  8
0
 62
     0
100
AcDbLine
 10
-295.7000000000044
 20
-619.8961852682749
 30
0.0
 11
169.7454664287943
 21
-309.6000000000004
 31
0.0
  0
LINE
  5
27A1
330
2F0D
100
AcDbEntity
  8
0
 62
     0
100
AcDbLine
 10
165.2455051349097
 20
-309.6000000000004
 30
0.0
 11
295.6999999999916
 21
-222.6305588357754
 31
0.0
  0
LINE
  5
27A2
330
2F0D
100
AcDbEntity
  8
0
 62
     0
100
AcDbLine
 10
-295.7000000000025
 20
-616.8962187328596
 30
0.0
 11
165.2455051349097
 21
-309.6000000000004
 31
0.0
  0
LINE
  5
27A3
330
2F0D
100
AcDbEntity
  8
0
 62
     0
100
AcDbLine
 10
160.7455438410252
 20
-309.6000000000004
 30
0.0
 11
295.6999999999935
 21
-219.6305923003565
 31
0.0
  0
LINE
  5
27A4
330
2F0D
100
AcDbEntity
  8
0
 62
     0
100
AcDbLine
 10
-295.7000000000044
 20
-613.8962521974445
 30
0.0
 11
160.7455438410252
 21
-309.6000000000004
 31
0.0
  0
LINE
  5
27A5
330
2F0D
100
AcDbEntity
  8
0
 62
     0
100
AcDbLine
 10
156.2455825471406
 20
-309.5999999999985
 30
0.0
 11
295.6999999999916
 21
-216.630625764943
 31
0.0
  0
LINE
  5
27A6
330
2F0D
100
AcDbEntity
  8
0
 62
     0
100
AcDbLine
 10
-295.7000000000025
 20
-610.8962856620272
 30
0.0
 11
156.245582547137
 21
-309.6000000000004
 31
0.0
  0
LINE
  5
27A7
330
2F0D
100
AcDbEntity
  8
0
 62
     0
100
AcDbLine
 10
151.7456212532506
 20
-309.6000000000004
 30
0.0
 11
295.6999999999916
 21
-213.6306592295241
 31
0.0
  0
LINE
  5
27A8
330
2F0D
100
AcDbEntity
  8
0
 62
     0
100
AcDbLine
 10
-295.7000000000062
 20
-607.8963191266121
 30
0.0
 11
151.7456212532506
 21
-309.6000000000004
 31
0.0
  0
LINE
  5
27A9
330
2F0D
100
AcDbEntity
  8
0
 62
     0
100
AcDbLine
 10
147.2456599593679
 20
-309.6000000000004
 30
0.0
 11
295.699999999988
 21
-210.6306926941124
 31
0.0
  0
LINE
  5
27AA
330
2F0D
100
AcDbEntity
  8
0
 62
     0
100
AcDbLine
 10
-295.7000000000025
 20
-604.896352591195
 30
0.0
 11
147.2456599593679
 21
-309.6000000000004
 31
0.0
  0
LINE
  5
27AB
330
2F0D
100
AcDbEntity
  8
0
 62
     0
100
AcDbLine
 10
142.7456986654815
 20
-309.6000000000004
 30
0.0
 11
295.6999999999898
 21
-207.6307261586953
 31
0.0
  0
LINE
  5
27AC
330
2F0D
100
AcDbEntity
  8
0
 62
     0
100
AcDbLine
 10
-295.7000000000062
 20
-601.8963860557795
 30
0.0
 11
142.7456986654815
 21
-309.6000000000004
 31
0.0
  0
LINE
  5
27AD
330
2F0D
100
AcDbEntity
  8
0
 62
     0
100
AcDbLine
 10
138.2457373715952
 20
-309.6000000000022
 30
0.0
 11
295.699999999988
 21
-204.63075962328
 31
0.0
  0
LINE
  5
27AE
330
2F0D
100
AcDbEntity
  8
0
 62
     0
100
AcDbLine
 10
-295.7000000000025
 20
-598.8964195203642
 30
0.0
 11
138.2457373715952
 21
-309.6000000000022
 31
0.0
  0
LINE
  5
27AF
330
2F0D
100
AcDbEntity
  8
0
 62
     0
100
AcDbLine
 10
133.7457760777088
 20
-309.6000000000004
 30
0.0
 11
295.6999999999898
 21
-201.6307930878629
 31
0.0
  0
LINE
  5
27B0
330
2F0D
100
AcDbEntity
  8
0
 62
     0
100
AcDbLine
 10
-295.7000000000062
 20
-595.8964529849472
 30
0.0
 11
133.7457760777088
 21
-309.6000000000004
 31
0.0
  0
LINE
  5
27B1
330
2F0D
100
AcDbEntity
  8
0
 62
     0
100
AcDbLine
 10
129.245814783826
 20
-309.6000000000004
 30
0.0
 11
295.699999999988
 21
-198.6308265524494
 31
0.0
  0
LINE
  5
27B2
330
2F0D
100
AcDbEntity
  8
0
 62
     0
100
AcDbLine
 10
-295.7000000000025
 20
-592.896486449532
 30
0.0
 11
129.245814783826
 21
-309.6000000000004
 31
0.0
  0
LINE
  5
27B3
330
2F0D
100
AcDbEntity
  8
0
 62
     0
100
AcDbLine
 10
124.7458534899397
 20
-309.6000000000004
 30
0.0
 11
295.6999999999898
 21
-195.6308600170305
 31
0.0
  0
LINE
  5
27B4
330
2F0D
100
AcDbEntity
  8
0
 62
     0
100
AcDbLine
 10
-295.7000000000062
 20
-589.8965199141147
 30
0.0
 11
124.745853489936
 21
-309.6000000000022
 31
0.0
  0
LINE
  5
27B5
330
2F0D
100
AcDbEntity
  8
0
 62
     0
100
AcDbLine
 10
120.2458921960515
 20
-309.6000000000004
 30
0.0
 11
295.6999999999898
 21
-192.6308934816134
 31
0.0
  0
LINE
  5
27B6
330
2F0D
100
AcDbEntity
  8
0
 62
     0
100
AcDbLine
 10
-295.7000000000044
 20
-586.8965533786977
 30
0.0
 11
120.2458921960515
 21
-309.6000000000004
 31
0.0
  0
LINE
  5
27B7
330
2F0D
100
AcDbEntity
  8
0
 62
     0
100
AcDbLine
 10
115.7459309021669
 20
-309.6000000000022
 30
0.0
 11
295.6999999999898
 21
-189.6309269461981
 31
0.0
  0
LINE
  5
27B8
330
2F0D
100
AcDbEntity
  8
0
 62
     0
100
AcDbLine
 10
-295.7000000000025
 20
-583.8965868432824
 30
0.0
 11
115.7459309021669
 21
-309.6000000000022
 31
0.0
  0
LINE
  5
27B9
330
2F0D
100
AcDbEntity
  8
0
 62
     0
100
AcDbLine
 10
111.2459696082824
 20
-309.5999999999985
 30
0.0
 11
295.6999999999898
 21
-186.630960410781
 31
0.0
  0
LINE
  5
27BA
330
2F0D
100
AcDbEntity
  8
0
 62
     0
100
AcDbLine
 10
-295.7000000000044
 20
-580.8966203078652
 30
0.0
 11
111.2459696082824
 21
-309.5999999999985
 31
0.0
  0
LINE
  5
27BB
330
2F0D
100
AcDbEntity
  8
0
 62
     0
100
AcDbLine
 10
106.7460083143978
 20
-309.6000000000004
 30
0.0
 11
295.6999999999898
 21
-183.6309938753657
 31
0.0
  0
LINE
  5
27BC
330
2F0D
100
AcDbEntity
  8
0
 62
     0
100
AcDbLine
 10
-295.7000000000025
 20
-577.89665377245
 30
0.0
 11
106.7460083143978
 21
-309.6000000000004
 31
0.0
  0
LINE
  5
27BD
330
2F0D
100
AcDbEntity
  8
0
 62
     0
100
AcDbLine
 10
102.2460470205096
 20
-309.6000000000004
 30
0.0
 11
295.6999999999898
 21
-180.6310273399485
 31
0.0
  0
LINE
  5
27BE
330
2F0D
100
AcDbEntity
  8
0
 62
     0
100
AcDbLine
 10
-295.7000000000044
 20
-574.8966872370329
 30
0.0
 11
102.2460470205096
 21
-309.6000000000004
 31
0.0
  0
LINE
  5
27BF
330
2F0D
100
AcDbEntity
  8
0
 62
     0
100
AcDbLine
 10
97.74608572662872
 20
-309.6000000000004
 30
0.0
 11
295.6999999999898
 21
-177.6310608045351
 31
0.0
  0
LINE
  5
27C0
330
2F0D
100
AcDbEntity
  8
0
 62
     0
100
AcDbLine
 10
-295.7000000000025
 20
-571.8967207016175
 30
0.0
 11
97.74608572662872
 21
-309.6000000000004
 31
0.0
  0
LINE
  5
27C1
330
2F0D
100
AcDbEntity
  8
0
 62
     0
100
AcDbLine
 10
93.24612443274055
 20
-309.6000000000004
 30
0.0
 11
295.6999999999898
 21
-174.6310942691161
 31
0.0
  0
LINE
  5
27C2
330
2F0D
100
AcDbEntity
  8
0
 62
     0
100
AcDbLine
 10
-295.7000000000044
 20
-568.896754166202
 30
0.0
 11
93.24612443273872
 21
-309.6000000000022
 31
0.0
  0
LINE
  5
27C3
330
2F0D
100
AcDbEntity
  8
0
 62
     0
100
AcDbLine
 10
88.74616313885415
 20
-309.6000000000004
 30
0.0
 11
295.6999999999898
 21
-171.6311277337008
 31
0.0
  0
LINE
  5
27C4
330
2F0D
100
AcDbEntity
  8
0
 62
     0
100
AcDbLine
 10
-295.7000000000044
 20
-565.8967876307849
 30
0.0
 11
88.74616313885415
 21
-309.6000000000004
 31
0.0
  0
LINE
  5
27C5
330
2F0D
100
AcDbEntity
  8
0
 62
     0
100
AcDbLine
 10
84.24620184496779
 20
-309.6000000000004
 30
0.0
 11
295.6999999999898
 21
-168.6311611982837
 31
0.0
  0
LINE
  5
27C6
330
2F0D
100
AcDbEntity
  8
0
 62
     0
100
AcDbLine
 10
-295.7000000000044
 20
-562.8968210953697
 30
0.0
 11
84.24620184496779
 21
-309.6000000000004
 31
0.0
  0
LINE
  5
27C7
330
2F0D
100
AcDbEntity
  8
0
 62
     0
100
AcDbLine
 10
79.899999999996
 20
-309.4974939624772
 30
0.0
 11
295.699999999988
 21
-165.6311946628702
 31
0.0
  0
LINE
  5
27C8
330
2F0D
100
AcDbEntity
  8
0
 62
     0
100
AcDbLine
 10
-295.7000000000044
 20
-559.8968545599527
 30
0.0
 11
79.89999999999056
 21
-309.4974939624826
 31
0.0
  0
LINE
  5
27C9
330
2F0D
100
AcDbEntity
  8
0
 62
     0
100
AcDbLine
 10
79.89999999999419
 20
-306.4975274270619
 30
0.0
 11
295.699999999988
 21
-162.6312281274531
 31
0.0
  0
LINE
  5
27CA
330
2F0D
100
AcDbEntity
  8
0
 62
     0
100
AcDbLine
 10
-295.700000000008
 20
-556.8968880245375
 30
0.0
 11
79.89999999998872
 21
-306.4975274270655
 31
0.0
  0
LINE
  5
27CB
330
2F0D
100
AcDbEntity
  8
0
 62
     0
100
AcDbLine
 10
79.899999999996
 20
-303.4975608916466
 30
0.0
 11
295.6999999999898
 21
-159.631261592036
 31
0.0
  0
LINE
  5
27CC
330
2F0D
100
AcDbEntity
  8
0
 62
     0
100
AcDbLine
 10
-295.7000000000044
 20
-553.8969214891221
 30
0.0
 11
79.89999999999056
 21
-303.4975608916502
 31
0.0
  0
LINE
  5
27CD
330
2F0D
100
AcDbEntity
  8
0
 62
     0
100
AcDbLine
 10
79.899999999996
 20
-300.4975943562294
 30
0.0
 11
295.6999999999898
 21
-156.6312950566207
 31
0.0
  0
LINE
  5
27CE
330
2F0D
100
AcDbEntity
  8
0
 62
     0
100
AcDbLine
 10
-295.7000000000025
 20
-550.8969549537031
 30
0.0
 11
79.89999999999056
 21
-300.4975943562349
 31
0.0
  0
LINE
  5
27CF
330
2F0D
100
AcDbEntity
  8
0
 62
     0
100
AcDbLine
 10
79.899999999996
 20
-297.4976278208123
 30
0.0
 11
295.6999999999898
 21
-153.6313285212018
 31
0.0
  0
LINE
  5
27D0
330
2F0D
100
AcDbEntity
  8
0
 62
     0
100
AcDbLine
 10
-295.7000000000044
 20
-547.896988418288
 30
0.0
 11
79.89999999999056
 21
-297.497627820816
 31
0.0
  0
LINE
  5
27D1
330
2F0D
100
AcDbEntity
  8
0
 62
     0
100
AcDbLine
 10
79.8999999999978
 20
-294.4976612853952
 30
0.0
 11
295.699999999988
 21
-150.6313619857882
 31
0.0
  0
LINE
  5
27D2
330
2F0D
100
AcDbEntity
  8
0
 62
     0
100
AcDbLine
 10
-295.7000000000044
 20
-544.8970218828708
 30
0.0
 11
79.89999999998872
 21
-294.4976612854025
 31
0.0
  0
LINE
  5
27D3
330
2F0D
100
AcDbEntity
  8
0
 62
     0
100
AcDbLine
 10
79.899999999996
 20
-291.4976947499799
 30
0.0
 11
295.6999999999898
 21
-147.6313954503712
 31
0.0
  0
LINE
  5
27D4
330
2F0D
100
AcDbEntity
  8
0
 62
     0
100
AcDbLine
 10
-295.7000000000044
 20
-541.8970553474555
 30
0.0
 11
79.89999999999056
 21
-291.4976947499836
 31
0.0
  0
LINE
  5
27D5
330
2F0D
100
AcDbEntity
  8
0
 62
     0
100
AcDbLine
 10
79.8999999999978
 20
-288.4977282145646
 30
0.0
 11
295.699999999988
 21
-144.6314289149559
 31
0.0
  0
LINE
  5
27D6
330
2F0D
100
AcDbEntity
  8
0
 62
     0
100
AcDbLine
 10
-295.7000000000044
 20
-538.8970888120383
 30
0.0
 11
79.89999999998872
 21
-288.49772821457
 31
0.0
  0
LINE
  5
27D7
330
2F0D
100
AcDbEntity
  8
0
 62
     0
100
AcDbLine
 10
79.89999999999419
 20
-285.4977616791475
 30
0.0
 11
295.699999999988
 21
-141.6314623795388
 31
0.0
  0
LINE
  5
27D8
330
2F0D
100
AcDbEntity
  8
0
 62
     0
100
AcDbLine
 10
-295.7000000000062
 20
-535.8971222766231
 30
0.0
 11
79.89999999998872
 21
-285.497761679153
 31
0.0
  0
LINE
  5
27D9
330
2F0D
100
AcDbEntity
  8
0
 62
     0
100
AcDbLine
 10
79.8999999999978
 20
-282.4977951437323
 30
0.0
 11
295.699999999988
 21
-138.6314958441235
 31
0.0
  0
LINE
  5
27DA
330
2F0D
100
AcDbEntity
  8
0
 62
     0
100
AcDbLine
 10
-295.7000000000044
 20
-532.8971557412078
 30
0.0
 11
79.89999999999056
 21
-282.4977951437359
 31
0.0
  0
LINE
  5
27DB
330
2F0D
100
AcDbEntity
  8
0
 62
     0
100
AcDbLine
 10
79.89999999999419
 20
-279.4978286083169
 30
0.0
 11
295.699999999988
 21
-135.6315293087064
 31
0.0
  0
LINE
  5
27DC
330
2F0D
100
AcDbEntity
  8
0
 62
     0
100
AcDbLine
 10
-295.7000000000044
 20
-529.8971892057887
 30
0.0
 11
79.89999999998872
 21
-279.4978286083205
 31
0.0
  0
LINE
  5
27DD
330
2F0D
100
AcDbEntity
  8
0
 62
     0
100
AcDbLine
 10
79.8999999999978
 20
-276.4978620728998
 30
0.0
 11
295.699999999988
 21
-132.6315627732929
 31
0.0
  0
LINE
  5
27DE
330
2F0D
100
AcDbEntity
  8
0
 62
     0
100
AcDbLine
 10
-295.7000000000044
 20
-526.8972226703754
 30
0.0
 11
79.89999999999056
 21
-276.4978620729034
 31
0.0
  0
LINE
  5
27DF
330
2F0D
100
AcDbEntity
  8
0
 62
     0
100
AcDbLine
 10
79.89999999999419
 20
-273.4978955374844
 30
0.0
 11
295.699999999988
 21
-129.6315962378739
 31
0.0
  0
LINE
  5
27E0
330
2F0D
100
AcDbEntity
  8
0
 62
     0
100
AcDbLine
 10
-295.7000000000044
 20
-523.8972561349562
 30
0.0
 11
79.89999999999236
 21
-273.4978955374863
 31
0.0
  0
LINE
  5
27E1
330
2F0D
100
AcDbEntity
  8
0
 62
     0
100
AcDbLine
 10
79.8999999999978
 20
-270.4979290020674
 30
0.0
 11
295.6999999999898
 21
-126.6316297024586
 31
0.0
  0
LINE
  5
27E2
330
2F0D
100
AcDbEntity
  8
0
 62
     0
100
AcDbLine
 10
-295.7000000000044
 20
-520.897289599543
 30
0.0
 11
79.89999999999056
 21
-270.497929002071
 31
0.0
  0
LINE
  5
27E3
330
2F0D
100
AcDbEntity
  8
0
 62
     0
100
AcDbLine
 10
79.89999999999419
 20
-267.4979624666521
 30
0.0
 11
295.699999999988
 21
-123.6316631670415
 31
0.0
  0
LINE
  5
27E4
330
2F0D
100
AcDbEntity
  8
0
 62
     0
100
AcDbLine
 10
-295.7000000000044
 20
-517.8973230641258
 30
0.0
 11
79.89999999999236
 21
-267.4979624666539
 31
0.0
  0
LINE
  5
27E5
330
2F0D
100
AcDbEntity
  8
0
 62
     0
100
AcDbLine
 10
79.899999999996
 20
-264.497995931235
 30
0.0
 11
295.699999999988
 21
-120.6316966316262
 31
0.0
  0
LINE
  5
27E6
330
2F0D
100
AcDbEntity
  8
0
 62
     0
100
AcDbLine
 10
-295.7000000000062
 20
-514.8973565287104
 30
0.0
 11
79.89999999998872
 21
-264.4979959312404
 31
0.0
  0
LINE
  5
27E7
330
2F0D
100
AcDbEntity
  8
0
 62
     0
100
AcDbLine
 10
79.8999999999978
 20
-261.4980293958179
 30
0.0
 11
295.699999999988
 21
-117.6317300962109
 31
0.0
  0
LINE
  5
27E8
330
2F0D
100
AcDbEntity
  8
0
 62
     0
100
AcDbLine
 10
-295.7000000000044
 20
-511.8973899932934
 30
0.0
 11
79.89999999999236
 21
-261.4980293958215
 31
0.0
  0
LINE
  5
27E9
330
2F0D
100
AcDbEntity
  8
0
 62
     0
100
AcDbLine
 10
79.89999999999419
 20
-258.4980628604044
 30
0.0
 11
293.9476408664851
 21
-115.8000000000011
 31
0.0
  0
LINE
  5
27EA
330
2F0D
100
AcDbEntity
  8
0
 62
     0
100
AcDbLine
 10
-295.7000000000062
 20
-508.8974234578799
 30
0.0
 11
79.89999999998872
 21
-258.498062860408
 31
0.0
  0
LINE
  5
27EB
330
2F0D
100
AcDbEntity
  8
0
 62
     0
100
AcDbLine
 10
79.89999999999236
 20
-255.4980963249873
 30
0.0
 11
289.4476795725987
 21
-115.8000000000011
 31
0.0
  0
LINE
  5
27EC
330
2F0D
100
AcDbEntity
  8
0
 62
     0
100
AcDbLine
 10
-295.7000000000062
 20
-505.8974569224607
 30
0.0
 11
79.89999999998872
 21
-255.4980963249891
 31
0.0
  0
LINE
  5
27ED
330
2F0D
100
AcDbEntity
  8
0
 62
     0
100
AcDbLine
 10
79.89999999999419
 20
-252.4981297895702
 30
0.0
 11
284.9477182787122
 21
-115.8000000000011
 31
0.0
  0
LINE
  5
27EE
330
2F0D
100
AcDbEntity
  8
0
 62
     0
100
AcDbLine
 10
-295.7000000000062
 20
-502.8974903870455
 30
0.0
 11
79.89999999998872
 21
-252.4981297895738
 31
0.0
  0
LINE
  5
27EF
330
2F0D
100
AcDbEntity
  8
0
 62
     0
100
AcDbLine
 10
79.89999999999419
 20
-249.4981632541567
 30
0.0
 11
280.4477569848314
 21
-115.8000000000011
 31
0.0
  0
LINE
  5
27F0
330
2F0D
100
AcDbEntity
  8
0
 62
     0
100
AcDbLine
 10
-295.7000000000044
 20
-499.8975238516286
 30
0.0
 11
79.89999999999056
 21
-249.4981632541585
 31
0.0
  0
LINE
  5
27F1
330
2F0D
100
AcDbEntity
  8
0
 62
     0
100
AcDbLine
 10
79.89999999999419
 20
-246.4981967187378
 30
0.0
 11
275.9477956909432
 21
-115.8000000000011
 31
0.0
  0
LINE
  5
27F2
330
2F0D
100
AcDbEntity
  8
0
 62
     0
100
AcDbLine
 10
-295.7000000000025
 20
-496.8975573162114
 30
0.0
 11
79.89999999998872
 21
-246.4981967187414
 31
0.0
  0
LINE
  5
27F3
330
2F0D
100
AcDbEntity
  8
0
 62
     0
100
AcDbLine
 10
79.89999999999236
 20
-243.4982301833243
 30
0.0
 11
271.4478343970568
 21
-115.8000000000011
 31
0.0
  0
LINE
  5
27F4
330
2F0D
100
AcDbEntity
  8
0
 62
     0
100
AcDbLine
 10
-295.7000000000062
 20
-493.8975907807962
 30
0.0
 11
79.89999999998872
 21
-243.4982301833261
 31
0.0
  0
LINE
  5
27F5
330
2F0D
100
AcDbEntity
  8
0
 62
     0
100
AcDbLine
 10
79.89999999999419
 20
-240.4982636479053
 30
0.0
 11
266.9478731031741
 21
-115.7999999999993
 31
0.0
  0
LINE
  5
27F6
330
2F0D
100
AcDbEntity
  8
0
 62
     0
100
AcDbLine
 10
-295.7000000000025
 20
-490.8976242453791
 30
0.0
 11
79.89999999999236
 21
-240.4982636479072
 31
0.0
  0
LINE
  5
27F7
330
2F0D
100
AcDbEntity
  8
0
 62
     0
100
AcDbLine
 10
79.89999999999236
 20
-237.4982971124918
 30
0.0
 11
262.447911809284
 21
-115.8000000000029
 31
0.0
  0
LINE
  5
27F8
330
2F0D
100
AcDbEntity
  8
0
 62
     0
100
AcDbLine
 10
-295.7000000000062
 20
-487.8976577099655
 30
0.0
 11
79.89999999998872
 21
-237.4982971124937
 31
0.0
  0
LINE
  5
27F9
330
2F0D
100
AcDbEntity
  8
0
 62
     0
100
AcDbLine
 10
79.89999999999236
 20
-234.4983305770729
 30
0.0
 11
257.9479505153995
 21
-115.8000000000011
 31
0.0
  0
LINE
  5
27FA
330
2F0D
100
AcDbEntity
  8
0
 62
     0
100
AcDbLine
 10
-295.7000000000044
 20
-484.8976911745467
 30
0.0
 11
79.89999999999056
 21
-234.4983305770766
 31
0.0
  0
LINE
  5
27FB
330
2F0D
100
AcDbEntity
  8
0
 62
     0
100
AcDbLine
 10
79.89999999999236
 20
-231.4983640416595
 30
0.0
 11
253.4479892215149
 21
-115.8000000000029
 31
0.0
  0
LINE
  5
27FC
330
2F0D
100
AcDbEntity
  8
0
 62
     0
100
AcDbLine
 10
-295.7000000000062
 20
-481.8977246391332
 30
0.0
 11
79.89999999998872
 21
-231.4983640416613
 31
0.0
  0
LINE
  5
27FD
330
2F0D
100
AcDbEntity
  8
0
 62
     0
100
AcDbLine
 10
79.89999999999236
 20
-228.4983975062423
 30
0.0
 11
248.9480279276304
 21
-115.7999999999993
 31
0.0
  0
LINE
  5
27FE
330
2F0D
100
AcDbEntity
  8
0
 62
     0
100
AcDbLine
 10
-295.7000000000044
 20
-478.8977581037142
 30
0.0
 11
79.89999999999056
 21
-228.4983975062441
 31
0.0
  0
LINE
  5
27FF
330
2F0D
100
AcDbEntity
  8
0
 62
     0
100
AcDbLine
 10
79.899999999996
 20
-225.4984309708252
 30
0.0
 11
244.4480666337422
 21
-115.8000000000029
 31
0.0
  0
LINE
  5
2800
330
2F0D
100
AcDbEntity
  8
0
 62
     0
100
AcDbLine
 10
-295.7000000000062
 20
-475.8977915683007
 30
0.0
 11
79.89999999998872
 21
-225.4984309708289
 31
0.0
  0
LINE
  5
2801
330
2F0D
100
AcDbEntity
  8
0
 62
     0
100
AcDbLine
 10
79.89999999999236
 20
-222.4984644354099
 30
0.0
 11
239.9481053398576
 21
-115.8000000000011
 31
0.0
  0
LINE
  5
2802
330
2F0D
100
AcDbEntity
  8
0
 62
     0
100
AcDbLine
 10
-295.7000000000044
 20
-472.8978250328837
 30
0.0
 11
79.89999999999056
 21
-222.4984644354117
 31
0.0
  0
LINE
  5
2803
330
2F0D
100
AcDbEntity
  8
0
 62
     0
100
AcDbLine
 10
79.899999999996
 20
-219.4984978999928
 30
0.0
 11
235.4481440459731
 21
-115.8000000000029
 31
0.0
  0
LINE
  5
2804
330
2F0D
100
AcDbEntity
  8
0
 62
     0
100
AcDbLine
 10
-295.7000000000062
 20
-469.897858497468
 30
0.0
 11
79.89999999999236
 21
-219.4984978999964
 31
0.0
  0
LINE
  5
2805
330
2F0D
100
AcDbEntity
  8
0
 62
     0
100
AcDbLine
 10
79.89999999999236
 20
-216.4985313645775
 30
0.0
 11
230.9481827520849
 21
-115.8000000000029
 31
0.0
  0
LINE
  5
2806
330
2F0D
100
AcDbEntity
  8
0
 62
     0
100
AcDbLine
 10
-295.7000000000044
 20
-466.8978919620512
 30
0.0
 11
79.89999999999056
 21
-216.4985313645793
 31
0.0
  0
LINE
  5
2807
330
2F0D
100
AcDbEntity
  8
0
 62
     0
100
AcDbLine
 10
79.89999999999419
 20
-213.4985648291604
 30
0.0
 11
226.4482214582022
 21
-115.7999999999993
 31
0.0
  0
LINE
  5
2808
330
2F0D
100
AcDbEntity
  8
0
 62
     0
100
AcDbLine
 10
-295.7000000000044
 20
-463.8979254266323
 30
0.0
 11
79.89999999999056
 21
-213.4985648291622
 31
0.0
  0
LINE
  5
2809
330
2F0D
100
AcDbEntity
  8
0
 62
     0
100
AcDbLine
 10
79.89999999999236
 20
-210.4985982937451
 30
0.0
 11
221.9482601643158
 21
-115.8000000000011
 31
0.0
  0
LINE
  5
280A
330
2F0D
100
AcDbEntity
  8
0
 62
     0
100
AcDbLine
 10
-295.7000000000044
 20
-460.8979588912188
 30
0.0
 11
79.89999999999236
 21
-210.4985982937451
 31
0.0
  0
LINE
  5
280B
330
2F0D
100
AcDbEntity
  8
0
 62
     0
100
AcDbLine
 10
79.89999999999419
 20
-207.4986317583281
 30
0.0
 11
217.4482988704331
 21
-115.7999999999993
 31
0.0
  0
LINE
  5
280C
330
2F0D
100
AcDbEntity
  8
0
 62
     0
100
AcDbLine
 10
-295.7000000000044
 20
-457.8979923558017
 30
0.0
 11
79.89999999999419
 21
-207.4986317583281
 31
0.0
  0
LINE
  5
280D
330
2F0D
100
AcDbEntity
  8
0
 62
     0
100
AcDbLine
 10
79.89999999999236
 20
-204.4986652229127
 30
0.0
 11
212.9483375765448
 21
-115.8000000000029
 31
0.0
  0
LINE
  5
280E
330
2F0D
100
AcDbEntity
  8
0
 62
     0
100
AcDbLine
 10
-295.7000000000044
 20
-454.8980258203862
 30
0.0
 11
79.89999999999236
 21
-204.4986652229127
 31
0.0
  0
LINE
  5
280F
330
2F0D
100
AcDbEntity
  8
0
 62
     0
100
AcDbLine
 10
79.89999999999419
 20
-201.4986986874955
 30
0.0
 11
208.4483762826603
 21
-115.8000000000011
 31
0.0
  0
LINE
  5
2810
330
2F0D
100
AcDbEntity
  8
0
 62
     0
100
AcDbLine
 10
-295.7000000000044
 20
-451.8980592849692
 30
0.0
 11
79.89999999999419
 21
-201.4986986874955
 31
0.0
  0
LINE
  5
2811
330
2F0D
100
AcDbEntity
  8
0
 62
     0
100
AcDbLine
 10
79.89999999999236
 20
-198.4987321520821
 30
0.0
 11
203.9484149887739
 21
-115.8000000000011
 31
0.0
  0
LINE
  5
2812
330
2F0D
100
AcDbEntity
  8
0
 62
     0
100
AcDbLine
 10
-295.7000000000044
 20
-448.8980927495537
 30
0.0
 11
79.89999999999236
 21
-198.4987321520821
 31
0.0
  0
LINE
  5
2813
330
2F0D
100
AcDbEntity
  8
0
 62
     0
100
AcDbLine
 10
79.89999999999419
 20
-195.4987656166631
 30
0.0
 11
199.4484536948876
 21
-115.8000000000011
 31
0.0
  0
LINE
  5
2814
330
2F0D
100
AcDbEntity
  8
0
 62
     0
100
AcDbLine
 10
-295.7000000000044
 20
-445.8981262141368
 30
0.0
 11
79.89999999999419
 21
-195.4987656166631
 31
0.0
  0
LINE
  5
2815
330
2F0D
100
AcDbEntity
  8
0
 62
     0
100
AcDbLine
 10
79.89999999999419
 20
-192.4987990812478
 30
0.0
 11
194.9484924010012
 21
-115.8000000000029
 31
0.0
  0
LINE
  5
2816
330
2F0D
100
AcDbEntity
  8
0
 62
     0
100
AcDbLine
 10
-295.7000000000044
 20
-442.8981596787216
 30
0.0
 11
79.89999999999419
 21
-192.4987990812478
 31
0.0
  0
LINE
  5
2817
330
2F0D
100
AcDbEntity
  8
0
 62
     0
100
AcDbLine
 10
79.89999999999419
 20
-189.4988325458307
 30
0.0
 11
190.4485311071185
 21
-115.8000000000011
 31
0.0
  0
LINE
  5
2818
330
2F0D
100
AcDbEntity
  8
0
 62
     0
100
AcDbLine
 10
-295.7000000000044
 20
-439.8981931433045
 30
0.0
 11
79.89999999999419
 21
-189.4988325458307
 31
0.0
  0
LINE
  5
2819
330
2F0D
100
AcDbEntity
  8
0
 62
     0
100
AcDbLine
 10
79.89999999999419
 20
-186.4988660104154
 30
0.0
 11
185.9485698132303
 21
-115.8000000000029
 31
0.0
  0
LINE
  5
281A
330
2F0D
100
AcDbEntity
  8
0
 62
     0
100
AcDbLine
 10
-295.7000000000044
 20
-436.8982266078892
 30
0.0
 11
79.89999999999419
 21
-186.4988660104154
 31
0.0
  0
LINE
  5
281B
330
2F0D
100
AcDbEntity
  8
0
 62
     0
100
AcDbLine
 10
79.89999999999236
 20
-183.4988994750001
 30
0.0
 11
181.4486085193439
 21
-115.8000000000011
 31
0.0
  0
LINE
  5
281C
330
2F0D
100
AcDbEntity
  8
0
 62
     0
100
AcDbLine
 10
-295.7000000000062
 20
-433.898260072472
 30
0.0
 11
79.89999999999236
 21
-183.4988994750001
 31
0.0
  0
LINE
  5
281D
330
2F0D
100
AcDbEntity
  8
0
 62
     0
100
AcDbLine
 10
79.89999999999419
 20
-180.498932939583
 30
0.0
 11
176.9486472254593
 21
-115.8000000000029
 31
0.0
  0
LINE
  5
281E
330
2F0D
100
AcDbEntity
  8
0
 62
     0
100
AcDbLine
 10
-295.7000000000044
 20
-430.8982935370566
 30
0.0
 11
79.89999999999419
 21
-180.498932939583
 31
0.0
  0
LINE
  5
281F
330
2F0D
100
AcDbEntity
  8
0
 62
     0
100
AcDbLine
 10
79.89999999999419
 20
-177.4989664041676
 30
0.0
 11
172.4486859315765
 21
-115.8000000000011
 31
0.0
  0
LINE
  5
2820
330
2F0D
100
AcDbEntity
  8
0
 62
     0
100
AcDbLine
 10
-295.7000000000044
 20
-427.8983270016414
 30
0.0
 11
79.89999999999419
 21
-177.4989664041676
 31
0.0
  0
LINE
  5
2821
330
2F0D
100
AcDbEntity
  8
0
 62
     0
100
AcDbLine
 10
79.89999999999419
 20
-174.4989998687488
 30
0.0
 11
167.9487246376884
 21
-115.8000000000011
 31
0.0
  0
LINE
  5
2822
330
2F0D
100
AcDbEntity
  8
0
 62
     0
100
AcDbLine
 10
-295.7000000000044
 20
-424.8983604662225
 30
0.0
 11
79.89999999999419
 21
-174.4989998687488
 31
0.0
  0
LINE
  5
2823
330
2F0D
100
AcDbEntity
  8
0
 62
     0
100
AcDbLine
 10
79.89999999999419
 20
-171.4990333333335
 30
0.0
 11
163.448763343802
 21
-115.8000000000029
 31
0.0
  0
LINE
  5
2824
330
2F0D
100
AcDbEntity
  8
0
 62
     0
100
AcDbLine
 10
-295.7000000000062
 20
-421.8983939308091
 30
0.0
 11
79.89999999999236
 21
-171.4990333333353
 31
0.0
  0
LINE
  5
2825
330
2F0D
100
AcDbEntity
  8
0
 62
     0
100
AcDbLine
 10
79.89999999999419
 20
-168.4990667979181
 30
0.0
 11
158.9488020499193
 21
-115.7999999999993
 31
0.0
  0
LINE
  5
2826
330
2F0D
100
AcDbEntity
  8
0
 62
     0
100
AcDbLine
 10
-295.7000000000044
 20
-418.89842739539
 30
0.0
 11
79.89999999999419
 21
-168.4990667979181
 31
0.0
  0
LINE
  5
2827
330
2F0D
100
AcDbEntity
  8
0
 62
     0
100
AcDbLine
 10
79.89999999999419
 20
-165.4991002625011
 30
0.0
 11
154.4488407560328
 21
-115.8000000000011
 31
0.0
  0
LINE
  5
2828
330
2F0D
100
AcDbEntity
  8
0
 62
     0
100
AcDbLine
 10
-295.7000000000062
 20
-415.8984608599767
 30
0.0
 11
79.89999999999236
 21
-165.4991002625029
 31
0.0
  0
LINE
  5
2829
330
2F0D
100
AcDbEntity
  8
0
 62
     0
100
AcDbLine
 10
79.89999999999236
 20
-162.4991337270858
 30
0.0
 11
149.9488794621466
 21
-115.8000000000011
 31
0.0
  0
LINE
  5
282A
330
2F0D
100
AcDbEntity
  8
0
 62
     0
100
AcDbLine
 10
-295.7000000000062
 20
-412.8984943245596
 30
0.0
 11
79.89999999998872
 21
-162.4991337270875
 31
0.0
  0
LINE
  5
282B
330
2F0D
100
AcDbEntity
  8
0
 62
     0
100
AcDbLine
 10
79.89999999999419
 20
-159.4991671916687
 30
0.0
 11
145.4489181682602
 21
-115.8000000000029
 31
0.0
  0
LINE
  5
282C
330
2F0D
100
AcDbEntity
  8
0
 62
     0
100
AcDbLine
 10
-295.7000000000044
 20
-409.8985277891424
 30
0.0
 11
79.89999999999236
 21
-159.4991671916704
 31
0.0
  0
LINE
  5
282D
330
2F0D
100
AcDbEntity
  8
0
 62
     0
100
AcDbLine
 10
79.89999999999236
 20
-156.4992006562533
 30
0.0
 11
140.9489568743756
 21
-115.8000000000011
 31
0.0
  0
LINE
  5
282E
330
2F0D
100
AcDbEntity
  8
0
 62
     0
100
AcDbLine
 10
-295.7000000000062
 20
-406.8985612537272
 30
0.0
 11
79.89999999998872
 21
-156.4992006562552
 31
0.0
  0
LINE
  5
282F
330
2F0D
100
AcDbEntity
  8
0
 62
     0
100
AcDbLine
 10
79.89999999999419
 20
-153.4992341208381
 30
0.0
 11
136.4489955804874
 21
-115.8000000000047
 31
0.0
  0
LINE
  5
2830
330
2F0D
100
AcDbEntity
  8
0
 62
     0
100
AcDbLine
 10
-295.7000000000044
 20
-403.89859471831
 30
0.0
 11
79.89999999999236
 21
-153.4992341208399
 31
0.0
  0
LINE
  5
2831
330
2F0D
100
AcDbEntity
  8
0
 62
     0
100
AcDbLine
 10
79.89999999999236
 20
-150.4992675854209
 30
0.0
 11
131.9490342866047
 21
-115.8000000000011
 31
0.0
  0
LINE
  5
2832
330
2F0D
100
AcDbEntity
  8
0
 62
     0
100
AcDbLine
 10
-295.7000000000062
 20
-400.8986281828946
 30
0.0
 11
79.89999999998872
 21
-150.4992675854228
 31
0.0
  0
LINE
  5
2833
330
2F0D
100
AcDbEntity
  8
0
 62
     0
100
AcDbLine
 10
79.89999999999419
 20
-147.4993010500057
 30
0.0
 11
127.4490729927183
 21
-115.8000000000029
 31
0.0
  0
LINE
  5
2834
330
2F0D
100
AcDbEntity
  8
0
 62
     0
100
AcDbLine
 10
-295.7000000000044
 20
-397.8986616474776
 30
0.0
 11
79.89999999999236
 21
-147.4993010500075
 31
0.0
  0
LINE
  5
2835
330
2F0D
100
AcDbEntity
  8
0
 62
     0
100
AcDbLine
 10
79.89999999999236
 20
-144.4993345145885
 30
0.0
 11
122.9491116988338
 21
-115.8000000000011
 31
0.0
  0
LINE
  5
2836
330
2F0D
100
AcDbEntity
  8
0
 62
     0
100
AcDbLine
 10
-295.7000000000062
 20
-394.8986951120624
 30
0.0
 11
79.89999999998872
 21
-144.4993345145904
 31
0.0
  0
LINE
  5
2837
330
2F0D
100
AcDbEntity
  8
0
 62
     0
100
AcDbLine
 10
79.89999999999236
 20
-141.4993679791732
 30
0.0
 11
118.4491504049474
 21
-115.8000000000029
 31
0.0
  0
LINE
  5
2838
330
2F0D
100
AcDbEntity
  8
0
 62
     0
100
AcDbLine
 10
-295.7000000000062
 20
-391.8987285766471
 30
0.0
 11
79.89999999999056
 21
-141.4993679791751
 31
0.0
  0
LINE
  5
2839
330
2F0D
100
AcDbEntity
  8
0
 62
     0
100
AcDbLine
 10
79.89999999999419
 20
-138.4994014437542
 30
0.0
 11
113.9491891110629
 21
-115.8000000000029
 31
0.0
  0
LINE
  5
283A
330
2F0D
100
AcDbEntity
  8
0
 62
     0
100
AcDbLine
 10
-295.7000000000025
 20
-388.898762041228
 30
0.0
 11
79.89999999998872
 21
-138.4994014437598
 31
0.0
  0
LINE
  5
283B
330
2F0D
100
AcDbEntity
  8
0
 62
     0
100
AcDbLine
 10
79.89999999999236
 20
-135.499434908339
 30
0.0
 11
109.4492278171783
 21
-115.7999999999993
 31
0.0
  0
LINE
  5
283C
330
2F0D
100
AcDbEntity
  8
0
 62
     0
100
AcDbLine
 10
-295.7000000000062
 20
-385.8987955058128
 30
0.0
 11
79.89999999998872
 21
-135.4994349083408
 31
0.0
  0
LINE
  5
283D
330
2F0D
100
AcDbEntity
  8
0
 62
     0
100
AcDbLine
 10
79.89999999999236
 20
-132.4994683729237
 30
0.0
 11
104.9492665232883
 21
-115.8000000000029
 31
0.0
  0
LINE
  5
283E
330
2F0D
100
AcDbEntity
  8
0
 62
     0
100
AcDbLine
 10
-295.7000000000044
 20
-382.8988289703957
 30
0.0
 11
79.89999999999056
 21
-132.4994683729255
 31
0.0
  0
LINE
  5
283F
330
2F0D
100
AcDbEntity
  8
0
 62
     0
100
AcDbLine
 10
79.899999999996
 20
-129.4995018375048
 30
0.0
 11
100.4493052294056
 21
-115.8000000000011
 31
0.0
  0
LINE
  5
2840
330
2F0D
100
AcDbEntity
  8
0
 62
     0
100
AcDbLine
 10
-295.7000000000062
 20
-379.8988624349804
 30
0.0
 11
79.89999999998872
 21
-129.4995018375084
 31
0.0
  0
LINE
  5
2841
330
2F0D
100
AcDbEntity
  8
0
 62
     0
100
AcDbLine
 10
79.89999999999419
 20
-126.4995353020913
 30
0.0
 11
95.94934393552099
 21
-115.8000000000029
 31
0.0
  0
LINE
  5
2842
330
2F0D
100
AcDbEntity
  8
0
 62
     0
100
AcDbLine
 10
-295.7000000000025
 20
-376.8988958995651
 30
0.0
 11
79.89999999999236
 21
-126.4995353020931
 31
0.0
  0
LINE
  5
2843
330
2F0D
100
AcDbEntity
  8
0
 62
     0
100
AcDbLine
 10
79.899999999996
 20
-123.4995687666724
 30
0.0
 11
91.44938264163648
 21
-115.7999999999993
 31
0.0
  0
LINE
  5
2844
330
2F0D
100
AcDbEntity
  8
0
 62
     0
100
AcDbLine
 10
-295.7000000000062
 20
-373.8989293641481
 30
0.0
 11
79.89999999998872
 21
-123.4995687666778
 31
0.0
  0
LINE
  5
2845
330
2F0D
100
AcDbEntity
  8
0
 62
     0
100
AcDbLine
 10
79.89999999999236
 20
-120.4996022312589
 30
0.0
 11
86.94942134774645
 21
-115.8000000000029
 31
0.0
  0
LINE
  5
2846
330
2F0D
100
AcDbEntity
  8
0
 62
     0
100
AcDbLine
 10
-295.7000000000044
 20
-370.8989628287327
 30
0.0
 11
79.89999999999056
 21
-120.4996022312607
 31
0.0
  0
LINE
  5
2847
330
2F0D
100
AcDbEntity
  8
0
 62
     0
100
AcDbLine
 10
79.899999999996
 20
-117.4996356958418
 30
0.0
 11
82.44946005386371
 21
-115.8000000000011
 31
0.0
  0
LINE
  5
2848
330
2F0D
100
AcDbEntity
  8
0
 62
     0
100
AcDbLine
 10
-295.7000000000062
 20
-367.8989962933156
 30
0.0
 11
79.89999999998872
 21
-117.4996356958454
 31
0.0
  0
LINE
  5
2849
330
2F0D
100
AcDbEntity
  8
0
 62
     0
100
AcDbLine
 10
-295.7000000000044
 20
-364.8990297579002
 30
0.0
 11
77.94949875997736
 21
-115.8000000000029
 31
0.0
  0
LINE
  5
284A
330
2F0D
100
AcDbEntity
  8
0
 62
     0
100
AcDbLine
 10
-295.700000000008
 20
-361.899063222485
 30
0.0
 11
73.44953746608915
 21
-115.8000000000029
 31
0.0
  0
LINE
  5
284B
330
2F0D
100
AcDbEntity
  8
0
 62
     0
100
AcDbLine
 10
-295.7000000000044
 20
-358.8990966870678
 30
0.0
 11
68.94957617220462
 21
-115.8000000000047
 31
0.0
  0
LINE
  5
284C
330
2F0D
100
AcDbEntity
  8
0
 62
     0
100
AcDbLine
 10
-295.7000000000044
 20
-355.8991301516507
 30
0.0
 11
64.44961487832006
 21
-115.8000000000011
 31
0.0
  0
LINE
  5
284D
330
2F0D
100
AcDbEntity
  8
0
 62
     0
100
AcDbLine
 10
-295.7000000000044
 20
-352.8991636162355
 30
0.0
 11
59.9496535844355
 21
-115.8000000000029
 31
0.0
  0
LINE
  5
284E
330
2F0D
100
AcDbEntity
  8
0
 62
     0
100
AcDbLine
 10
-295.7000000000044
 20
-349.8991970808182
 30
0.0
 11
55.44969229054732
 21
-115.8000000000029
 31
0.0
  0
LINE
  5
284F
330
2F0D
100
AcDbEntity
  8
0
 62
     0
100
AcDbLine
 10
-295.7000000000044
 20
-346.8992305454031
 30
0.0
 11
50.9497309966664
 21
-115.8000000000011
 31
0.0
  0
LINE
  5
2850
330
2F0D
100
AcDbEntity
  8
0
 62
     0
100
AcDbLine
 10
-295.7000000000044
 20
-343.899264009986
 30
0.0
 11
46.44976970277821
 21
-115.8000000000029
 31
0.0
  0
LINE
  5
2851
330
2F0D
100
AcDbEntity
  8
0
 62
     0
100
AcDbLine
 10
-295.7000000000062
 20
-340.8992974745706
 30
0.0
 11
41.94980840889366
 21
-115.7999999999993
 31
0.0
  0
LINE
  5
2852
330
2F0D
100
AcDbEntity
  8
0
 62
     0
100
AcDbLine
 10
-295.7000000000044
 20
-337.8993309391535
 30
0.0
 11
37.44984711500547
 21
-115.8000000000029
 31
0.0
  0
LINE
  5
2853
330
2F0D
100
AcDbEntity
  8
0
 62
     0
100
AcDbLine
 10
-295.7000000000044
 20
-334.8993644037364
 30
0.0
 11
32.94988582112273
 21
-115.8000000000011
 31
0.0
  0
LINE
  5
2854
330
2F0D
100
AcDbEntity
  8
0
 62
     0
100
AcDbLine
 10
-295.7000000000044
 20
-331.8993978683228
 30
0.0
 11
28.44992452723636
 21
-115.8000000000029
 31
0.0
  0
LINE
  5
2855
330
2F0D
100
AcDbEntity
  8
0
 62
     0
100
AcDbLine
 10
-295.7000000000044
 20
-328.899431332904
 30
0.0
 11
23.94996323335363
 21
-115.7999999999993
 31
0.0
  0
LINE
  5
2856
330
2F0D
100
AcDbEntity
  8
0
 62
     0
100
AcDbLine
 10
-295.7000000000044
 20
-325.8994647974905
 30
0.0
 11
19.45000193946361
 21
-115.8000000000029
 31
0.0
  0
LINE
  5
2857
330
2F0D
100
AcDbEntity
  8
0
 62
     0
100
AcDbLine
 10
-295.7000000000044
 20
-322.8994982620716
 30
0.0
 11
14.95004064558088
 21
-115.8000000000011
 31
0.0
  0
LINE
  5
2858
330
2F0D
100
AcDbEntity
  8
0
 62
     0
100
AcDbLine
 10
-295.7000000000062
 20
-319.8995317266581
 30
0.0
 11
10.45007935169269
 21
-115.8000000000029
 31
0.0
  0
LINE
  5
2859
330
2F0D
100
AcDbEntity
  8
0
 62
     0
100
AcDbLine
 10
-295.7000000000044
 20
-316.8995651912409
 30
0.0
 11
5.95011805780814
 21
-115.8000000000029
 31
0.0
  0
LINE
  5
285A
330
2F0D
100
AcDbEntity
  8
0
 62
     0
100
AcDbLine
 10
-295.7000000000062
 20
-313.8995986558257
 30
0.0
 11
1.450156763923587
 21
-115.8000000000029
 31
0.0
  0
LINE
  5
285B
330
2F0D
100
AcDbEntity
  8
0
 62
     0
100
AcDbLine
 10
-295.7000000000062
 20
-310.8996321204086
 30
0.0
 11
-3.049804529962783
 21
-115.8000000000011
 31
0.0
  0
LINE
  5
285C
330
2F0D
100
AcDbEntity
  8
0
 62
     0
100
AcDbLine
 10
-295.7000000000062
 20
-307.8996655849914
 30
0.0
 11
-7.549765823845518
 21
-115.7999999999993
 31
0.0
  0
LINE
  5
285D
330
2F0D
100
AcDbEntity
  8
0
 62
     0
100
AcDbLine
 10
-295.7000000000044
 20
-304.8996990495762
 30
0.0
 11
-12.04972711773371
 21
-115.8000000000029
 31
0.0
  0
LINE
  5
285E
330
2F0D
100
AcDbEntity
  8
0
 62
     0
100
AcDbLine
 10
-295.7000000000044
 20
-301.8997325141572
 30
0.0
 11
-16.54968841161826
 21
-115.8000000000011
 31
0.0
  0
LINE
  5
285F
330
2F0D
100
AcDbEntity
  8
0
 62
     0
100
AcDbLine
 10
-295.7000000000062
 20
-298.8997659787438
 30
0.0
 11
-21.04964970550463
 21
-115.8000000000029
 31
0.0
  0
LINE
  5
2860
330
2F0D
100
AcDbEntity
  8
0
 62
     0
100
AcDbLine
 10
-295.7000000000044
 20
-295.8997994433266
 30
0.0
 11
-25.54961099938737
 21
-115.7999999999993
 31
0.0
  0
LINE
  5
2861
330
2F0D
100
AcDbEntity
  8
0
 62
     0
100
AcDbLine
 10
-295.7000000000062
 20
-292.8998329079113
 30
0.0
 11
-30.04957229327737
 21
-115.8000000000029
 31
0.0
  0
LINE
  5
2862
330
2F0D
100
AcDbEntity
  8
0
 62
     0
100
AcDbLine
 10
-295.7000000000062
 20
-289.8998663724942
 30
0.0
 11
-34.54953358716193
 21
-115.8000000000011
 31
0.0
  0
LINE
  5
2863
330
2F0D
100
AcDbEntity
  8
0
 62
     0
100
AcDbLine
 10
-295.7000000000062
 20
-286.8998998370807
 30
0.0
 11
-39.04949488104648
 21
-115.8000000000029
 31
0.0
  0
LINE
  5
2864
330
2F0D
100
AcDbEntity
  8
0
 62
     0
100
AcDbLine
 10
-295.7000000000062
 20
-283.8999333016618
 30
0.0
 11
-43.54945617493103
 21
-115.8000000000011
 31
0.0
  0
LINE
  5
2865
330
2F0D
100
AcDbEntity
  8
0
 62
     0
100
AcDbLine
 10
-295.7000000000025
 20
-280.8999667662464
 30
0.0
 11
-48.04941746881921
 21
-115.8000000000029
 31
0.0
  0
LINE
  5
2866
330
2F0D
100
AcDbEntity
  8
0
 62
     0
100
AcDbLine
 10
-295.7000000000062
 20
-277.9000002308294
 30
0.0
 11
-52.54937876270378
 21
-115.8000000000011
 31
0.0
  0
LINE
  5
2867
330
2F0D
100
AcDbEntity
  8
0
 62
     0
100
AcDbLine
 10
-295.7000000000025
 20
-274.9000336954141
 30
0.0
 11
-57.04934005658834
 21
-115.8000000000029
 31
0.0
  0
LINE
  5
2868
330
2F0D
100
AcDbEntity
  8
0
 62
     0
100
AcDbLine
 10
-295.7000000000062
 20
-271.900067159997
 30
0.0
 11
-61.54930135047653
 21
-115.8000000000029
 31
0.0
  0
LINE
  5
2869
330
2F0D
100
AcDbEntity
  8
0
 62
     0
100
AcDbLine
 10
-295.7000000000044
 20
-268.9001006245799
 30
0.0
 11
-66.04926264435926
 21
-115.8000000000011
 31
0.0
  0
LINE
  5
286A
330
2F0D
100
AcDbEntity
  8
0
 62
     0
100
AcDbLine
 10
-295.7000000000062
 20
-265.9001340891664
 30
0.0
 11
-70.54922393824559
 21
-115.8000000000011
 31
0.0
  0
LINE
  5
286B
330
2F0D
100
AcDbEntity
  8
0
 62
     0
100
AcDbLine
 10
-295.7000000000044
 20
-262.9001675537474
 30
0.0
 11
-75.04918523212831
 21
-115.7999999999993
 31
0.0
  0
LINE
  5
286C
330
2F0D
100
AcDbEntity
  8
0
 62
     0
100
AcDbLine
 10
-295.7000000000044
 20
-259.9002010183322
 30
0.0
 11
-79.54914652601837
 21
-115.8000000000029
 31
0.0
  0
LINE
  5
286D
330
2F0D
100
AcDbEntity
  8
0
 62
     0
100
AcDbLine
 10
-295.7000000000044
 20
-256.900234482915
 30
0.0
 11
-84.04910781990109
 21
-115.8000000000011
 31
0.0
  0
LINE
  5
286E
330
2F0D
100
AcDbEntity
  8
0
 62
     0
100
AcDbLine
 10
-295.7000000000062
 20
-253.9002679475016
 30
0.0
 11
-88.54906911378748
 21
-115.8000000000029
 31
0.0
  0
LINE
  5
286F
330
2F0D
100
AcDbEntity
  8
0
 62
     0
100
AcDbLine
 10
-295.7000000000044
 20
-250.9003014120844
 30
0.0
 11
-93.04903040767021
 21
-115.7999999999993
 31
0.0
  0
LINE
  5
2870
330
2F0D
100
AcDbEntity
  8
0
 62
     0
100
AcDbLine
 10
-295.7000000000044
 20
-247.9003348766673
 30
0.0
 11
-97.54899170156022
 21
-115.8000000000029
 31
0.0
  0
LINE
  5
2871
330
2F0D
100
AcDbEntity
  8
0
 62
     0
100
AcDbLine
 10
-295.7000000000044
 20
-244.900368341252
 30
0.0
 11
-102.0489529954429
 21
-115.8000000000011
 31
0.0
  0
LINE
  5
2872
330
2F0D
100
AcDbEntity
  8
0
 62
     0
100
AcDbLine
 10
-295.7000000000044
 20
-241.9004018058349
 30
0.0
 11
-106.5489142893311
 21
-115.8000000000029
 31
0.0
  0
LINE
  5
2873
330
2F0D
100
AcDbEntity
  8
0
 62
     0
100
AcDbLine
 10
-295.7000000000062
 20
-238.9004352704196
 30
0.0
 11
-111.0488755832139
 21
-115.8000000000011
 31
0.0
  0
LINE
  5
2874
330
2F0D
100
AcDbEntity
  8
0
 62
     0
100
AcDbLine
 10
-295.7000000000044
 20
-235.9004687350043
 30
0.0
 11
-115.5488368771002
 21
-115.8000000000011
 31
0.0
  0
LINE
  5
2875
330
2F0D
100
AcDbEntity
  8
0
 62
     0
100
AcDbLine
 10
-295.7000000000044
 20
-232.9005021995872
 30
0.0
 11
-120.0487981709848
 21
-115.8000000000011
 31
0.0
  0
LINE
  5
2876
330
2F0D
100
AcDbEntity
  8
0
 62
     0
100
AcDbLine
 10
-295.7000000000044
 20
-229.9005356641719
 30
0.0
 11
-124.5487594648693
 21
-115.8000000000011
 31
0.0
  0
LINE
  5
2877
330
2F0D
100
AcDbEntity
  8
0
 62
     0
100
AcDbLine
 10
-295.7000000000044
 20
-226.900569128753
 30
0.0
 11
-129.0487207587593
 21
-115.8000000000029
 31
0.0
  0
LINE
  5
2878
330
2F0D
100
AcDbEntity
  8
0
 62
     0
100
AcDbLine
 10
-295.7000000000044
 20
-223.9006025933377
 30
0.0
 11
-133.5486820526421
 21
-115.8000000000011
 31
0.0
  0
LINE
  5
2879
330
2F0D
100
AcDbEntity
  8
0
 62
     0
100
AcDbLine
 10
-295.7000000000044
 20
-220.9006360579224
 30
0.0
 11
-138.0486433465285
 21
-115.8000000000011
 31
0.0
  0
LINE
  5
287A
330
2F0D
100
AcDbEntity
  8
0
 62
     0
100
AcDbLine
 10
-295.7000000000062
 20
-217.9006695225053
 30
0.0
 11
-142.548604640413
 21
-115.7999999999993
 31
0.0
  0
LINE
  5
287B
330
2F0D
100
AcDbEntity
  8
0
 62
     0
100
AcDbLine
 10
-295.7000000000044
 20
-214.90070298709
 30
0.0
 11
-147.0485659343012
 21
-115.8000000000029
 31
0.0
  0
LINE
  5
287C
330
2F0D
100
AcDbEntity
  8
0
 62
     0
100
AcDbLine
 10
-295.7000000000044
 20
-211.9007364516729
 30
0.0
 11
-151.5485272281839
 21
-115.8000000000011
 31
0.0
  0
LINE
  5
287D
330
2F0D
100
AcDbEntity
  8
0
 62
     0
100
AcDbLine
 10
-295.7000000000062
 20
-208.9007699162575
 30
0.0
 11
-156.0484885220721
 21
-115.8000000000029
 31
0.0
  0
LINE
  5
287E
330
2F0D
100
AcDbEntity
  8
0
 62
     0
100
AcDbLine
 10
-295.7000000000025
 20
-205.9008033808386
 30
0.0
 11
-160.5484498159549
 21
-115.7999999999993
 31
0.0
  0
LINE
  5
287F
330
2F0D
100
AcDbEntity
  8
0
 62
     0
100
AcDbLine
 10
-295.7000000000044
 20
-202.9008368454252
 30
0.0
 11
-165.048411109843
 21
-115.8000000000029
 31
0.0
  0
LINE
  5
2880
330
2F0D
100
AcDbEntity
  8
0
 62
     0
100
AcDbLine
 10
-295.7000000000044
 20
-199.900870310008
 30
0.0
 11
-169.5483724037276
 21
-115.8000000000011
 31
0.0
  0
LINE
  5
2881
330
2F0D
100
AcDbEntity
  8
0
 62
     0
100
AcDbLine
 10
-295.7000000000062
 20
-196.9009037745927
 30
0.0
 11
-174.0483336976139
 21
-115.8000000000029
 31
0.0
  0
LINE
  5
2882
330
2F0D
100
AcDbEntity
  8
0
 62
     0
100
AcDbLine
 10
-295.7000000000044
 20
-193.9009372391756
 30
0.0
 11
-178.5482949914967
 21
-115.8000000000011
 31
0.0
  0
LINE
  5
2883
330
2F0D
100
AcDbEntity
  8
0
 62
     0
100
AcDbLine
 10
-295.7000000000062
 20
-190.900970703762
 30
0.0
 11
-183.0482562853831
 21
-115.8000000000011
 31
0.0
  0
LINE
  5
2884
330
2F0D
100
AcDbEntity
  8
0
 62
     0
100
AcDbLine
 10
-295.7000000000062
 20
-187.9010041683432
 30
0.0
 11
-187.5482175792713
 21
-115.8000000000011
 31
0.0
  0
LINE
  5
2885
330
2F0D
100
AcDbEntity
  8
0
 62
     0
100
AcDbLine
 10
-295.7000000000062
 20
-184.9010376329279
 30
0.0
 11
-192.0481788731522
 21
-115.7999999999993
 31
0.0
  0
LINE
  5
2886
330
2F0D
100
AcDbEntity
  8
0
 62
     0
100
AcDbLine
 10
-295.7000000000044
 20
-181.9010710975108
 30
0.0
 11
-196.5481401670386
 21
-115.8000000000011
 31
0.0
  0
LINE
  5
2887
330
2F0D
100
AcDbEntity
  8
0
 62
     0
100
AcDbLine
 10
-295.7000000000062
 20
-178.9011045620955
 30
0.0
 11
-201.048101460925
 21
-115.8000000000011
 31
0.0
  0
LINE
  5
2888
330
2F0D
100
AcDbEntity
  8
0
 62
     0
100
AcDbLine
 10
-295.7000000000062
 20
-175.9011380266801
 30
0.0
 11
-205.5480627548113
 21
-115.8000000000011
 31
0.0
  0
LINE
  5
2889
330
2F0D
100
AcDbEntity
  8
0
 62
     0
100
AcDbLine
 10
-295.7000000000025
 20
-172.9011714912612
 30
0.0
 11
-210.0480240486941
 21
-115.7999999999993
 31
0.0
  0
LINE
  5
288A
330
2F0D
100
AcDbEntity
  8
0
 62
     0
100
AcDbLine
 10
-295.7000000000062
 20
-169.9012049558478
 30
0.0
 11
-214.5479853425841
 21
-115.8000000000029
 31
0.0
  0
LINE
  5
288B
330
2F0D
100
AcDbEntity
  8
0
 62
     0
100
AcDbLine
 10
-295.7000000000044
 20
-166.9012384204288
 30
0.0
 11
-219.0479466364685
 21
-115.8000000000011
 31
0.0
  0
LINE
  5
288C
330
2F0D
100
AcDbEntity
  8
0
 62
     0
100
AcDbLine
 10
-295.7000000000062
 20
-163.9012718850153
 30
0.0
 11
-223.5479079303532
 21
-115.8000000000029
 31
0.0
  0
LINE
  5
288D
330
2F0D
100
AcDbEntity
  8
0
 62
     0
100
AcDbLine
 10
-295.7000000000025
 20
-160.9013053495964
 30
0.0
 11
-228.0478692242359
 21
-115.7999999999993
 31
0.0
  0
LINE
  5
288E
330
2F0D
100
AcDbEntity
  8
0
 62
     0
100
AcDbLine
 10
-295.700000000008
 20
-157.9013388141829
 30
0.0
 11
-232.5478305181259
 21
-115.8000000000011
 31
0.0
  0
LINE
  5
288F
330
2F0D
100
AcDbEntity
  8
0
 62
     0
100
AcDbLine
 10
-295.7000000000044
 20
-154.9013722787658
 30
0.0
 11
-237.0477918120105
 21
-115.8000000000011
 31
0.0
  0
LINE
  5
2890
330
2F0D
100
AcDbEntity
  8
0
 62
     0
100
AcDbLine
 10
-295.7000000000025
 20
-151.9014057433487
 30
0.0
 11
-241.5477531058932
 21
-115.8000000000011
 31
0.0
  0
LINE
  5
2891
330
2F0D
100
AcDbEntity
  8
0
 62
     0
100
AcDbLine
 10
-295.7000000000044
 20
-148.9014392079334
 30
0.0
 11
-246.0477143997796
 21
-115.8000000000011
 31
0.0
  0
LINE
  5
2892
330
2F0D
100
AcDbEntity
  8
0
 62
     0
100
AcDbLine
 10
-295.7000000000044
 20
-145.9014726725145
 30
0.0
 11
-250.5476756936678
 21
-115.7999999999993
 31
0.0
  0
LINE
  5
2893
330
2F0D
100
AcDbEntity
  8
0
 62
     0
100
AcDbLine
 10
-295.7000000000044
 20
-142.901506137101
 30
0.0
 11
-255.0476369875523
 21
-115.8000000000011
 31
0.0
  0
LINE
  5
2894
330
2F0D
100
AcDbEntity
  8
0
 62
     0
100
AcDbLine
 10
-295.7000000000044
 20
-139.9015396016839
 30
0.0
 11
-259.5475982814369
 21
-115.7999999999993
 31
0.0
  0
LINE
  5
2895
330
2F0D
100
AcDbEntity
  8
0
 62
     0
100
AcDbLine
 10
-295.7000000000062
 20
-136.9015730662686
 30
0.0
 11
-264.0475595753232
 21
-115.8000000000011
 31
0.0
  0
LINE
  5
2896
330
2F0D
100
AcDbEntity
  8
0
 62
     0
100
AcDbLine
 10
-295.7000000000044
 20
-133.9016065308515
 30
0.0
 11
-268.5475208692078
 21
-115.8000000000011
 31
0.0
  0
LINE
  5
2897
330
2F0D
100
AcDbEntity
  8
0
 62
     0
100
AcDbLine
 10
-295.7000000000044
 20
-130.9016399954362
 30
0.0
 11
-273.0474821630941
 21
-115.8000000000011
 31
0.0
  0
LINE
  5
2898
330
2F0D
100
AcDbEntity
  8
0
 62
     0
100
AcDbLine
 10
-295.7000000000044
 20
-127.9016734600191
 30
0.0
 11
-277.5474434569788
 21
-115.7999999999993
 31
0.0
  0
LINE
  5
2899
330
2F0D
100
AcDbEntity
  8
0
 62
     0
100
AcDbLine
 10
-295.7000000000062
 20
-124.9017069246056
 30
0.0
 11
-282.0474047508652
 21
-115.8000000000011
 31
0.0
  0
LINE
  5
289A
330
2F0D
100
AcDbEntity
  8
0
 62
     0
100
AcDbLine
 10
-295.7000000000044
 20
-121.9017403891866
 30
0.0
 11
-286.5473660447496
 21
-115.8000000000011
 31
0.0
  0
LINE
  5
289B
330
2F0D
100
AcDbEntity
  8
0
 62
     0
100
AcDbLine
 10
-295.7000000000044
 20
-118.9017738537714
 30
0.0
 11
-291.0473273386377
 21
-115.8000000000029
 31
0.0
  0
LINE
  5
289C
330
2F0D
100
AcDbEntity
  8
0
 62
     0
100
AcDbLine
 10
-295.7000000000062
 20
-115.9018073183542
 30
0.0
 11
-295.5472886325224
 21
-115.7999999999993
 31
0.0
  0
ENDBLK
  5
289D
330
2F0D
100
AcDbEntity
  8
0
100
AcDbBlockEnd
  0
BLOCK
  5
2F10
330
2F0F
100
AcDbEntity
  8
0
100
AcDbBlockBegin
  2
*X77
 70
     1
 10
0.0
 20
0.0
 30
0.0
  3
*X77
  1

  0
LINE
  5
28A0
330
2F0F
100
AcDbEntity
  8
0
 62
     0
100
AcDbLine
 10
-295.6999999999971
 20
-643.2925021507616
 30
0.0
 11
-294.3387497501591
 21
-644.1999999999969
 31
0.0
  0
LINE
  5
28A1
330
2F0F
100
AcDbEntity
  8
0
 62
     0
100
AcDbLine
 10
-295.6999999999989
 20
-640.2925356153464
 30
0.0
 11
-289.8387884562708
 21
-644.1999999999998
 31
0.0
  0
LINE
  5
28A2
330
2F0F
100
AcDbEntity
  8
0
 62
     0
100
AcDbLine
 10
-295.6999999999971
 20
-637.2925690799292
 30
0.0
 11
-285.3388271623862
 21
-644.1999999999977
 31
0.0
  0
LINE
  5
28A3
330
2F0F
100
AcDbEntity
  8
0
 62
     0
100
AcDbLine
 10
-295.6999999999971
 20
-634.292602544514
 30
0.0
 11
-280.8388658684997
 21
-644.1999999999989
 31
0.0
  0
LINE
  5
28A4
330
2F0F
100
AcDbEntity
  8
0
 62
     0
100
AcDbLine
 10
-295.6999999999971
 20
-631.2926360090973
 30
0.0
 11
-276.3389045746171
 21
-644.1999999999969
 31
0.0
  0
LINE
  5
28A5
330
2F0F
100
AcDbEntity
  8
0
 62
     0
100
AcDbLine
 10
-295.6999999999989
 20
-628.2926694736816
 30
0.0
 11
-271.8389432807289
 21
-644.1999999999998
 31
0.0
  0
LINE
  5
28A6
330
2F0F
100
AcDbEntity
  8
0
 62
     0
100
AcDbLine
 10
-295.6999999999989
 20
-625.2927029382645
 30
0.0
 11
-267.3389819868444
 21
-644.1999999999989
 31
0.0
  0
LINE
  5
28A7
330
2F0F
100
AcDbEntity
  8
0
 62
     0
100
AcDbLine
 10
-295.6999999999971
 20
-622.2927364028493
 30
0.0
 11
-262.839020692958
 21
-644.1999999999989
 31
0.0
  0
LINE
  5
28A8
330
2F0F
100
AcDbEntity
  8
0
 62
     0
100
AcDbLine
 10
-295.6999999999989
 20
-619.2927698674321
 30
0.0
 11
-258.3390593990734
 21
-644.1999999999989
 31
0.0
  0
LINE
  5
28A9
330
2F0F
100
AcDbEntity
  8
0
 62
     0
100
AcDbLine
 10
-295.6999999999971
 20
-616.2928033320167
 30
0.0
 11
-253.8390981051871
 21
-644.1999999999989
 31
0.0
  0
LINE
  5
28AA
330
2F0F
100
AcDbEntity
  8
0
 62
     0
100
AcDbLine
 10
-295.6999999999971
 20
-613.2928367966004
 30
0.0
 11
-249.3391368113025
 21
-644.1999999999977
 31
0.0
  0
LINE
  5
28AB
330
2F0F
100
AcDbEntity
  8
0
 62
     0
100
AcDbLine
 10
-295.6999999999971
 20
-610.2928702611834
 30
0.0
 11
-244.839175517418
 21
-644.1999999999969
 31
0.0
  0
LINE
  5
28AC
330
2F0F
100
AcDbEntity
  8
0
 62
     0
100
AcDbLine
 10
-295.6999999999989
 20
-607.2929037257681
 30
0.0
 11
-240.3392142235316
 21
-644.1999999999989
 31
0.0
  0
LINE
  5
28AD
330
2F0F
100
AcDbEntity
  8
0
 62
     0
100
AcDbLine
 10
-295.6999999999953
 20
-604.292937190351
 30
0.0
 11
-235.8392529296434
 21
-644.1999999999977
 31
0.0
  0
LINE
  5
28AE
330
2F0F
100
AcDbEntity
  8
0
 62
     0
100
AcDbLine
 10
-295.6999999999989
 20
-601.2929706549347
 30
0.0
 11
-231.3392916357607
 21
-644.1999999999977
 31
0.0
  0
LINE
  5
28AF
330
2F0F
100
AcDbEntity
  8
0
 62
     0
100
AcDbLine
 10
-295.6999999999989
 20
-598.2930041195185
 30
0.0
 11
-226.8393303418725
 21
-644.1999999999989
 31
0.0
  0
LINE
  5
28B0
330
2F0F
100
AcDbEntity
  8
0
 62
     0
100
AcDbLine
 10
-295.6999999999989
 20
-595.2930375841032
 30
0.0
 11
-222.3393690479879
 21
-644.1999999999998
 31
0.0
  0
LINE
  5
28B1
330
2F0F
100
AcDbEntity
  8
0
 62
     0
100
AcDbLine
 10
-295.6999999999971
 20
-592.2930710486862
 30
0.0
 11
-217.8394077541016
 21
-644.1999999999977
 31
0.0
  0
LINE
  5
28B2
330
2F0F
100
AcDbEntity
  8
0
 62
     0
100
AcDbLine
 10
-295.6999999999989
 20
-589.2931045132709
 30
0.0
 11
-213.3394464602188
 21
-644.1999999999989
 31
0.0
  0
LINE
  5
28B3
330
2F0F
100
AcDbEntity
  8
0
 62
     0
100
AcDbLine
 10
-295.6999999999971
 20
-586.2931379778538
 30
0.0
 11
-208.8394851663288
 21
-644.1999999999998
 31
0.0
  0
LINE
  5
28B4
330
2F0F
100
AcDbEntity
  8
0
 62
     0
100
AcDbLine
 10
-295.6999999999971
 20
-583.2931714424392
 30
0.0
 11
-204.3395238724443
 21
-644.1999999999998
 31
0.0
  0
LINE
  5
28B5
330
2F0F
100
AcDbEntity
  8
0
 62
     0
100
AcDbLine
 10
-295.6999999999971
 20
-580.293204907022
 30
0.0
 11
-199.8395625785597
 21
-644.1999999999989
 31
0.0
  0
LINE
  5
28B6
330
2F0F
100
AcDbEntity
  8
0
 62
     0
100
AcDbLine
 10
-295.6999999999989
 20
-577.293238371607
 30
0.0
 11
-195.3396012846751
 21
-644.1999999999998
 31
0.0
  0
LINE
  5
28B7
330
2F0F
100
AcDbEntity
  8
0
 62
     0
100
AcDbLine
 10
-295.6999999999989
 20
-574.2932718361887
 30
0.0
 11
-190.8396399907888
 21
-644.1999999999989
 31
0.0
  0
LINE
  5
28B8
330
2F0F
100
AcDbEntity
  8
0
 62
     0
100
AcDbLine
 10
-295.6999999999971
 20
-571.2933053007717
 30
0.0
 11
-186.3396786969041
 21
-644.1999999999977
 31
0.0
  0
LINE
  5
28B9
330
2F0F
100
AcDbEntity
  8
0
 62
     0
100
AcDbLine
 10
-295.6999999999989
 20
-568.2933387653575
 30
0.0
 11
-181.8397174030197
 21
-644.1999999999977
 31
0.0
  0
LINE
  5
28BA
330
2F0F
100
AcDbEntity
  8
0
 62
     0
100
AcDbLine
 10
-295.6999999999971
 20
-565.2933722299402
 30
0.0
 11
-177.3397561091315
 21
-644.1999999999989
 31
0.0
  0
LINE
  5
28BB
330
2F0F
100
AcDbEntity
  8
0
 62
     0
100
AcDbLine
 10
-295.6999999999971
 20
-562.2934056945251
 30
0.0
 11
-172.8397948152451
 21
-644.1999999999989
 31
0.0
  0
LINE
  5
28BC
330
2F0F
100
AcDbEntity
  8
0
 62
     0
100
AcDbLine
 10
-295.6999999999971
 20
-559.2934391591079
 30
0.0
 11
-168.3398335213624
 21
-644.1999999999977
 31
0.0
  0
LINE
  5
28BD
330
2F0F
100
AcDbEntity
  8
0
 62
     0
100
AcDbLine
 10
-295.6999999999989
 20
-556.2934726236927
 30
0.0
 11
-163.839872227476
 21
-644.2000000000007
 31
0.0
  0
LINE
  5
28BE
330
2F0F
100
AcDbEntity
  8
0
 62
     0
100
AcDbLine
 10
-295.6999999999971
 20
-553.2935060882765
 30
0.0
 11
-159.3399109335896
 21
-644.1999999999989
 31
0.0
  0
LINE
  5
28BF
330
2F0F
100
AcDbEntity
  8
0
 62
     0
100
AcDbLine
 10
-295.6999999999989
 20
-550.2935395528602
 30
0.0
 11
-154.8399496397031
 21
-644.1999999999998
 31
0.0
  0
LINE
  5
28C0
330
2F0F
100
AcDbEntity
  8
0
 62
     0
100
AcDbLine
 10
-295.6999999999989
 20
-547.2935730174431
 30
0.0
 11
-150.3399883458205
 21
-644.1999999999977
 31
0.0
  0
LINE
  5
28C1
330
2F0F
100
AcDbEntity
  8
0
 62
     0
100
AcDbLine
 10
-295.6999999999989
 20
-544.2936064820278
 30
0.0
 11
-145.8400270519323
 21
-644.1999999999998
 31
0.0
  0
LINE
  5
28C2
330
2F0F
100
AcDbEntity
  8
0
 62
     0
100
AcDbLine
 10
-295.6999999999971
 20
-541.2936399466107
 30
0.0
 11
-141.3400657580478
 21
-644.1999999999989
 31
0.0
  0
LINE
  5
28C3
330
2F0F
100
AcDbEntity
  8
0
 62
     0
100
AcDbLine
 10
-295.6999999999989
 20
-538.2936734111954
 30
0.0
 11
-136.8401044641632
 21
-644.1999999999989
 31
0.0
  0
LINE
  5
28C4
330
2F0F
100
AcDbEntity
  8
0
 62
     0
100
AcDbLine
 10
-295.6999999999989
 20
-535.2937068757792
 30
0.0
 11
-132.3401431702768
 21
-644.1999999999998
 31
0.0
  0
LINE
  5
28C5
330
2F0F
100
AcDbEntity
  8
0
 62
     0
100
AcDbLine
 10
-295.6999999999971
 20
-532.2937403403612
 30
0.0
 11
-127.8401818763905
 21
-644.1999999999977
 31
0.0
  0
LINE
  5
28C6
330
2F0F
100
AcDbEntity
  8
0
 62
     0
100
AcDbLine
 10
-295.6999999999971
 20
-529.2937738049466
 30
0.0
 11
-123.3402205825059
 21
-644.1999999999989
 31
0.0
  0
LINE
  5
28C7
330
2F0F
100
AcDbEntity
  8
0
 62
     0
100
AcDbLine
 10
-295.6999999999989
 20
-526.2938072695288
 30
0.0
 11
-118.8402592886214
 21
-644.1999999999977
 31
0.0
  0
LINE
  5
28C8
330
2F0F
100
AcDbEntity
  8
0
 62
     0
100
AcDbLine
 10
-295.6999999999989
 20
-523.2938407341134
 30
0.0
 11
-114.3402979947332
 21
-644.1999999999998
 31
0.0
  0
LINE
  5
28C9
330
2F0F
100
AcDbEntity
  8
0
 62
     0
100
AcDbLine
 10
-295.6999999999971
 20
-520.2938741986971
 30
0.0
 11
-109.8403367008486
 21
-644.1999999999989
 31
0.0
  0
LINE
  5
28CA
330
2F0F
100
AcDbEntity
  8
0
 62
     0
100
AcDbLine
 10
-295.6999999999989
 20
-517.2939076632817
 30
0.0
 11
-105.3403754069641
 21
-644.1999999999989
 31
0.0
  0
LINE
  5
28CB
330
2F0F
100
AcDbEntity
  8
0
 62
     0
100
AcDbLine
 10
-295.6999999999971
 20
-514.2939411278648
 30
0.0
 11
-100.8404141130758
 21
-644.1999999999998
 31
0.0
  0
LINE
  5
28CC
330
2F0F
100
AcDbEntity
  8
0
 62
     0
100
AcDbLine
 10
-295.6999999999971
 20
-511.2939745924495
 30
0.0
 11
-96.3404528191895
 21
-644.2000000000007
 31
0.0
  0
LINE
  5
28CD
330
2F0F
100
AcDbEntity
  8
0
 62
     0
100
AcDbLine
 10
-295.6999999999971
 20
-508.294008057032
 30
0.0
 11
-91.84049152530674
 21
-644.1999999999989
 31
0.0
  0
LINE
  5
28CE
330
2F0F
100
AcDbEntity
  8
0
 62
     0
100
AcDbLine
 10
-295.7000000000008
 20
-505.2940415216162
 30
0.0
 11
-87.34053023142219
 21
-644.1999999999998
 31
0.0
  0
LINE
  5
28CF
330
2F0F
100
AcDbEntity
  8
0
 62
     0
100
AcDbLine
 10
-295.6999999999971
 20
-502.2940749862009
 30
0.0
 11
-82.84056893753586
 21
-644.1999999999998
 31
0.0
  0
LINE
  5
28D0
330
2F0F
100
AcDbEntity
  8
0
 62
     0
100
AcDbLine
 10
-295.6999999999989
 20
-499.2941084507847
 30
0.0
 11
-78.34060764364948
 21
-644.1999999999998
 31
0.0
  0
LINE
  5
28D1
330
2F0F
100
AcDbEntity
  8
0
 62
     0
100
AcDbLine
 10
-295.6999999999989
 20
-496.2941419153676
 30
0.0
 11
-73.84064634976676
 21
-644.1999999999989
 31
0.0
  0
LINE
  5
28D2
330
2F0F
100
AcDbEntity
  8
0
 62
     0
100
AcDbLine
 10
-295.6999999999989
 20
-493.2941753799523
 30
0.0
 11
-69.34068505587672
 21
-644.2000000000007
 31
0.0
  0
LINE
  5
28D3
330
2F0F
100
AcDbEntity
  8
0
 62
     0
100
AcDbLine
 10
-295.6999999999971
 20
-490.2942088445351
 30
0.0
 11
-64.84072376199219
 21
-644.1999999999998
 31
0.0
  0
LINE
  5
28D4
330
2F0F
100
AcDbEntity
  8
0
 62
     0
100
AcDbLine
 10
-295.6999999999989
 20
-487.2942423091187
 30
0.0
 11
-60.34076246810764
 21
-644.1999999999989
 31
0.0
  0
LINE
  5
28D5
330
2F0F
100
AcDbEntity
  8
0
 62
     0
100
AcDbLine
 10
-295.6999999999989
 20
-484.2942757737037
 30
0.0
 11
-55.8408011742249
 21
-644.1999999999989
 31
0.0
  0
LINE
  5
28D6
330
2F0F
100
AcDbEntity
  8
0
 62
     0
100
AcDbLine
 10
-295.6999999999971
 20
-481.2943092382865
 30
0.0
 11
-51.34083988033308
 21
-644.1999999999998
 31
0.0
  0
LINE
  5
28D7
330
2F0F
100
AcDbEntity
  8
0
 62
     0
100
AcDbLine
 10
-295.6999999999989
 20
-478.2943427028704
 30
0.0
 11
-46.84087858645034
 21
-644.1999999999998
 31
0.0
  0
LINE
  5
28D8
330
2F0F
100
AcDbEntity
  8
0
 62
     0
100
AcDbLine
 10
-295.6999999999989
 20
-475.2943761674542
 30
0.0
 11
-42.34091729256578
 21
-644.1999999999989
 31
0.0
  0
LINE
  5
28D9
330
2F0F
100
AcDbEntity
  8
0
 62
     0
100
AcDbLine
 10
-295.6999999999989
 20
-472.2944096320389
 30
0.0
 11
-37.84095599867941
 21
-644.2000000000007
 31
0.0
  0
LINE
  5
28DA
330
2F0F
100
AcDbEntity
  8
0
 62
     0
100
AcDbLine
 10
-295.6999999999971
 20
-469.2944430966218
 30
0.0
 11
-33.34099470479305
 21
-644.1999999999989
 31
0.0
  0
LINE
  5
28DB
330
2F0F
100
AcDbEntity
  8
0
 62
     0
100
AcDbLine
 10
-295.6999999999989
 20
-466.2944765612063
 30
0.0
 11
-28.84103341091032
 21
-644.1999999999998
 31
0.0
  0
LINE
  5
28DC
330
2F0F
100
AcDbEntity
  8
0
 62
     0
100
AcDbLine
 10
-295.6999999999971
 20
-463.2945100257892
 30
0.0
 11
-24.34107211702394
 21
-644.1999999999977
 31
0.0
  0
LINE
  5
28DD
330
2F0F
100
AcDbEntity
  8
0
 62
     0
100
AcDbLine
 10
-295.6999999999971
 20
-460.2945434903737
 30
0.0
 11
-19.84111082313575
 21
-644.2000000000007
 31
0.0
  0
LINE
  5
28DE
330
2F0F
100
AcDbEntity
  8
0
 62
     0
100
AcDbLine
 10
-295.6999999999989
 20
-457.2945769549559
 30
0.0
 11
-15.3411495292512
 21
-644.1999999999998
 31
0.0
  0
LINE
  5
28DF
330
2F0F
100
AcDbEntity
  8
0
 62
     0
100
AcDbLine
 10
-295.7000000000008
 20
-454.2946104195416
 30
0.0
 11
-10.84118823536846
 21
-644.1999999999998
 31
0.0
  0
LINE
  5
28E0
330
2F0F
100
AcDbEntity
  8
0
 62
     0
100
AcDbLine
 10
-295.6999999999989
 20
-451.2946438841245
 30
0.0
 11
-6.341226941478453
 21
-644.2000000000007
 31
0.0
  0
LINE
  5
28E1
330
2F0F
100
AcDbEntity
  8
0
 62
     0
100
AcDbLine
 10
-295.6999999999989
 20
-448.294677348707
 30
0.0
 11
-1.8412656475939
 21
-644.1999999999989
 31
0.0
  0
LINE
  5
28E2
330
2F0F
100
AcDbEntity
  8
0
 62
     0
100
AcDbLine
 10
-295.6999999999989
 20
-445.294710813292
 30
0.0
 11
2.658695646290651
 21
-644.1999999999998
 31
0.0
  0
LINE
  5
28E3
330
2F0F
100
AcDbEntity
  8
0
 62
     0
100
AcDbLine
 10
-295.6999999999989
 20
-442.294744277875
 30
0.0
 11
7.158656940175204
 21
-644.1999999999989
 31
0.0
  0
LINE
  5
28E4
330
2F0F
100
AcDbEntity
  8
0
 62
     0
100
AcDbLine
 10
-295.6999999999971
 20
-439.2947777424605
 30
0.0
 11
11.6586182340634
 21
-644.2000000000007
 31
0.0
  0
LINE
  5
28E5
330
2F0F
100
AcDbEntity
  8
0
 62
     0
100
AcDbLine
 10
-295.6999999999989
 20
-436.2948112070434
 30
0.0
 11
16.15857952794795
 21
-644.1999999999998
 31
0.0
  0
LINE
  5
28E6
330
2F0F
100
AcDbEntity
  8
0
 62
     0
100
AcDbLine
 10
-295.6999999999989
 20
-433.2948446716279
 30
0.0
 11
20.6585408218325
 21
-644.1999999999998
 31
0.0
  0
LINE
  5
28E7
330
2F0F
100
AcDbEntity
  8
0
 62
     0
100
AcDbLine
 10
-295.6999999999989
 20
-430.2948781362101
 30
0.0
 11
25.15850211571887
 21
-644.1999999999998
 31
0.0
  0
LINE
  5
28E8
330
2F0F
100
AcDbEntity
  8
0
 62
     0
100
AcDbLine
 10
-295.6999999999989
 20
-427.2949116007948
 30
0.0
 11
29.65846340960525
 21
-644.2000000000007
 31
0.0
  0
LINE
  5
28E9
330
2F0F
100
AcDbEntity
  8
0
 62
     0
100
AcDbLine
 10
-295.6999999999989
 20
-424.2949450653783
 30
0.0
 11
34.15842470348798
 21
-644.1999999999989
 31
0.0
  0
LINE
  5
28EA
330
2F0F
100
AcDbEntity
  8
0
 62
     0
100
AcDbLine
 10
-295.6999999999989
 20
-421.2949785299631
 30
0.0
 11
38.65838599737435
 21
-644.1999999999998
 31
0.0
  0
LINE
  5
28EB
330
2F0F
100
AcDbEntity
  8
0
 62
     0
100
AcDbLine
 10
-295.6999999999971
 20
-418.2950119945462
 30
0.0
 11
43.15834729126253
 21
-644.2000000000007
 31
0.0
  0
LINE
  5
28EC
330
2F0F
100
AcDbEntity
  8
0
 62
     0
100
AcDbLine
 10
-295.6999999999989
 20
-415.295045459131
 30
0.0
 11
47.6583085851471
 21
-644.2000000000007
 31
0.0
  0
LINE
  5
28ED
330
2F0F
100
AcDbEntity
  8
0
 62
     0
100
AcDbLine
 10
-295.6999999999989
 20
-412.2950789237138
 30
0.0
 11
52.15826987902982
 21
-644.1999999999998
 31
0.0
  0
LINE
  5
28EE
330
2F0F
100
AcDbEntity
  8
0
 62
     0
100
AcDbLine
 10
-295.6999999999971
 20
-409.2951123882976
 30
0.0
 11
56.65823117291985
 21
-644.1999999999998
 31
0.0
  0
LINE
  5
28EF
330
2F0F
100
AcDbEntity
  8
0
 62
     0
100
AcDbLine
 10
-295.6999999999971
 20
-406.2951458528822
 30
0.0
 11
61.15819246680437
 21
-644.2000000000007
 31
0.0
  0
LINE
  5
28F0
330
2F0F
100
AcDbEntity
  8
0
 62
     0
100
AcDbLine
 10
-295.7000000000008
 20
-403.2951793174643
 30
0.0
 11
65.65815376068894
 21
-644.1999999999998
 31
0.0
  0
LINE
  5
28F1
330
2F0F
100
AcDbEntity
  8
0
 62
     0
100
AcDbLine
 10
-295.6999999999989
 20
-400.2952127820488
 30
0.0
 11
70.15811505457349
 21
-644.1999999999998
 31
0.0
  0
LINE
  5
28F2
330
2F0F
100
AcDbEntity
  8
0
 62
     0
100
AcDbLine
 10
-295.6999999999989
 20
-397.2952462466318
 30
0.0
 11
74.65807634845987
 21
-644.1999999999998
 31
0.0
  0
LINE
  5
28F3
330
2F0F
100
AcDbEntity
  8
0
 62
     0
100
AcDbLine
 10
-295.6999999999989
 20
-394.2952797112167
 30
0.0
 11
79.15803764234624
 21
-644.2000000000007
 31
0.0
  0
LINE
  5
28F4
330
2F0F
100
AcDbEntity
  8
0
 62
     0
100
AcDbLine
 10
-295.6999999999989
 20
-391.2953131758004
 30
0.0
 11
83.65799893623078
 21
-644.1999999999989
 31
0.0
  0
LINE
  5
28F5
330
2F0F
100
AcDbEntity
  8
0
 62
     0
100
AcDbLine
 10
-295.6999999999971
 20
-388.2953466403851
 30
0.0
 11
88.15796023012078
 21
-644.2000000000025
 31
0.0
  0
LINE
  5
28F6
330
2F0F
100
AcDbEntity
  8
0
 62
     0
100
AcDbLine
 10
-295.6999999999989
 20
-385.2953801049681
 30
0.0
 11
92.6579215240017
 21
-644.1999999999998
 31
0.0
  0
LINE
  5
28F7
330
2F0F
100
AcDbEntity
  8
0
 62
     0
100
AcDbLine
 10
-295.6999999999989
 20
-382.2954135695527
 30
0.0
 11
97.15788281788807
 21
-644.2000000000016
 31
0.0
  0
LINE
  5
28F8
330
2F0F
100
AcDbEntity
  8
0
 62
     0
100
AcDbLine
 10
-295.6999999999989
 20
-379.2954470341356
 30
0.0
 11
101.6578441117726
 21
-644.1999999999989
 31
0.0
  0
LINE
  5
28F9
330
2F0F
100
AcDbEntity
  8
0
 62
     0
100
AcDbLine
 10
-295.6999999999989
 20
-376.2954804987202
 30
0.0
 11
106.1578054056626
 21
-644.2000000000025
 31
0.0
  0
LINE
  5
28FA
330
2F0F
100
AcDbEntity
  8
0
 62
     0
100
AcDbLine
 10
-295.6999999999989
 20
-373.2955139633032
 30
0.0
 11
110.6577666995435
 21
-644.2000000000007
 31
0.0
  0
LINE
  5
28FB
330
2F0F
100
AcDbEntity
  8
0
 62
     0
100
AcDbLine
 10
-295.6999999999989
 20
-370.295547427886
 30
0.0
 11
115.1577279934317
 21
-644.1999999999998
 31
0.0
  0
LINE
  5
28FC
330
2F0F
100
AcDbEntity
  8
0
 62
     0
100
AcDbLine
 10
-295.6999999999971
 20
-367.2955808924708
 30
0.0
 11
119.6576892873181
 21
-644.2000000000016
 31
0.0
  0
LINE
  5
28FD
330
2F0F
100
AcDbEntity
  8
0
 62
     0
100
AcDbLine
 10
-295.6999999999989
 20
-364.2956143570537
 30
0.0
 11
124.1576505812045
 21
-644.2000000000016
 31
0.0
  0
LINE
  5
28FE
330
2F0F
100
AcDbEntity
  8
0
 62
     0
100
AcDbLine
 10
-295.6999999999989
 20
-361.2956478216393
 30
0.0
 11
128.6576118750854
 21
-644.2000000000007
 31
0.0
  0
LINE
  5
28FF
330
2F0F
100
AcDbEntity
  8
0
 62
     0
100
AcDbLine
 10
-295.6999999999971
 20
-358.2956812862221
 30
0.0
 11
133.1575731689754
 21
-644.2000000000007
 31
0.0
  0
LINE
  5
2900
330
2F0F
100
AcDbEntity
  8
0
 62
     0
100
AcDbLine
 10
-295.6999999999989
 20
-355.295714750806
 30
0.0
 11
137.65753446286
 21
-644.2000000000016
 31
0.0
  0
LINE
  5
2901
330
2F0F
100
AcDbEntity
  8
0
 62
     0
100
AcDbLine
 10
-295.6999999999989
 20
-352.2957482153897
 30
0.0
 11
142.1574957567427
 21
-644.1999999999998
 31
0.0
  0
LINE
  5
2902
330
2F0F
100
AcDbEntity
  8
0
 62
     0
100
AcDbLine
 10
-295.6999999999989
 20
-349.2957816799735
 30
0.0
 11
146.6574570506291
 21
-644.2000000000007
 31
0.0
  0
LINE
  5
2903
330
2F0F
100
AcDbEntity
  8
0
 62
     0
100
AcDbLine
 10
-295.6999999999989
 20
-346.2958151445564
 30
0.0
 11
151.1574183445173
 21
-644.2000000000007
 31
0.0
  0
LINE
  5
2904
330
2F0F
100
AcDbEntity
  8
0
 62
     0
100
AcDbLine
 10
-295.6999999999989
 20
-343.295848609142
 30
0.0
 11
155.6573796384018
 21
-644.2000000000025
 31
0.0
  0
LINE
  5
2905
330
2F0F
100
AcDbEntity
  8
0
 62
     0
100
AcDbLine
 10
-295.6999999999989
 20
-340.2958820737248
 30
0.0
 11
160.1573409322864
 21
-644.1999999999998
 31
0.0
  0
LINE
  5
2906
330
2F0F
100
AcDbEntity
  8
0
 62
     0
100
AcDbLine
 10
-295.6999999999971
 20
-337.2959155383096
 30
0.0
 11
164.6573022261727
 21
-644.2000000000016
 31
0.0
  0
LINE
  5
2907
330
2F0F
100
AcDbEntity
  8
0
 62
     0
100
AcDbLine
 10
-295.6999999999989
 20
-334.2959490028925
 30
0.0
 11
169.1572635200591
 21
-644.2000000000016
 31
0.0
  0
LINE
  5
2908
330
2F0F
100
AcDbEntity
  8
0
 62
     0
100
AcDbLine
 10
-295.6999999999989
 20
-331.2959824674754
 30
0.0
 11
173.6572248139436
 21
-644.2000000000007
 31
0.0
  0
LINE
  5
2909
330
2F0F
100
AcDbEntity
  8
0
 62
     0
100
AcDbLine
 10
-295.6999999999989
 20
-328.2960159320601
 30
0.0
 11
178.1571861078282
 21
-644.2000000000007
 31
0.0
  0
LINE
  5
290A
330
2F0F
100
AcDbEntity
  8
0
 62
     0
100
AcDbLine
 10
-295.6999999999971
 20
-325.2960493966439
 30
0.0
 11
182.6571474017146
 21
-644.1999999999998
 31
0.0
  0
LINE
  5
290B
330
2F0F
100
AcDbEntity
  8
0
 62
     0
100
AcDbLine
 10
-295.6999999999989
 20
-322.2960828612277
 30
0.0
 11
187.1571086956009
 21
-644.2000000000016
 31
0.0
  0
LINE
  5
290C
330
2F0F
100
AcDbEntity
  8
0
 62
     0
100
AcDbLine
 10
-295.6999999999989
 20
-319.2961163258106
 30
0.0
 11
191.6570699894837
 21
-644.1999999999989
 31
0.0
  0
LINE
  5
290D
330
2F0F
100
AcDbEntity
  8
0
 62
     0
100
AcDbLine
 10
-295.6999999999971
 20
-316.2961497903952
 30
0.0
 11
196.1570312833717
 21
-644.2000000000007
 31
0.0
  0
LINE
  5
290E
330
2F0F
100
AcDbEntity
  8
0
 62
     0
100
AcDbLine
 10
-295.6999999999989
 20
-313.2961832549789
 30
0.0
 11
200.6569925772565
 21
-644.2000000000007
 31
0.0
  0
LINE
  5
290F
330
2F0F
100
AcDbEntity
  8
0
 62
     0
100
AcDbLine
 10
-295.6999999999989
 20
-310.2962167195637
 30
0.0
 11
205.1569538711428
 21
-644.2000000000016
 31
0.0
  0
LINE
  5
2910
330
2F0F
100
AcDbEntity
  8
0
 62
     0
100
AcDbLine
 10
-295.6999999999989
 20
-307.2962501841467
 30
0.0
 11
209.6569151650256
 21
-644.1999999999998
 31
0.0
  0
LINE
  5
2911
330
2F0F
100
AcDbEntity
  8
0
 62
     0
100
AcDbLine
 10
-295.6999999999971
 20
-304.2962836487312
 30
0.0
 11
214.1568764589156
 21
-644.2000000000034
 31
0.0
  0
LINE
  5
2912
330
2F0F
100
AcDbEntity
  8
0
 62
     0
100
AcDbLine
 10
-295.7000000000008
 20
-301.2963171133133
 30
0.0
 11
218.6568377527983
 21
-644.2000000000007
 31
0.0
  0
LINE
  5
2913
330
2F0F
100
AcDbEntity
  8
0
 62
     0
100
AcDbLine
 10
-295.6999999999989
 20
-298.296350577898
 30
0.0
 11
223.1567990466865
 21
-644.2000000000025
 31
0.0
  0
LINE
  5
2914
330
2F0F
100
AcDbEntity
  8
0
 62
     0
100
AcDbLine
 10
-295.6999999999989
 20
-295.2963840424818
 30
0.0
 11
227.6567603405692
 21
-644.1999999999998
 31
0.0
  0
LINE
  5
2915
330
2F0F
100
AcDbEntity
  8
0
 62
     0
100
AcDbLine
 10
-295.6999999999989
 20
-292.2964175070665
 30
0.0
 11
232.1567216344574
 21
-644.2000000000034
 31
0.0
  0
LINE
  5
2916
330
2F0F
100
AcDbEntity
  8
0
 62
     0
100
AcDbLine
 10
-295.7000000000008
 20
-289.2964509716492
 30
0.0
 11
236.6566829283402
 21
-644.2000000000016
 31
0.0
  0
LINE
  5
2917
330
2F0F
100
AcDbEntity
  8
0
 62
     0
100
AcDbLine
 10
-295.6999999999971
 20
-286.2964844362323
 30
0.0
 11
241.1566442222284
 21
-644.2000000000007
 31
0.0
  0
LINE
  5
2918
330
2F0F
100
AcDbEntity
  8
0
 62
     0
100
AcDbLine
 10
-295.6999999999989
 20
-283.296517900817
 30
0.0
 11
245.6566055161147
 21
-644.2000000000025
 31
0.0
  0
LINE
  5
2919
330
2F0F
100
AcDbEntity
  8
0
 62
     0
100
AcDbLine
 10
-295.7000000000008
 20
-280.2965513653999
 30
0.0
 11
250.1565668099975
 21
-644.1999999999998
 31
0.0
  0
LINE
  5
291A
330
2F0F
100
AcDbEntity
  8
0
 62
     0
100
AcDbLine
 10
-295.6999999999989
 20
-277.2965848299855
 30
0.0
 11
254.6565281038838
 21
-644.2000000000016
 31
0.0
  0
LINE
  5
291B
330
2F0F
100
AcDbEntity
  8
0
 62
     0
100
AcDbLine
 10
-295.6999999999989
 20
-274.2966182945675
 30
0.0
 11
259.1564893977684
 21
-644.1999999999998
 31
0.0
  0
LINE
  5
291C
330
2F0F
100
AcDbEntity
  8
0
 62
     0
100
AcDbLine
 10
-295.6999999999989
 20
-271.2966517591531
 30
0.0
 11
263.6564506916566
 21
-644.2000000000025
 31
0.0
  0
LINE
  5
291D
330
2F0F
100
AcDbEntity
  8
0
 62
     0
100
AcDbLine
 10
-295.6999999999989
 20
-268.296685223735
 30
0.0
 11
268.1564119855411
 21
-644.2000000000007
 31
0.0
  0
LINE
  5
291E
330
2F0F
100
AcDbEntity
  8
0
 62
     0
100
AcDbLine
 10
-295.6999999999971
 20
-265.2967186883206
 30
0.0
 11
272.6563732794275
 21
-644.2000000000025
 31
0.0
  0
LINE
  5
291F
330
2F0F
100
AcDbEntity
  8
0
 62
     0
100
AcDbLine
 10
-295.6999999999989
 20
-262.2967521529036
 30
0.0
 11
277.156334573312
 21
-644.2000000000016
 31
0.0
  0
LINE
  5
2920
330
2F0F
100
AcDbEntity
  8
0
 62
     0
100
AcDbLine
 10
-295.6999999999989
 20
-259.2967856174882
 30
0.0
 11
281.6562958671984
 21
-644.2000000000034
 31
0.0
  0
LINE
  5
2921
330
2F0F
100
AcDbEntity
  8
0
 62
     0
100
AcDbLine
 10
-295.6999999999989
 20
-256.2968190820711
 30
0.0
 11
286.156257161083
 21
-644.2000000000007
 31
0.0
  0
LINE
  5
2922
330
2F0F
100
AcDbEntity
  8
0
 62
     0
100
AcDbLine
 10
-295.6999999999971
 20
-253.2968525466558
 30
0.0
 11
290.6562184549692
 21
-644.2000000000025
 31
0.0
  0
LINE
  5
2923
330
2F0F
100
AcDbEntity
  8
0
 62
     0
100
AcDbLine
 10
-295.6999999999989
 20
-250.2968860112396
 30
0.0
 11
295.1561797488539
 21
-644.2000000000025
 31
0.0
  0
LINE
  5
2924
330
2F0F
100
AcDbEntity
  8
0
 62
     0
100
AcDbLine
 10
-295.6999999999989
 20
-247.2969194758216
 30
0.0
 11
295.6999999999953
 21
-641.5625793729059
 31
0.0
  0
LINE
  5
2925
330
2F0F
100
AcDbEntity
  8
0
 62
     0
100
AcDbLine
 10
-295.6999999999989
 20
-244.2969529404063
 30
0.0
 11
295.6999999999953
 21
-638.5626128374905
 31
0.0
  0
LINE
  5
2926
330
2F0F
100
AcDbEntity
  8
0
 62
     0
100
AcDbLine
 10
-295.6999999999989
 20
-241.2969864049892
 30
0.0
 11
295.6999999999935
 21
-635.5626463020735
 31
0.0
  0
LINE
  5
2927
330
2F0F
100
AcDbEntity
  8
0
 62
     0
100
AcDbLine
 10
-295.7000000000008
 20
-238.2970198695739
 30
0.0
 11
295.6999999999935
 21
-632.5626797666582
 31
0.0
  0
LINE
  5
2928
330
2F0F
100
AcDbEntity
  8
0
 62
     0
100
AcDbLine
 10
-295.6999999999971
 20
-235.2970533341577
 30
0.0
 11
295.6999999999953
 21
-629.5627132312411
 31
0.0
  0
LINE
  5
2929
330
2F0F
100
AcDbEntity
  8
0
 62
     0
100
AcDbLine
 10
-295.6999999999989
 20
-232.2970867987424
 30
0.0
 11
295.6999999999953
 21
-626.5627466958257
 31
0.0
  0
LINE
  5
292A
330
2F0F
100
AcDbEntity
  8
0
 62
     0
100
AcDbLine
 10
-295.6999999999989
 20
-229.2971202633253
 30
0.0
 11
295.6999999999935
 21
-623.5627801604096
 31
0.0
  0
LINE
  5
292B
330
2F0F
100
AcDbEntity
  8
0
 62
     0
100
AcDbLine
 10
-295.7000000000008
 20
-226.2971537279091
 30
0.0
 11
295.6999999999953
 21
-620.5628136249941
 31
0.0
  0
LINE
  5
292C
330
2F0F
100
AcDbEntity
  8
0
 62
     0
100
AcDbLine
 10
-295.6999999999971
 20
-223.2971871924929
 30
0.0
 11
295.6999999999953
 21
-617.562847089577
 31
0.0
  0
LINE
  5
292D
330
2F0F
100
AcDbEntity
  8
0
 62
     0
100
AcDbLine
 10
-295.6999999999989
 20
-220.2972206570767
 30
0.0
 11
295.6999999999953
 21
-614.5628805541619
 31
0.0
  0
LINE
  5
292E
330
2F0F
100
AcDbEntity
  8
0
 62
     0
100
AcDbLine
 10
-295.6999999999971
 20
-217.2972541216613
 30
0.0
 11
295.6999999999953
 21
-611.5629140187447
 31
0.0
  0
LINE
  5
292F
330
2F0F
100
AcDbEntity
  8
0
 62
     0
100
AcDbLine
 10
-295.6999999999971
 20
-214.2972875862451
 30
0.0
 11
295.6999999999971
 21
-608.5629474833304
 31
0.0
  0
LINE
  5
2930
330
2F0F
100
AcDbEntity
  8
0
 62
     0
100
AcDbLine
 10
-295.6999999999989
 20
-211.297321050828
 30
0.0
 11
295.6999999999935
 21
-605.5629809479122
 31
0.0
  0
LINE
  5
2931
330
2F0F
100
AcDbEntity
  8
0
 62
     0
100
AcDbLine
 10
-295.6999999999989
 20
-208.2973545154109
 30
0.0
 11
295.6999999999935
 21
-602.5630144124952
 31
0.0
  0
LINE
  5
2932
330
2F0F
100
AcDbEntity
  8
0
 62
     0
100
AcDbLine
 10
-295.6999999999989
 20
-205.2973879799956
 30
0.0
 11
295.6999999999935
 21
-599.5630478770799
 31
0.0
  0
LINE
  5
2933
330
2F0F
100
AcDbEntity
  8
0
 62
     0
100
AcDbLine
 10
-295.6999999999971
 20
-202.2974214445794
 30
0.0
 11
295.6999999999953
 21
-596.563081341663
 31
0.0
  0
LINE
  5
2934
330
2F0F
100
AcDbEntity
  8
0
 62
     0
100
AcDbLine
 10
-295.7000000000008
 20
-199.2974549091631
 30
0.0
 11
295.6999999999935
 21
-593.5631148062474
 31
0.0
  0
LINE
  5
2935
330
2F0F
100
AcDbEntity
  8
0
 62
     0
100
AcDbLine
 10
-295.6999999999989
 20
-196.2974883737461
 30
0.0
 11
295.6999999999953
 21
-590.5631482708312
 31
0.0
  0
LINE
  5
2936
330
2F0F
100
AcDbEntity
  8
0
 62
     0
100
AcDbLine
 10
-295.6999999999989
 20
-193.2975218383308
 30
0.0
 11
295.6999999999971
 21
-587.563181735416
 31
0.0
  0
LINE
  5
2937
330
2F0F
100
AcDbEntity
  8
0
 62
     0
100
AcDbLine
 10
-295.6999999999989
 20
-190.2975553029136
 30
0.0
 11
295.6999999999953
 21
-584.5632151999985
 31
0.0
  0
LINE
  5
2938
330
2F0F
100
AcDbEntity
  8
0
 62
     0
100
AcDbLine
 10
-295.7000000000008
 20
-187.2975887674992
 30
0.0
 11
295.6999999999953
 21
-581.5632486645836
 31
0.0
  0
LINE
  5
2939
330
2F0F
100
AcDbEntity
  8
0
 62
     0
100
AcDbLine
 10
-295.6999999999989
 20
-184.2976222320821
 30
0.0
 11
295.6999999999953
 21
-578.5632821291665
 31
0.0
  0
LINE
  5
293A
330
2F0F
100
AcDbEntity
  8
0
 62
     0
100
AcDbLine
 10
-295.6999999999989
 20
-181.2976556966669
 30
0.0
 11
295.6999999999971
 21
-575.5633155937521
 31
0.0
  0
LINE
  5
293B
330
2F0F
100
AcDbEntity
  8
0
 62
     0
100
AcDbLine
 10
-295.6999999999989
 20
-178.2976891612497
 30
0.0
 11
295.6999999999935
 21
-572.5633490583341
 31
0.0
  0
LINE
  5
293C
330
2F0F
100
AcDbEntity
  8
0
 62
     0
100
AcDbLine
 10
-295.6999999999989
 20
-175.2977226258344
 30
0.0
 11
295.6999999999971
 21
-569.5633825229196
 31
0.0
  0
LINE
  5
293D
330
2F0F
100
AcDbEntity
  8
0
 62
     0
100
AcDbLine
 10
-295.6999999999989
 20
-172.2977560904164
 30
0.0
 11
295.6999999999953
 21
-566.5634159875016
 31
0.0
  0
LINE
  5
293E
330
2F0F
100
AcDbEntity
  8
0
 62
     0
100
AcDbLine
 10
-295.7000000000008
 20
-169.2977895550002
 30
0.0
 11
295.6999999999971
 21
-563.5634494520872
 31
0.0
  0
LINE
  5
293F
330
2F0F
100
AcDbEntity
  8
0
 62
     0
100
AcDbLine
 10
-295.7000000000008
 20
-166.2978230195849
 30
0.0
 11
295.6999999999971
 21
-560.563482916672
 31
0.0
  0
LINE
  5
2940
330
2F0F
100
AcDbEntity
  8
0
 62
     0
100
AcDbLine
 10
-295.6999999999971
 20
-163.2978564841678
 30
0.0
 11
295.6999999999989
 21
-557.5635163812545
 31
0.0
  0
LINE
  5
2941
330
2F0F
100
AcDbEntity
  8
0
 62
     0
100
AcDbLine
 10
-295.6999999999989
 20
-160.2978899487525
 30
0.0
 11
295.6999999999989
 21
-554.5635498458396
 31
0.0
  0
LINE
  5
2942
330
2F0F
100
AcDbEntity
  8
0
 62
     0
100
AcDbLine
 10
-295.6999999999989
 20
-157.2979234133354
 30
0.0
 11
295.6999999999971
 21
-551.5635833104225
 31
0.0
  0
LINE
  5
2943
330
2F0F
100
AcDbEntity
  8
0
 62
     0
100
AcDbLine
 10
-295.6999999999989
 20
-154.297956877921
 30
0.0
 11
295.6999999999989
 21
-548.563616775008
 31
0.0
  0
LINE
  5
2944
330
2F0F
100
AcDbEntity
  8
0
 62
     0
100
AcDbLine
 10
-295.6999999999971
 20
-151.2979903425039
 30
0.0
 11
295.6999999999989
 21
-545.5636502395901
 31
0.0
  0
LINE
  5
2945
330
2F0F
100
AcDbEntity
  8
0
 62
     0
100
AcDbLine
 10
-295.6999999999989
 20
-148.2980238070886
 30
0.0
 11
295.6999999999971
 21
-542.5636837041746
 31
0.0
  0
LINE
  5
2946
330
2F0F
100
AcDbEntity
  8
0
 62
     0
100
AcDbLine
 10
-295.6999999999989
 20
-145.2980572716706
 30
0.0
 11
295.6999999999989
 21
-539.5637171687577
 31
0.0
  0
LINE
  5
2947
330
2F0F
100
AcDbEntity
  8
0
 62
     0
100
AcDbLine
 10
-295.6999999999989
 20
-142.2980907362553
 30
0.0
 11
295.7000000000008
 21
-536.5637506333431
 31
0.0
  0
LINE
  5
2948
330
2F0F
100
AcDbEntity
  8
0
 62
     0
100
AcDbLine
 10
-295.6999999999989
 20
-139.2981242008391
 30
0.0
 11
295.6999999999989
 21
-533.5637840979252
 31
0.0
  0
LINE
  5
2949
330
2F0F
100
AcDbEntity
  8
0
 62
     0
100
AcDbLine
 10
-295.7000000000008
 20
-136.2981576654238
 30
0.0
 11
295.6999999999971
 21
-530.563817562511
 31
0.0
  0
LINE
  5
294A
330
2F0F
100
AcDbEntity
  8
0
 62
     0
100
AcDbLine
 10
-295.6999999999989
 20
-133.2981911300066
 30
0.0
 11
295.6999999999989
 21
-527.5638510270936
 31
0.0
  0
LINE
  5
294B
330
2F0F
100
AcDbEntity
  8
0
 62
     0
100
AcDbLine
 10
-295.6999999999989
 20
-130.2982245945895
 30
0.0
 11
295.6999999999989
 21
-524.5638844916766
 31
0.0
  0
LINE
  5
294C
330
2F0F
100
AcDbEntity
  8
0
 62
     0
100
AcDbLine
 10
-295.6999999999989
 20
-127.2982580591742
 30
0.0
 11
295.6999999999989
 21
-521.5639179562612
 31
0.0
  0
LINE
  5
294D
330
2F0F
100
AcDbEntity
  8
0
 62
     0
100
AcDbLine
 10
-295.6999999999989
 20
-124.298291523758
 30
0.0
 11
295.6999999999989
 21
-518.5639514208451
 31
0.0
  0
LINE
  5
294E
330
2F0F
100
AcDbEntity
  8
0
 62
     0
100
AcDbLine
 10
-295.6999999999971
 20
-121.2983249883427
 30
0.0
 11
295.7000000000008
 21
-515.5639848854298
 31
0.0
  0
LINE
  5
294F
330
2F0F
100
AcDbEntity
  8
0
 62
     0
100
AcDbLine
 10
-295.7000000000008
 20
-118.2983584529247
 30
0.0
 11
295.6999999999971
 21
-512.5640183500117
 31
0.0
  0
LINE
  5
2950
330
2F0F
100
AcDbEntity
  8
0
 62
     0
100
AcDbLine
 10
-294.9475859549584
 20
-115.7999999999993
 30
0.0
 11
295.6999999999989
 21
-509.5640518145974
 31
0.0
  0
LINE
  5
2951
330
2F0F
100
AcDbEntity
  8
0
 62
     0
100
AcDbLine
 10
-290.4476246610703
 20
-115.7999999999983
 30
0.0
 11
295.6999999999989
 21
-506.5640852791791
 31
0.0
  0
LINE
  5
2952
330
2F0F
100
AcDbEntity
  8
0
 62
     0
100
AcDbLine
 10
-285.9476633671857
 20
-115.7999999999993
 30
0.0
 11
295.6999999999989
 21
-503.564118743764
 31
0.0
  0
LINE
  5
2953
330
2F0F
100
AcDbEntity
  8
0
 62
     0
100
AcDbLine
 10
-281.4477020733029
 20
-115.7999999999974
 30
0.0
 11
295.6999999999971
 21
-500.5641522083477
 31
0.0
  0
LINE
  5
2954
330
2F0F
100
AcDbEntity
  8
0
 62
     0
100
AcDbLine
 10
-276.9477407794166
 20
-115.7999999999983
 30
0.0
 11
295.6999999999989
 21
-497.5641856729326
 31
0.0
  0
LINE
  5
2955
330
2F0F
100
AcDbEntity
  8
0
 62
     0
100
AcDbLine
 10
-272.4477794855284
 20
-115.7999999999993
 30
0.0
 11
295.6999999999989
 21
-494.5642191375155
 31
0.0
  0
LINE
  5
2956
330
2F0F
100
AcDbEntity
  8
0
 62
     0
100
AcDbLine
 10
-267.9478181916438
 20
-115.7999999999993
 30
0.0
 11
295.6999999999989
 21
-491.5642526021001
 31
0.0
  0
LINE
  5
2957
330
2F0F
100
AcDbEntity
  8
0
 62
     0
100
AcDbLine
 10
-263.4478568977593
 20
-115.7999999999983
 30
0.0
 11
295.6999999999989
 21
-488.564286066683
 31
0.0
  0
LINE
  5
2958
330
2F0F
100
AcDbEntity
  8
0
 62
     0
100
AcDbLine
 10
-258.9478956038729
 20
-115.7999999999965
 30
0.0
 11
295.7000000000008
 21
-485.5643195312665
 31
0.0
  0
LINE
  5
2959
330
2F0F
100
AcDbEntity
  8
0
 62
     0
100
AcDbLine
 10
-254.4479343099865
 20
-115.7999999999993
 30
0.0
 11
295.6999999999989
 21
-482.5643529958512
 31
0.0
  0
LINE
  5
295A
330
2F0F
100
AcDbEntity
  8
0
 62
     0
100
AcDbLine
 10
-249.947973016102
 20
-115.7999999999983
 30
0.0
 11
295.6999999999971
 21
-479.5643864604335
 31
0.0
  0
LINE
  5
295B
330
2F0F
100
AcDbEntity
  8
0
 62
     0
100
AcDbLine
 10
-245.4480117222173
 20
-115.7999999999983
 30
0.0
 11
295.6999999999989
 21
-476.5644199250191
 31
0.0
  0
LINE
  5
295C
330
2F0F
100
AcDbEntity
  8
0
 62
     0
100
AcDbLine
 10
-240.9480504283292
 20
-115.7999999999993
 30
0.0
 11
295.6999999999989
 21
-473.5644533896011
 31
0.0
  0
LINE
  5
295D
330
2F0F
100
AcDbEntity
  8
0
 62
     0
100
AcDbLine
 10
-236.4480891344447
 20
-115.8000000000002
 30
0.0
 11
295.6999999999989
 21
-470.5644868541868
 31
0.0
  0
LINE
  5
295E
330
2F0F
100
AcDbEntity
  8
0
 62
     0
100
AcDbLine
 10
-231.9481278405583
 20
-115.7999999999983
 30
0.0
 11
295.6999999999989
 21
-467.5645203187696
 31
0.0
  0
LINE
  5
295F
330
2F0F
100
AcDbEntity
  8
0
 62
     0
100
AcDbLine
 10
-227.4481665466737
 20
-115.7999999999993
 30
0.0
 11
295.7000000000008
 21
-464.5645537833543
 31
0.0
  0
LINE
  5
2960
330
2F0F
100
AcDbEntity
  8
0
 62
     0
100
AcDbLine
 10
-222.9482052527874
 20
-115.7999999999983
 30
0.0
 11
295.6999999999989
 21
-461.5645872479371
 31
0.0
  0
LINE
  5
2961
330
2F0F
100
AcDbEntity
  8
0
 62
     0
100
AcDbLine
 10
-218.4482439589046
 20
-115.7999999999993
 30
0.0
 11
295.6999999999989
 21
-458.5646207125217
 31
0.0
  0
LINE
  5
2962
330
2F0F
100
AcDbEntity
  8
0
 62
     0
100
AcDbLine
 10
-213.9482826650183
 20
-115.7999999999974
 30
0.0
 11
295.6999999999989
 21
-455.5646541771056
 31
0.0
  0
LINE
  5
2963
330
2F0F
100
AcDbEntity
  8
0
 62
     0
100
AcDbLine
 10
79.9000000000051
 20
-308.6983883420799
 30
0.0
 11
81.25242094032365
 21
-309.5999999999985
 31
0.0
  0
LINE
  5
2964
330
2F0F
100
AcDbEntity
  8
0
 62
     0
100
AcDbLine
 10
81.25242094032365
 20
-309.5999999999985
 30
0.0
 11
295.6999999999989
 21
-452.5646876416892
 31
0.0
  0
LINE
  5
2965
330
2F0F
100
AcDbEntity
  8
0
 62
     0
100
AcDbLine
 10
-209.4483213711337
 20
-115.7999999999983
 30
0.0
 11
79.90000000000145
 21
-308.6983883420762
 31
0.0
  0
LINE
  5
2966
330
2F0F
100
AcDbEntity
  8
0
 62
     0
100
AcDbLine
 10
79.9000000000051
 20
-305.6984218066627
 30
0.0
 11
85.75238223420637
 21
-309.5999999999968
 31
0.0
  0
LINE
  5
2967
330
2F0F
100
AcDbEntity
  8
0
 62
     0
100
AcDbLine
 10
85.75238223420999
 20
-309.5999999999995
 30
0.0
 11
295.6999999999989
 21
-449.5647211062729
 31
0.0
  0
LINE
  5
2968
330
2F0F
100
AcDbEntity
  8
0
 62
     0
100
AcDbLine
 10
-204.9483600772455
 20
-115.7999999999993
 30
0.0
 11
79.89999999999962
 21
-305.6984218066591
 31
0.0
  0
LINE
  5
2969
330
2F0F
100
AcDbEntity
  8
0
 62
     0
100
AcDbLine
 10
79.9000000000051
 20
-302.6984552712475
 30
0.0
 11
90.25234352809635
 21
-309.5999999999995
 31
0.0
  0
LINE
  5
296A
330
2F0F
100
AcDbEntity
  8
0
 62
     0
100
AcDbLine
 10
90.25234352809635
 20
-309.5999999999995
 30
0.0
 11
295.6999999999989
 21
-446.5647545708567
 31
0.0
  0
LINE
  5
296B
330
2F0F
100
AcDbEntity
  8
0
 62
     0
100
AcDbLine
 10
-200.448398783361
 20
-115.7999999999993
 30
0.0
 11
79.90000000000145
 21
-302.6984552712447
 31
0.0
  0
LINE
  5
296C
330
2F0F
100
AcDbEntity
  8
0
 62
     0
100
AcDbLine
 10
79.9000000000069
 20
-299.6984887358303
 30
0.0
 11
94.75230482198091
 21
-309.5999999999985
 31
0.0
  0
LINE
  5
296D
330
2F0F
100
AcDbEntity
  8
0
 62
     0
100
AcDbLine
 10
94.75230482198091
 20
-309.5999999999985
 30
0.0
 11
295.7000000000008
 21
-443.5647880354408
 31
0.0
  0
LINE
  5
296E
330
2F0F
100
AcDbEntity
  8
0
 62
     0
100
AcDbLine
 10
-195.9484374894746
 20
-115.7999999999983
 30
0.0
 11
79.90000000000145
 21
-299.6984887358276
 31
0.0
  0
LINE
  5
296F
330
2F0F
100
AcDbEntity
  8
0
 62
     0
100
AcDbLine
 10
79.9000000000051
 20
-296.6985222004132
 30
0.0
 11
99.25226611586548
 21
-309.5999999999968
 31
0.0
  0
LINE
  5
2970
330
2F0F
100
AcDbEntity
  8
0
 62
     0
100
AcDbLine
 10
99.25226611586548
 20
-309.5999999999968
 30
0.0
 11
295.6999999999989
 21
-440.5648215000224
 31
0.0
  0
LINE
  5
2971
330
2F0F
100
AcDbEntity
  8
0
 62
     0
100
AcDbLine
 10
-191.4484761955882
 20
-115.7999999999993
 30
0.0
 11
79.90000000000145
 21
-296.6985222004105
 31
0.0
  0
LINE
  5
2972
330
2F0F
100
AcDbEntity
  8
0
 62
     0
100
AcDbLine
 10
79.90000000000326
 20
-293.698555664997
 30
0.0
 11
103.7522274097518
 21
-309.5999999999995
 31
0.0
  0
LINE
  5
2973
330
2F0F
100
AcDbEntity
  8
0
 62
     0
100
AcDbLine
 10
103.7522274097518
 20
-309.5999999999995
 30
0.0
 11
295.6999999999971
 21
-437.5648549646085
 31
0.0
  0
LINE
  5
2974
330
2F0F
100
AcDbEntity
  8
0
 62
     0
100
AcDbLine
 10
-186.9485149017054
 20
-115.7999999999993
 30
0.0
 11
79.89999999999962
 21
-293.6985556649952
 31
0.0
  0
LINE
  5
2975
330
2F0F
100
AcDbEntity
  8
0
 62
     0
100
AcDbLine
 10
79.9000000000069
 20
-290.6985891295817
 30
0.0
 11
108.25218870364
 21
-309.5999999999985
 31
0.0
  0
LINE
  5
2976
330
2F0F
100
AcDbEntity
  8
0
 62
     0
100
AcDbLine
 10
108.25218870364
 20
-309.5999999999985
 30
0.0
 11
295.7000000000008
 21
-434.5648884291913
 31
0.0
  0
LINE
  5
2977
330
2F0F
100
AcDbEntity
  8
0
 62
     0
100
AcDbLine
 10
-182.4485536078173
 20
-115.7999999999983
 30
0.0
 11
79.90000000000145
 21
-290.6985891295772
 31
0.0
  0
LINE
  5
2978
330
2F0F
100
AcDbEntity
  8
0
 62
     0
100
AcDbLine
 10
79.9000000000051
 20
-287.6986225941655
 30
0.0
 11
112.7521499975228
 21
-309.5999999999985
 31
0.0
  0
LINE
  5
2979
330
2F0F
100
AcDbEntity
  8
0
 62
     0
100
AcDbLine
 10
112.7521499975228
 20
-309.5999999999985
 30
0.0
 11
295.6999999999989
 21
-431.5649218937759
 31
0.0
  0
LINE
  5
297A
330
2F0F
100
AcDbEntity
  8
0
 62
     0
100
AcDbLine
 10
-177.9485923139327
 20
-115.7999999999983
 30
0.0
 11
79.90000000000145
 21
-287.6986225941637
 31
0.0
  0
LINE
  5
297B
330
2F0F
100
AcDbEntity
  8
0
 62
     0
100
AcDbLine
 10
79.90000000000326
 20
-284.6986560587484
 30
0.0
 11
117.2521112914073
 21
-309.5999999999976
 31
0.0
  0
LINE
  5
297C
330
2F0F
100
AcDbEntity
  8
0
 62
     0
100
AcDbLine
 10
117.2521112914092
 20
-309.5999999999985
 30
0.0
 11
295.6999999999989
 21
-428.5649553583588
 31
0.0
  0
LINE
  5
297D
330
2F0F
100
AcDbEntity
  8
0
 62
     0
100
AcDbLine
 10
-173.4486310200481
 20
-115.7999999999983
 30
0.0
 11
79.89999999999962
 21
-284.6986560587457
 31
0.0
  0
LINE
  5
297E
330
2F0F
100
AcDbEntity
  8
0
 62
     0
100
AcDbLine
 10
79.9000000000051
 20
-281.6986895233331
 30
0.0
 11
121.7520725852937
 21
-309.5999999999985
 31
0.0
  0
LINE
  5
297F
330
2F0F
100
AcDbEntity
  8
0
 62
     0
100
AcDbLine
 10
121.7520725852937
 20
-309.5999999999985
 30
0.0
 11
295.6999999999989
 21
-425.5649888229436
 31
0.0
  0
LINE
  5
2980
330
2F0F
100
AcDbEntity
  8
0
 62
     0
100
AcDbLine
 10
-168.9486697261618
 20
-115.7999999999993
 30
0.0
 11
79.89999999999962
 21
-281.6986895233304
 31
0.0
  0
LINE
  5
2981
330
2F0F
100
AcDbEntity
  8
0
 62
     0
100
AcDbLine
 10
79.9000000000051
 20
-278.698722987916
 30
0.0
 11
126.2520338791801
 21
-309.5999999999976
 31
0.0
  0
LINE
  5
2982
330
2F0F
100
AcDbEntity
  8
0
 62
     0
100
AcDbLine
 10
126.2520338791801
 20
-309.5999999999976
 30
0.0
 11
295.7000000000008
 21
-422.5650222875271
 31
0.0
  0
LINE
  5
2983
330
2F0F
100
AcDbEntity
  8
0
 62
     0
100
AcDbLine
 10
-164.4487084322773
 20
-115.7999999999974
 30
0.0
 11
79.90000000000145
 21
-278.6987229879132
 31
0.0
  0
LINE
  5
2984
330
2F0F
100
AcDbEntity
  8
0
 62
     0
100
AcDbLine
 10
79.9000000000051
 20
-275.6987564525016
 30
0.0
 11
130.7519951730628
 21
-309.5999999999976
 31
0.0
  0
LINE
  5
2985
330
2F0F
100
AcDbEntity
  8
0
 62
     0
100
AcDbLine
 10
130.7519951730628
 20
-309.5999999999976
 30
0.0
 11
295.6999999999989
 21
-419.5650557521112
 31
0.0
  0
LINE
  5
2986
330
2F0F
100
AcDbEntity
  8
0
 62
     0
100
AcDbLine
 10
-159.9487471383927
 20
-115.7999999999983
 30
0.0
 11
79.89999999999962
 21
-275.698756452498
 31
0.0
  0
LINE
  5
2987
330
2F0F
100
AcDbEntity
  8
0
 62
     0
100
AcDbLine
 10
79.90000000000326
 20
-272.6987899170836
 30
0.0
 11
135.2519564669528
 21
-309.5999999999985
 31
0.0
  0
LINE
  5
2988
330
2F0F
100
AcDbEntity
  8
0
 62
     0
100
AcDbLine
 10
135.2519564669528
 20
-309.5999999999985
 30
0.0
 11
295.7000000000008
 21
-416.565089216695
 31
0.0
  0
LINE
  5
2989
330
2F0F
100
AcDbEntity
  8
0
 62
     0
100
AcDbLine
 10
-155.4487858445045
 20
-115.7999999999983
 30
0.0
 11
79.90000000000145
 21
-272.6987899170818
 31
0.0
  0
LINE
  5
298A
330
2F0F
100
AcDbEntity
  8
0
 62
     0
100
AcDbLine
 10
79.9000000000051
 20
-269.6988233816683
 30
0.0
 11
139.7519177608374
 21
-309.5999999999995
 31
0.0
  0
LINE
  5
298B
330
2F0F
100
AcDbEntity
  8
0
 62
     0
100
AcDbLine
 10
139.7519177608374
 20
-309.5999999999995
 30
0.0
 11
295.7000000000008
 21
-413.5651226812788
 31
0.0
  0
LINE
  5
298C
330
2F0F
100
AcDbEntity
  8
0
 62
     0
100
AcDbLine
 10
-150.9488245506181
 20
-115.7999999999993
 30
0.0
 11
79.90000000000145
 21
-269.6988233816664
 31
0.0
  0
LINE
  5
298D
330
2F0F
100
AcDbEntity
  8
0
 62
     0
100
AcDbLine
 10
79.9000000000051
 20
-266.6988568462512
 30
0.0
 11
144.2518790547219
 21
-309.5999999999976
 31
0.0
  0
LINE
  5
298E
330
2F0F
100
AcDbEntity
  8
0
 62
     0
100
AcDbLine
 10
144.2518790547219
 20
-309.5999999999976
 30
0.0
 11
295.6999999999989
 21
-410.5651561458615
 31
0.0
  0
LINE
  5
298F
330
2F0F
100
AcDbEntity
  8
0
 62
     0
100
AcDbLine
 10
-146.4488632567354
 20
-115.7999999999983
 30
0.0
 11
79.90000000000145
 21
-266.6988568462493
 31
0.0
  0
LINE
  5
2990
330
2F0F
100
AcDbEntity
  8
0
 62
     0
100
AcDbLine
 10
79.90000000000326
 20
-263.6988903108357
 30
0.0
 11
148.7518403486046
 21
-309.5999999999985
 31
0.0
  0
LINE
  5
2991
330
2F0F
100
AcDbEntity
  8
0
 62
     0
100
AcDbLine
 10
148.7518403486046
 20
-309.5999999999985
 30
0.0
 11
295.6999999999989
 21
-407.5651896104471
 31
0.0
  0
LINE
  5
2992
330
2F0F
100
AcDbEntity
  8
0
 62
     0
100
AcDbLine
 10
-141.948901962849
 20
-115.8000000000002
 30
0.0
 11
79.89999999999962
 21
-263.698890310834
 31
0.0
  0
LINE
  5
2993
330
2F0F
100
AcDbEntity
  8
0
 62
     0
100
AcDbLine
 10
79.9000000000051
 20
-260.6989237754196
 30
0.0
 11
153.2518016424947
 21
-309.5999999999995
 31
0.0
  0
LINE
  5
2994
330
2F0F
100
AcDbEntity
  8
0
 62
     0
100
AcDbLine
 10
153.2518016424947
 20
-309.5999999999995
 30
0.0
 11
295.6999999999989
 21
-404.5652230750302
 31
0.0
  0
LINE
  5
2995
330
2F0F
100
AcDbEntity
  8
0
 62
     0
100
AcDbLine
 10
-137.4489406689626
 20
-115.7999999999993
 30
0.0
 11
79.90000000000145
 21
-260.6989237754169
 31
0.0
  0
LINE
  5
2996
330
2F0F
100
AcDbEntity
  8
0
 62
     0
100
AcDbLine
 10
79.9000000000051
 20
-257.6989572400025
 30
0.0
 11
157.7517629363792
 21
-309.5999999999976
 31
0.0
  0
LINE
  5
2997
330
2F0F
100
AcDbEntity
  8
0
 62
     0
100
AcDbLine
 10
157.7517629363792
 20
-309.5999999999976
 30
0.0
 11
295.7000000000008
 21
-401.5652565396129
 31
0.0
  0
LINE
  5
2998
330
2F0F
100
AcDbEntity
  8
0
 62
     0
100
AcDbLine
 10
-132.9489793750781
 20
-115.7999999999974
 30
0.0
 11
79.90000000000145
 21
-257.6989572399989
 31
0.0
  0
LINE
  5
2999
330
2F0F
100
AcDbEntity
  8
0
 62
     0
100
AcDbLine
 10
79.9000000000051
 20
-254.6989907045873
 30
0.0
 11
162.2517242302638
 21
-309.5999999999985
 31
0.0
  0
LINE
  5
299A
330
2F0F
100
AcDbEntity
  8
0
 62
     0
100
AcDbLine
 10
162.2517242302638
 20
-309.5999999999985
 30
0.0
 11
295.6999999999989
 21
-398.5652900041978
 31
0.0
  0
LINE
  5
299B
330
2F0F
100
AcDbEntity
  8
0
 62
     0
100
AcDbLine
 10
-128.4490180811935
 20
-115.7999999999983
 30
0.0
 11
79.90000000000145
 21
-254.6989907045854
 31
0.0
  0
LINE
  5
299C
330
2F0F
100
AcDbEntity
  8
0
 62
     0
100
AcDbLine
 10
79.9000000000051
 20
-251.6990241691701
 30
0.0
 11
166.7516855241483
 21
-309.5999999999968
 31
0.0
  0
LINE
  5
299D
330
2F0F
100
AcDbEntity
  8
0
 62
     0
100
AcDbLine
 10
166.751685524152
 20
-309.5999999999985
 30
0.0
 11
295.7000000000008
 21
-395.5653234687807
 31
0.0
  0
LINE
  5
299E
330
2F0F
100
AcDbEntity
  8
0
 62
     0
100
AcDbLine
 10
-123.9490567873054
 20
-115.7999999999993
 30
0.0
 11
79.90000000000145
 21
-251.6990241691674
 31
0.0
  0
LINE
  5
299F
330
2F0F
100
AcDbEntity
  8
0
 62
     0
100
AcDbLine
 10
79.9000000000069
 20
-248.6990576337548
 30
0.0
 11
171.2516468180365
 21
-309.5999999999995
 31
0.0
  0
LINE
  5
29A0
330
2F0F
100
AcDbEntity
  8
0
 62
     0
100
AcDbLine
 10
171.2516468180365
 20
-309.5999999999995
 30
0.0
 11
295.7000000000025
 21
-392.5653569333672
 31
0.0
  0
LINE
  5
29A1
330
2F0F
100
AcDbEntity
  8
0
 62
     0
100
AcDbLine
 10
-119.449095493419
 20
-115.7999999999993
 30
0.0
 11
79.90000000000145
 21
-248.6990576337521
 31
0.0
  0
LINE
  5
29A2
330
2F0F
100
AcDbEntity
  8
0
 62
     0
100
AcDbLine
 10
79.90000000000326
 20
-245.6990910983368
 30
0.0
 11
175.7516081119211
 21
-309.5999999999985
 31
0.0
  0
LINE
  5
29A3
330
2F0F
100
AcDbEntity
  8
0
 62
     0
100
AcDbLine
 10
175.7516081119211
 20
-309.5999999999985
 30
0.0
 11
295.7000000000025
 21
-389.565390397951
 31
0.0
  0
LINE
  5
29A4
330
2F0F
100
AcDbEntity
  8
0
 62
     0
100
AcDbLine
 10
-114.9491341995362
 20
-115.7999999999983
 30
0.0
 11
79.90000000000145
 21
-245.699091098335
 31
0.0
  0
LINE
  5
29A5
330
2F0F
100
AcDbEntity
  8
0
 62
     0
100
AcDbLine
 10
79.90000000000326
 20
-242.6991245629224
 30
0.0
 11
180.2515694058056
 21
-309.5999999999985
 31
0.0
  0
LINE
  5
29A6
330
2F0F
100
AcDbEntity
  8
0
 62
     0
100
AcDbLine
 10
180.2515694058056
 20
-309.5999999999985
 30
0.0
 11
295.7000000000008
 21
-386.5654238625348
 31
0.0
  0
LINE
  5
29A7
330
2F0F
100
AcDbEntity
  8
0
 62
     0
100
AcDbLine
 10
-110.4491729056481
 20
-115.8000000000011
 30
0.0
 11
79.89999999999962
 21
-242.6991245629197
 31
0.0
  0
LINE
  5
29A8
330
2F0F
100
AcDbEntity
  8
0
 62
     0
100
AcDbLine
 10
79.9000000000051
 20
-239.6991580275053
 30
0.0
 11
184.7515306996938
 21
-309.5999999999985
 31
0.0
  0
LINE
  5
29A9
330
2F0F
100
AcDbEntity
  8
0
 62
     0
100
AcDbLine
 10
184.7515306996938
 20
-309.5999999999985
 30
0.0
 11
295.7000000000044
 21
-383.5654573271177
 31
0.0
  0
LINE
  5
29AA
330
2F0F
100
AcDbEntity
  8
0
 62
     0
100
AcDbLine
 10
-105.9492116117635
 20
-115.7999999999983
 30
0.0
 11
79.90000000000326
 21
-239.6991580275035
 31
0.0
  0
LINE
  5
29AB
330
2F0F
100
AcDbEntity
  8
0
 62
     0
100
AcDbLine
 10
79.9000000000051
 20
-236.69919149209
 30
0.0
 11
189.2514919935783
 21
-309.5999999999985
 31
0.0
  0
LINE
  5
29AC
330
2F0F
100
AcDbEntity
  8
0
 62
     0
100
AcDbLine
 10
189.2514919935783
 20
-309.5999999999985
 30
0.0
 11
295.7000000000025
 21
-380.5654907917024
 31
0.0
  0
LINE
  5
29AD
330
2F0F
100
AcDbEntity
  8
0
 62
     0
100
AcDbLine
 10
-101.4492503178771
 20
-115.8000000000002
 30
0.0
 11
79.90000000000145
 21
-236.6991914920882
 31
0.0
  0
LINE
  5
29AE
330
2F0F
100
AcDbEntity
  8
0
 62
     0
100
AcDbLine
 10
79.90000000000326
 20
-233.6992249566729
 30
0.0
 11
193.7514532874611
 21
-309.5999999999976
 31
0.0
  0
LINE
  5
29AF
330
2F0F
100
AcDbEntity
  8
0
 62
     0
100
AcDbLine
 10
193.7514532874611
 20
-309.5999999999976
 30
0.0
 11
295.7000000000025
 21
-377.5655242562863
 31
0.0
  0
LINE
  5
29B0
330
2F0F
100
AcDbEntity
  8
0
 62
     0
100
AcDbLine
 10
-96.94928902399443
 20
-115.7999999999974
 30
0.0
 11
79.90000000000145
 21
-233.6992249566711
 31
0.0
  0
LINE
  5
29B1
330
2F0F
100
AcDbEntity
  8
0
 62
     0
100
AcDbLine
 10
79.9000000000051
 20
-230.6992584212576
 30
0.0
 11
198.2514145813475
 21
-309.5999999999976
 31
0.0
  0
LINE
  5
29B2
330
2F0F
100
AcDbEntity
  8
0
 62
     0
100
AcDbLine
 10
198.2514145813475
 20
-309.5999999999976
 30
0.0
 11
295.7000000000025
 21
-374.5655577208709
 31
0.0
  0
LINE
  5
29B3
330
2F0F
100
AcDbEntity
  8
0
 62
     0
100
AcDbLine
 10
-92.44932773010441
 20
-115.8000000000011
 30
0.0
 11
79.89999999999962
 21
-230.6992584212549
 31
0.0
  0
LINE
  5
29B4
330
2F0F
100
AcDbEntity
  8
0
 62
     0
100
AcDbLine
 10
79.9000000000051
 20
-227.6992918858414
 30
0.0
 11
202.7513758752357
 21
-309.5999999999985
 31
0.0
  0
LINE
  5
29B5
330
2F0F
100
AcDbEntity
  8
0
 62
     0
100
AcDbLine
 10
202.7513758752357
 20
-309.5999999999985
 30
0.0
 11
295.7000000000044
 21
-371.5655911854538
 31
0.0
  0
LINE
  5
29B6
330
2F0F
100
AcDbEntity
  8
0
 62
     0
100
AcDbLine
 10
-87.9493664362217
 20
-115.7999999999983
 30
0.0
 11
79.90000000000326
 21
-227.6992918858387
 31
0.0
  0
LINE
  5
29B7
330
2F0F
100
AcDbEntity
  8
0
 62
     0
100
AcDbLine
 10
79.9000000000051
 20
-224.6993253504261
 30
0.0
 11
207.2513371691184
 21
-309.5999999999985
 31
0.0
  0
LINE
  5
29B8
330
2F0F
100
AcDbEntity
  8
0
 62
     0
100
AcDbLine
 10
207.2513371691202
 20
-309.5999999999995
 30
0.0
 11
295.7000000000025
 21
-368.5656246500384
 31
0.0
  0
LINE
  5
29B9
330
2F0F
100
AcDbEntity
  8
0
 62
     0
100
AcDbLine
 10
-83.44940514233529
 20
-115.8000000000002
 30
0.0
 11
79.89999999999962
 21
-224.6993253504232
 31
0.0
  0
LINE
  5
29BA
330
2F0F
100
AcDbEntity
  8
0
 62
     0
100
AcDbLine
 10
79.9000000000051
 20
-221.6993588150089
 30
0.0
 11
211.7512984630048
 21
-309.5999999999976
 31
0.0
  0
LINE
  5
29BB
330
2F0F
100
AcDbEntity
  8
0
 62
     0
100
AcDbLine
 10
211.7512984630048
 20
-309.5999999999976
 30
0.0
 11
295.7000000000044
 21
-365.5656581146213
 31
0.0
  0
LINE
  5
29BC
330
2F0F
100
AcDbEntity
  8
0
 62
     0
100
AcDbLine
 10
-78.94944384845074
 20
-115.7999999999983
 30
0.0
 11
79.90000000000145
 21
-221.6993588150062
 31
0.0
  0
LINE
  5
29BD
330
2F0F
100
AcDbEntity
  8
0
 62
     0
100
AcDbLine
 10
79.9000000000051
 20
-218.699392279591
 30
0.0
 11
216.2512597568893
 21
-309.5999999999958
 31
0.0
  0
LINE
  5
29BE
330
2F0F
100
AcDbEntity
  8
0
 62
     0
100
AcDbLine
 10
216.251259756893
 20
-309.5999999999985
 30
0.0
 11
295.7000000000044
 21
-362.5656915792051
 31
0.0
  0
LINE
  5
29BF
330
2F0F
100
AcDbEntity
  8
0
 62
     0
100
AcDbLine
 10
-74.44948255456073
 20
-115.7999999999993
 30
0.0
 11
79.90000000000145
 21
-218.6993922795891
 31
0.0
  0
LINE
  5
29C0
330
2F0F
100
AcDbEntity
  8
0
 62
     0
100
AcDbLine
 10
79.90000000000326
 20
-215.6994257441756
 30
0.0
 11
220.7512210507776
 21
-309.5999999999995
 31
0.0
  0
LINE
  5
29C1
330
2F0F
100
AcDbEntity
  8
0
 62
     0
100
AcDbLine
 10
220.7512210507776
 20
-309.5999999999995
 30
0.0
 11
295.7000000000025
 21
-359.5657250437889
 31
0.0
  0
LINE
  5
29C2
330
2F0F
100
AcDbEntity
  8
0
 62
     0
100
AcDbLine
 10
-69.94952126067983
 20
-115.7999999999993
 30
0.0
 11
79.90000000000145
 21
-215.6994257441737
 31
0.0
  0
LINE
  5
29C3
330
2F0F
100
AcDbEntity
  8
0
 62
     0
100
AcDbLine
 10
79.90000000000326
 20
-212.6994592087594
 30
0.0
 11
225.2511823446603
 21
-309.5999999999968
 31
0.0
  0
LINE
  5
29C4
330
2F0F
100
AcDbEntity
  8
0
 62
     0
100
AcDbLine
 10
225.2511823446603
 20
-309.5999999999976
 30
0.0
 11
295.7000000000025
 21
-356.5657585083727
 31
0.0
  0
LINE
  5
29C5
330
2F0F
100
AcDbEntity
  8
0
 62
     0
100
AcDbLine
 10
-65.44955996679346
 20
-115.7999999999993
 30
0.0
 11
79.90000000000326
 21
-212.6994592087594
 31
0.0
  0
LINE
  5
29C6
330
2F0F
100
AcDbEntity
  8
0
 62
     0
100
AcDbLine
 10
79.9000000000051
 20
-209.6994926733442
 30
0.0
 11
229.7511436385466
 21
-309.5999999999985
 31
0.0
  0
LINE
  5
29C7
330
2F0F
100
AcDbEntity
  8
0
 62
     0
100
AcDbLine
 10
229.7511436385466
 20
-309.5999999999985
 30
0.0
 11
295.7000000000025
 21
-353.5657919729565
 31
0.0
  0
LINE
  5
29C8
330
2F0F
100
AcDbEntity
  8
0
 62
     0
100
AcDbLine
 10
-60.94959867290707
 20
-115.8000000000002
 30
0.0
 11
79.90000000000145
 21
-209.6994926733423
 31
0.0
  0
LINE
  5
29C9
330
2F0F
100
AcDbEntity
  8
0
 62
     0
100
AcDbLine
 10
79.9000000000051
 20
-206.699526137927
 30
0.0
 11
234.251104932433
 21
-309.5999999999976
 31
0.0
  0
LINE
  5
29CA
330
2F0F
100
AcDbEntity
  8
0
 62
     0
100
AcDbLine
 10
234.251104932433
 20
-309.5999999999976
 30
0.0
 11
295.7000000000025
 21
-350.5658254375394
 31
0.0
  0
LINE
  5
29CB
330
2F0F
100
AcDbEntity
  8
0
 62
     0
100
AcDbLine
 10
-56.44963737902253
 20
-115.7999999999983
 30
0.0
 11
79.90000000000145
 21
-206.6995261379252
 31
0.0
  0
LINE
  5
29CC
330
2F0F
100
AcDbEntity
  8
0
 62
     0
100
AcDbLine
 10
79.90000000000326
 20
-203.6995596025108
 30
0.0
 11
238.7510662263157
 21
-309.5999999999976
 31
0.0
  0
LINE
  5
29CD
330
2F0F
100
AcDbEntity
  8
0
 62
     0
100
AcDbLine
 10
238.7510662263176
 20
-309.5999999999985
 30
0.0
 11
295.7000000000025
 21
-347.565858902125
 31
0.0
  0
LINE
  5
29CE
330
2F0F
100
AcDbEntity
  8
0
 62
     0
100
AcDbLine
 10
-51.94967608513798
 20
-115.7999999999993
 30
0.0
 11
79.89999999999962
 21
-203.699559602509
 31
0.0
  0
LINE
  5
29CF
330
2F0F
100
AcDbEntity
  8
0
 62
     0
100
AcDbLine
 10
79.9000000000051
 20
-200.6995930670946
 30
0.0
 11
243.2510275202039
 21
-309.5999999999976
 31
0.0
  0
LINE
  5
29D0
330
2F0F
100
AcDbEntity
  8
0
 62
     0
100
AcDbLine
 10
243.2510275202039
 20
-309.5999999999976
 30
0.0
 11
295.7000000000025
 21
-344.5658923667078
 31
0.0
  0
LINE
  5
29D1
330
2F0F
100
AcDbEntity
  8
0
 62
     0
100
AcDbLine
 10
-47.44971479125342
 20
-115.7999999999974
 30
0.0
 11
79.90000000000145
 21
-200.6995930670928
 31
0.0
  0
LINE
  5
29D2
330
2F0F
100
AcDbEntity
  8
0
 62
     0
100
AcDbLine
 10
79.9000000000051
 20
-197.6996265316784
 30
0.0
 11
247.7509888140867
 21
-309.5999999999968
 31
0.0
  0
LINE
  5
29D3
330
2F0F
100
AcDbEntity
  8
0
 62
     0
100
AcDbLine
 10
247.7509888140885
 20
-309.5999999999976
 30
0.0
 11
295.7000000000044
 21
-341.5659258312926
 31
0.0
  0
LINE
  5
29D4
330
2F0F
100
AcDbEntity
  8
0
 62
     0
100
AcDbLine
 10
-42.94975349736342
 20
-115.8000000000011
 30
0.0
 11
79.90000000000145
 21
-197.6996265316764
 31
0.0
  0
LINE
  5
29D5
330
2F0F
100
AcDbEntity
  8
0
 62
     0
100
AcDbLine
 10
79.90000000000326
 20
-194.6996599962622
 30
0.0
 11
252.2509501079749
 21
-309.5999999999985
 31
0.0
  0
LINE
  5
29D6
330
2F0F
100
AcDbEntity
  8
0
 62
     0
100
AcDbLine
 10
252.2509501079749
 20
-309.5999999999985
 30
0.0
 11
295.7000000000025
 21
-338.5659592958755
 31
0.0
  0
LINE
  5
29D7
330
2F0F
100
AcDbEntity
  8
0
 62
     0
100
AcDbLine
 10
-38.44979220348069
 20
-115.7999999999983
 30
0.0
 11
79.90000000000145
 21
-194.6996599962594
 31
0.0
  0
LINE
  5
29D8
330
2F0F
100
AcDbEntity
  8
0
 62
     0
100
AcDbLine
 10
79.90000000000326
 20
-191.6996934608469
 30
0.0
 11
256.7509114018576
 21
-309.5999999999976
 31
0.0
  0
LINE
  5
29D9
330
2F0F
100
AcDbEntity
  8
0
 62
     0
100
AcDbLine
 10
256.7509114018594
 20
-309.5999999999985
 30
0.0
 11
295.7000000000025
 21
-335.5659927604602
 31
0.0
  0
LINE
  5
29DA
330
2F0F
100
AcDbEntity
  8
0
 62
     0
100
AcDbLine
 10
-33.94983090959613
 20
-115.8000000000002
 30
0.0
 11
79.89999999999962
 21
-191.6996934608451
 31
0.0
  0
LINE
  5
29DB
330
2F0F
100
AcDbEntity
  8
0
 62
     0
100
AcDbLine
 10
79.90000000000326
 20
-188.6997269254297
 30
0.0
 11
261.2508726957457
 21
-309.5999999999976
 31
0.0
  0
LINE
  5
29DC
330
2F0F
100
AcDbEntity
  8
0
 62
     0
100
AcDbLine
 10
261.2508726957457
 20
-309.5999999999976
 30
0.0
 11
295.7000000000025
 21
-332.5660262250421
 31
0.0
  0
LINE
  5
29DD
330
2F0F
100
AcDbEntity
  8
0
 62
     0
100
AcDbLine
 10
-29.44986961571158
 20
-115.7999999999974
 30
0.0
 11
79.90000000000145
 21
-188.699726925428
 31
0.0
  0
LINE
  5
29DE
330
2F0F
100
AcDbEntity
  8
0
 62
     0
100
AcDbLine
 10
79.9000000000051
 20
-185.6997603900144
 30
0.0
 11
265.7508339896285
 21
-309.5999999999968
 31
0.0
  0
LINE
  5
29DF
330
2F0F
100
AcDbEntity
  8
0
 62
     0
100
AcDbLine
 10
265.750833989634
 20
-309.6000000000004
 30
0.0
 11
295.7000000000044
 21
-329.5660596896287
 31
0.0
  0
LINE
  5
29E0
330
2F0F
100
AcDbEntity
  8
0
 62
     0
100
AcDbLine
 10
-24.94990832182157
 20
-115.8000000000011
 30
0.0
 11
79.90000000000145
 21
-185.6997603900127
 31
0.0
  0
LINE
  5
29E1
330
2F0F
100
AcDbEntity
  8
0
 62
     0
100
AcDbLine
 10
79.90000000000326
 20
-182.6997938545983
 30
0.0
 11
270.2507952835167
 21
-309.5999999999985
 31
0.0
  0
LINE
  5
29E2
330
2F0F
100
AcDbEntity
  8
0
 62
     0
100
AcDbLine
 10
270.2507952835167
 20
-309.5999999999985
 30
0.0
 11
295.7000000000025
 21
-326.5660931542108
 31
0.0
  0
LINE
  5
29E3
330
2F0F
100
AcDbEntity
  8
0
 62
     0
100
AcDbLine
 10
-20.44994702793883
 20
-115.7999999999993
 30
0.0
 11
79.90000000000145
 21
-182.6997938545955
 31
0.0
  0
LINE
  5
29E4
330
2F0F
100
AcDbEntity
  8
0
 62
     0
100
AcDbLine
 10
79.9000000000051
 20
-179.6998273191811
 30
0.0
 11
274.7507565774013
 21
-309.5999999999968
 31
0.0
  0
LINE
  5
29E5
330
2F0F
100
AcDbEntity
  8
0
 62
     0
100
AcDbLine
 10
274.7507565774031
 20
-309.5999999999976
 30
0.0
 11
295.7000000000044
 21
-323.5661266187944
 31
0.0
  0
LINE
  5
29E6
330
2F0F
100
AcDbEntity
  8
0
 62
     0
100
AcDbLine
 10
-15.94998573405246
 20
-115.7999999999983
 30
0.0
 11
79.90000000000145
 21
-179.6998273191784
 31
0.0
  0
LINE
  5
29E7
330
2F0F
100
AcDbEntity
  8
0
 62
     0
100
AcDbLine
 10
79.9000000000051
 20
-176.6998607837658
 30
0.0
 11
279.2507178712895
 21
-309.5999999999976
 31
0.0
  0
LINE
  5
29E8
330
2F0F
100
AcDbEntity
  8
0
 62
     0
100
AcDbLine
 10
279.2507178712895
 20
-309.5999999999976
 30
0.0
 11
295.7000000000044
 21
-320.5661600833782
 31
0.0
  0
LINE
  5
29E9
330
2F0F
100
AcDbEntity
  8
0
 62
     0
100
AcDbLine
 10
-11.45002444016427
 20
-115.8000000000002
 30
0.0
 11
79.90000000000145
 21
-176.6998607837631
 31
0.0
  0
LINE
  5
29EA
330
2F0F
100
AcDbEntity
  8
0
 62
     0
100
AcDbLine
 10
79.9000000000051
 20
-173.6998942483487
 30
0.0
 11
283.750679165174
 21
-309.5999999999976
 31
0.0
  0
LINE
  5
29EB
330
2F0F
100
AcDbEntity
  8
0
 62
     0
100
AcDbLine
 10
283.7506791651758
 20
-309.5999999999985
 30
0.0
 11
295.7000000000025
 21
-317.5661935479611
 31
0.0
  0
LINE
  5
29EC
330
2F0F
100
AcDbEntity
  8
0
 62
     0
100
AcDbLine
 10
-6.950063146279716
 20
-115.8000000000002
 30
0.0
 11
79.90000000000145
 21
-173.6998942483469
 31
0.0
  0
LINE
  5
29ED
330
2F0F
100
AcDbEntity
  8
0
 62
     0
100
AcDbLine
 10
79.90000000000145
 20
-170.6999277129324
 30
0.0
 11
288.2506404590586
 21
-309.5999999999995
 31
0.0
  0
LINE
  5
29EE
330
2F0F
100
AcDbEntity
  8
0
 62
     0
100
AcDbLine
 10
288.2506404590586
 20
-309.5999999999995
 30
0.0
 11
295.7000000000025
 21
-314.5662270125467
 31
0.0
  0
LINE
  5
29EF
330
2F0F
100
AcDbEntity
  8
0
 62
     0
100
AcDbLine
 10
-2.45010185239698
 20
-115.7999999999993
 30
0.0
 11
79.89999999999962
 21
-170.6999277129306
 31
0.0
  0
LINE
  5
29F0
330
2F0F
100
AcDbEntity
  8
0
 62
     0
100
AcDbLine
 10
79.9000000000069
 20
-167.6999611775172
 30
0.0
 11
292.7506017529449
 21
-309.5999999999968
 31
0.0
  0
LINE
  5
29F1
330
2F0F
100
AcDbEntity
  8
0
 62
     0
100
AcDbLine
 10
292.7506017529467
 20
-309.5999999999976
 30
0.0
 11
295.7000000000044
 21
-311.5662604771296
 31
0.0
  0
LINE
  5
29F2
330
2F0F
100
AcDbEntity
  8
0
 62
     0
100
AcDbLine
 10
2.049859441491205
 20
-115.7999999999993
 30
0.0
 11
79.90000000000145
 21
-167.6999611775135
 31
0.0
  0
LINE
  5
29F3
330
2F0F
100
AcDbEntity
  8
0
 62
     0
100
AcDbLine
 10
79.90000000000326
 20
-164.699994642101
 30
0.0
 11
295.7000000000008
 21
-308.5662939417125
 31
0.0
  0
LINE
  5
29F4
330
2F0F
100
AcDbEntity
  8
0
 62
     0
100
AcDbLine
 10
6.549820735377577
 20
-115.8000000000002
 30
0.0
 11
79.90000000000145
 21
-164.6999946420981
 31
0.0
  0
LINE
  5
29F5
330
2F0F
100
AcDbEntity
  8
0
 62
     0
100
AcDbLine
 10
79.90000000000326
 20
-161.7000281066839
 30
0.0
 11
295.6999999999989
 21
-305.5663274062945
 31
0.0
  0
LINE
  5
29F6
330
2F0F
100
AcDbEntity
  8
0
 62
     0
100
AcDbLine
 10
11.04978202925849
 20
-115.7999999999983
 30
0.0
 11
79.89999999999962
 21
-161.7000281066821
 31
0.0
  0
LINE
  5
29F7
330
2F0F
100
AcDbEntity
  8
0
 62
     0
100
AcDbLine
 10
79.90000000000326
 20
-158.7000615712686
 30
0.0
 11
295.7000000000008
 21
-302.56636087088
 31
0.0
  0
LINE
  5
29F8
330
2F0F
100
AcDbEntity
  8
0
 62
     0
100
AcDbLine
 10
15.54974332314668
 20
-115.7999999999993
 30
0.0
 11
79.90000000000145
 21
-158.7000615712668
 31
0.0
  0
LINE
  5
29F9
330
2F0F
100
AcDbEntity
  8
0
 62
     0
100
AcDbLine
 10
79.9000000000051
 20
-155.7000950358514
 30
0.0
 11
295.7000000000008
 21
-299.5663943354621
 31
0.0
  0
LINE
  5
29FA
330
2F0F
100
AcDbEntity
  8
0
 62
     0
100
AcDbLine
 10
20.04970461702942
 20
-115.7999999999974
 30
0.0
 11
79.90000000000145
 21
-155.7000950358497
 31
0.0
  0
LINE
  5
29FB
330
2F0F
100
AcDbEntity
  8
0
 62
     0
100
AcDbLine
 10
79.9000000000051
 20
-152.7001285004362
 30
0.0
 11
295.6999999999989
 21
-296.5664278000477
 31
0.0
  0
LINE
  5
29FC
330
2F0F
100
AcDbEntity
  8
0
 62
     0
100
AcDbLine
 10
24.54966591091761
 20
-115.8000000000011
 30
0.0
 11
79.90000000000145
 21
-152.7001285004344
 31
0.0
  0
LINE
  5
29FD
330
2F0F
100
AcDbEntity
  8
0
 62
     0
100
AcDbLine
 10
79.9000000000051
 20
-149.70016196502
 30
0.0
 11
295.7000000000008
 21
-293.5664612646306
 31
0.0
  0
LINE
  5
29FE
330
2F0F
100
AcDbEntity
  8
0
 62
     0
100
AcDbLine
 10
29.04962720480217
 20
-115.7999999999983
 30
0.0
 11
79.90000000000145
 21
-149.7001619650164
 31
0.0
  0
LINE
  5
29FF
330
2F0F
100
AcDbEntity
  8
0
 62
     0
100
AcDbLine
 10
79.9000000000069
 20
-146.7001954296047
 30
0.0
 11
295.7000000000008
 21
-290.5664947292152
 31
0.0
  0
LINE
  5
2A00
330
2F0F
100
AcDbEntity
  8
0
 62
     0
100
AcDbLine
 10
33.54958849869035
 20
-115.8000000000002
 30
0.0
 11
79.90000000000326
 21
-146.7001954296029
 31
0.0
  0
LINE
  5
2A01
330
2F0F
100
AcDbEntity
  8
0
 62
     0
100
AcDbLine
 10
79.90000000000326
 20
-143.7002288941867
 30
0.0
 11
295.7000000000008
 21
-287.5665281937981
 31
0.0
  0
LINE
  5
2A02
330
2F0F
100
AcDbEntity
  8
0
 62
     0
100
AcDbLine
 10
38.04954979257491
 20
-115.8000000000002
 30
0.0
 11
79.90000000000145
 21
-143.7002288941848
 31
0.0
  0
LINE
  5
2A03
330
2F0F
100
AcDbEntity
  8
0
 62
     0
100
AcDbLine
 10
79.9000000000051
 20
-140.7002623587705
 30
0.0
 11
295.6999999999971
 21
-284.5665616583801
 31
0.0
  0
LINE
  5
2A04
330
2F0F
100
AcDbEntity
  8
0
 62
     0
100
AcDbLine
 10
42.54951108645945
 20
-115.7999999999993
 30
0.0
 11
79.89999999999962
 21
-140.7002623587677
 31
0.0
  0
LINE
  5
2A05
330
2F0F
100
AcDbEntity
  8
0
 62
     0
100
AcDbLine
 10
79.90000000000326
 20
-137.7002958233543
 30
0.0
 11
295.6999999999989
 21
-281.5665951229648
 31
0.0
  0
LINE
  5
2A06
330
2F0F
100
AcDbEntity
  8
0
 62
     0
100
AcDbLine
 10
47.04947238034399
 20
-115.7999999999993
 30
0.0
 11
79.90000000000145
 21
-137.7002958233524
 31
0.0
  0
LINE
  5
2A07
330
2F0F
100
AcDbEntity
  8
0
 62
     0
100
AcDbLine
 10
79.9000000000051
 20
-134.700329287938
 30
0.0
 11
295.6999999999989
 21
-278.5666285875486
 31
0.0
  0
LINE
  5
2A08
330
2F0F
100
AcDbEntity
  8
0
 62
     0
100
AcDbLine
 10
51.54943367423221
 20
-115.7999999999983
 30
0.0
 11
79.90000000000145
 21
-134.7003292879353
 31
0.0
  0
LINE
  5
2A09
330
2F0F
100
AcDbEntity
  8
0
 62
     0
100
AcDbLine
 10
79.90000000000326
 20
-131.7003627525226
 30
0.0
 11
295.6999999999989
 21
-275.5666620521333
 31
0.0
  0
LINE
  5
2A0A
330
2F0F
100
AcDbEntity
  8
0
 62
     0
100
AcDbLine
 10
56.04939496811676
 20
-115.8000000000002
 30
0.0
 11
79.90000000000145
 21
-131.7003627525209
 31
0.0
  0
LINE
  5
2A0B
330
2F0F
100
AcDbEntity
  8
0
 62
     0
100
AcDbLine
 10
79.9000000000051
 20
-128.7003962171056
 30
0.0
 11
295.6999999999989
 21
-272.5666955167162
 31
0.0
  0
LINE
  5
2A0C
330
2F0F
100
AcDbEntity
  8
0
 62
     0
100
AcDbLine
 10
60.54935626200131
 20
-115.7999999999974
 30
0.0
 11
79.89999999999962
 21
-128.7003962171029
 31
0.0
  0
LINE
  5
2A0D
330
2F0F
100
AcDbEntity
  8
0
 62
     0
100
AcDbLine
 10
79.9000000000051
 20
-125.7004296816903
 30
0.0
 11
295.7000000000008
 21
-269.5667289813009
 31
0.0
  0
LINE
  5
2A0E
330
2F0F
100
AcDbEntity
  8
0
 62
     0
100
AcDbLine
 10
65.04931755588768
 20
-115.7999999999993
 30
0.0
 11
79.90000000000145
 21
-125.7004296816876
 31
0.0
  0
LINE
  5
2A0F
330
2F0F
100
AcDbEntity
  8
0
 62
     0
100
AcDbLine
 10
79.9000000000051
 20
-122.7004631462732
 30
0.0
 11
295.6999999999989
 21
-266.5667624458838
 31
0.0
  0
LINE
  5
2A10
330
2F0F
100
AcDbEntity
  8
0
 62
     0
100
AcDbLine
 10
69.54927884977042
 20
-115.7999999999965
 30
0.0
 11
79.89999999999962
 21
-122.7004631462704
 31
0.0
  0
LINE
  5
2A11
330
2F0F
100
AcDbEntity
  8
0
 62
     0
100
AcDbLine
 10
79.90000000000326
 20
-119.7004966108588
 30
0.0
 11
295.6999999999989
 21
-263.5667959104694
 31
0.0
  0
LINE
  5
2A12
330
2F0F
100
AcDbEntity
  8
0
 62
     0
100
AcDbLine
 10
74.04924014365859
 20
-115.8000000000002
 30
0.0
 11
79.89999999999962
 21
-119.7004966108552
 31
0.0
  0
LINE
  5
2A13
330
2F0F
100
AcDbEntity
  8
0
 62
     0
100
AcDbLine
 10
79.9000000000069
 20
-116.7005300754417
 30
0.0
 11
295.7000000000008
 21
-260.5668293750523
 31
0.0
  0
LINE
  5
2A14
330
2F0F
100
AcDbEntity
  8
0
 62
     0
100
AcDbLine
 10
78.54920143754494
 20
-115.7999999999983
 30
0.0
 11
79.90000000000145
 21
-116.7005300754381
 31
0.0
  0
LINE
  5
2A15
330
2F0F
100
AcDbEntity
  8
0
 62
     0
100
AcDbLine
 10
83.04916273142771
 20
-115.7999999999983
 30
0.0
 11
295.6999999999989
 21
-257.5668628396361
 31
0.0
  0
LINE
  5
2A16
330
2F0F
100
AcDbEntity
  8
0
 62
     0
100
AcDbLine
 10
87.54912402531227
 20
-115.7999999999974
 30
0.0
 11
295.6999999999989
 21
-254.566896304219
 31
0.0
  0
LINE
  5
2A17
330
2F0F
100
AcDbEntity
  8
0
 62
     0
100
AcDbLine
 10
92.04908531920045
 20
-115.8000000000002
 30
0.0
 11
295.6999999999989
 21
-251.5669297688037
 31
0.0
  0
LINE
  5
2A18
330
2F0F
100
AcDbEntity
  8
0
 62
     0
100
AcDbLine
 10
96.54904661308686
 20
-115.7999999999983
 30
0.0
 11
295.7000000000008
 21
-248.5669632333875
 31
0.0
  0
LINE
  5
2A19
330
2F0F
100
AcDbEntity
  8
0
 62
     0
100
AcDbLine
 10
101.0490079069695
 20
-115.7999999999993
 30
0.0
 11
295.6999999999989
 21
-245.5669966979722
 31
0.0
  0
LINE
  5
2A1A
330
2F0F
100
AcDbEntity
  8
0
 62
     0
100
AcDbLine
 10
105.5489692008577
 20
-115.8000000000002
 30
0.0
 11
295.7000000000008
 21
-242.567030162555
 31
0.0
  0
LINE
  5
2A1B
330
2F0F
100
AcDbEntity
  8
0
 62
     0
100
AcDbLine
 10
110.0489304947441
 20
-115.7999999999983
 30
0.0
 11
295.7000000000008
 21
-239.5670636271379
 31
0.0
  0
LINE
  5
2A1C
330
2F0F
100
AcDbEntity
  8
0
 62
     0
100
AcDbLine
 10
114.5488917886287
 20
-115.7999999999993
 30
0.0
 11
295.7000000000008
 21
-236.5670970917225
 31
0.0
  0
LINE
  5
2A1D
330
2F0F
100
AcDbEntity
  8
0
 62
     0
100
AcDbLine
 10
119.0488530825114
 20
-115.7999999999974
 30
0.0
 11
295.6999999999989
 21
-233.5671305563064
 31
0.0
  0
LINE
  5
2A1E
330
2F0F
100
AcDbEntity
  8
0
 62
     0
100
AcDbLine
 10
123.5488143763996
 20
-115.7999999999993
 30
0.0
 11
295.6999999999989
 21
-230.5671640208903
 31
0.0
  0
LINE
  5
2A1F
330
2F0F
100
AcDbEntity
  8
0
 62
     0
100
AcDbLine
 10
128.0487756702841
 20
-115.7999999999974
 30
0.0
 11
295.6999999999989
 21
-227.5671974854731
 31
0.0
  0
LINE
  5
2A20
330
2F0F
100
AcDbEntity
  8
0
 62
     0
100
AcDbLine
 10
132.5487369641687
 20
-115.7999999999983
 30
0.0
 11
295.6999999999989
 21
-224.5672309500577
 31
0.0
  0
LINE
  5
2A21
330
2F0F
100
AcDbEntity
  8
0
 62
     0
100
AcDbLine
 10
137.0486982580532
 20
-115.7999999999974
 30
0.0
 11
295.6999999999989
 21
-221.5672644146407
 31
0.0
  0
LINE
  5
2A22
330
2F0F
100
AcDbEntity
  8
0
 62
     0
100
AcDbLine
 10
141.5486595519414
 20
-115.7999999999993
 30
0.0
 11
295.7000000000008
 21
-218.5672978792254
 31
0.0
  0
LINE
  5
2A23
330
2F0F
100
AcDbEntity
  8
0
 62
     0
100
AcDbLine
 10
146.048620845826
 20
-115.7999999999983
 30
0.0
 11
295.6999999999989
 21
-215.5673313438092
 31
0.0
  0
LINE
  5
2A24
330
2F0F
100
AcDbEntity
  8
0
 62
     0
100
AcDbLine
 10
150.5485821397105
 20
-115.7999999999983
 30
0.0
 11
295.6999999999989
 21
-212.5673648083939
 31
0.0
  0
LINE
  5
2A25
330
2F0F
100
AcDbEntity
  8
0
 62
     0
100
AcDbLine
 10
155.0485434335987
 20
-115.7999999999993
 30
0.0
 11
295.6999999999989
 21
-209.5673982729768
 31
0.0
  0
LINE
  5
2A26
330
2F0F
100
AcDbEntity
  8
0
 62
     0
100
AcDbLine
 10
159.5485047274833
 20
-115.8000000000002
 30
0.0
 11
295.7000000000008
 21
-206.5674317375615
 31
0.0
  0
LINE
  5
2A27
330
2F0F
100
AcDbEntity
  8
0
 62
     0
100
AcDbLine
 10
164.0484660213678
 20
-115.7999999999983
 30
0.0
 11
295.6999999999989
 21
-203.5674652021435
 31
0.0
  0
LINE
  5
2A28
330
2F0F
100
AcDbEntity
  8
0
 62
     0
100
AcDbLine
 10
168.5484273152542
 20
-115.7999999999974
 30
0.0
 11
295.6999999999989
 21
-200.5674986667273
 31
0.0
  0
LINE
  5
2A29
330
2F0F
100
AcDbEntity
  8
0
 62
     0
100
AcDbLine
 10
173.0483886091406
 20
-115.7999999999993
 30
0.0
 11
295.7000000000008
 21
-197.5675321313119
 31
0.0
  0
LINE
  5
2A2A
330
2F0F
100
AcDbEntity
  8
0
 62
     0
100
AcDbLine
 10
177.5483499030251
 20
-115.7999999999974
 30
0.0
 11
295.6999999999989
 21
-194.5675655958948
 31
0.0
  0
LINE
  5
2A2B
330
2F0F
100
AcDbEntity
  8
0
 62
     0
100
AcDbLine
 10
182.0483111969079
 20
-115.7999999999983
 30
0.0
 11
295.6999999999989
 21
-191.5675990604793
 31
0.0
  0
LINE
  5
2A2C
330
2F0F
100
AcDbEntity
  8
0
 62
     0
100
AcDbLine
 10
186.5482724907961
 20
-115.7999999999965
 30
0.0
 11
295.7000000000008
 21
-188.5676325250624
 31
0.0
  0
LINE
  5
2A2D
330
2F0F
100
AcDbEntity
  8
0
 62
     0
100
AcDbLine
 10
191.0482337846824
 20
-115.7999999999993
 30
0.0
 11
295.7000000000008
 21
-185.567665989648
 31
0.0
  0
LINE
  5
2A2E
330
2F0F
100
AcDbEntity
  8
0
 62
     0
100
AcDbLine
 10
195.548195078567
 20
-115.7999999999983
 30
0.0
 11
295.6999999999971
 21
-182.56769945423
 31
0.0
  0
LINE
  5
2A2F
330
2F0F
100
AcDbEntity
  8
0
 62
     0
100
AcDbLine
 10
200.0481563724516
 20
-115.7999999999983
 30
0.0
 11
295.7000000000008
 21
-179.5677329188156
 31
0.0
  0
LINE
  5
2A30
330
2F0F
100
AcDbEntity
  8
0
 62
     0
100
AcDbLine
 10
204.5481176663397
 20
-115.7999999999993
 30
0.0
 11
295.6999999999989
 21
-176.5677663833976
 31
0.0
  0
LINE
  5
2A31
330
2F0F
100
AcDbEntity
  8
0
 62
     0
100
AcDbLine
 10
209.0480789602243
 20
-115.7999999999993
 30
0.0
 11
295.6999999999989
 21
-173.5677998479823
 31
0.0
  0
LINE
  5
2A32
330
2F0F
100
AcDbEntity
  8
0
 62
     0
100
AcDbLine
 10
213.5480402541089
 20
-115.7999999999983
 30
0.0
 11
295.6999999999989
 21
-170.5678333125661
 31
0.0
  0
LINE
  5
2A33
330
2F0F
100
AcDbEntity
  8
0
 62
     0
100
AcDbLine
 10
218.0480015479952
 20
-115.7999999999983
 30
0.0
 11
295.7000000000008
 21
-167.5678667771508
 31
0.0
  0
LINE
  5
2A34
330
2F0F
100
AcDbEntity
  8
0
 62
     0
100
AcDbLine
 10
222.5479628418816
 20
-115.7999999999993
 30
0.0
 11
295.6999999999989
 21
-164.5679002417337
 31
0.0
  0
LINE
  5
2A35
330
2F0F
100
AcDbEntity
  8
0
 62
     0
100
AcDbLine
 10
227.0479241357662
 20
-115.7999999999983
 30
0.0
 11
295.6999999999989
 21
-161.5679337063166
 31
0.0
  0
LINE
  5
2A36
330
2F0F
100
AcDbEntity
  8
0
 62
     0
100
AcDbLine
 10
231.5478854296507
 20
-115.7999999999983
 30
0.0
 11
295.6999999999989
 21
-158.5679671709013
 31
0.0
  0
LINE
  5
2A37
330
2F0F
100
AcDbEntity
  8
0
 62
     0
100
AcDbLine
 10
236.0478467235371
 20
-115.7999999999974
 30
0.0
 11
295.6999999999989
 21
-155.5680006354832
 31
0.0
  0
LINE
  5
2A38
330
2F0F
100
AcDbEntity
  8
0
 62
     0
100
AcDbLine
 10
240.5478080174216
 20
-115.7999999999993
 30
0.0
 11
295.6999999999989
 21
-152.5680341000698
 31
0.0
  0
LINE
  5
2A39
330
2F0F
100
AcDbEntity
  8
0
 62
     0
100
AcDbLine
 10
245.047769311308
 20
-115.7999999999974
 30
0.0
 11
295.6999999999989
 21
-149.5680675646516
 31
0.0
  0
LINE
  5
2A3A
330
2F0F
100
AcDbEntity
  8
0
 62
     0
100
AcDbLine
 10
249.5477306051944
 20
-115.7999999999983
 30
0.0
 11
295.7000000000008
 21
-146.5681010292364
 31
0.0
  0
LINE
  5
2A3B
330
2F0F
100
AcDbEntity
  8
0
 62
     0
100
AcDbLine
 10
254.0476918990807
 20
-115.7999999999983
 30
0.0
 11
295.6999999999989
 21
-143.5681344938193
 31
0.0
  0
LINE
  5
2A3C
330
2F0F
100
AcDbEntity
  8
0
 62
     0
100
AcDbLine
 10
258.5476531929635
 20
-115.7999999999993
 30
0.0
 11
295.6999999999989
 21
-140.568167958404
 31
0.0
  0
LINE
  5
2A3D
330
2F0F
100
AcDbEntity
  8
0
 62
     0
100
AcDbLine
 10
263.0476144868499
 20
-115.7999999999983
 30
0.0
 11
295.6999999999989
 21
-137.5682014229878
 31
0.0
  0
LINE
  5
2A3E
330
2F0F
100
AcDbEntity
  8
0
 62
     0
100
AcDbLine
 10
267.5475757807344
 20
-115.7999999999983
 30
0.0
 11
295.7000000000008
 21
-134.5682348875725
 31
0.0
  0
LINE
  5
2A3F
330
2F0F
100
AcDbEntity
  8
0
 62
     0
100
AcDbLine
 10
272.0475370746226
 20
-115.7999999999993
 30
0.0
 11
295.6999999999989
 21
-131.5682683521554
 31
0.0
  0
LINE
  5
2A40
330
2F0F
100
AcDbEntity
  8
0
 62
     0
100
AcDbLine
 10
276.5474983685071
 20
-115.7999999999993
 30
0.0
 11
295.6999999999989
 21
-128.5683018167392
 31
0.0
  0
LINE
  5
2A41
330
2F0F
100
AcDbEntity
  8
0
 62
     0
100
AcDbLine
 10
281.0474596623935
 20
-115.7999999999983
 30
0.0
 11
295.7000000000008
 21
-125.568335281323
 31
0.0
  0
LINE
  5
2A42
330
2F0F
100
AcDbEntity
  8
0
 62
     0
100
AcDbLine
 10
285.5474209562763
 20
-115.7999999999974
 30
0.0
 11
295.6999999999989
 21
-122.5683687459059
 31
0.0
  0
LINE
  5
2A43
330
2F0F
100
AcDbEntity
  8
0
 62
     0
100
AcDbLine
 10
290.0473822501644
 20
-115.7999999999983
 30
0.0
 11
295.6999999999989
 21
-119.5684022104906
 31
0.0
  0
LINE
  5
2A44
330
2F0F
100
AcDbEntity
  8
0
 62
     0
100
AcDbLine
 10
294.547343544049
 20
-115.7999999999974
 30
0.0
 11
295.7000000000008
 21
-116.5684356750735
 31
0.0
  0
ENDBLK
  5
2A45
330
2F0F
100
AcDbEntity
  8
0
100
AcDbBlockEnd
  0
ENDSEC
  0
SECTION
  2
ENTITIES
  0
TEXT
  5
953
330
2E2D
100
AcDbEntity
  8
OUTLINE
  6
Continuous
 62
     3
100
AcDbText
 10
-418.231467
 20
13.715189
 30
0.0
 40
64.0
  1
 
 41
0.9
100
AcDbText
  0
TEXT
  5
954
330
2E2D
100
AcDbEntity
  8
OUTLINE
  6
Continuous
 62
     3
100
AcDbText
 10
-418.231467
 20
13.715189
 30
0.0
 40
64.0
  1
 
 41
0.9
100
AcDbText
  0
TEXT
  5
955
330
2E2D
100
AcDbEntity
  8
OUTLINE
  6
Continuous
 62
     3
100
AcDbText
 10
1341.41903
 20
-706.0588199999997
 30
0.0
 40
64.0
  1
 
 41
0.9
100
AcDbText
  0
TEXT
  5
956
330
2E2D
100
AcDbEntity
  8
OUTLINE
  6
Continuous
 62
     3
100
AcDbText
 10
1341.41903
 20
-706.0588199999997
 30
0.0
 40
64.0
  1
 
 41
0.9
100
AcDbText
  0
TEXT
  5
957
330
2E2D
100
AcDbEntity
  8
OUTLINE
  6
Continuous
 62
     3
100
AcDbText
 10
1341.41903
 20
-706.0588199999997
 30
0.0
 40
64.0
  1
 
 41
0.9
100
AcDbText
  0
TEXT
  5
958
330
2E2D
100
AcDbEntity
  8
OUTLINE
  6
Continuous
 62
     3
100
AcDbText
 10
1341.41903
 20
-706.0588199999997
 30
0.0
 40
64.0
  1
 
 41
0.9
100
AcDbText
  0
TEXT
  5
2AAA
330
2E2D
100
AcDbEntity
  8
ETC
100
AcDbText
 10
559.2987359845865
 20
458.4431441421704
 30
0.0
 40
64.0
  1
システム部材
 41
0.9
100
AcDbText
  0
TEXT
  5
2AAB
330
2E2D
100
AcDbEntity
  8
ETC
100
AcDbText
 10
565.5067339845843
 20
559.3264701421708
 30
0.0
 40
64.0
  1
QW-60SBFM_6
 41
0.9
100
AcDbText
  0
TEXT
  5
2AAC
330
2E2D
100
AcDbEntity
  8
ETC
100
AcDbText
 10
559.2987359845865
 20
358.4431441421707
 30
0.0
 40
64.0
  1
QW-60SBFM
 41
0.9
100
AcDbText
  0
POINT
  5
2AAD
330
2E2D
100
AcDbEntity
  8
ARRANGE
100
AcDbPoint
 10
0.0
 20
0.0000000986733539
 30
0.0
 39
50.0
  0
LINE
  5
2AAE
330
2E2D
100
AcDbEntity
  8
DETAIL
100
AcDbLine
 10
-295.7000000000008
 20
-115.7999999013259
 30
0.0
 11
295.7000000000008
 21
-115.7999999013262
 31
0.0
  0
LINE
  5
2AAF
330
2E2D
100
AcDbEntity
  8
DETAIL
100
AcDbLine
 10
295.7000000000008
 20
-644.1999999013255
 30
0.0
 11
-295.7000000000008
 21
-644.1999999013255
 31
0.0
  0
LINE
  5
2AB0
330
2E2D
100
AcDbEntity
  8
DETAIL
100
AcDbLine
 10
-295.7000000000008
 20
-644.1999999013255
 30
0.0
 11
-295.7000000000008
 21
-115.7999999013262
 31
0.0
  0
LINE
  5
2AB1
330
2E2D
100
AcDbEntity
  8
NOTE
100
AcDbLine
 10
-325.0
 20
12.50000009867335
 30
0.0
 11
-325.0
 21
-12.49999990132664
 31
0.0
  0
LINE
  5
2AB2
330
2E2D
100
AcDbEntity
  8
DETAIL
100
AcDbLine
 10
295.7000000000008
 20
-644.1999999013255
 30
0.0
 11
295.7000000000008
 21
-115.7999999013262
 31
0.0
  0
LINE
  5
2AB3
330
2E2D
100
AcDbEntity
  8
BASIS
100
AcDbLine
 10
0.0
 20
25.00000009867335
 30
0.0
 11
0.0
 21
-705.9999999013264
 31
0.0
  0
CIRCLE
  5
2AB4
330
2E2D
100
AcDbEntity
  8
ARRANGE
100
AcDbCircle
 10
0.0
 20
0.0
 30
0.0
 40
40.0
  0
LINE
  5
2AB5
330
2E2D
100
AcDbEntity
  8
NOTE
100
AcDbLine
 10
325.0
 20
-12.49999990132664
 30
0.0
 11
325.0
 21
12.50000009867335
 31
0.0
  0
INSERT
  5
2AB6
330
2E2D
100
AcDbEntity
  8
0
100
AcDbBlockReference
  2
*U74
 10
0.0
 20
0.0000000986733539
 30
0.0
1001
ACAD
1000
DSTYLE
1002
{
1070
    41
1040
12.0
1070
    42
1040
20.0
1070
    43
1040
200.0
1070
    44
1040
20.0
1070
    73
1070
     0
1070
    74
1070
     0
1070
    77
1070
     1
1070
    78
1070
     8
1070
   140
1040
64.0
1070
   147
1040
50.0
1070
   172
1070
     1
1070
   174
1070
     1
1070
   275
1070
     0
1070
   284
1070
     0
1070
   285
1070
     0
1070
   286
1070
     0
1070
   341
1005
0
1070
   342
1005
0
1002
}
  0
INSERT
  5
2AB7
330
2E2D
100
AcDbEntity
  8
0
100
AcDbBlockReference
  2
*U75
 10
0.0
 20
0.0000000986733539
 30
0.0
  0
LINE
  5
2AB8
330
2E2D
100
AcDbEntity
  8
DETAIL
100
AcDbLine
 10
-325.0
 20
-84.9999999013262
 30
0.0
 11
325.0
 21
-84.99999990132662
 31
0.0
  0
LINE
  5
2AB9
330
2E2D
100
AcDbEntity
  8
DETAIL
100
AcDbLine
 10
-311.5
 20
-99.99999990132621
 30
0.0
 11
311.5
 21
-99.99999990132621
 31
0.0
  0
LINE
  5
2ABA
330
2E2D
100
AcDbEntity
  8
DETAIL
100
AcDbLine
 10
-350.0
 20
0.0000000986733539
 30
0.0
 11
350.0
 21
0.0000000986733539
 31
0.0
  0
LINE
  5
2ABB
330
2E2D
100
AcDbEntity
  8
DETAIL
100
AcDbLine
 10
-350.0
 20
-7.999999901326646
 30
0.0
 11
350.0
 21
-7.999999901326646
 31
0.0
  0
LINE
  5
2ABC
330
2E2D
100
AcDbEntity
  8
DETAIL
100
AcDbLine
 10
325.0
 20
-659.999999901326
 30
0.0
 11
-325.0
 21
-659.999999901326
 31
0.0
  0
LINE
  5
2ABD
330
2E2D
100
AcDbEntity
  8
DETAIL
100
AcDbLine
 10
-311.5
 20
-680.999999901326
 30
0.0
 11
-311.5
 21
-99.99999990132621
 31
0.0
  0
LINE
  5
2ABE
330
2E2D
100
AcDbEntity
  8
DETAIL
100
AcDbLine
 10
-325.0
 20
-84.99999990132662
 30
0.0
 11
-325.0
 21
-659.999999901326
 31
0.0
  0
LINE
  5
2ABF
330
2E2D
100
AcDbEntity
  8
DETAIL
100
AcDbLine
 10
-350.0
 20
-7.999999901326646
 30
0.0
 11
-350.0
 21
0.0000000986733539
 31
0.0
  0
LINE
  5
2AC0
330
2E2D
100
AcDbEntity
  8
DETAIL
100
AcDbLine
 10
-311.5
 20
-84.9999999013262
 30
0.0
 11
-311.5
 21
-7.999999901326646
 31
0.0
  0
LINE
  5
2AC1
330
2E2D
100
AcDbEntity
  8
DETAIL
100
AcDbLine
 10
-311.5
 20
-84.9999999013262
 30
0.0
 11
-311.5
 21
-7.999999901326646
 31
0.0
  0
LINE
  5
2AC2
330
2E2D
100
AcDbEntity
  8
DETAIL
100
AcDbLine
 10
-311.5
 20
-204.9999999013261
 30
0.0
 11
-311.5
 21
-99.99999990132572
 31
0.0
  0
LINE
  5
2AC3
330
2E2D
100
AcDbEntity
  8
DETAIL
100
AcDbLine
 10
311.5
 20
-680.999999901326
 30
0.0
 11
311.5
 21
-99.99999990132664
 31
0.0
  0
LINE
  5
2AC4
330
2E2D
100
AcDbEntity
  8
DETAIL
100
AcDbLine
 10
325.0
 20
-84.99999990132662
 30
0.0
 11
325.0
 21
-659.999999901326
 31
0.0
  0
LINE
  5
2AC5
330
2E2D
100
AcDbEntity
  8
DETAIL
100
AcDbLine
 10
311.5
 20
-84.9999999013271
 30
0.0
 11
311.5
 21
-7.999999901326646
 31
0.0
  0
LINE
  5
2AC6
330
2E2D
100
AcDbEntity
  8
DETAIL
100
AcDbLine
 10
350.0
 20
-7.999999901326646
 30
0.0
 11
350.0
 21
0.0000000986733539
 31
0.0
  0
LINE
  5
2AC7
330
2E2D
100
AcDbEntity
  8
DETAIL
100
AcDbLine
 10
143.5
 20
-659.999999901326
 30
0.0
 11
280.0
 21
-659.999999901326
 31
0.0
  0
LINE
  5
2AC8
330
2E2D
100
AcDbEntity
  8
DETAIL
100
AcDbLine
 10
311.5
 20
-674.9999999013262
 30
0.0
 11
-311.5
 21
-674.9999999013262
 31
0.0
  0
LINE
  5
2AC9
330
2E2D
100
AcDbEntity
  8
DETAIL
100
AcDbLine
 10
311.5
 20
-680.999999901326
 30
0.0
 11
-311.5
 21
-680.999999901326
 31
0.0
  0
LINE
  5
2ACA
330
2E2D
100
AcDbEntity
  8
OUTLINE
100
AcDbLine
 10
-325.0
 20
-84.9999999013262
 30
0.0
 11
325.0
 21
-84.99999990132662
 31
0.0
  0
LINE
  5
2ACB
330
2E2D
100
AcDbEntity
  8
OUTLINE
100
AcDbLine
 10
-311.5
 20
-99.99999990132621
 30
0.0
 11
311.5
 21
-99.99999990132621
 31
0.0
  0
LINE
  5
2ACC
330
2E2D
100
AcDbEntity
  8
OUTLINE
100
AcDbLine
 10
-350.0
 20
-7.999999901326646
 30
0.0
 11
350.0
 21
-7.999999901326646
 31
0.0
  0
LINE
  5
2ACD
330
2E2D
100
AcDbEntity
  8
OUTLINE
100
AcDbLine
 10
325.0
 20
-659.999999901326
 30
0.0
 11
-325.0
 21
-659.999999901326
 31
0.0
  0
LINE
  5
2ACE
330
2E2D
100
AcDbEntity
  8
OUTLINE
100
AcDbLine
 10
-311.5
 20
-680.999999901326
 30
0.0
 11
-311.5
 21
-99.99999990132621
 31
0.0
  0
LINE
  5
2ACF
330
2E2D
100
AcDbEntity
  8
OUTLINE
100
AcDbLine
 10
-325.0
 20
-84.99999990132662
 30
0.0
 11
-325.0
 21
-659.999999901326
 31
0.0
  0
LINE
  5
2AD0
330
2E2D
100
AcDbEntity
  8
OUTLINE
100
AcDbLine
 10
-350.0
 20
-7.999999901326646
 30
0.0
 11
-350.0
 21
0.0000000986733539
 31
0.0
  0
LINE
  5
2AD1
330
2E2D
100
AcDbEntity
  8
OUTLINE
100
AcDbLine
 10
-311.5
 20
-84.9999999013262
 30
0.0
 11
-311.5
 21
-7.999999901326646
 31
0.0
  0
LINE
  5
2AD2
330
2E2D
100
AcDbEntity
  8
OUTLINE
100
AcDbLine
 10
-311.5
 20
-84.9999999013262
 30
0.0
 11
-311.5
 21
-7.999999901326646
 31
0.0
  0
LINE
  5
2AD3
330
2E2D
100
AcDbEntity
  8
OUTLINE
100
AcDbLine
 10
-311.5
 20
-204.9999999013261
 30
0.0
 11
-311.5
 21
-99.99999990132572
 31
0.0
  0
LINE
  5
2AD4
330
2E2D
100
AcDbEntity
  8
OUTLINE
100
AcDbLine
 10
311.5
 20
-680.999999901326
 30
0.0
 11
311.5
 21
-99.99999990132664
 31
0.0
  0
LINE
  5
2AD5
330
2E2D
100
AcDbEntity
  8
OUTLINE
100
AcDbLine
 10
325.0
 20
-84.99999990132662
 30
0.0
 11
325.0
 21
-659.999999901326
 31
0.0
  0
LINE
  5
2AD6
330
2E2D
100
AcDbEntity
  8
OUTLINE
100
AcDbLine
 10
311.5
 20
-84.9999999013271
 30
0.0
 11
311.5
 21
-7.999999901326646
 31
0.0
  0
LINE
  5
2AD7
330
2E2D
100
AcDbEntity
  8
OUTLINE
100
AcDbLine
 10
350.0
 20
-7.999999901326646
 30
0.0
 11
350.0
 21
0.0000000986733539
 31
0.0
  0
LINE
  5
2AD8
330
2E2D
100
AcDbEntity
  8
OUTLINE
100
AcDbLine
 10
143.5
 20
-659.999999901326
 30
0.0
 11
280.0
 21
-659.999999901326
 31
0.0
  0
LINE
  5
2AD9
330
2E2D
100
AcDbEntity
  8
OUTLINE
100
AcDbLine
 10
311.5
 20
-674.9999999013262
 30
0.0
 11
-311.5
 21
-674.9999999013262
 31
0.0
  0
LINE
  5
2ADA
330
2E2D
100
AcDbEntity
  8
OUTLINE
100
AcDbLine
 10
311.5
 20
-680.999999901326
 30
0.0
 11
-311.5
 21
-680.999999901326
 31
0.0
  0
LINE
  5
2ADB
330
2E2D
100
AcDbEntity
  8
NOTE
100
AcDbLine
 39
50.0
 10
-337.5
 20
0.0000000986733539
 30
0.0
 11
-312.5
 21
0.0000000986733539
 31
0.0
  0
LINE
  5
2ADC
330
2E2D
100
AcDbEntity
  8
NOTE
100
AcDbLine
 39
50.0
 10
312.5
 20
0.0000000986733539
 30
0.0
 11
337.5
 21
0.0000000986733539
 31
0.0
  0
LINE
  5
2ADD
330
2E2D
100
AcDbEntity
  8
OUTLINE
100
AcDbLine
 39
50.0
 10
-350.0
 20
0.0000000986733539
 30
0.0
 11
350.0
 21
0.0000000986733539
 31
0.0
  0
INSERT
  5
2ADE
330
2E2D
100
AcDbEntity
  8
DETAIL
  6
Continuous
100
AcDbBlockReference
  2
*X76
 10
0.0
 20
0.0000000986733539
 30
0.0
1001
ACADANNOTATIVE
1000
AnnotativeData
1002
{
1070
     1
1070
     0
1002
}
1001
ACAD
1000
HATCH
1002
{
1070
    19
1000
LINE
1040
19.969
1040
0.5880014249968896
1000
R14_HATCH_DATA
1000
4E58
1011
1.0
1021
0.0000000986733539
1031
0.0
1011
0.0
1021
1.000000098673353
1031
0.0
1011
0.0
1021
0.0000000986733539
1031
1.0
1040
0.0
1010
0.0
1020
0.0
1030
1.0
1000
LINE
1070
     0
1070
     0
1071
        2
1071
        7
1070
     0
1070
     1
1071
        6
1040
79.8999999999978
1040
-115.8000000000002
1040
-295.6999999999971
1040
-115.7999999999988
1040
-295.6999999999971
1040
-644.1999999999993
1040
295.6999999999971
1040
-644.2000000000001
1040
295.7000000000044
1040
-309.599999999998
1040
79.9000000000051
1040
-309.599999999999
1071
        0
1071
       23
1070
     0
1070
     1
1071
        4
1040
295.6999999999971
1040
-115.7999999999997
1040
79.90000000000145
1040
-115.8000000000002
1040
79.8999999999978
1040
-309.599999999999
1040
295.7000000000008
1040
-309.599999999998
1071
        0
1070
     0
1070
     1
1040
0.5880014249968896
1040
19.969
1070
     0
1070
     1
1040
0.5880014249968896
1040
19385.33328151472
1040
3974.854271422065
1040
-1.384598579568018
1040
2.076903172775084
1070
     0
1040
1.613430983217254
1071
        2
1040
-125.5144917360667
1040
-224.4329559806551
1040
0.0
1040
226.2833088850493
1040
-234.5214214842222
1040
0.0
1002
}
  0
INSERT
  5
2ADF
330
2E2D
100
AcDbEntity
  8
DETAIL
  6
Continuous
100
AcDbBlockReference
  2
*X77
 10
0.0
 20
0.0000000986733539
 30
0.0
1001
ACADANNOTATIVE
1000
AnnotativeData
1002
{
1070
     1
1070
     0
1002
}
1001
ACAD
1000
HATCH
1002
{
1070
    19
1000
LINE
1040
19.969
1040
5.695183882182695
1000
R14_HATCH_DATA
1000
4E5E
1011
1.0
1021
0.0000000986733539
1031
0.0
1011
0.0
1021
1.000000098673353
1031
0.0
1011
0.0
1021
0.0000000986733539
1031
1.0
1040
0.0
1010
0.0
1020
0.0
1030
1.0
1000
LINE
1070
     0
1070
     0
1071
        2
1071
        7
1070
     0
1070
     1
1071
        6
1040
79.90000000000145
1040
-115.8000000000002
1040
-295.6999999999971
1040
-115.7999999999988
1040
-295.6999999999971
1040
-644.1999999999993
1040
295.6999999999971
1040
-644.2000000000001
1040
295.7000000000044
1040
-309.599999999998
1040
79.9000000000051
1040
-309.599999999999
1071
        0
1071
       23
1070
     0
1070
     1
1071
        4
1040
79.9000000000051
1040
-115.7999999999993
1040
79.90000000000145
1040
-309.599999999999
1040
295.7000000000008
1040
-309.599999999999
1040
295.7000000000008
1040
-115.7999999999993
1071
        0
1070
     0
1070
     1
1040
5.695183882182695
1040
19.969
1070
     0
1070
     1
1040
5.695183882182695
1040
19385.33328151472
1040
3974.854271422065
1040
1.384598579568018
1040
2.076903172775084
1070
     0
1040
1.466562367668305
1071
        2
1040
-114.2492474774626
1040
-265.133730478266
1040
0.0
1040
191.278018232686
1040
-161.1693230282421
1040
0.0
1002
}
  0
LINE
  5
2AE0
330
2E2D
100
AcDbEntity
  8
DETAIL
100
AcDbLine
 10
-295.7000000000008
 20
-115.7999999013259
 30
0.0
 11
295.7000000000008
 21
-115.7999999013262
 31
0.0
  0
LINE
  5
2AE1
330
2E2D
100
AcDbEntity
  8
DETAIL
100
AcDbLine
 10
295.7000000000008
 20
-644.1999999013255
 30
0.0
 11
-295.7000000000008
 21
-644.1999999013255
 31
0.0
  0
LINE
  5
2AE2
330
2E2D
100
AcDbEntity
  8
DETAIL
100
AcDbLine
 10
-295.7000000000008
 20
-644.1999999013255
 30
0.0
 11
-295.7000000000008
 21
-115.7999999013262
 31
0.0
  0
LINE
  5
2AE3
330
2E2D
100
AcDbEntity
  8
DETAIL
100
AcDbLine
 10
295.7000000000008
 20
-644.1999999013255
 30
0.0
 11
295.7000000000008
 21
-115.7999999013262
 31
0.0
  0
LINE
  5
2AE4
330
2E2D
100
AcDbEntity
  8
SIZE
100
AcDbLine
 10
325.0
 20
32.50000009867335
 30
0.0
 11
325.0
 21
181.1320911082906
 31
0.0
  0
LINE
  5
2AE5
330
2E2D
100
AcDbEntity
  8
SIZE
100
AcDbLine
 10
-325.0
 20
32.50000009867335
 30
0.0
 11
-325.0
 21
181.1320911082906
 31
0.0
  0
LINE
  5
2AE6
330
2E2D
100
AcDbEntity
  8
SIZE
100
AcDbLine
 10
313.0
 20
161.1320911082907
 30
0.0
 11
-313.0
 21
161.1320911082907
 31
0.0
  0
INSERT
  5
2AE7
330
2E2D
100
AcDbEntity
  8
SIZE
100
AcDbBlockReference
  2
_DOTBLANK
 10
325.0
 20
161.1320911082907
 30
0.0
 41
12.0
 42
12.0
 43
12.0
  0
INSERT
  5
2AE8
330
2E2D
100
AcDbEntity
  8
SIZE
100
AcDbBlockReference
  2
_DOTBLANK
 10
-325.0
 20
161.1320911082907
 30
0.0
 41
12.0
 42
12.0
 43
12.0
 50
180.0
  0
LINE
  5
2AE9
330
2E2D
100
AcDbEntity
  8
SIZE
100
AcDbLine
 10
350.0
 20
20.00000009867335
 30
0.0
 11
350.0
 21
299.6865930351905
 31
0.0
  0
LINE
  5
2AEA
330
2E2D
100
AcDbEntity
  8
SIZE
100
AcDbLine
 10
-350.0
 20
20.00000009867335
 30
0.0
 11
-350.0
 21
299.6865930351905
 31
0.0
  0
LINE
  5
2AEB
330
2E2D
100
AcDbEntity
  8
SIZE
100
AcDbLine
 10
338.0
 20
279.6865930351905
 30
0.0
 11
-338.0
 21
279.6865930351905
 31
0.0
  0
INSERT
  5
2AEC
330
2E2D
100
AcDbEntity
  8
SIZE
100
AcDbBlockReference
  2
_DOTBLANK
 10
350.0
 20
279.6865930351905
 30
0.0
 41
12.0
 42
12.0
 43
12.0
  0
INSERT
  5
2AED
330
2E2D
100
AcDbEntity
  8
SIZE
100
AcDbBlockReference
  2
_DOTBLANK
 10
-350.0
 20
279.6865930351905
 30
0.0
 41
12.0
 42
12.0
 43
12.0
 50
180.0
  0
LINE
  5
2AEE
330
2E2D
100
AcDbEntity
  8
SIZE
100
AcDbLine
 10
370.0
 20
0.0000000986733539
 30
0.0
 11
486.810982445837
 21
0.0000000986733539
 31
0.0
  0
LINE
  5
2AEF
330
2E2D
100
AcDbEntity
  8
SIZE
100
AcDbLine
 10
370.0
 20
-7.999999901326646
 30
0.0
 11
486.810982445837
 21
-7.999999901326646
 31
0.0
  0
LINE
  5
2AF0
330
2E2D
100
AcDbEntity
  8
SIZE
100
AcDbLine
 10
466.810982445837
 20
12.00000009867335
 30
0.0
 11
466.810982445837
 21
24.00000009867336
 31
0.0
  0
LINE
  5
2AF1
330
2E2D
100
AcDbEntity
  8
SIZE
100
AcDbLine
 10
466.810982445837
 20
-19.99999990132664
 30
0.0
 11
466.810982445837
 21
-90.3999999013266
 31
0.0
  0
INSERT
  5
2AF2
330
2E2D
100
AcDbEntity
  8
SIZE
100
AcDbBlockReference
  2
_DOTBLANK
 10
466.810982445837
 20
0.0000000986733539
 30
0.0
 41
12.0
 42
12.0
 43
12.0
 50
270.0
  0
INSERT
  5
2AF3
330
2E2D
100
AcDbEntity
  8
SIZE
100
AcDbBlockReference
  2
_DOTBLANK
 10
466.810982445837
 20
-7.999999901326646
 30
0.0
 41
12.0
 42
12.0
 43
12.0
 50
90.0
  0
LINE
  5
2AF4
330
2E2D
100
AcDbEntity
  8
SIZE
100
AcDbLine
 10
325.0
 20
-679.9999999013262
 30
0.0
 11
325.0
 21
-848.7957524387136
 31
0.0
  0
LINE
  5
2AF5
330
2E2D
100
AcDbEntity
  8
SIZE
100
AcDbLine
 10
-325.0
 20
-679.9999999013262
 30
0.0
 11
-325.0
 21
-848.7957524387136
 31
0.0
  0
LINE
  5
2AF6
330
2E2D
100
AcDbEntity
  8
SIZE
100
AcDbLine
 10
313.0
 20
-828.7957524387136
 30
0.0
 11
-313.0
 21
-828.7957524387136
 31
0.0
  0
INSERT
  5
2AF7
330
2E2D
100
AcDbEntity
  8
SIZE
100
AcDbBlockReference
  2
_DOTBLANK
 10
325.0
 20
-828.7957524387136
 30
0.0
 41
12.0
 42
12.0
 43
12.0
  0
INSERT
  5
2AF8
330
2E2D
100
AcDbEntity
  8
SIZE
100
AcDbBlockReference
  2
_DOTBLANK
 10
-325.0
 20
-828.7957524387136
 30
0.0
 41
12.0
 42
12.0
 43
12.0
 50
180.0
  0
LINE
  5
2AF9
330
2E2D
100
AcDbEntity
  8
SIZE
100
AcDbLine
 10
-345.0
 20
-659.999999901326
 30
0.0
 11
-543.5633253057058
 21
-659.999999901326
 31
0.0
  0
LINE
  5
2AFA
330
2E2D
100
AcDbEntity
  8
SIZE
100
AcDbLine
 10
-331.5
 20
-680.999999901326
 30
0.0
 11
-543.5633253057058
 21
-680.999999901326
 31
0.0
  0
LINE
  5
2AFB
330
2E2D
100
AcDbEntity
  8
SIZE
100
AcDbLine
 10
-523.5633253057057
 20
-647.9999999013259
 30
0.0
 11
-523.5633253057057
 21
-635.9999999013259
 31
0.0
  0
LINE
  5
2AFC
330
2E2D
100
AcDbEntity
  8
SIZE
100
AcDbLine
 10
-523.5633253057057
 20
-692.9999999013261
 30
0.0
 11
-523.5633253057057
 21
-793.5714284727549
 31
0.0
  0
INSERT
  5
2AFD
330
2E2D
100
AcDbEntity
  8
SIZE
100
AcDbBlockReference
  2
_DOTBLANK
 10
-523.5633253057057
 20
-659.999999901326
 30
0.0
 41
12.0
 42
12.0
 43
12.0
 50
270.0
  0
INSERT
  5
2AFE
330
2E2D
100
AcDbEntity
  8
SIZE
100
AcDbBlockReference
  2
_DOTBLANK
 10
-523.5633253057057
 20
-680.999999901326
 30
0.0
 41
12.0
 42
12.0
 43
12.0
 50
90.0
  0
LINE
  5
2AFF
330
2E2D
100
AcDbEntity
  8
SIZE
100
AcDbLine
 10
-345.0
 20
-659.999999901326
 30
0.0
 11
-543.5633253057058
 21
-659.999999901326
 31
0.0
  0
LINE
  5
2B00
330
2E2D
100
AcDbEntity
  8
SIZE
100
AcDbLine
 10
-370.0
 20
0.0000000986733539
 30
0.0
 11
-543.5633253057058
 21
0.0000000986733539
 31
0.0
  0
LINE
  5
2B01
330
2E2D
100
AcDbEntity
  8
SIZE
100
AcDbLine
 10
-523.5633253057057
 20
-647.9999999013259
 30
0.0
 11
-523.5633253057057
 21
-11.99999990132664
 31
0.0
  0
INSERT
  5
2B02
330
2E2D
100
AcDbEntity
  8
SIZE
100
AcDbBlockReference
  2
_DOTBLANK
 10
-523.5633253057057
 20
-659.999999901326
 30
0.0
 41
12.0
 42
12.0
 43
12.0
 50
270.0
  0
INSERT
  5
2B03
330
2E2D
100
AcDbEntity
  8
SIZE
100
AcDbBlockReference
  2
_DOTBLANK
 10
-523.5633253057057
 20
0.0000000986733539
 30
0.0
 41
12.0
 42
12.0
 43
12.0
 50
90.0
  0
TEXT
  5
2B04
330
2E2D
100
AcDbEntity
  8
SIZE
100
AcDbText
 10
-74.61302049113601
 20
171.1320911082907
 30
0.0
 40
64.0
  1
650
 41
0.9
100
AcDbText
  0
TEXT
  5
2B05
330
2E2D
100
AcDbEntity
  8
SIZE
100
AcDbText
 10
-74.05714285714293
 20
289.6865930351905
 30
0.0
 40
64.0
  1
700
 41
0.9
100
AcDbText
  0
TEXT
  5
2B06
330
2E2D
100
AcDbEntity
  8
SIZE
100
AcDbText
 10
456.8109824458367
 20
-80.39999990132661
 30
0.0
 40
64.0
  1
8
 50
90.0
 41
0.9
100
AcDbText
  0
TEXT
  5
2B07
330
2E2D
100
AcDbEntity
  8
SIZE
100
AcDbText
 10
-74.05714285714293
 20
-818.7957524387137
 30
0.0
 40
64.0
  1
650
 41
0.9
100
AcDbText
  0
TEXT
  5
2B08
330
2E2D
100
AcDbEntity
  8
SIZE
100
AcDbText
 10
-533.5633253057058
 20
-783.5714284727548
 30
0.0
 40
64.0
  1
21
 50
90.0
 41
0.9
100
AcDbText
  0
TEXT
  5
2B09
330
2E2D
100
AcDbEntity
  8
SIZE
100
AcDbText
 10
-533.5633253057058
 20
-404.0571427584687
 30
0.0
 40
64.0
  1
660
 50
90.0
 41
0.9
100
AcDbText
  0
ENDSEC
  0
SECTION
  2
OBJECTS
  0
DICTIONARY
  5
2DC5
330
0
100
AcDbDictionary
281
     1
  3
ACAD_2007HEADERVARS_RT
350
301C
  3
ACAD_COLOR
350
2E23
  3
ACAD_GROUP
350
2DC6
  3
ACAD_LAYOUT
350
2E22
  3
ACAD_MATERIAL
350
2DC9
  3
ACAD_MLEADERSTYLE
350
2E26
  3
ACAD_MLINESTYLE
350
2E1F
  3
ACAD_PLOTSETTINGS
350
2E21
  3
ACAD_PLOTSTYLENAME
350
2DC7
  3
ACAD_SCALELIST
350
2DF3
  3
ACAD_TABLESTYLE
350
2E24
  3
ACAD_VISUALSTYLE
350
2DE2
  3
ACDB_RECOMPOSE_DATA
350
301A
  3
AcDbVariableDictionary
350
3011
  3
AcmDictionary
350
2FC4
  3
AMG
350
2F11
  3
DWGPROPS
350
301B
  3
MAPISURF_MODULE
350
2F91
  0
DICTIONARY
  5
2FEC
330
2E15
100
AcDbDictionary
280
     1
281
     1
  3
ADSK_XREC_LAYER_RECONCILED
360
2FED
  0
DICTIONARY
  5
2FEE
330
2E44
100
AcDbDictionary
280
     1
281
     1
  3
ADSK_XREC_LAYER_RECONCILED
360
2FEF
  0
DICTIONARY
  5
2FF0
330
2E45
100
AcDbDictionary
280
     1
281
     1
  3
ADSK_XREC_LAYER_RECONCILED
360
2FF1
  0
DICTIONARY
  5
2FF2
330
2E46
100
AcDbDictionary
280
     1
281
     1
  3
ADSK_XREC_LAYER_RECONCILED
360
2FF3
  0
DICTIONARY
  5
2FF4
330
2E47
100
AcDbDictionary
280
     1
281
     1
  3
ADSK_XREC_LAYER_RECONCILED
360
2FF5
  0
DICTIONARY
  5
2FF6
330
2E48
100
AcDbDictionary
280
     1
281
     1
  3
ADSK_XREC_LAYER_RECONCILED
360
2FF7
  0
DICTIONARY
  5
2FF8
330
2E4A
100
AcDbDictionary
280
     1
281
     1
  3
ADSK_XREC_LAYER_RECONCILED
360
2FF9
  0
DICTIONARY
  5
2FFA
330
2E4B
100
AcDbDictionary
280
     1
281
     1
  3
ADSK_XREC_LAYER_RECONCILED
360
2FFB
  0
DICTIONARY
  5
2FFC
330
2E4C
100
AcDbDictionary
280
     1
281
     1
  3
ADSK_XREC_LAYER_RECONCILED
360
2FFD
  0
DICTIONARY
  5
2FFE
330
2E4D
100
AcDbDictionary
280
     1
281
     1
  3
ADSK_XREC_LAYER_RECONCILED
360
2FFF
  0
DICTIONARY
  5
3000
330
2E4E
100
AcDbDictionary
280
     1
281
     1
  3
ADSK_XREC_LAYER_RECONCILED
360
3001
  0
DICTIONARY
  5
3002
330
2E2D
100
AcDbDictionary
280
     1
281
     1
  3
ACAD_INDEX
360
3003
  0
DICTIONARY
  5
301C
102
{ACAD_REACTORS
330
2DC5
102
}
330
2DC5
100
AcDbDictionary
281
     1
  3
DIMARCSYM
350
301D
  3
DIMLTEX1
350
301F
  3
DIMLTEX2
350
3020
  3
DIMLTYPE
350
301E
  0
DICTIONARY
  5
2E23
102
{ACAD_REACTORS
330
2DC5
102
}
330
2DC5
100
AcDbDictionary
281
     1
  0
DICTIONARY
  5
2DC6
102
{ACAD_REACTORS
330
2DC5
102
}
330
2DC5
100
AcDbDictionary
281
     1
  0
DICTIONARY
  5
2E22
102
{ACAD_REACTORS
330
2DC5
102
}
330
2DC5
100
AcDbDictionary
281
     1
  3
Model
350
2E30
  3
レイアウト1
350
2E2C
  0
DICTIONARY
  5
2DC9
102
{ACAD_REACTORS
330
2DC5
102
}
330
2DC5
100
AcDbDictionary
281
     1
  3
ByBlock
350
2DD2
  3
ByLayer
350
2DCA
  3
Global
350
2DDA
  0
DICTIONARY
  5
2E26
102
{ACAD_REACTORS
330
2DC5
102
}
330
2DC5
100
AcDbDictionary
281
     1
  3
Standard
350
2E27
  0
DICTIONARY
  5
2E1F
102
{ACAD_REACTORS
330
2DC5
102
}
330
2DC5
100
AcDbDictionary
281
     1
  3
Standard
350
2E20
  0
DICTIONARY
  5
2E21
102
{ACAD_REACTORS
330
2DC5
102
}
330
2DC5
100
AcDbDictionary
281
     1
  0
ACDBDICTIONARYWDFLT
  5
2DC7
102
{ACAD_REACTORS
330
2DC5
102
}
330
2DC5
100
AcDbDictionary
281
     1
  3
Normal
350
2DC8
100
AcDbDictionaryWithDefault
340
2DC8
  0
DICTIONARY
  5
2DF3
102
{ACAD_REACTORS
330
2DC5
102
}
330
2DC5
100
AcDbDictionary
281
     1
  3
A0
350
2DF4
  3
A1
350
2DF5
  3
A2
350
2DF6
  3
A3
350
2DF7
  3
A4
350
2DF8
  3
A5
350
2DF9
  3
A6
350
2DFA
  3
A7
350
2DFB
  3
A8
350
2DFC
  3
A9
350
2DFD
  3
B0
350
2DFE
  3
B1
350
2DFF
  3
B2
350
2E00
  3
B3
350
2E01
  3
B4
350
2E02
  3
B5
350
2E03
  3
B6
350
2E04
  3
B7
350
2E05
  3
B8
350
2E06
  3
B9
350
2E07
  3
C0
350
2E08
  3
C1
350
2E09
  3
C2
350
2E0A
  3
C3
350
2E0B
  3
C4
350
2E0C
  3
C5
350
2E0D
  3
C6
350
2E0E
  3
C7
350
2E0F
  3
C8
350
2E10
  3
C9
350
2E11
  3
D0
350
2E12
  3
D1
350
2E13
  3
D2
350
2E14
  0
DICTIONARY
  5
2E24
102
{ACAD_REACTORS
330
2DC5
102
}
330
2DC5
100
AcDbDictionary
281
     1
  3
Standard
350
2E25
  0
DICTIONARY
  5
2DE2
102
{ACAD_REACTORS
330
2DC5
102
}
330
2DC5
100
AcDbDictionary
281
     1
  3
2dWireframe
350
2DE8
  3
3D Hidden
350
2DEA
  3
3dWireframe
350
2DE9
  3
Basic
350
2DE7
  3
Brighten
350
2DEE
  3
ColorChange
350
2DF2
  3
Conceptual
350
2DEB
  3
Dim
350
2DED
  3
Facepattern
350
2DF1
  3
Flat
350
2DE3
  3
FlatWithEdges
350
2DE4
  3
Gouraud
350
2DE5
  3
GouraudWithEdges
350
2DE6
  3
Linepattern
350
2DF0
  3
Realistic
350
2DEC
  3
Thicken
350
2DEF
  0
XRECORD
  5
301A
102
{ACAD_REACTORS
330
2DC5
102
}
330
2DC5
100
AcDbXrecord
280
     1
 90
        1
330
2E25
  0
DICTIONARY
  5
3011
102
{ACAD_REACTORS
330
2DC5
102
}
330
2DC5
100
AcDbDictionary
281
     1
  3
CANNOSCALE
350
3014
  3
CMLEADERSTYLE
350
3013
  3
CTABLESTYLE
350
3012
  3
DIMASSOC
350
3017
  3
INDEXCTL
350
3016
  3
SORTENTS
350
3015
  0
DICTIONARY
  5
2FC4
102
{ACAD_REACTORS
330
2DC5
102
}
330
2DC5
100
AcDbDictionary
281
     1
  3
AcmStdDictionary
350
2FD2
  0
DICTIONARY
  5
2F11
102
{ACAD_REACTORS
330
2DC5
102
}
330
2DC5
100
AcDbDictionary
281
     1
  3
AcMgSettings
350
2F12
  0
XRECORD
  5
301B
102
{ACAD_REACTORS
330
2DC5
102
}
330
2DC5
100
AcDbXrecord
280
     1
  1
DWGPROPS COOKIE
  2

  3

  4

  6

  7

  8
A090053
  9

300
AmdtFileType=84
301
=
302
=
303
=
304
=
305
=
306
=
307
=
308
=
309
=
 40
1.040176354166666
 41
2452321.396199653
 42
2456212.874436192
  1

 90
        1
  0
XRECORD
  5
2FED
102
{ACAD_REACTORS
330
2FEC
102
}
330
2FEC
100
AcDbXrecord
280
     1
290
     1
  0
XRECORD
  5
2FEF
102
{ACAD_REACTORS
330
2FEE
102
}
330
2FEE
100
AcDbXrecord
280
     1
290
     1
  0
XRECORD
  5
2FF1
102
{ACAD_REACTORS
330
2FF0
102
}
330
2FF0
100
AcDbXrecord
280
     1
290
     1
  0
XRECORD
  5
2FF3
102
{ACAD_REACTORS
330
2FF2
102
}
330
2FF2
100
AcDbXrecord
280
     1
290
     1
  0
XRECORD
  5
2FF5
102
{ACAD_REACTORS
330
2FF4
102
}
330
2FF4
100
AcDbXrecord
280
     1
290
     1
  0
XRECORD
  5
2FF7
102
{ACAD_REACTORS
330
2FF6
102
}
330
2FF6
100
AcDbXrecord
280
     1
290
     1
  0
XRECORD
  5
2FF9
102
{ACAD_REACTORS
330
2FF8
102
}
330
2FF8
100
AcDbXrecord
280
     1
290
     1
  0
XRECORD
  5
2FFB
102
{ACAD_REACTORS
330
2FFA
102
}
330
2FFA
100
AcDbXrecord
280
     1
290
     1
  0
XRECORD
  5
2FFD
102
{ACAD_REACTORS
330
2FFC
102
}
330
2FFC
100
AcDbXrecord
280
     1
290
     1
  0
XRECORD
  5
2FFF
102
{ACAD_REACTORS
330
2FFE
102
}
330
2FFE
100
AcDbXrecord
280
     1
290
     1
  0
XRECORD
  5
3001
102
{ACAD_REACTORS
330
3000
102
}
330
3000
100
AcDbXrecord
280
     1
290
     1
  0
DICTIONARY
  5
3003
102
{ACAD_REACTORS
330
3002
102
}
330
3002
100
AcDbDictionary
281
     1
  3
*A1
350
3004
  0
XRECORD
  5
301D
102
{ACAD_REACTORS
330
301C
102
}
330
301C
100
AcDbXrecord
280
     1
 70
     1
  0
XRECORD
  5
301F
102
{ACAD_REACTORS
330
301C
102
}
330
301C
100
AcDbXrecord
280
     1
340
2E1B
  0
XRECORD
  5
3020
102
{ACAD_REACTORS
330
301C
102
}
330
301C
100
AcDbXrecord
280
     1
340
2E1B
  0
XRECORD
  5
301E
102
{ACAD_REACTORS
330
301C
102
}
330
301C
100
AcDbXrecord
280
     1
340
2E1B
  0
LAYOUT
  5
2E30
102
{ACAD_XDICTIONARY
360
3027
102
}
102
{ACAD_REACTORS
330
2E22
102
}
330
2E22
100
AcDbPlotSettings
  1

  2
自動 EPSON LP-9600S (W2450527 上)
  4

  6

 40
0.0
 41
0.0
 42
0.0
 43
0.0
 44
0.0
 45
0.0
 46
0.0
 47
0.0
 48
0.0
 49
0.0
140
0.0
141
0.0
142
1.0
143
1.0
 70
  1712
 72
     0
 73
     0
 74
     0
  7

 75
     0
147
1.0
148
0.0
149
0.0
100
AcDbLayout
  1
Model
 70
     1
 71
     0
 10
0.0
 20
0.0
 11
12.0
 21
9.0
 12
0.0
 22
0.0
 32
0.0
 14
0.0
 24
0.0
 34
0.0
 15
0.0
 25
0.0
 35
0.0
146
0.0
 13
0.0
 23
0.0
 33
0.0
 16
1.0
 26
0.0
 36
0.0
 17
0.0
 27
1.0
 37
0.0
 76
     0
330
2E2D
331
2E31
  0
LAYOUT
  5
2E2C
102
{ACAD_XDICTIONARY
360
3025
102
}
102
{ACAD_REACTORS
330
2E22
102
}
330
2E22
100
AcDbPlotSettings
  1

  2
自動 EPSON LP-9600S (W2450527 上)
  4

  6

 40
0.0
 41
0.0
 42
0.0
 43
0.0
 44
0.0
 45
0.0
 46
0.0
 47
0.0
 48
0.0
 49
0.0
140
0.0
141
0.0
142
1.0
143
1.0
 70
   688
 72
     0
 73
     0
 74
     5
  7

 75
    16
147
1.0
148
0.0
149
0.0
100
AcDbLayout
  1
レイアウト1
 70
     1
 71
     1
 10
0.0
 20
0.0
 11
12.0
 21
9.0
 12
0.0
 22
0.0
 32
0.0
 14
1.000000000000000E+20
 24
1.000000000000000E+20
 34
1.000000000000000E+20
 15
-1.000000000000000E+20
 25
-1.000000000000000E+20
 35
-1.000000000000000E+20
146
0.0
 13
0.0
 23
0.0
 33
0.0
 16
1.0
 26
0.0
 36
0.0
 17
0.0
 27
1.0
 37
0.0
 76
     0
330
2E29
  0
MATERIAL
  5
2DD2
102
{ACAD_XDICTIONARY
360
2DD3
102
}
102
{ACAD_REACTORS
330
2DC9
102
}
330
2DC9
100
AcDbMaterial
  1
ByBlock
 72
     0
 43
0.0208333333333333
 43
0.0
 43
0.0
 43
0.0
 43
0.0
 43
0.0208333333333333
 43
0.0
 43
0.0
 43
0.0
 43
0.0
 43
1.0
 43
0.0
 43
0.0
 43
0.0
 43
0.0
 43
1.0
 77
     0
 47
0.0208333333333333
 47
0.0
 47
0.0
 47
0.0
 47
0.0
 47
0.0208333333333333
 47
0.0
 47
0.0
 47
0.0
 47
0.0
 47
1.0
 47
0.0
 47
0.0
 47
0.0
 47
0.0
 47
1.0
171
     0
 49
0.0208333333333333
 49
0.0
 49
0.0
 49
0.0
 49
0.0
 49
0.0208333333333333
 49
0.0
 49
0.0
 49
0.0
 49
0.0
 49
1.0
 49
0.0
 49
0.0
 49
0.0
 49
0.0
 49
1.0
175
     0
142
0.0208333333333333
142
0.0
142
0.0
142
0.0
142
0.0
142
0.0208333333333333
142
0.0
142
0.0
142
0.0
142
0.0
142
1.0
142
0.0
142
0.0
142
0.0
142
0.0
142
1.0
179
     0
144
0.0208333333333333
144
0.0
144
0.0
144
0.0
144
0.0
144
0.0208333333333333
144
0.0
144
0.0
144
0.0
144
0.0
144
1.0
144
0.0
144
0.0
144
0.0
144
0.0
144
1.0
147
0.0208333333333333
147
0.0
147
0.0
147
0.0
147
0.0
147
0.0208333333333333
147
0.0
147
0.0
147
0.0
147
0.0
147
1.0
147
0.0
147
0.0
147
0.0
147
0.0
147
1.0
  0
MATERIAL
  5
2DCA
102
{ACAD_XDICTIONARY
360
2DCB
102
}
102
{ACAD_REACTORS
330
2DC9
102
}
330
2DC9
100
AcDbMaterial
  1
ByLayer
 72
     0
 43
0.0208333333333333
 43
0.0
 43
0.0
 43
0.0
 43
0.0
 43
0.0208333333333333
 43
0.0
 43
0.0
 43
0.0
 43
0.0
 43
1.0
 43
0.0
 43
0.0
 43
0.0
 43
0.0
 43
1.0
 77
     0
 47
0.0208333333333333
 47
0.0
 47
0.0
 47
0.0
 47
0.0
 47
0.0208333333333333
 47
0.0
 47
0.0
 47
0.0
 47
0.0
 47
1.0
 47
0.0
 47
0.0
 47
0.0
 47
0.0
 47
1.0
171
     0
 49
0.0208333333333333
 49
0.0
 49
0.0
 49
0.0
 49
0.0
 49
0.0208333333333333
 49
0.0
 49
0.0
 49
0.0
 49
0.0
 49
1.0
 49
0.0
 49
0.0
 49
0.0
 49
0.0
 49
1.0
175
     0
142
0.0208333333333333
142
0.0
142
0.0
142
0.0
142
0.0
142
0.0208333333333333
142
0.0
142
0.0
142
0.0
142
0.0
142
1.0
142
0.0
142
0.0
142
0.0
142
0.0
142
1.0
179
     0
144
0.0208333333333333
144
0.0
144
0.0
144
0.0
144
0.0
144
0.0208333333333333
144
0.0
144
0.0
144
0.0
144
0.0
144
1.0
144
0.0
144
0.0
144
0.0
144
0.0
144
1.0
147
0.0208333333333333
147
0.0
147
0.0
147
0.0
147
0.0
147
0.0208333333333333
147
0.0
147
0.0
147
0.0
147
0.0
147
1.0
147
0.0
147
0.0
147
0.0
147
0.0
147
1.0
  0
MATERIAL
  5
2DDA
102
{ACAD_XDICTIONARY
360
2DDB
102
}
102
{ACAD_REACTORS
330
2DC9
102
}
330
2DC9
100
AcDbMaterial
  1
Global
 72
     0
 43
0.0208333333333333
 43
0.0
 43
0.0
 43
0.0
 43
0.0
 43
0.0208333333333333
 43
0.0
 43
0.0
 43
0.0
 43
0.0
 43
1.0
 43
0.0
 43
0.0
 43
0.0
 43
0.0
 43
1.0
 77
     0
 47
0.0208333333333333
 47
0.0
 47
0.0
 47
0.0
 47
0.0
 47
0.0208333333333333
 47
0.0
 47
0.0
 47
0.0
 47
0.0
 47
1.0
 47
0.0
 47
0.0
 47
0.0
 47
0.0
 47
1.0
171
     0
 49
0.0208333333333333
 49
0.0
 49
0.0
 49
0.0
 49
0.0
 49
0.0208333333333333
 49
0.0
 49
0.0
 49
0.0
 49
0.0
 49
1.0
 49
0.0
 49
0.0
 49
0.0
 49
0.0
 49
1.0
175
     0
142
0.0208333333333333
142
0.0
142
0.0
142
0.0
142
0.0
142
0.0208333333333333
142
0.0
142
0.0
142
0.0
142
0.0
142
1.0
142
0.0
142
0.0
142
0.0
142
0.0
142
1.0
179
     0
144
0.0208333333333333
144
0.0
144
0.0
144
0.0
144
0.0
144
0.0208333333333333
144
0.0
144
0.0
144
0.0
144
0.0
144
1.0
144
0.0
144
0.0
144
0.0
144
0.0
144
1.0
147
0.0208333333333333
147
0.0
147
0.0
147
0.0
147
0.0
147
0.0208333333333333
147
0.0
147
0.0
147
0.0
147
0.0
147
1.0
147
0.0
147
0.0
147
0.0
147
0.0
147
1.0
  0
MLEADERSTYLE
  5
2E27
102
{ACAD_REACTORS
330
2E26
102
}
330
2E26
100
AcDbMLeaderStyle
170
     2
171
     1
172
     0
 90
        2
 40
0.0
 41
0.0
173
     1
 91
-1056964608
340
2E1B
 92
       -2
290
     1
 42
0.09
291
     1
 43
0.36
  3
Standard
 44
0.18
300

342
2E16
174
     1
178
     6
175
     1
176
     0
 93
-1056964608
 45
0.18
292
     0
297
     0
 46
0.18
 94
-1056964608
 47
1.0
 49
1.0
140
1.0
293
     1
141
0.0
294
     1
177
     0
142
1.0
295
     0
296
     0
143
0.125
1001
ACAD_MLEADERVER
1070
     2
  0
MLINESTYLE
  5
2E20
102
{ACAD_REACTORS
330
2E1F
102
}
330
2E1F
100
AcDbMlineStyle
  2
STANDARD
 70
     0
  3

 62
   256
 51
90.0
 52
90.0
 71
     2
 49
0.5
 62
   256
  6
BYLAYER
 49
-0.5
 62
   256
  6
BYLAYER
  0
ACDBPLACEHOLDER
  5
2DC8
102
{ACAD_REACTORS
330
2DC7
102
}
330
2DC7
  0
SCALE
  5
2DF4
102
{ACAD_REACTORS
330
2DF3
102
}
330
2DF3
100
AcDbScale
 70
     0
300
1:1
140
1.0
141
1.0
290
     1
  0
SCALE
  5
2DF5
102
{ACAD_REACTORS
330
2DF3
102
}
330
2DF3
100
AcDbScale
 70
     0
300
1:2
140
1.0
141
2.0
290
     0
  0
SCALE
  5
2DF6
102
{ACAD_REACTORS
330
2DF3
102
}
330
2DF3
100
AcDbScale
 70
     0
300
1:4
140
1.0
141
4.0
290
     0
  0
SCALE
  5
2DF7
102
{ACAD_REACTORS
330
2DF3
102
}
330
2DF3
100
AcDbScale
 70
     0
300
1:5
140
1.0
141
5.0
290
     0
  0
SCALE
  5
2DF8
102
{ACAD_REACTORS
330
2DF3
102
}
330
2DF3
100
AcDbScale
 70
     0
300
1:8
140
1.0
141
8.0
290
     0
  0
SCALE
  5
2DF9
102
{ACAD_REACTORS
330
2DF3
102
}
330
2DF3
100
AcDbScale
 70
     0
300
1:10
140
1.0
141
10.0
290
     0
  0
SCALE
  5
2DFA
102
{ACAD_REACTORS
330
2DF3
102
}
330
2DF3
100
AcDbScale
 70
     0
300
1:16
140
1.0
141
16.0
290
     0
  0
SCALE
  5
2DFB
102
{ACAD_REACTORS
330
2DF3
102
}
330
2DF3
100
AcDbScale
 70
     0
300
1:20
140
1.0
141
20.0
290
     0
  0
SCALE
  5
2DFC
102
{ACAD_REACTORS
330
2DF3
102
}
330
2DF3
100
AcDbScale
 70
     0
300
1:30
140
1.0
141
30.0
290
     0
  0
SCALE
  5
2DFD
102
{ACAD_REACTORS
330
2DF3
102
}
330
2DF3
100
AcDbScale
 70
     0
300
1:40
140
1.0
141
40.0
290
     0
  0
SCALE
  5
2DFE
102
{ACAD_REACTORS
330
2DF3
102
}
330
2DF3
100
AcDbScale
 70
     0
300
1:50
140
1.0
141
50.0
290
     0
  0
SCALE
  5
2DFF
102
{ACAD_REACTORS
330
2DF3
102
}
330
2DF3
100
AcDbScale
 70
     0
300
1:100
140
1.0
141
100.0
290
     0
  0
SCALE
  5
2E00
102
{ACAD_REACTORS
330
2DF3
102
}
330
2DF3
100
AcDbScale
 70
     0
300
2:1
140
2.0
141
1.0
290
     0
  0
SCALE
  5
2E01
102
{ACAD_REACTORS
330
2DF3
102
}
330
2DF3
100
AcDbScale
 70
     0
300
4:1
140
4.0
141
1.0
290
     0
  0
SCALE
  5
2E02
102
{ACAD_REACTORS
330
2DF3
102
}
330
2DF3
100
AcDbScale
 70
     0
300
8:1
140
8.0
141
1.0
290
     0
  0
SCALE
  5
2E03
102
{ACAD_REACTORS
330
2DF3
102
}
330
2DF3
100
AcDbScale
 70
     0
300
10:1
140
10.0
141
1.0
290
     0
  0
SCALE
  5
2E04
102
{ACAD_REACTORS
330
2DF3
102
}
330
2DF3
100
AcDbScale
 70
     0
300
100:1
140
100.0
141
1.0
290
     0
  0
SCALE
  5
2E05
102
{ACAD_REACTORS
330
2DF3
102
}
330
2DF3
100
AcDbScale
 70
     0
300
1/128" = 1'-0"
140
0.0078125
141
12.0
290
     0
  0
SCALE
  5
2E06
102
{ACAD_REACTORS
330
2DF3
102
}
330
2DF3
100
AcDbScale
 70
     0
300
1/64" = 1'-0"
140
0.015625
141
12.0
290
     0
  0
SCALE
  5
2E07
102
{ACAD_REACTORS
330
2DF3
102
}
330
2DF3
100
AcDbScale
 70
     0
300
1/32" = 1'-0"
140
0.03125
141
12.0
290
     0
  0
SCALE
  5
2E08
102
{ACAD_REACTORS
330
2DF3
102
}
330
2DF3
100
AcDbScale
 70
     0
300
1/16" = 1'-0"
140
0.0625
141
12.0
290
     0
  0
SCALE
  5
2E09
102
{ACAD_REACTORS
330
2DF3
102
}
330
2DF3
100
AcDbScale
 70
     0
300
3/32" = 1'-0"
140
0.09375
141
12.0
290
     0
  0
SCALE
  5
2E0A
102
{ACAD_REACTORS
330
2DF3
102
}
330
2DF3
100
AcDbScale
 70
     0
300
1/8" = 1'-0"
140
0.125
141
12.0
290
     0
  0
SCALE
  5
2E0B
102
{ACAD_REACTORS
330
2DF3
102
}
330
2DF3
100
AcDbScale
 70
     0
300
3/16" = 1'-0"
140
0.1875
141
12.0
290
     0
  0
SCALE
  5
2E0C
102
{ACAD_REACTORS
330
2DF3
102
}
330
2DF3
100
AcDbScale
 70
     0
300
1/4" = 1'-0"
140
0.25
141
12.0
290
     0
  0
SCALE
  5
2E0D
102
{ACAD_REACTORS
330
2DF3
102
}
330
2DF3
100
AcDbScale
 70
     0
300
3/8" = 1'-0"
140
0.375
141
12.0
290
     0
  0
SCALE
  5
2E0E
102
{ACAD_REACTORS
330
2DF3
102
}
330
2DF3
100
AcDbScale
 70
     0
300
1/2" = 1'-0"
140
0.5
141
12.0
290
     0
  0
SCALE
  5
2E0F
102
{ACAD_REACTORS
330
2DF3
102
}
330
2DF3
100
AcDbScale
 70
     0
300
3/4" = 1'-0"
140
0.75
141
12.0
290
     0
  0
SCALE
  5
2E10
102
{ACAD_REACTORS
330
2DF3
102
}
330
2DF3
100
AcDbScale
 70
     0
300
1" = 1'-0"
140
1.0
141
12.0
290
     0
  0
SCALE
  5
2E11
102
{ACAD_REACTORS
330
2DF3
102
}
330
2DF3
100
AcDbScale
 70
     0
300
1-1/2" = 1'-0"
140
1.5
141
12.0
290
     0
  0
SCALE
  5
2E12
102
{ACAD_REACTORS
330
2DF3
102
}
330
2DF3
100
AcDbScale
 70
     0
300
3" = 1'-0"
140
3.0
141
12.0
290
     0
  0
SCALE
  5
2E13
102
{ACAD_REACTORS
330
2DF3
102
}
330
2DF3
100
AcDbScale
 70
     0
300
6" = 1'-0"
140
6.0
141
12.0
290
     0
  0
SCALE
  5
2E14
102
{ACAD_REACTORS
330
2DF3
102
}
330
2DF3
100
AcDbScale
 70
     0
300
1'-0" = 1'-0"
140
12.0
141
12.0
290
     0
  0
TABLESTYLE
  5
2E25
102
{ACAD_XDICTIONARY
360
3018
102
}
102
{ACAD_REACTORS
330
2E24
102
}
330
2E24
100
AcDbTableStyle
  3
Standard
 70
     0
 71
     0
 40
0.06
 41
0.06
280
     0
281
     0
  7
STANDARD
140
0.18
170
     2
 62
     0
 63
     7
283
     0
274
    -2
284
     1
 64
     0
275
    -2
285
     1
 65
     0
276
    -2
286
     1
 66
     0
277
    -2
287
     1
 67
     0
278
    -2
288
     1
 68
     0
279
    -2
289
     1
 69
     0
  7
STANDARD
140
0.25
170
     5
 62
     0
 63
     7
283
     0
274
    -2
284
     1
 64
     0
275
    -2
285
     1
 65
     0
276
    -2
286
     1
 66
     0
277
    -2
287
     1
 67
     0
278
    -2
288
     1
 68
     0
279
    -2
289
     1
 69
     0
  7
STANDARD
140
0.18
170
     5
 62
     0
 63
     7
283
     0
274
    -2
284
     1
 64
     0
275
    -2
285
     1
 65
     0
276
    -2
286
     1
 66
     0
277
    -2
287
     1
 67
     0
278
    -2
288
     1
 68
     0
279
    -2
289
     1
 69
     0
  0
VISUALSTYLE
  5
2DE8
102
{ACAD_REACTORS
330
2DE2
102
}
330
2DE2
100
AcDbVisualStyle
  2
2dWireframe
 70
     4
 71
     0
 72
     2
 73
     0
 90
        0
 40
-0.6
 41
-30.0
 62
     5
 63
     7
 74
     1
 91
        4
 64
     7
 65
   257
 75
     1
175
     1
 42
1.0
 92
        0
 66
   257
 43
1.0
 76
     1
 77
     6
 78
     2
 67
     7
 79
     5
170
     0
171
     0
290
     0
174
     0
 93
        1
 44
0.0
173
     0
291
     0
 45
0.0
1001
ACAD
1000
AcDbSavedByObjectVersion
1070
     0
  0
VISUALSTYLE
  5
2DEA
102
{ACAD_REACTORS
330
2DE2
102
}
330
2DE2
100
AcDbVisualStyle
  2
3D Hidden
 70
     6
 71
     1
 72
     2
 73
     2
 90
        0
 40
-0.6
 41
-30.0
 62
     5
 63
     7
 74
     2
 91
        2
 64
     7
 65
   257
 75
     2
175
     1
 42
40.0
 92
        0
 66
   257
 43
1.0
 76
     1
 77
     6
 78
     2
 67
     7
 79
     3
170
     0
171
     0
290
     0
174
     0
 93
        1
 44
0.0
173
     0
291
     0
 45
0.0
1001
ACAD
1000
AcDbSavedByObjectVersion
1070
     0
  0
VISUALSTYLE
  5
2DE9
102
{ACAD_REACTORS
330
2DE2
102
}
330
2DE2
100
AcDbVisualStyle
  2
3dWireframe
 70
     5
 71
     0
 72
     2
 73
     0
 90
        0
 40
-0.6
 41
-30.0
 62
     5
 63
     7
 74
     1
 91
        4
 64
     7
 65
   257
 75
     1
175
     1
 42
1.0
 92
        0
 66
   257
 43
1.0
 76
     1
 77
     6
 78
     2
 67
     7
 79
     5
170
     0
171
     0
290
     0
174
     0
 93
        1
 44
0.0
173
     0
291
     0
 45
0.0
1001
ACAD
1000
AcDbSavedByObjectVersion
1070
     0
  0
VISUALSTYLE
  5
2DE7
102
{ACAD_REACTORS
330
2DE2
102
}
330
2DE2
100
AcDbVisualStyle
  2
Basic
 70
     7
 71
     1
 72
     0
 73
     1
 90
        0
 40
-0.6
 41
-30.0
 62
     5
 63
     7
 74
     0
 91
        4
 64
     7
 65
   257
 75
     1
175
     1
 42
1.0
 92
        8
 66
     7
 43
1.0
 76
     1
 77
     6
 78
     2
 67
     7
 79
     5
170
     0
171
     0
290
     0
174
     0
 93
        1
 44
0.0
173
     0
291
     1
 45
0.0
1001
ACAD
1000
AcDbSavedByObjectVersion
1070
     0
  0
VISUALSTYLE
  5
2DEE
102
{ACAD_REACTORS
330
2DE2
102
}
330
2DE2
100
AcDbVisualStyle
  2
Brighten
 70
    12
 71
     2
 72
     2
 73
     0
 90
        0
 40
-0.6
 41
-30.0
 62
     5
 63
     7
 74
     1
 91
        4
 64
     7
 65
   257
 75
     1
175
     1
 42
1.0
 92
        8
 66
     7
 43
1.0
 76
     1
 77
     6
 78
     2
 67
     7
 79
     5
170
     0
171
     0
290
     0
174
     0
 93
        1
 44
50.0
173
     0
291
     1
 45
0.0
1001
ACAD
1000
AcDbSavedByObjectVersion
1070
     0
  0
VISUALSTYLE
  5
2DF2
102
{ACAD_REACTORS
330
2DE2
102
}
330
2DE2
100
AcDbVisualStyle
  2
ColorChange
 70
    16
 71
     2
 72
     2
 73
     3
 90
        0
 40
-0.6
 41
-30.0
 62
     5
 63
     8
 74
     1
 91
        4
 64
     7
 65
   257
 75
     1
175
     1
 42
1.0
 92
        8
 66
     8
 43
1.0
 76
     1
 77
     6
 78
     2
 67
     7
 79
     5
170
     0
171
     0
290
     0
174
     0
 93
        1
 44
0.0
173
     0
291
     1
 45
0.0
1001
ACAD
1000
AcDbSavedByObjectVersion
1070
     0
  0
VISUALSTYLE
  5
2DEB
102
{ACAD_REACTORS
330
2DE2
102
}
330
2DE2
100
AcDbVisualStyle
  2
Conceptual
 70
     9
 71
     3
 72
     2
 73
     0
 90
        0
 40
-0.6
 41
-30.0
 62
     5
 63
     7
 74
     2
 91
        2
 64
     7
 65
   257
 75
     1
175
     1
 42
40.0
 92
        8
 66
     7
 43
1.0
 76
     1
 77
     6
 78
     2
 67
     7
 79
     3
170
     0
171
     0
290
     0
174
     0
 93
        1
 44
0.0
173
     0
291
     0
 45
0.0
1001
ACAD
1000
AcDbSavedByObjectVersion
1070
     0
  0
VISUALSTYLE
  5
2DED
102
{ACAD_REACTORS
330
2DE2
102
}
330
2DE2
100
AcDbVisualStyle
  2
Dim
 70
    11
 71
     2
 72
     2
 73
     0
 90
        0
 40
-0.6
 41
-30.0
 62
     5
 63
     7
 74
     1
 91
        4
 64
     7
 65
   257
 75
     1
175
     1
 42
1.0
 92
        8
 66
     7
 43
1.0
 76
     1
 77
     6
 78
     2
 67
     7
 79
     5
170
     0
171
     0
290
     0
174
     0
 93
        1
 44
-50.0
173
     0
291
     1
 45
0.0
1001
ACAD
1000
AcDbSavedByObjectVersion
1070
     0
  0
VISUALSTYLE
  5
2DF1
102
{ACAD_REACTORS
330
2DE2
102
}
330
2DE2
100
AcDbVisualStyle
  2
Facepattern
 70
    15
 71
     2
 72
     2
 73
     0
 90
        0
 40
-0.6
 41
-30.0
 62
     5
 63
     7
 74
     1
 91
        4
 64
     7
 65
   257
 75
     1
175
     1
 42
1.0
 92
        8
 66
     7
 43
1.0
 76
     1
 77
     6
 78
     2
 67
     7
 79
     5
170
     0
171
     0
290
     0
174
     0
 93
        1
 44
0.0
173
     0
291
     1
 45
0.0
1001
ACAD
1000
AcDbSavedByObjectVersion
1070
     0
  0
VISUALSTYLE
  5
2DE3
102
{ACAD_REACTORS
330
2DE2
102
}
330
2DE2
100
AcDbVisualStyle
  2
Flat
 70
     0
 71
     2
 72
     1
 73
     1
 90
        2
 40
-0.6
 41
30.0
 62
     5
 63
     7
 74
     0
 91
        4
 64
     7
 65
   257
 75
     1
175
     1
 42
1.0
 92
        8
 66
     7
 43
1.0
 76
     1
 77
     6
 78
     2
 67
     7
 79
     5
170
     0
171
     0
290
     0
174
     0
 93
       13
 44
0.0
173
     0
291
     1
 45
0.0
1001
ACAD
1000
AcDbSavedByObjectVersion
1070
     0
  0
VISUALSTYLE
  5
2DE4
102
{ACAD_REACTORS
330
2DE2
102
}
330
2DE2
100
AcDbVisualStyle
  2
FlatWithEdges
 70
     1
 71
     2
 72
     1
 73
     1
 90
        2
 40
-0.6
 41
30.0
 62
     5
 63
     7
 74
     1
 91
        4
 64
     7
 65
   257
 75
     1
175
     1
 42
1.0
 92
        0
 66
   257
 43
1.0
 76
     1
 77
     6
 78
     2
 67
     7
 79
     5
170
     0
171
     0
290
     0
174
     0
 93
       13
 44
0.0
173
     0
291
     1
 45
0.0
1001
ACAD
1000
AcDbSavedByObjectVersion
1070
     0
  0
VISUALSTYLE
  5
2DE5
102
{ACAD_REACTORS
330
2DE2
102
}
330
2DE2
100
AcDbVisualStyle
  2
Gouraud
 70
     2
 71
     2
 72
     2
 73
     1
 90
        2
 40
-0.6
 41
30.0
 62
     5
 63
     7
 74
     0
 91
        4
 64
     7
 65
   257
 75
     1
175
     1
 42
1.0
 92
        0
 66
     7
 43
1.0
 76
     1
 77
     6
 78
     2
 67
     7
 79
     5
170
     0
171
     0
290
     0
174
     0
 93
       13
 44
0.0
173
     0
291
     1
 45
0.0
1001
ACAD
1000
AcDbSavedByObjectVersion
1070
     0
  0
VISUALSTYLE
  5
2DE6
102
{ACAD_REACTORS
330
2DE2
102
}
330
2DE2
100
AcDbVisualStyle
  2
GouraudWithEdges
 70
     3
 71
     2
 72
     2
 73
     1
 90
        2
 40
-0.6
 41
30.0
 62
     5
 63
     7
 74
     1
 91
        4
 64
     7
 65
   257
 75
     1
175
     1
 42
1.0
 92
        0
 66
   257
 43
1.0
 76
     1
 77
     6
 78
     2
 67
     7
 79
     5
170
     0
171
     0
290
     0
174
     0
 93
       13
 44
0.0
173
     0
291
     1
 45
0.0
1001
ACAD
1000
AcDbSavedByObjectVersion
1070
     0
  0
VISUALSTYLE
  5
2DF0
102
{ACAD_REACTORS
330
2DE2
102
}
330
2DE2
100
AcDbVisualStyle
  2
Linepattern
 70
    14
 71
     2
 72
     2
 73
     0
 90
        0
 40
-0.6
 41
-30.0
 62
     5
 63
     7
 74
     1
 91
        4
 64
     7
 65
   257
 75
     7
175
     7
 42
1.0
 92
        8
 66
     7
 43
1.0
 76
     1
 77
     6
 78
     2
 67
     7
 79
     5
170
     0
171
     0
290
     0
174
     0
 93
        1
 44
0.0
173
     0
291
     1
 45
0.0
1001
ACAD
1000
AcDbSavedByObjectVersion
1070
     0
  0
VISUALSTYLE
  5
2DEC
102
{ACAD_REACTORS
330
2DE2
102
}
330
2DE2
100
AcDbVisualStyle
  2
Realistic
 70
     8
 71
     2
 72
     2
 73
     0
 90
        0
 40
-0.6
 41
-30.0
 62
     5
 63
     7
 74
     1
 91
        0
 64
     7
 65
   257
 75
     1
175
     1
 42
1.0
 92
        8
 66
     8
 43
1.0
 76
     1
 77
     6
 78
     2
 67
     7
 79
     5
170
     0
171
     0
290
     0
174
     0
 93
       13
 44
0.0
173
     0
291
     0
 45
0.0
1001
ACAD
1000
AcDbSavedByObjectVersion
1070
     0
  0
VISUALSTYLE
  5
2DEF
102
{ACAD_REACTORS
330
2DE2
102
}
330
2DE2
100
AcDbVisualStyle
  2
Thicken
 70
    13
 71
     2
 72
     2
 73
     0
 90
        0
 40
-0.6
 41
-30.0
 62
     5
 63
     7
 74
     1
 91
        4
 64
     7
 65
   257
 75
     1
175
     1
 42
1.0
 92
       12
 66
     7
 43
1.0
 76
     1
 77
     6
 78
     2
 67
     7
 79
     5
170
     0
171
     0
290
     0
174
     0
 93
        1
 44
0.0
173
     0
291
     1
 45
0.0
1001
ACAD
1000
AcDbSavedByObjectVersion
1070
     0
  0
DICTIONARYVAR
  5
3014
102
{ACAD_REACTORS
330
3011
102
}
330
3011
100
DictionaryVariables
280
     0
  1
1:1
  0
DICTIONARYVAR
  5
3013
102
{ACAD_REACTORS
330
3011
102
}
330
3011
100
DictionaryVariables
280
     0
  1
STANDARD
  0
DICTIONARYVAR
  5
3012
102
{ACAD_REACTORS
330
3011
102
}
330
3011
100
DictionaryVariables
280
     0
  1
STANDARD
  0
DICTIONARYVAR
  5
3017
102
{ACAD_REACTORS
330
3011
102
}
330
3011
100
DictionaryVariables
280
     0
  1
1
  0
DICTIONARYVAR
  5
3016
102
{ACAD_REACTORS
330
3011
102
}
330
3011
100
DictionaryVariables
280
     0
  1
1
  0
DICTIONARYVAR
  5
3015
102
{ACAD_REACTORS
330
3011
102
}
330
3011
100
DictionaryVariables
280
     0
  1
127
  0
DICTIONARY
  5
2FD2
102
{ACAD_REACTORS
330
2FC4
102
}
330
2FC4
100
AcDbDictionary
281
     1
  0
DICTIONARY
  5
2F12
102
{ACAD_REACTORS
330
2F11
102
}
330
2F11
100
AcDbDictionary
281
     1
  3
DWGSETTINGS
350
2F13
  3
TRANSSETTINGS
350
2F14
  0
LAYER_INDEX
  5
3004
102
{ACAD_REACTORS
330
3003
102
}
330
3003
100
AcDbIndex
 40
2456212.874436192
100
AcDbLayerIndex
  8
0
360
3005
 90
        2
  8
OUTLINE
360
3006
 90
       24
  8
SIZE
360
3007
 90
       38
  8
BASIS
360
3008
 90
        1
  8
DETAIL
360
3009
 90
       28
  8
ARRANGE
360
300A
 90
        2
  8
DEFPOINTS
360
300B
 90
        0
  8
ETC
360
300C
 90
        3
  8
FIX
360
300D
 90
        0
  8
NOTE
360
300E
 90
        4
  8
SERVICESPACE
360
300F
 90
        0
  8
SYMBOLLINE
360
3010
 90
        0
  0
DICTIONARY
  5
3027
330
2E30
100
AcDbDictionary
280
     1
281
     1
  3
ACAD_XREC_ROUNDTRIP
360
3028
  0
DICTIONARY
  5
3025
330
2E2C
100
AcDbDictionary
280
     1
281
     1
  3
ACAD_XREC_ROUNDTRIP
360
3026
  0
DICTIONARY
  5
2DD3
330
2DD2
100
AcDbDictionary
280
     1
281
     1
  3
ACAD_XREC_ROUNDTRIP
360
3022
  3
BUMPTILE
360
2DD5
  3
DIFFUSETILE
360
2DD4
  3
OPACITYTILE
360
2DD8
  3
REFLECTIONTILE
360
2DD7
  3
REFRACTIONTILE
360
2DD9
  3
SPECULARTILE
360
2DD6
  0
DICTIONARY
  5
2DCB
330
2DCA
100
AcDbDictionary
280
     1
281
     1
  3
ACAD_XREC_ROUNDTRIP
360
3021
  3
BUMPTILE
360
2DCD
  3
DIFFUSETILE
360
2DCC
  3
OPACITYTILE
360
2DD0
  3
REFLECTIONTILE
360
2DCF
  3
REFRACTIONTILE
360
2DD1
  3
SPECULARTILE
360
2DCE
  0
DICTIONARY
  5
2DDB
330
2DDA
100
AcDbDictionary
280
     1
281
     1
  3
ACAD_XREC_ROUNDTRIP
360
3023
  3
BUMPTILE
360
2DDD
  3
DIFFUSETILE
360
2DDC
  3
OPACITYTILE
360
2DE0
  3
REFLECTIONTILE
360
2DDF
  3
REFRACTIONTILE
360
2DE1
  3
SPECULARTILE
360
2DDE
  0
DICTIONARY
  5
3018
330
2E25
100
AcDbDictionary
280
     1
281
     1
  3
ACAD_ROUNDTRIP_2008_TABLESTYLE_CELLSTYLEMAP
360
3019
  3
ACAD_XREC_ROUNDTRIP
360
3024
  0
IDBUFFER
  5
3005
330
0
100
AcDbIdBuffer
330
2AB6
330
2AB7
  0
IDBUFFER
  5
3006
330
0
100
AcDbIdBuffer
330
2AD4
330
2AD5
330
2AD6
330
2AD7
330
2AD8
330
2AD9
330
2ADA
330
2ADD
330
953
330
954
330
955
330
956
330
957
330
958
330
2ACA
330
2ACB
330
2ACC
330
2ACD
330
2ACE
330
2ACF
330
2AD0
330
2AD1
330
2AD2
330
2AD3
  0
IDBUFFER
  5
3007
330
0
100
AcDbIdBuffer
330
2AF4
330
2AF5
330
2AF6
330
2AF7
330
2AF8
330
2AF9
330
2AFA
330
2AFB
330
2AFC
330
2AFD
330
2AFE
330
2AFF
330
2B00
330
2B01
330
2B02
330
2B03
330
2B04
330
2B05
330
2B06
330
2B07
330
2B08
330
2B09
330
2AE4
330
2AE5
330
2AE6
330
2AE7
330
2AE8
330
2AE9
330
2AEA
330
2AEB
330
2AEC
330
2AED
330
2AEE
330
2AEF
330
2AF0
330
2AF1
330
2AF2
330
2AF3
  0
IDBUFFER
  5
3008
330
0
100
AcDbIdBuffer
330
2AB3
  0
IDBUFFER
  5
3009
330
0
100
AcDbIdBuffer
330
2AC4
330
2AC5
330
2AC6
330
2AC7
330
2AC8
330
2AC9
330
2ADE
330
2ADF
330
2AE0
330
2AE1
330
2AE2
330
2AE3
330
2AAE
330
2AAF
330
2AB0
330
2AB2
330
2AB8
330
2AB9
330
2ABA
330
2ABB
330
2ABC
330
2ABD
330
2ABE
330
2ABF
330
2AC0
330
2AC1
330
2AC2
330
2AC3
  0
IDBUFFER
  5
300A
330
0
100
AcDbIdBuffer
330
2AAD
330
2AB4
  0
IDBUFFER
  5
300B
330
0
100
AcDbIdBuffer
  0
IDBUFFER
  5
300C
330
0
100
AcDbIdBuffer
330
2AAA
330
2AAB
330
2AAC
  0
IDBUFFER
  5
300D
330
0
100
AcDbIdBuffer
  0
IDBUFFER
  5
300E
330
0
100
AcDbIdBuffer
330
2AB1
330
2AB5
330
2ADB
330
2ADC
  0
IDBUFFER
  5
300F
330
0
100
AcDbIdBuffer
  0
IDBUFFER
  5
3010
330
0
100
AcDbIdBuffer
  0
XRECORD
  5
3028
102
{ACAD_REACTORS
330
3027
102
}
330
3027
100
AcDbXrecord
280
     1
102
SHADEPLOT
 70
     0
102
SHADEPLOTRESLEVEL
 70
     2
102
SHADEPLOTCUSTOMDPI
 70
   300
  0
XRECORD
  5
3026
102
{ACAD_REACTORS
330
3025
102
}
330
3025
100
AcDbXrecord
280
     1
102
SHADEPLOT
 70
     0
102
SHADEPLOTRESLEVEL
 70
     2
102
SHADEPLOTCUSTOMDPI
 70
   300
  0
XRECORD
  5
3022
102
{ACAD_REACTORS
330
2DD3
102
}
330
2DD3
100
AcDbXrecord
280
     1
102
MATERIAL
148
0.0
149
0.0
149
0.0
 93
        0
 94
      127
282
     0
 72
     0
 77
     0
171
     0
175
     0
179
     0
273
     0
  0
XRECORD
  5
2DD5
102
{ACAD_REACTORS
330
2DD3
102
}
330
2DD3
100
AcDbXrecord
280
     1
270
     1
271
     1
  0
XRECORD
  5
2DD4
102
{ACAD_REACTORS
330
2DD3
102
}
330
2DD3
100
AcDbXrecord
280
     1
270
     1
271
     1
  0
XRECORD
  5
2DD8
102
{ACAD_REACTORS
330
2DD3
102
}
330
2DD3
100
AcDbXrecord
280
     1
270
     1
271
     1
  0
XRECORD
  5
2DD7
102
{ACAD_REACTORS
330
2DD3
102
}
330
2DD3
100
AcDbXrecord
280
     1
270
     1
271
     1
  0
XRECORD
  5
2DD9
102
{ACAD_REACTORS
330
2DD3
102
}
330
2DD3
100
AcDbXrecord
280
     1
270
     1
271
     1
  0
XRECORD
  5
2DD6
102
{ACAD_REACTORS
330
2DD3
102
}
330
2DD3
100
AcDbXrecord
280
     1
270
     1
271
     1
  0
XRECORD
  5
3021
102
{ACAD_REACTORS
330
2DCB
102
}
330
2DCB
100
AcDbXrecord
280
     1
102
MATERIAL
148
0.0
149
0.0
149
0.0
 93
        0
 94
      127
282
     0
 72
     0
 77
     0
171
     0
175
     0
179
     0
273
     0
  0
XRECORD
  5
2DCD
102
{ACAD_REACTORS
330
2DCB
102
}
330
2DCB
100
AcDbXrecord
280
     1
270
     1
271
     1
  0
XRECORD
  5
2DCC
102
{ACAD_REACTORS
330
2DCB
102
}
330
2DCB
100
AcDbXrecord
280
     1
270
     1
271
     1
  0
XRECORD
  5
2DD0
102
{ACAD_REACTORS
330
2DCB
102
}
330
2DCB
100
AcDbXrecord
280
     1
270
     1
271
     1
  0
XRECORD
  5
2DCF
102
{ACAD_REACTORS
330
2DCB
102
}
330
2DCB
100
AcDbXrecord
280
     1
270
     1
271
     1
  0
XRECORD
  5
2DD1
102
{ACAD_REACTORS
330
2DCB
102
}
330
2DCB
100
AcDbXrecord
280
     1
270
     1
271
     1
  0
XRECORD
  5
2DCE
102
{ACAD_REACTORS
330
2DCB
102
}
330
2DCB
100
AcDbXrecord
280
     1
270
     1
271
     1
  0
XRECORD
  5
3023
102
{ACAD_REACTORS
330
2DDB
102
}
330
2DDB
100
AcDbXrecord
280
     1
102
MATERIAL
148
0.0
149
0.0
149
0.0
 93
        0
 94
      127
282
     0
 72
     0
 77
     0
171
     0
175
     0
179
     0
273
     0
  0
XRECORD
  5
2DDD
102
{ACAD_REACTORS
330
2DDB
102
}
330
2DDB
100
AcDbXrecord
280
     1
270
     1
271
     1
  0
XRECORD
  5
2DDC
102
{ACAD_REACTORS
330
2DDB
102
}
330
2DDB
100
AcDbXrecord
280
     1
270
     1
271
     1
  0
XRECORD
  5
2DE0
102
{ACAD_REACTORS
330
2DDB
102
}
330
2DDB
100
AcDbXrecord
280
     1
270
     1
271
     1
  0
XRECORD
  5
2DDF
102
{ACAD_REACTORS
330
2DDB
102
}
330
2DDB
100
AcDbXrecord
280
     1
270
     1
271
     1
  0
XRECORD
  5
2DE1
102
{ACAD_REACTORS
330
2DDB
102
}
330
2DDB
100
AcDbXrecord
280
     1
270
     1
271
     1
  0
XRECORD
  5
2DDE
102
{ACAD_REACTORS
330
2DDB
102
}
330
2DDB
100
AcDbXrecord
280
     1
270
     1
271
     1
  0
CELLSTYLEMAP
  5
3019
102
{ACAD_REACTORS
330
3018
102
}
330
3018
100
AcDbCellStyleMap
 90
        3
300
CELLSTYLE
  1
TABLEFORMAT_BEGIN
 90
        5
170
     1
 91
        0
 92
    32768
 62
   257
 93
        1
300
CONTENTFORMAT
  1
CONTENTFORMAT_BEGIN
 90
        0
 91
        0
 92
      512
 93
        0
300

 40
0.0
140
1.0
 94
        5
 62
     0
340
2E16
144
0.25
309
CONTENTFORMAT_END
171
     0
 94
        0
309
TABLEFORMAT_END
  1
CELLSTYLE_BEGIN
 90
        1
 91
        1
300
_TITLE
309
CELLSTYLE_END
300
CELLSTYLE
  1
TABLEFORMAT_BEGIN
 90
        5
170
     1
 91
        0
 92
        0
 62
   257
 93
        1
300
CONTENTFORMAT
  1
CONTENTFORMAT_BEGIN
 90
        0
 91
        0
 92
      512
 93
        0
300

 40
0.0
140
1.0
 94
        5
 62
     0
340
2E16
144
0.18
309
CONTENTFORMAT_END
171
     0
 94
        0
309
TABLEFORMAT_END
  1
CELLSTYLE_BEGIN
 90
        2
 91
        1
300
_HEADER
309
CELLSTYLE_END
300
CELLSTYLE
  1
TABLEFORMAT_BEGIN
 90
        5
170
     1
 91
        0
 92
        0
 62
   257
 93
        1
300
CONTENTFORMAT
  1
CONTENTFORMAT_BEGIN
 90
        0
 91
        0
 92
      512
 93
        0
300

 40
0.0
140
1.0
 94
        2
 62
     0
340
2E16
144
0.18
309
CONTENTFORMAT_END
171
     0
 94
        0
309
TABLEFORMAT_END
  1
CELLSTYLE_BEGIN
 90
        3
 91
        2
300
_DATA
309
CELLSTYLE_END
  0
XRECORD
  5
3024
102
{ACAD_REACTORS
330
3018
102
}
330
3018
100
AcDbXrecord
280
     1
102
ACAD_ROUNDTRIP_PRE2007_TABLESTYLE
 90
      512
 91
        0
  1

 92
      512
 93
        0
  2

 94
      512
 95
        0
  3

  0
ENDSEC
  0
EOF
