  0
SECTION
  2
HEADER
  9
$ACADVER
  1
AC1018
  9
$ACADMAINTVER
 70
   104
  9
$DWGCODEPAGE
  3
ANSI_932
  9
$LASTSAVEDBY
  1
a080061
  9
$CUSTOMPROPERTYTAG
  1
AmdtFileType
  9
$CUSTOMPROPERTY
  1
84
  9
$INSBASE
 10
0.0
 20
0.0
 30
0.0
  9
$EXTMIN
 10
-1197.770675024683
 20
-629.0130500320974
 30
-0.0015257624927045
  9
$EXTMAX
 10
908.1848258829959
 20
843.3837973784921
 30
50.00152599532333
  9
$LIMMIN
 10
-2970.0
 20
-2100.0
  9
$LIMMAX
 10
2970.0
 20
2100.0
  9
$ORTHOMODE
 70
     1
  9
$REGENMODE
 70
     0
  9
$FILLMODE
 70
     1
  9
$QTEXTMODE
 70
     0
  9
$MIRRTEXT
 70
     0
  9
$LTSCALE
 40
20.0
  9
$ATTMODE
 70
     1
  9
$TEXTSIZE
 40
64.0
  9
$TRACEWID
 40
0.05
  9
$TEXTSTYLE
  7
STANDARD
  9
$CLAYER
  8
0
  9
$CELTYPE
  6
ByLayer
  9
$CECOLOR
 62
   256
  9
$CELTSCALE
 40
1.0
  9
$DISPSILH
 70
     0
  9
$DIMSCALE
 40
1.0
  9
$DIMASZ
 40
0.12
  9
$DIMEXO
 40
0.05
  9
$DIMDLI
 40
0.5
  9
$DIMRND
 40
0.0
  9
$DIMDLE
 40
0.0
  9
$DIMEXE
 40
0.1
  9
$DIMTP
 40
0.1
  9
$DIMTM
 40
0.1
  9
$DIMTXT
 40
0.12
  9
$DIMCEN
 40
0.0
  9
$DIMTSZ
 40
0.0
  9
$DIMTOL
 70
     0
  9
$DIMLIM
 70
     0
  9
$DIMTIH
 70
     1
  9
$DIMTOH
 70
     1
  9
$DIMSE1
 70
     0
  9
$DIMSE2
 70
     0
  9
$DIMTAD
 70
     0
  9
$DIMZIN
 70
     7
  9
$DIMBLK
  1

  9
$DIMASO
 70
     1
  9
$DIMSHO
 70
     0
  9
$DIMPOST
  1

  9
$DIMAPOST
  1
mm
  9
$DIMALT
 70
     0
  9
$DIMALTD
 70
     2
  9
$DIMALTF
 40
25.4
  9
$DIMLFAC
 40
1.0
  9
$DIMTOFL
 70
     0
  9
$DIMTVP
 40
0.0
  9
$DIMTIX
 70
     0
  9
$DIMSOXD
 70
     0
  9
$DIMSAH
 70
     0
  9
$DIMBLK1
  1

  9
$DIMBLK2
  1

  9
$DIMSTYLE
  2
AM_ANSI
  9
$DIMCLRD
 70
   256
  9
$DIMCLRE
 70
   256
  9
$DIMCLRT
 70
     2
  9
$DIMTFAC
 40
0.71
  9
$DIMGAP
 40
0.06
  9
$DIMJUST
 70
     0
  9
$DIMSD1
 70
     0
  9
$DIMSD2
 70
     0
  9
$DIMTOLJ
 70
     1
  9
$DIMTZIN
 70
     7
  9
$DIMALTZ
 70
     0
  9
$DIMALTTZ
 70
     0
  9
$DIMUPT
 70
     0
  9
$DIMDEC
 70
     4
  9
$DIMTDEC
 70
     4
  9
$DIMALTU
 70
     2
  9
$DIMALTTD
 70
     4
  9
$DIMTXSTY
  7
STANDARD
  9
$DIMAUNIT
 70
     0
  9
$DIMADEC
 70
     0
  9
$DIMALTRND
 40
0.0
  9
$DIMAZIN
 70
     2
  9
$DIMDSEP
 70
    46
  9
$DIMATFIT
 70
     3
  9
$DIMFRAC
 70
     0
  9
$DIMLDRBLK
  1

  9
$DIMLUNIT
 70
     2
  9
$DIMLWD
 70
    -1
  9
$DIMLWE
 70
    -1
  9
$DIMTMOVE
 70
     0
  9
$LUNITS
 70
     2
  9
$LUPREC
 70
     4
  9
$SKETCHINC
 40
0.1
  9
$FILLETRAD
 40
4.0
  9
$AUNITS
 70
     1
  9
$AUPREC
 70
     3
  9
$MENU
  1
ACAD
  9
$ELEVATION
 40
0.0
  9
$PELEVATION
 40
0.0
  9
$THICKNESS
 40
50.0
  9
$LIMCHECK
 70
     0
  9
$CHAMFERA
 40
0.0
  9
$CHAMFERB
 40
0.0
  9
$CHAMFERC
 40
0.0
  9
$CHAMFERD
 40
0.0
  9
$SKPOLY
 70
     0
  9
$TDCREATE
 40
2452321.396199653
  9
$TDUCREATE
 40
2452321.021199653
  9
$TDUPDATE
 40
2457491.553338553
  9
$TDUUPDATE
 40
2457491.178338553
  9
$TDINDWG
 40
1.0427527546
  9
$TDUSRTIMER
 40
1.0427469907
  9
$USRTIMER
 70
     1
  9
$ANGBASE
 50
0.0
  9
$ANGDIR
 70
     0
  9
$PDMODE
 70
     3
  9
$PDSIZE
 40
-2.0
  9
$PLINEWID
 40
0.0
  9
$SPLFRAME
 70
     0
  9
$SPLINETYPE
 70
     6
  9
$SPLINESEGS
 70
     8
  9
$HANDSEED
  5
2F24
  9
$SURFTAB1
 70
     6
  9
$SURFTAB2
 70
     6
  9
$SURFTYPE
 70
     6
  9
$SURFU
 70
     6
  9
$SURFV
 70
     6
  9
$UCSBASE
  2

  9
$UCSNAME
  2

  9
$UCSORG
 10
0.0
 20
0.0
 30
0.0
  9
$UCSXDIR
 10
1.0
 20
0.0
 30
0.0
  9
$UCSYDIR
 10
0.0
 20
1.0
 30
0.0
  9
$UCSORTHOREF
  2

  9
$UCSORTHOVIEW
 70
     0
  9
$UCSORGTOP
 10
0.0
 20
0.0
 30
0.0
  9
$UCSORGBOTTOM
 10
0.0
 20
0.0
 30
0.0
  9
$UCSORGLEFT
 10
0.0
 20
0.0
 30
0.0
  9
$UCSORGRIGHT
 10
0.0
 20
0.0
 30
0.0
  9
$UCSORGFRONT
 10
0.0
 20
0.0
 30
0.0
  9
$UCSORGBACK
 10
0.0
 20
0.0
 30
0.0
  9
$PUCSBASE
  2

  9
$PUCSNAME
  2

  9
$PUCSORG
 10
0.0
 20
0.0
 30
0.0
  9
$PUCSXDIR
 10
1.0
 20
0.0
 30
0.0
  9
$PUCSYDIR
 10
0.0
 20
1.0
 30
0.0
  9
$PUCSORTHOREF
  2

  9
$PUCSORTHOVIEW
 70
     0
  9
$PUCSORGTOP
 10
0.0
 20
0.0
 30
0.0
  9
$PUCSORGBOTTOM
 10
0.0
 20
0.0
 30
0.0
  9
$PUCSORGLEFT
 10
0.0
 20
0.0
 30
0.0
  9
$PUCSORGRIGHT
 10
0.0
 20
0.0
 30
0.0
  9
$PUCSORGFRONT
 10
0.0
 20
0.0
 30
0.0
  9
$PUCSORGBACK
 10
0.0
 20
0.0
 30
0.0
  9
$USERI1
 70
     0
  9
$USERI2
 70
     0
  9
$USERI3
 70
     0
  9
$USERI4
 70
     0
  9
$USERI5
 70
     0
  9
$USERR1
 40
20.0
  9
$USERR2
 40
0.0
  9
$USERR3
 40
0.0
  9
$USERR4
 40
0.0
  9
$USERR5
 40
0.0
  9
$WORLDVIEW
 70
     1
  9
$SHADEDGE
 70
     3
  9
$SHADEDIF
 70
    70
  9
$TILEMODE
 70
     1
  9
$MAXACTVP
 70
    64
  9
$PINSBASE
 10
0.0
 20
0.0
 30
0.0
  9
$PLIMCHECK
 70
     0
  9
$PEXTMIN
 10
1.000000000000000E+20
 20
1.000000000000000E+20
 30
1.000000000000000E+20
  9
$PEXTMAX
 10
-1.000000000000000E+20
 20
-1.000000000000000E+20
 30
-1.000000000000000E+20
  9
$PLIMMIN
 10
0.0
 20
0.0
  9
$PLIMMAX
 10
12.0
 20
9.0
  9
$UNITMODE
 70
     0
  9
$VISRETAIN
 70
     1
  9
$PLINEGEN
 70
     0
  9
$PSLTSCALE
 70
     1
  9
$TREEDEPTH
 70
  3020
  9
$CMLSTYLE
  2
Standard
  9
$CMLJUST
 70
     0
  9
$CMLSCALE
 40
1.0
  9
$PROXYGRAPHICS
 70
     1
  9
$MEASUREMENT
 70
     0
  9
$CELWEIGHT
370
    -1
  9
$ENDCAPS
280
     0
  9
$JOINSTYLE
280
     0
  9
$LWDISPLAY
290
     0
  9
$INSUNITS
 70
     0
  9
$HYPERLINKBASE
  1

  9
$STYLESHEET
  1

  9
$XEDIT
290
     1
  9
$CEPSNTYPE
380
     0
  9
$PSTYLEMODE
290
     1
  9
$FINGERPRINTGUID
  2
{8D7FE91D-3E9F-4C62-AEA7-645F1FEEDDAE}
  9
$VERSIONGUID
  2
{129839DF-8FC6-4AFC-8382-9DDFA2F31E67}
  9
$EXTNAMES
290
     1
  9
$PSVPSCALE
 40
0.0
  9
$OLESTARTUP
290
     0
  9
$SORTENTS
280
   127
  9
$INDEXCTL
280
     1
  9
$HIDETEXT
280
     0
  9
$XCLIPFRAME
290
     0
  9
$HALOGAP
280
     0
  9
$OBSCOLOR
 70
   257
  9
$OBSLTYPE
280
     0
  9
$INTERSECTIONDISPLAY
280
     0
  9
$INTERSECTIONCOLOR
 70
   257
  9
$DIMASSOC
280
     1
  9
$PROJECTNAME
  1

  0
ENDSEC
  0
SECTION
  2
CLASSES
  0
CLASS
  1
ACDBDICTIONARYWDFLT
  2
AcDbDictionaryWithDefault
  3
ObjectDBX Classes
 90
        0
 91
        1
280
     0
281
     0
  0
CLASS
  1
MATERIAL
  2
AcDbMaterial
  3
ObjectDBX Classes
 90
     1153
 91
        3
280
     0
281
     0
  0
CLASS
  1
VISUALSTYLE
  2
AcDbVisualStyle
  3
ObjectDBX Classes
 90
     4095
 91
       16
280
     0
281
     0
  0
CLASS
  1
SCALE
  2
AcDbScale
  3
ObjectDBX Classes
 90
     1153
 91
       33
280
     0
281
     0
  0
CLASS
  1
TABLESTYLE
  2
AcDbTableStyle
  3
ObjectDBX Classes
 90
     4095
 91
        1
280
     0
281
     0
  0
CLASS
  1
MLEADERSTYLE
  2
AcDbMLeaderStyle
  3
ACDB_MLEADERSTYLE_CLASS
 90
     4095
 91
        1
280
     0
281
     0
  0
CLASS
  1
AMGSETTINGSOBJ
  2
AmgSettingsObj
  3
"AcadM|Product Description: AutoCAD Mechanical|Company: Autodesk, Inc."
 90
     1024
 91
        2
280
     0
281
     0
  0
CLASS
  1
ACME_DOCUMENT
  2
AcMeDbDoc
  3
AcMeServices
 90
     1024
 91
        1
280
     0
281
     0
  0
CLASS
  1
ACMESCOPE
  2
AcMeScope
  3
AcMeServices
 90
     1024
 91
        1
280
     0
281
     0
  0
CLASS
  1
ACMECOMMANDHISTORY
  2
AcMeCommandHistory
  3
AcMeServices
 90
     1024
 91
        1
280
     0
281
     0
  0
CLASS
  1
ACIMSYSVARMAN
  2
AcImSysVarManager
  3
AcMeServices
 90
     1024
 91
        6
280
     0
281
     0
  0
CLASS
  1
ACIMREALSYSVAR
  2
AcImRealSysVar
  3
AcMeServices
 90
     1024
 91
       16
280
     0
281
     0
  0
CLASS
  1
ACIMINTSYSVAR
  2
AcImIntSysVar
  3
AcMeServices
 90
     1024
 91
       45
280
     0
281
     0
  0
CLASS
  1
ACMEDRAWINGMAN
  2
AcMeDrawingMan
  3
AcMeServices
 90
     1024
 91
        1
280
     0
281
     0
  0
CLASS
  1
ACMEVIEW
  2
AcMeView
  3
AcMeServices
 90
     1024
 91
        1
280
     0
281
     0
  0
CLASS
  1
ACDBENTITYCACHE
  2
AcMeEntityCache
  3
AcMeServices
 90
     1024
 91
        1
280
     0
281
     0
  0
CLASS
  1
GSMANAGER
  2
AcMeGSManager
  3
AcMeServices
 90
     1024
 91
        1
280
     0
281
     0
  0
CLASS
  1
AMDTINTERNALREACTOR
  2
AmdtInternalReactor
  3
AcMeServices
 90
     1024
 91
        2
280
     0
281
     0
  0
CLASS
  1
ACMESTATEMGR
  2
AcMeStateMgr
  3
AcMeServices
 90
     1024
 91
        1
280
     0
281
     0
  0
CLASS
  1
ACGREFMASTER
  2
AcGrefMaster
  3
AcAttribServices
 90
     1024
 91
        1
280
     0
281
     0
  0
CLASS
  1
AM_DRAWING_MGR
  2
AcDmDwgMgr
  3
AcMechDwgViewMgmt
 90
     1024
 91
        1
280
     0
281
     0
  0
CLASS
  1
AM_DWG_DOCUMENT
  2
AcDmDwgDocument
  3
AcMechDwgViewMgmt
 90
     1024
 91
        1
280
     0
281
     0
  0
CLASS
  1
AM_DWG_SHEET
  2
AcDmSheet
  3
AcMechDwgViewMgmt
 90
     1024
 91
        1
280
     0
281
     0
  0
CLASS
  1
AM_VIEWDIMPARMAP
  2
AcDmViewDimParMap
  3
AcMechDwgViewMgmt
 90
     1024
 91
        1
280
     0
281
     0
  0
CLASS
  1
AM_DWGMGR_NAME
  2
AcDmDwgMgrName
  3
AcMechDwgViewMgmt
 90
     1024
 91
        1
280
     0
281
     0
  0
CLASS
  1
ACME_DATABASE
  2
AcMeDbDatabase
  3
AcMeServices
 90
     1024
 91
        1
280
     0
281
     0
  0
CLASS
  1
ACRFINSADJUSTERMGR
  2
AcRfInsAdjusterMgr
  3
AcMeServices
 90
     1024
 91
        1
280
     0
281
     0
  0
CLASS
  1
ACGREFACADMASTER
  2
AcGrefacadMaster
  3
AcGrefServices
 90
     1024
 91
        1
280
     0
281
     0
  0
CLASS
  1
AMDTMENUSTATEMGR
  2
AmdtMenuStateMgr
  3
McadcomServices
 90
     1024
 91
        1
280
     0
281
     0
  0
CLASS
  1
AMDTMCOMMENUSTATE
  2
AmdtMcomMenuState
  3
McadcomServices
 90
     1024
 91
        1
280
     0
281
     0
  0
CLASS
  1
AMIMASTER
  2
AmiMaster
  3
AmiServices
 90
     1024
 91
        1
280
     0
281
     0
  0
CLASS
  1
ASAPP
  2
AcAsAppObject
  3
AutoSurfServices
 90
     1024
 91
        1
280
     0
281
     0
  0
CLASS
  1
IM_STATIC_MAN
  2
AcImStaticVarManager
  3
AcMeServices
 90
     1024
 91
        1
280
     0
281
     0
  0
CLASS
  1
ACIMSTRSYSVAR
  2
AcImStrSysVar
  3
AcMeServices
 90
     1024
 91
       11
280
     0
281
     0
  0
CLASS
  1
ACIMDBLSTATICVAR
  2
AcImDblStaticVar
  3
AcMeServices
 90
     1024
 91
       20
280
     0
281
     0
  0
CLASS
  1
ACIMSTRSTATICVAR
  2
AcImStrStaticVar
  3
AcMeServices
 90
     1024
 91
       12
280
     0
281
     0
  0
CLASS
  1
ACIMINTSTATICVAR
  2
AcImIntStaticVar
  3
AcMeServices
 90
     1024
 91
       17
280
     0
281
     0
  0
CLASS
  1
ACASGREFMASTER
  2
AcAsGrefMaster
  3
AutoSurfResolverServices
 90
     1024
 91
        1
280
     0
281
     0
  0
CLASS
  1
ACADGREFMODULE
  2
AcAdGrefModule
  3
AdGrefServices
 90
     1024
 91
        1
280
     0
281
     0
  0
CLASS
  1
AMDTMAPISURFMOUDULE
  2
AmdtMApiSurfModule
  3
MApiSurfServices
 90
     1024
 91
        0
280
     0
281
     0
  0
CLASS
  1
MAPIAMMOUDLE
  2
MApiAmModule
  3
MApiAmServices
 90
     1024
 91
        1
280
     0
281
     0
  0
CLASS
  1
AMDTADMENUSTATE
  2
AmdtAdMenuState
  3
DesignerServices
 90
     1024
 91
        1
280
     0
281
     0
  0
CLASS
  1
ADAPPL
  2
AcAdAppl
  3
DesignerServices
 90
     1024
 91
        1
280
     0
281
     0
  0
CLASS
  1
DEPMGR
  2
AcAdDepMgr
  3
DesignerServices
 90
     1024
 91
        1
280
     0
281
     0
  0
CLASS
  1
PARAMMGR
  2
AcAdParamMgr
  3
DesignerServices
 90
     1024
 91
        1
280
     0
281
     0
  0
CLASS
  1
PARAMSCOPE
  2
AcAdParamScope
  3
DesignerServices
 90
     1024
 91
        1
280
     0
281
     0
  0
CLASS
  1
NAMEDAPPL
  2
AcAdNamedAppl
  3
DesignerServices
 90
     1024
 91
        1
280
     0
281
     0
  0
CLASS
  1
AMDTDMMENUSTATE
  2
AmdtDmMenuState
  3
AcMechDwgViewMgmt
 90
     1024
 91
        1
280
     0
281
     0
  0
CLASS
  1
MAPIADMODULE
  2
MApiAdModule
  3
MApiAdServices
 90
     1024
 91
        1
280
     0
281
     0
  0
CLASS
  1
AMDTAMMENUSTATE
  2
AmdtAmMenuState
  3
DesignerAssemblies
 90
     1024
 91
        1
280
     0
281
     0
  0
CLASS
  1
ACAMPROJECT
  2
AcAmProject
  3
DesignerAssemblies
 90
     1024
 91
        1
280
     0
281
     0
  0
CLASS
  1
ACAMGRCOMPDEF
  2
AcAmGrCompDef
  3
DesignerAssemblies
 90
     1024
 91
        1
280
     0
281
     0
  0
CLASS
  1
ACCMCONTEXT
  2
AcCmContext
  3
DesignerAssemblies
 90
     1024
 91
        1
280
     0
281
     0
  0
CLASS
  1
ACAMCOMPDEF
  2
AcAmCompDef
  3
DesignerAssemblies
 90
     1024
 91
        1
280
     0
281
     0
  0
CLASS
  1
ACAMCOMPDEFMGR
  2
AcAmCompDefMgr
  3
DesignerAssemblies
 90
     1024
 91
        1
280
     0
281
     0
  0
CLASS
  1
AMCONTEXTMGR
  2
AcAmContextMgr
  3
DesignerAssemblies
 90
     1024
 91
        1
280
     0
281
     0
  0
CLASS
  1
ACAMCONTEXTMODELER
  2
AcAmContextModeler
  3
DesignerAssemblies
 90
     1024
 91
        1
280
     0
281
     0
  0
CLASS
  1
ACMDATADICTIONARY
  2
AcmDataDictionary
  3
"AcmSymBB|Product Description: AutoCAD Mechanical|Company: Autodesk, Inc."
 90
     1024
 91
        1
280
     0
281
     0
  0
CLASS
  1
ACMDATAENTRYBLOCK
  2
AcmDataEntryBlock
  3
AcmSymBB|Product Description: AutoCAD Mechanical|Company: Autodesk, Inc.
 90
     1024
 91
        1
280
     0
281
     0
  0
CLASS
  1
ACRFATTGENMGR
  2
AcRfAttGeneralMgr
  3
AcAttribServices
 90
     1024
 91
        1
280
     0
281
     0
  0
CLASS
  1
ACRFOBJATTMGR
  2
AcRfObjAttGroupMgr
  3
AcAttribServices
 90
     1024
 91
        1
280
     0
281
     0
  0
CLASS
  1
ACRFMCADAPIATTHOLDER
  2
AcRfMCADAPIAttHolder
  3
AcAttribServices
 90
     1024
 91
        1
280
     0
281
     0
  0
CLASS
  1
AMDTSYSATTR
  2
AmdtSystemAttribute
  3
AcAttribServices
 90
     1024
 91
        1
280
     0
281
     0
  0
CLASS
  1
CATALOGSTATE
  2
AcAmCatalogState
  3
DesignerAssemblies
 90
     1024
 91
        1
280
     0
281
     0
  0
CLASS
  1
ACAMGRCOMPDEFSET
  2
AcAmGrCompDefSet
  3
DesignerAssemblies
 90
     1024
 91
        1
280
     0
281
     0
  0
CLASS
  1
AMDTBROWSERDBTAB
  2
AmdtBrowserDbTab
  3
McadcomServices
 90
     1024
 91
        1
280
     0
281
     0
  0
CLASS
  1
CBROWSERAPPOBJECT
  2
CBrowserAppObject
  3
McadcomServices
 90
     1024
 91
        3
280
     0
281
     0
  0
CLASS
  1
DM_PLACEHOLDER
  2
AcDmSelsetPlaceholder
  3
AcMechDwgViewMgmt
 90
     1024
 91
        1
280
     0
281
     0
  0
CLASS
  1
ACMSTANDARDANSI
  2
AcmStandardANSI
  3
"Amdt_StdImp|Product Description: AutoCAD Mechanical|Company: Autodesk, Inc."
 90
     1024
 91
        1
280
     0
281
     0
  0
CLASS
  1
ACMSURFSTANDARDANSI
  2
AcmSurfTextStdANSI
  3
"Amdt_StdImp|Product Description: AutoCAD Mechanical|Company: Autodesk, Inc."
 90
     1024
 91
        1
280
     0
281
     0
  0
CLASS
  1
ACMFCFSTANDARDANSI
  2
AcmFCFStdANSI
  3
"Amdt_StdImp|Product Description: AutoCAD Mechanical|Company: Autodesk, Inc."
 90
     1024
 91
        1
280
     0
281
     0
  0
CLASS
  1
ACMWELDSTANDARDANSI
  2
AcmWeldingStdANSI
  3
"Amdt_StdImp|Product Description: AutoCAD Mechanical|Company: Autodesk, Inc."
 90
     1024
 91
        1
280
     0
281
     0
  0
CLASS
  1
ACMIDSTANDARDANSI
  2
AcmIdStdANSI
  3
"Amdt_StdImp|Product Description: AutoCAD Mechanical|Company: Autodesk, Inc."
 90
     1024
 91
        1
280
     0
281
     0
  0
CLASS
  1
ACMDATUMSTANDARDANSI
  2
AcmDatumStdANSI
  3
"Amdt_StdImp|Product Description: AutoCAD Mechanical|Company: Autodesk, Inc."
 90
     1024
 91
        1
280
     0
281
     0
  0
CLASS
  1
ACMBOMSTANDARDANSI
  2
AcmBOMStdANSI
  3
"Amdt_StdImp|Product Description: AutoCAD Mechanical|Company: Autodesk, Inc."
 90
     1024
 91
        1
280
     0
281
     0
  0
CLASS
  1
ACMDETAILSTANDARDANSI
  2
AmdtDetailSymStdANSI
  3
"Amdt_StdImp|Product Description: AutoCAD Mechanical|Company: Autodesk, Inc."
 90
     1024
 91
        1
280
     0
281
     0
  0
CLASS
  1
ACMSECTIONSTANDARDANSI
  2
AmdtSectionSymStdANSI
  3
"Amdt_StdImp|Product Description: AutoCAD Mechanical|Company: Autodesk, Inc."
 90
     1024
 91
        1
280
     0
281
     0
  0
CLASS
  1
ACMCENTERLINESTANDARDANSI
  2
AmdtCenterLineStdANSI
  3
"Amdt_StdImp|Product Description: AutoCAD Mechanical|Company: Autodesk, Inc."
 90
     1024
 91
        1
280
     0
281
     0
  0
CLASS
  1
ACMTHREADLINESTANDARDANSI
  2
AmdtThreadLineStdANSI
  3
"Amdt_StdImp|Product Description: AutoCAD Mechanical|Company: Autodesk, Inc."
 90
     1024
 91
        1
280
     0
281
     0
  0
CLASS
  1
ACMNOTESTANDARDANSI
  2
AmdtNoteStdANSI
  3
"Amdt_StdImp|Product Description: AutoCAD Mechanical|Company: Autodesk, Inc."
 90
     1024
 91
        1
280
     0
281
     0
  0
CLASS
  1
ACMTAPERSTANDARDANSI
  2
AcmTaperStdANSI
  3
"Amdt_StdImp|Product Description: AutoCAD Mechanical|Company: Autodesk, Inc."
 90
     1024
 91
        1
280
     0
281
     0
  0
CLASS
  1
ACMANOOTATIONVIEWSTANDARDANSI
  2
AmdtAnViewStdANSI
  3
"Amdt_StdImp|Product Description: AutoCAD Mechanical|Company: Autodesk, Inc."
 90
     1024
 91
        1
280
     0
281
     0
  0
CLASS
  1
ACAMGLAYSTD
  2
AcAmgLayStd
  3
"AmgLay|Product Description: AutoCAD Mechanical|Company: Autodesk, Inc."
 90
     1024
 91
        1
280
     0
281
     0
  0
CLASS
  1
ACAMGDIMSTD
  2
AcAmgDimStd
  3
"AmgDim|Product Description: AutoCAD Mechanical|Company: Autodesk, Inc."
 90
     1024
 91
        1
280
     0
281
     0
  0
CLASS
  1
ACAMGHOLECHARTSTDANSI
  2
AcAmgHoleChartStdANSI
  3
AmgDim|Product Description: AutoCAD Mechanical|Company: Autodesk, Inc.
 90
     1024
 91
        1
280
     0
281
     0
  0
CLASS
  1
AMGOBJPROPCFG
  2
AmgObjPropCfg
  3
"AmgLay|Product Description: AutoCAD Mechanical|Company: Autodesk, Inc."
 90
     1025
 91
        1
280
     0
281
     0
  0
CLASS
  1
ACAMGTITLESTD
  2
AcAmgTitleStd
  3
"AmgTitle|Product Description: AutoCAD Mechanical|Company: Autodesk, Inc."
 90
     4095
 91
        1
280
     0
281
     0
  0
CLASS
  1
AMDTNOTETEMPLATEDB
  2
AmdtNoteTemplateDB
  3
AcmSymBB|Product Description: AutoCAD Mechanical|Company: Autodesk, Inc.
 90
     1024
 91
        6
280
     0
281
     0
  0
CLASS
  1
ACAMGFILTERDAT
  2
AcAmgFilterDat
  3
"AcadM|Product Description: AutoCAD Mechanical|Company: Autodesk, Inc."
 90
     1024
 91
        6
280
     0
281
     0
  0
CLASS
  1
LAYER_INDEX
  2
AcDbLayerIndex
  3
ObjectDBX Classes
 90
        0
 91
        1
280
     0
281
     0
  0
CLASS
  1
IDBUFFER
  2
AcDbIdBuffer
  3
ObjectDBX Classes
 90
        0
 91
       12
280
     0
281
     0
  0
CLASS
  1
DICTIONARYVAR
  2
AcDbDictionaryVar
  3
ObjectDBX Classes
 90
        0
 91
       13
280
     0
281
     0
  0
CLASS
  1
CELLSTYLEMAP
  2
AcDbCellStyleMap
  3
ObjectDBX Classes
 90
     1152
 91
        2
280
     0
281
     0
  0
CLASS
  1
SORTENTSTABLE
  2
AcDbSortentsTable
  3
ObjectDBX Classes
 90
        0
 91
        0
280
     0
281
     0
  0
ENDSEC
  0
SECTION
  2
TABLES
  0
TABLE
  2
VPORT
  5
2781
330
0
100
AcDbSymbolTable
 70
     1
  0
VPORT
  5
27F1
330
2781
100
AcDbSymbolTableRecord
100
AcDbViewportTableRecord
  2
*ACTIVE
 70
     0
 10
0.0
 20
0.0
 11
1.0
 21
1.0
 12
-1172.879612216488
 22
-0.0000000000001137
 13
0.0
 23
0.0
 14
1.0
 24
1.0
 15
0.0
 25
0.0
 16
0.0
 26
0.0
 36
1.0
 17
1028.086687645645
 27
107.1853736731974
 37
0.0
 40
1588.015482036039
 41
1.336976320582877
 42
50.0
 43
0.0
 44
0.0
 50
0.0
 51
0.0
 71
     0
 72
   100
 73
     1
 74
     0
 75
     0
 76
     0
 77
     0
 78
     0
281
     0
 65
     0
110
0.0
120
0.0
130
0.0
111
1.0
121
0.0
131
0.0
112
0.0
122
1.0
132
0.0
 79
     0
146
0.0
  0
ENDTAB
  0
TABLE
  2
LTYPE
  5
277E
330
0
100
AcDbSymbolTable
 70
    19
  0
LTYPE
  5
27DB
330
277E
100
AcDbSymbolTableRecord
100
AcDbLinetypeTableRecord
  2
ByBlock
 70
     0
  3

 72
    65
 73
     0
 40
0.0
  0
LTYPE
  5
27DC
330
277E
100
AcDbSymbolTableRecord
100
AcDbLinetypeTableRecord
  2
ByLayer
 70
     0
  3

 72
    65
 73
     0
 40
0.0
  0
LTYPE
  5
27DD
330
277E
100
AcDbSymbolTableRecord
100
AcDbLinetypeTableRecord
  2
CONTINUOUS
 70
     0
  3
実線
 72
    65
 73
     0
 40
0.0
  0
LTYPE
  5
27F2
330
277E
100
AcDbSymbolTableRecord
100
AcDbLinetypeTableRecord
  2
DASHDOT
 70
     0
  3
____ _ ____ _ ____ _ ____ _ ____ _ ____ _ ____
 72
    65
 73
     4
 40
5.5
 49
4.0
 74
     0
 49
-0.6
 74
     0
 49
0.3
 74
     0
 49
-0.6
 74
     0
  0
LTYPE
  5
27F3
330
277E
100
AcDbSymbolTableRecord
100
AcDbLinetypeTableRecord
  2
HIDDEN
 70
     0
  3
Hidden __ __ __ __ __ __ __ __ __ __ __ __ __ _
 72
    65
 73
     2
 40
0.375
 49
0.25
 74
     0
 49
-0.125
 74
     0
  0
LTYPE
  5
27F4
330
277E
100
AcDbSymbolTableRecord
100
AcDbLinetypeTableRecord
  2
PHANTOM2
 70
     0
  3
Phantom (.5x) ___ _ _ ___ _ _ ___ _ _ ___ _ _
 72
    65
 73
     6
 40
1.25
 49
0.625
 74
     0
 49
-0.125
 74
     0
 49
0.125
 74
     0
 49
-0.125
 74
     0
 49
0.125
 74
     0
 49
-0.125
 74
     0
  0
LTYPE
  5
27F5
330
277E
100
AcDbSymbolTableRecord
100
AcDbLinetypeTableRecord
  2
CENTER
 70
     0
  3
Center ____ _ ____ _ ____ _ ____ _ ____ _ ____
 72
    65
 73
     4
 40
2.0
 49
1.25
 74
     0
 49
-0.25
 74
     0
 49
0.25
 74
     0
 49
-0.25
 74
     0
  0
LTYPE
  5
27F6
330
277E
100
AcDbSymbolTableRecord
100
AcDbLinetypeTableRecord
  2
ASULTYPE
 70
     0
  3
実線
 72
    65
 73
     2
 40
3.0
 49
2.5
 74
     0
 49
0.5
 74
     0
  0
LTYPE
  5
27F7
330
277E
100
AcDbSymbolTableRecord
100
AcDbLinetypeTableRecord
  2
ASVLTYPE
 70
     0
  3
__ __ __ __ __ __ __ __ __ __ __ __ __ __ __ __ __ __ __ __ __
 72
    65
 73
     2
 40
0.75
 49
0.5
 74
     0
 49
-0.25
 74
     0
  0
LTYPE
  5
27F8
330
277E
100
AcDbSymbolTableRecord
100
AcDbLinetypeTableRecord
  2
AM_ISO02W050
 70
     0
  3
__ __ __ __ __ __ __ __ __ __ __ __ __ __ __
 72
    65
 73
     2
 40
7.5
 49
6.0
 74
     0
 49
-1.5
 74
     0
  0
LTYPE
  5
27F9
330
277E
100
AcDbSymbolTableRecord
100
AcDbLinetypeTableRecord
  2
AM_ISO08W050
 70
     0
  3
____ . ____ . ____ . ____ . ____ . ____ . ____
 72
    65
 73
     4
 40
18.0
 49
12.0
 74
     0
 49
-1.5
 74
     0
 49
3.0
 74
     0
 49
-1.5
 74
     0
  0
LTYPE
  5
27FA
330
277E
100
AcDbSymbolTableRecord
100
AcDbLinetypeTableRecord
  2
AM_ISO09W050
 70
     0
  3
_____ . . _____ . . _____ . . ____ .. ____
 72
    65
 73
     6
 40
22.5
 49
12.0
 74
     0
 49
-1.5
 74
     0
 49
3.0
 74
     0
 49
-1.5
 74
     0
 49
3.0
 74
     0
 49
-1.5
 74
     0
  0
LTYPE
  5
27FB
330
277E
100
AcDbSymbolTableRecord
100
AcDbLinetypeTableRecord
  2
AMCONSTR
 70
     0
  3
_______________________
 72
    65
 73
     2
 40
9999.0
 49
9999.0
 74
     0
 49
0.0
 74
     0
  0
LTYPE
  5
27FC
330
277E
100
AcDbSymbolTableRecord
100
AcDbLinetypeTableRecord
  2
AM_ISO08W050X2
 70
     0
  3
__ . __ . __ . __ . __ . __
 72
    65
 73
     4
 40
9.0
 49
6.0
 74
     0
 49
-0.75
 74
     0
 49
1.5
 74
     0
 49
-0.75
 74
     0
  0
LTYPE
  5
27FD
330
277E
100
AcDbSymbolTableRecord
100
AcDbLinetypeTableRecord
  2
AM_ISO02W050X2
 70
     0
  3
 _ _ _ _ _ _ _ _ _ _ _ _
 72
    65
 73
     2
 40
3.75
 49
3.0
 74
     0
 49
-0.75
 74
     0
  0
LTYPE
  5
27FE
330
277E
100
AcDbSymbolTableRecord
100
AcDbLinetypeTableRecord
  2
AMZIGZAG
 70
     0
  3
/\/-/\/-/\/-/\/-/\/-/\/
 72
    65
 73
     2
 40
11.0001
 49
0.0001
 74
     0
 49
-11.0
 74
     0
  0
LTYPE
  5
27FF
330
277E
100
AcDbSymbolTableRecord
100
AcDbLinetypeTableRecord
  2
CENTER2
 70
     0
  3
Center (.5x) ___ _ ___ _ ___ _ ___ _ ___ _ ___
 72
    65
 73
     4
 40
1.125
 49
0.75
 74
     0
 49
-0.125
 74
     0
 49
0.125
 74
     0
 49
-0.125
 74
     0
  0
LTYPE
  5
2800
330
277E
100
AcDbSymbolTableRecord
100
AcDbLinetypeTableRecord
  2
HIDDEN2
 70
     0
  3
Hidden (.5x) _ _ _ _ _ _ _ _ _ _ _ _ _ _ _ _ _
 72
    65
 73
     2
 40
0.1875
 49
0.125
 74
     0
 49
-0.0625
 74
     0
  0
LTYPE
  5
2801
330
277E
100
AcDbSymbolTableRecord
100
AcDbLinetypeTableRecord
  2
AMZIGZAG2
 70
     0
  3
/\/-/\/-/\/-/\/-/\/-/\/
 72
    65
 73
     2
 40
0.4401
 49
0.0001
 74
     0
 49
-0.4400000000000003
 74
     0
  0
LTYPE
  5
2802
330
277E
100
AcDbSymbolTableRecord
100
AcDbLinetypeTableRecord
  2
ACANSTGB
 70
     0
  3
__ . . __ . .
 72
    65
 73
     6
 40
0.35433070866
 49
0.15748031496
 74
     0
 49
-0.03937007874
 74
     0
 49
0.03937007874
 74
     0
 49
-0.03937007874
 74
     0
 49
0.03937007874
 74
     0
 49
-0.03937007874
 74
     0
  0
LTYPE
  5
2803
330
277E
100
AcDbSymbolTableRecord
100
AcDbLinetypeTableRecord
  2
ACANSTGL
 70
     0
  3
_ _ _ _ _
 72
    65
 73
     2
 40
0.11811023622
 49
0.07874015748
 74
     0
 49
-0.03937007874
 74
     0
  0
ENDTAB
  0
TABLE
  2
LAYER
  5
277B
102
{ACAD_XDICTIONARY
360
2AD3
102
}
330
0
100
AcDbSymbolTable
 70
    12
  0
LAYER
  5
27D5
102
{ACAD_XDICTIONARY
360
29B2
102
}
330
277B
100
AcDbSymbolTableRecord
100
AcDbLayerTableRecord
  2
0
 70
     0
 62
     7
  6
CONTINUOUS
370
    -3
390
2788
  0
LAYER
  5
2804
102
{ACAD_XDICTIONARY
360
29B4
102
}
330
277B
100
AcDbSymbolTableRecord
100
AcDbLayerTableRecord
  2
OUTLINE
 70
     0
 62
     3
  6
CONTINUOUS
370
    -3
390
2788
  0
LAYER
  5
2805
102
{ACAD_XDICTIONARY
360
29B6
102
}
330
277B
100
AcDbSymbolTableRecord
100
AcDbLayerTableRecord
  2
SIZE
 70
     0
 62
    30
  6
CONTINUOUS
370
    -3
390
2788
  0
LAYER
  5
2806
102
{ACAD_XDICTIONARY
360
29B8
102
}
330
277B
100
AcDbSymbolTableRecord
100
AcDbLayerTableRecord
  2
BASIS
 70
     0
 62
     6
  6
DASHDOT
370
    -3
390
2788
  0
LAYER
  5
2807
102
{ACAD_XDICTIONARY
360
29BA
102
}
330
277B
100
AcDbSymbolTableRecord
100
AcDbLayerTableRecord
  2
DETAIL
 70
     0
 62
     5
  6
CONTINUOUS
370
    -3
390
2788
  0
LAYER
  5
2808
102
{ACAD_XDICTIONARY
360
29BC
102
}
330
277B
100
AcDbSymbolTableRecord
100
AcDbLayerTableRecord
  2
ARRANGE
 70
     0
 62
     1
  6
CONTINUOUS
370
    -3
390
2788
  0
LAYER
  5
2809
330
277B
100
AcDbSymbolTableRecord
100
AcDbLayerTableRecord
  2
DEFPOINTS
 70
     0
 62
     7
  6
CONTINUOUS
290
     0
370
    -3
390
2788
  0
LAYER
  5
280A
102
{ACAD_XDICTIONARY
360
29BE
102
}
330
277B
100
AcDbSymbolTableRecord
100
AcDbLayerTableRecord
  2
ETC
 70
     0
 62
    61
  6
CONTINUOUS
370
    -3
390
2788
  0
LAYER
  5
280B
102
{ACAD_XDICTIONARY
360
29C0
102
}
330
277B
100
AcDbSymbolTableRecord
100
AcDbLayerTableRecord
  2
FIX
 70
     0
 62
    11
  6
CONTINUOUS
370
    -3
390
2788
  0
LAYER
  5
280C
102
{ACAD_XDICTIONARY
360
29C2
102
}
330
277B
100
AcDbSymbolTableRecord
100
AcDbLayerTableRecord
  2
NOTE
 70
     0
 62
     4
  6
CONTINUOUS
370
    -3
390
2788
  0
LAYER
  5
280D
102
{ACAD_XDICTIONARY
360
29C4
102
}
330
277B
100
AcDbSymbolTableRecord
100
AcDbLayerTableRecord
  2
SERVICESPACE
 70
     0
 62
     2
  6
DASHDOT
370
    -3
390
2788
  0
LAYER
  5
280E
102
{ACAD_XDICTIONARY
360
29C6
102
}
330
277B
100
AcDbSymbolTableRecord
100
AcDbLayerTableRecord
  2
SYMBOLLINE
 70
     0
 62
    15
  6
CONTINUOUS
370
    -3
390
2788
  0
ENDTAB
  0
TABLE
  2
STYLE
  5
277C
330
0
100
AcDbSymbolTable
 70
     5
  0
STYLE
  5
27D6
330
277C
100
AcDbSymbolTableRecord
100
AcDbTextStyleTableRecord
  2
STANDARD
 70
     0
 40
64.0
 41
0.9
 50
0.0
 71
     0
 42
64.0
  3
SIMPLEX.shx
  4
BIGFONT.shx
  0
STYLE
  5
27DA
330
277C
100
AcDbSymbolTableRecord
100
AcDbTextStyleTableRecord
  2
ANNOTATIVE
 70
     0
 40
0.0
 41
1.0
 50
0.0
 71
     0
 42
0.2
  3
txt
  4

1001
ACADANNOTATIVE
1000
AnnotativeData
1002
{
1070
     1
1070
     1
1002
}
  0
STYLE
  5
280F
330
277C
100
AcDbSymbolTableRecord
100
AcDbTextStyleTableRecord
  2

 70
     1
 40
0.0
 41
1.0
 50
0.0
 71
     0
 42
64.0
  3
genltshp.shx
  4

  0
STYLE
  5
2810
330
277C
100
AcDbSymbolTableRecord
100
AcDbTextStyleTableRecord
  2
ACANSTS
 70
     0
 40
1.0
 41
1.0
 50
0.0
 71
     0
 42
64.0
  3
romans.shx
  4
extfont.shx
  0
STYLE
  5
2811
330
277C
100
AcDbSymbolTableRecord
100
AcDbTextStyleTableRecord
  2
ACANSGDT
 70
     0
 40
0.0
 41
1.0
 50
0.0
 71
     0
 42
64.0
  3
amgdt.shx
  4

  0
ENDTAB
  0
TABLE
  2
VIEW
  5
277F
330
0
100
AcDbSymbolTable
 70
     1
  0
VIEW
  5
2812
330
277F
100
AcDbSymbolTableRecord
100
AcDbViewTableRecord
  2
ALL
 70
     0
 40
4282.619807999997
 10
0.0
 20
41.30990399999999
 41
5940.0
 11
0.0
 21
0.0
 31
1.0
 12
0.0
 22
0.0
 32
0.0
 42
50.0
 43
0.0
 44
0.0
 50
0.0
 71
     0
281
     0
 72
     1
110
0.0
120
0.0
130
0.0
111
1.0
121
0.0
131
0.0
112
0.0
122
1.0
132
0.0
 79
     0
146
0.0
  0
ENDTAB
  0
TABLE
  2
UCS
  5
2780
330
0
100
AcDbSymbolTable
 70
     0
  0
ENDTAB
  0
TABLE
  2
APPID
  5
2782
330
0
100
AcDbSymbolTable
 70
    27
  0
APPID
  5
27D7
330
2782
100
AcDbSymbolTableRecord
100
AcDbRegAppTableRecord
  2
ACAD
 70
     0
  0
APPID
  5
27DE
330
2782
100
AcDbSymbolTableRecord
100
AcDbRegAppTableRecord
  2
ACADANNOTATIVE
 70
     0
  0
APPID
  5
27E8
330
2782
100
AcDbSymbolTableRecord
100
AcDbRegAppTableRecord
  2
ACAD_MLEADERVER
 70
     0
  0
APPID
  5
2813
330
2782
100
AcDbSymbolTableRecord
100
AcDbRegAppTableRecord
  2
GENIUS_GENDIM_13
 70
     0
  0
APPID
  5
2814
330
2782
100
AcDbSymbolTableRecord
100
AcDbRegAppTableRecord
  2
GENIUS_GENDTOL_13
 70
     0
  0
APPID
  5
2815
330
2782
100
AcDbSymbolTableRecord
100
AcDbRegAppTableRecord
  2
GENIUS_GE3DTOL_13
 70
     0
  0
APPID
  5
2816
330
2782
100
AcDbSymbolTableRecord
100
AcDbRegAppTableRecord
  2
MCAD_NO_VIS
 70
     0
  0
APPID
  5
2817
330
2782
100
AcDbSymbolTableRecord
100
AcDbRegAppTableRecord
  2
ACAD_TEMP_GRAPHIC
 70
     0
  0
APPID
  5
2818
330
2782
100
AcDbSymbolTableRecord
100
AcDbRegAppTableRecord
  2
AD_DRAW
 70
     0
  0
APPID
  5
2819
330
2782
100
AcDbSymbolTableRecord
100
AcDbRegAppTableRecord
  2
ACATTRIBSERVICES
 70
     0
  0
APPID
  5
281A
330
2782
100
AcDbSymbolTableRecord
100
AcDbRegAppTableRecord
  2
ASURF_PCURVE_APPNAME
 70
     0
  0
APPID
  5
281B
330
2782
100
AcDbSymbolTableRecord
100
AcDbRegAppTableRecord
  2
AMG_3D2D_5_0
 70
     0
  0
APPID
  5
281C
330
2782
100
AcDbSymbolTableRecord
100
AcDbRegAppTableRecord
  2
DESIGNERASSEMBLIES
 70
     0
  0
APPID
  5
281D
330
2782
100
AcDbSymbolTableRecord
100
AcDbRegAppTableRecord
  2
ACADM_DIM_EDIT
 70
     0
  0
APPID
  5
281E
330
2782
100
AcDbSymbolTableRecord
100
AcDbRegAppTableRecord
  2
AMDT_DM_ADJ
 70
     0
  0
APPID
  5
281F
330
2782
100
AcDbSymbolTableRecord
100
AcDbRegAppTableRecord
  2
ACAD_DSTYLE_DIMARC_LENGTH_
 70
     0
  0
APPID
  5
2820
330
2782
100
AcDbSymbolTableRecord
100
AcDbRegAppTableRecord
  2
ACAD_DSTYLE_DIMJOGGED_JOGA
 70
     0
  0
APPID
  5
2821
330
2782
100
AcDbSymbolTableRecord
100
AcDbRegAppTableRecord
  2
ACAD_PSEXT
 70
     0
  0
APPID
  5
2822
330
2782
100
AcDbSymbolTableRecord
100
AcDbRegAppTableRecord
  2
ACAD_EXEMPT_FROM_CAD_STANDARDS
 70
     0
  0
APPID
  5
2823
330
2782
100
AcDbSymbolTableRecord
100
AcDbRegAppTableRecord
  2
ACAD_DSTYLE_DIMJAG
 70
     0
  0
APPID
  5
2824
330
2782
100
AcDbSymbolTableRecord
100
AcDbRegAppTableRecord
  2
ACAD_DSTYLE_DIMTALN
 70
     0
  0
APPID
  5
2952
330
2782
100
AcDbSymbolTableRecord
100
AcDbRegAppTableRecord
  2
AMG_3D2D_5.0
 70
     0
  0
APPID
  5
29EF
330
2782
100
AcDbSymbolTableRecord
100
AcDbRegAppTableRecord
  2
ACAD_DSTYLE_DIMARC_LENGTH_SYMBOL
 70
     0
  0
APPID
  5
29F0
330
2782
100
AcDbSymbolTableRecord
100
AcDbRegAppTableRecord
  2
ACAD_DSTYLE_DIM_LINETYPE
 70
     0
  0
APPID
  5
29F1
330
2782
100
AcDbSymbolTableRecord
100
AcDbRegAppTableRecord
  2
ACAD_DSTYLE_DIM_EXT1_LINETYPE
 70
     0
  0
APPID
  5
29F2
330
2782
100
AcDbSymbolTableRecord
100
AcDbRegAppTableRecord
  2
ACAD_DSTYLE_DIM_EXT2_LINETYPE
 70
     0
  0
APPID
  5
2AD2
330
2782
100
AcDbSymbolTableRecord
100
AcDbRegAppTableRecord
  2
ACAD_DSTYLE_DIMJOGGED_JOGANGLE_SYMBOL
 70
     0
  0
ENDTAB
  0
TABLE
  2
DIMSTYLE
  5
2783
330
0
100
AcDbSymbolTable
 70
    10
100
AcDbDimStyleTable
 71
     1
340
2825
  0
DIMSTYLE
105
27D8
330
2783
100
AcDbSymbolTableRecord
100
AcDbDimStyleTableRecord
  2
STANDARD
 70
     0
 41
12.0
 42
20.0
 44
20.0
 77
     1
 78
     8
140
64.0
141
0.0
147
10.0
275
     1
279
     2
284
     7
285
     7
286
     7
340
27D6
  0
DIMSTYLE
105
27D9
330
2783
100
AcDbSymbolTableRecord
100
AcDbDimStyleTableRecord
  2
ANNOTATIVE
 70
     0
275
     1
279
     2
284
     7
285
     7
286
     7
340
27D6
1001
ACADANNOTATIVE
1000
AnnotativeData
1002
{
1070
     1
1070
     1
1002
}
  0
DIMSTYLE
105
2825
330
2783
100
AcDbSymbolTableRecord
100
AcDbDimStyleTableRecord
  2
AM_ANSI
 70
     0
  4
mm
 41
0.12
 42
0.05
 43
0.5
 44
0.1
 47
0.1
 48
0.1
 78
     7
 79
     2
140
0.12
141
0.0
146
0.71
147
0.06
176
   256
177
   256
178
     2
274
     4
284
     7
340
27D6
371
    -1
372
    -1
1001
ACAD_DSTYLE_DIMARC_LENGTH_SYMBOL
1070
   379
1070
     1
1001
ACAD_DSTYLE_DIM_LINETYPE
1070
   380
1005
27DB
1001
ACAD_DSTYLE_DIM_EXT1_LINETYPE
1070
   381
1005
27DB
1001
ACAD_DSTYLE_DIM_EXT2_LINETYPE
1070
   382
1005
27DB
  0
DIMSTYLE
105
2826
330
2783
100
AcDbSymbolTableRecord
100
AcDbDimStyleTableRecord
  2
AM_ANSI$3
 70
     0
  4
mm
 41
0.12
 42
0.05
 43
0.5
 44
0.1
 47
0.1
 48
0.1
 78
     7
 79
     2
140
0.12
141
0.0
146
0.71
147
0.06
176
   256
177
   256
178
     2
274
     4
284
     7
288
     1
289
     0
340
27D6
371
    -1
372
    -1
1001
ACAD_DSTYLE_DIMARC_LENGTH_SYMBOL
1070
   379
1070
     1
1001
ACAD_DSTYLE_DIM_LINETYPE
1070
   380
1005
27DB
1001
ACAD_DSTYLE_DIM_EXT1_LINETYPE
1070
   381
1005
27DB
1001
ACAD_DSTYLE_DIM_EXT2_LINETYPE
1070
   382
1005
27DB
  0
DIMSTYLE
105
2827
330
2783
100
AcDbSymbolTableRecord
100
AcDbDimStyleTableRecord
  2
AM_ANSI$4
 70
     0
  4
mm
 41
0.12
 42
0.05
 43
0.5
 44
0.1
 47
0.1
 48
0.1
 78
     7
 79
     2
140
0.12
141
0.0
146
0.71
147
0.06
176
   256
177
   256
178
     2
274
     4
284
     7
340
27D6
371
    -1
372
    -1
1001
ACAD_DSTYLE_DIMARC_LENGTH_SYMBOL
1070
   379
1070
     1
1001
ACAD_DSTYLE_DIM_LINETYPE
1070
   380
1005
27DB
1001
ACAD_DSTYLE_DIM_EXT1_LINETYPE
1070
   381
1005
27DB
1001
ACAD_DSTYLE_DIM_EXT2_LINETYPE
1070
   382
1005
27DB
  0
DIMSTYLE
105
2828
330
2783
100
AcDbSymbolTableRecord
100
AcDbDimStyleTableRecord
  2
AM_ANSI$7
 70
     0
  4
mm
 41
0.12
 42
0.05
 43
0.5
 44
0.1
 47
0.1
 48
0.1
 78
     7
 79
     2
140
0.12
141
0.0
146
0.71
147
0.06
176
   256
177
   256
178
     2
274
     4
284
     7
340
27D6
371
    -1
372
    -1
1001
ACAD_DSTYLE_DIMARC_LENGTH_SYMBOL
1070
   379
1070
     1
1001
ACAD_DSTYLE_DIM_LINETYPE
1070
   380
1005
27DB
1001
ACAD_DSTYLE_DIM_EXT1_LINETYPE
1070
   381
1005
27DB
1001
ACAD_DSTYLE_DIM_EXT2_LINETYPE
1070
   382
1005
27DB
  0
DIMSTYLE
105
2829
330
2783
100
AcDbSymbolTableRecord
100
AcDbDimStyleTableRecord
  2
AM_ANSI$SF
 70
     0
  4
mm
 41
0.12
 42
0.05
 43
0.5
 44
0.1
 47
0.1
 48
0.1
 75
     1
 76
     1
 78
     7
 79
     2
140
0.12
141
0.0
146
0.71
147
0.06
176
   256
177
   256
178
     2
274
     4
284
     7
340
27D6
371
    -1
372
    -1
1001
ACAD_DSTYLE_DIMARC_LENGTH_SYMBOL
1070
   379
1070
     1
1001
ACAD_DSTYLE_DIM_LINETYPE
1070
   380
1005
27DB
1001
ACAD_DSTYLE_DIM_EXT1_LINETYPE
1070
   381
1005
27DB
1001
ACAD_DSTYLE_DIM_EXT2_LINETYPE
1070
   382
1005
27DB
  0
DIMSTYLE
105
282A
330
2783
100
AcDbSymbolTableRecord
100
AcDbDimStyleTableRecord
  2
AM_ANSI$SH
 70
     0
  4
mm
 41
0.12
 42
0.05
 43
0.5
 44
0.1
 47
0.1
 48
0.1
 75
     1
 76
     1
 78
     7
 79
     2
140
0.12
141
0.0
146
0.71
147
0.06
173
     1
176
   256
177
   256
178
     2
274
     4
284
     7
340
27D6
343
284A
371
    -1
372
    -1
1001
ACAD_DSTYLE_DIMARC_LENGTH_SYMBOL
1070
   379
1070
     1
1001
ACAD_DSTYLE_DIM_LINETYPE
1070
   380
1005
27DB
1001
ACAD_DSTYLE_DIM_EXT1_LINETYPE
1070
   381
1005
27DB
1001
ACAD_DSTYLE_DIM_EXT2_LINETYPE
1070
   382
1005
27DB
  0
DIMSTYLE
105
282B
330
2783
100
AcDbSymbolTableRecord
100
AcDbDimStyleTableRecord
  2
STANDARD1
 70
     0
 40
6.0
 41
2.5
 42
0.625
 43
6.0
 44
1.25
 47
1.0
 48
0.5
 77
     1
 78
     8
140
2.5
141
0.0
146
0.6
147
1.0
173
     1
275
     1
279
     2
284
     7
285
     7
286
     7
340
27D6
  0
DIMSTYLE
105
282C
330
2783
100
AcDbSymbolTableRecord
100
AcDbDimStyleTableRecord
  2
STANDARD$0
 70
     0
 41
12.0
 42
20.0
 44
20.0
 73
     0
 74
     0
 77
     1
 78
     8
140
64.0
141
0.0
147
10.0
275
     1
279
     2
284
     7
285
     7
286
     7
340
27D6
  0
ENDTAB
  0
TABLE
  2
BLOCK_RECORD
  5
277A
330
0
100
AcDbSymbolTable
 70
    81
  0
BLOCK_RECORD
  5
27ED
102
{ACAD_XDICTIONARY
360
29C8
102
}
330
277A
100
AcDbSymbolTableRecord
100
AcDbBlockTableRecord
  2
*Model_Space
340
27F0
  0
BLOCK_RECORD
  5
27E9
330
277A
100
AcDbSymbolTableRecord
100
AcDbBlockTableRecord
  2
*Paper_Space
340
27EC
  0
BLOCK_RECORD
  5
2834
330
277A
100
AcDbSymbolTableRecord
100
AcDbBlockTableRecord
  2
$MODEL_SPACE
340
0
  0
BLOCK_RECORD
  5
2836
330
277A
100
AcDbSymbolTableRecord
100
AcDbBlockTableRecord
  2
$PAPER_SPACE
340
0
  0
BLOCK_RECORD
  5
2838
330
277A
100
AcDbSymbolTableRecord
100
AcDbBlockTableRecord
  2
_ORIGIN
340
0
  0
BLOCK_RECORD
  5
283A
330
277A
100
AcDbSymbolTableRecord
100
AcDbBlockTableRecord
  2
_DOTBLANK
340
0
102
{BLKREFS
331
1299
331
129A
331
11AA
331
11AB
331
E80
331
E81
331
1123
331
1124
331
11C2
331
11C3
331
11EC
331
11ED
331
11F9
331
11FA
331
1287
331
1288
331
1417
331
1418
331
1423
331
1424
331
142F
331
1430
331
143B
331
143C
331
166E
331
166F
331
1677
331
1678
331
1680
331
1681
331
1689
331
168A
331
1696
331
1697
331
16A3
331
16A4
331
16AF
331
16B0
331
16BB
331
16BC
331
16C7
331
16C8
331
16D3
331
16D4
331
1D86
331
1D87
331
1D8F
331
1D90
331
1D98
331
1D99
331
1DA1
331
1DA2
331
1DAB
331
1DAC
331
1DB5
331
1DB6
331
2C20
331
2C21
331
2C28
331
2C29
331
2C2E
331
2C2F
331
2C35
331
2C36
331
2C45
331
2C46
331
2C4D
331
2C4E
102
}
  0
BLOCK_RECORD
  5
283C
330
277A
100
AcDbSymbolTableRecord
100
AcDbBlockTableRecord
  2
_OPEN30
340
0
102
{BLKREFS
331
2087
331
216D
331
2244
331
2337
331
2462
331
2591
331
2C3D
102
}
  0
BLOCK_RECORD
  5
283E
330
277A
100
AcDbSymbolTableRecord
100
AcDbBlockTableRecord
  2
*D5
340
0
  0
BLOCK_RECORD
  5
2840
330
277A
100
AcDbSymbolTableRecord
100
AcDbBlockTableRecord
  2
*U6
340
0
102
{BLKREFS
331
129B
102
}
  0
BLOCK_RECORD
  5
2842
330
277A
100
AcDbSymbolTableRecord
100
AcDbBlockTableRecord
  2
*D7
340
0
  0
BLOCK_RECORD
  5
2844
330
277A
100
AcDbSymbolTableRecord
100
AcDbBlockTableRecord
  2
*U8
340
0
102
{BLKREFS
331
11AC
102
}
  0
BLOCK_RECORD
  5
2846
330
277A
100
AcDbSymbolTableRecord
100
AcDbBlockTableRecord
  2
*D9
340
0
  0
BLOCK_RECORD
  5
2848
330
277A
100
AcDbSymbolTableRecord
100
AcDbBlockTableRecord
  2
*U10
340
0
102
{BLKREFS
331
E82
102
}
  0
BLOCK_RECORD
  5
284A
330
277A
100
AcDbSymbolTableRecord
100
AcDbBlockTableRecord
  2
GENAXEH
340
0
  0
BLOCK_RECORD
  5
284C
330
277A
100
AcDbSymbolTableRecord
100
AcDbBlockTableRecord
  2
*D12
340
0
  0
BLOCK_RECORD
  5
284E
330
277A
100
AcDbSymbolTableRecord
100
AcDbBlockTableRecord
  2
*U13
340
0
102
{BLKREFS
331
1125
102
}
  0
BLOCK_RECORD
  5
2850
330
277A
100
AcDbSymbolTableRecord
100
AcDbBlockTableRecord
  2
*D14
340
0
  0
BLOCK_RECORD
  5
2852
330
277A
100
AcDbSymbolTableRecord
100
AcDbBlockTableRecord
  2
*U15
340
0
102
{BLKREFS
331
11C4
102
}
  0
BLOCK_RECORD
  5
2854
330
277A
100
AcDbSymbolTableRecord
100
AcDbBlockTableRecord
  2
*D16
340
0
  0
BLOCK_RECORD
  5
2856
330
277A
100
AcDbSymbolTableRecord
100
AcDbBlockTableRecord
  2
*U17
340
0
102
{BLKREFS
331
11EE
102
}
  0
BLOCK_RECORD
  5
2858
330
277A
100
AcDbSymbolTableRecord
100
AcDbBlockTableRecord
  2
*D18
340
0
  0
BLOCK_RECORD
  5
285A
330
277A
100
AcDbSymbolTableRecord
100
AcDbBlockTableRecord
  2
*U19
340
0
102
{BLKREFS
331
11FB
102
}
  0
BLOCK_RECORD
  5
285C
330
277A
100
AcDbSymbolTableRecord
100
AcDbBlockTableRecord
  2
*D20
340
0
  0
BLOCK_RECORD
  5
285E
330
277A
100
AcDbSymbolTableRecord
100
AcDbBlockTableRecord
  2
*U21
340
0
102
{BLKREFS
331
1289
102
}
  0
BLOCK_RECORD
  5
2860
330
277A
100
AcDbSymbolTableRecord
100
AcDbBlockTableRecord
  2
*D22
340
0
  0
BLOCK_RECORD
  5
2862
330
277A
100
AcDbSymbolTableRecord
100
AcDbBlockTableRecord
  2
*U23
340
0
102
{BLKREFS
331
1419
102
}
  0
BLOCK_RECORD
  5
2864
330
277A
100
AcDbSymbolTableRecord
100
AcDbBlockTableRecord
  2
*D24
340
0
  0
BLOCK_RECORD
  5
2866
330
277A
100
AcDbSymbolTableRecord
100
AcDbBlockTableRecord
  2
*U25
340
0
102
{BLKREFS
331
1425
102
}
  0
BLOCK_RECORD
  5
2868
330
277A
100
AcDbSymbolTableRecord
100
AcDbBlockTableRecord
  2
*D26
340
0
  0
BLOCK_RECORD
  5
286A
330
277A
100
AcDbSymbolTableRecord
100
AcDbBlockTableRecord
  2
*U27
340
0
102
{BLKREFS
331
1431
102
}
  0
BLOCK_RECORD
  5
286C
330
277A
100
AcDbSymbolTableRecord
100
AcDbBlockTableRecord
  2
*D28
340
0
  0
BLOCK_RECORD
  5
286E
330
277A
100
AcDbSymbolTableRecord
100
AcDbBlockTableRecord
  2
*U29
340
0
102
{BLKREFS
331
143D
102
}
  0
BLOCK_RECORD
  5
2870
330
277A
100
AcDbSymbolTableRecord
100
AcDbBlockTableRecord
  2
*D30
340
0
  0
BLOCK_RECORD
  5
2872
330
277A
100
AcDbSymbolTableRecord
100
AcDbBlockTableRecord
  2
*U31
340
0
102
{BLKREFS
331
1670
102
}
  0
BLOCK_RECORD
  5
2874
330
277A
100
AcDbSymbolTableRecord
100
AcDbBlockTableRecord
  2
*D32
340
0
  0
BLOCK_RECORD
  5
2876
330
277A
100
AcDbSymbolTableRecord
100
AcDbBlockTableRecord
  2
*U33
340
0
102
{BLKREFS
331
1679
102
}
  0
BLOCK_RECORD
  5
2878
330
277A
100
AcDbSymbolTableRecord
100
AcDbBlockTableRecord
  2
*D34
340
0
  0
BLOCK_RECORD
  5
287A
330
277A
100
AcDbSymbolTableRecord
100
AcDbBlockTableRecord
  2
*U35
340
0
102
{BLKREFS
331
1682
102
}
  0
BLOCK_RECORD
  5
287C
330
277A
100
AcDbSymbolTableRecord
100
AcDbBlockTableRecord
  2
*D36
340
0
  0
BLOCK_RECORD
  5
287E
330
277A
100
AcDbSymbolTableRecord
100
AcDbBlockTableRecord
  2
*U37
340
0
102
{BLKREFS
331
168B
102
}
  0
BLOCK_RECORD
  5
2880
330
277A
100
AcDbSymbolTableRecord
100
AcDbBlockTableRecord
  2
*U38
340
0
  0
BLOCK_RECORD
  5
2882
330
277A
100
AcDbSymbolTableRecord
100
AcDbBlockTableRecord
  2
*D39
340
0
  0
BLOCK_RECORD
  5
2884
330
277A
100
AcDbSymbolTableRecord
100
AcDbBlockTableRecord
  2
*U40
340
0
102
{BLKREFS
331
1698
102
}
  0
BLOCK_RECORD
  5
2886
330
277A
100
AcDbSymbolTableRecord
100
AcDbBlockTableRecord
  2
*D41
340
0
  0
BLOCK_RECORD
  5
2888
330
277A
100
AcDbSymbolTableRecord
100
AcDbBlockTableRecord
  2
*U42
340
0
102
{BLKREFS
331
16A5
102
}
  0
BLOCK_RECORD
  5
288A
330
277A
100
AcDbSymbolTableRecord
100
AcDbBlockTableRecord
  2
*D43
340
0
  0
BLOCK_RECORD
  5
288C
330
277A
100
AcDbSymbolTableRecord
100
AcDbBlockTableRecord
  2
*U44
340
0
102
{BLKREFS
331
16B1
102
}
  0
BLOCK_RECORD
  5
288E
330
277A
100
AcDbSymbolTableRecord
100
AcDbBlockTableRecord
  2
*D45
340
0
  0
BLOCK_RECORD
  5
2890
330
277A
100
AcDbSymbolTableRecord
100
AcDbBlockTableRecord
  2
*U46
340
0
102
{BLKREFS
331
16BD
102
}
  0
BLOCK_RECORD
  5
2892
330
277A
100
AcDbSymbolTableRecord
100
AcDbBlockTableRecord
  2
*D47
340
0
  0
BLOCK_RECORD
  5
2894
330
277A
100
AcDbSymbolTableRecord
100
AcDbBlockTableRecord
  2
*U48
340
0
102
{BLKREFS
331
16C9
102
}
  0
BLOCK_RECORD
  5
2896
330
277A
100
AcDbSymbolTableRecord
100
AcDbBlockTableRecord
  2
*D49
340
0
  0
BLOCK_RECORD
  5
2898
330
277A
100
AcDbSymbolTableRecord
100
AcDbBlockTableRecord
  2
*U50
340
0
102
{BLKREFS
331
16D5
102
}
  0
BLOCK_RECORD
  5
289A
330
277A
100
AcDbSymbolTableRecord
100
AcDbBlockTableRecord
  2
*D51
340
0
  0
BLOCK_RECORD
  5
289C
330
277A
100
AcDbSymbolTableRecord
100
AcDbBlockTableRecord
  2
*U52
340
0
102
{BLKREFS
331
1D88
102
}
  0
BLOCK_RECORD
  5
289E
330
277A
100
AcDbSymbolTableRecord
100
AcDbBlockTableRecord
  2
*D53
340
0
  0
BLOCK_RECORD
  5
28A0
330
277A
100
AcDbSymbolTableRecord
100
AcDbBlockTableRecord
  2
*U54
340
0
102
{BLKREFS
331
1D91
102
}
  0
BLOCK_RECORD
  5
28A2
330
277A
100
AcDbSymbolTableRecord
100
AcDbBlockTableRecord
  2
*D55
340
0
  0
BLOCK_RECORD
  5
28A4
330
277A
100
AcDbSymbolTableRecord
100
AcDbBlockTableRecord
  2
*U56
340
0
102
{BLKREFS
331
1D9A
102
}
  0
BLOCK_RECORD
  5
28A6
330
277A
100
AcDbSymbolTableRecord
100
AcDbBlockTableRecord
  2
*D57
340
0
  0
BLOCK_RECORD
  5
28A8
330
277A
100
AcDbSymbolTableRecord
100
AcDbBlockTableRecord
  2
*U58
340
0
102
{BLKREFS
331
1DA3
102
}
  0
BLOCK_RECORD
  5
28AA
330
277A
100
AcDbSymbolTableRecord
100
AcDbBlockTableRecord
  2
*D59
340
0
  0
BLOCK_RECORD
  5
28AC
330
277A
100
AcDbSymbolTableRecord
100
AcDbBlockTableRecord
  2
*U60
340
0
102
{BLKREFS
331
1DAD
102
}
  0
BLOCK_RECORD
  5
28AE
330
277A
100
AcDbSymbolTableRecord
100
AcDbBlockTableRecord
  2
*D61
340
0
  0
BLOCK_RECORD
  5
28B0
330
277A
100
AcDbSymbolTableRecord
100
AcDbBlockTableRecord
  2
*U62
340
0
102
{BLKREFS
331
1DB7
102
}
  0
BLOCK_RECORD
  5
28B2
330
277A
100
AcDbSymbolTableRecord
100
AcDbBlockTableRecord
  2
*U63
340
0
  0
BLOCK_RECORD
  5
28B4
330
277A
100
AcDbSymbolTableRecord
100
AcDbBlockTableRecord
  2
*U64
340
0
  0
BLOCK_RECORD
  5
28B6
330
277A
100
AcDbSymbolTableRecord
100
AcDbBlockTableRecord
  2
*U65
340
0
  0
BLOCK_RECORD
  5
28B8
330
277A
100
AcDbSymbolTableRecord
100
AcDbBlockTableRecord
  2
*U66
340
0
  0
BLOCK_RECORD
  5
28BA
330
277A
100
AcDbSymbolTableRecord
100
AcDbBlockTableRecord
  2
*U67
340
0
  0
BLOCK_RECORD
  5
28BC
330
277A
100
AcDbSymbolTableRecord
100
AcDbBlockTableRecord
  2
*U68
340
0
  0
BLOCK_RECORD
  5
28BE
330
277A
100
AcDbSymbolTableRecord
100
AcDbBlockTableRecord
  2
*U69
340
0
  0
BLOCK_RECORD
  5
28C0
330
277A
100
AcDbSymbolTableRecord
100
AcDbBlockTableRecord
  2
*U70
340
0
  0
BLOCK_RECORD
  5
28C2
330
277A
100
AcDbSymbolTableRecord
100
AcDbBlockTableRecord
  2
*U71
340
0
  0
BLOCK_RECORD
  5
28C4
330
277A
100
AcDbSymbolTableRecord
100
AcDbBlockTableRecord
  2
*U72
340
0
  0
BLOCK_RECORD
  5
28C6
330
277A
100
AcDbSymbolTableRecord
100
AcDbBlockTableRecord
  2
*U73
340
0
  0
BLOCK_RECORD
  5
28C8
330
277A
100
AcDbSymbolTableRecord
100
AcDbBlockTableRecord
  2
*U74
340
0
  0
BLOCK_RECORD
  5
28CA
330
277A
100
AcDbSymbolTableRecord
100
AcDbBlockTableRecord
  2
*U75
340
0
  0
BLOCK_RECORD
  5
28CC
330
277A
100
AcDbSymbolTableRecord
100
AcDbBlockTableRecord
  2
*X76
340
0
  0
BLOCK_RECORD
  5
28CE
330
277A
100
AcDbSymbolTableRecord
100
AcDbBlockTableRecord
  2
*X77
340
0
  0
BLOCK_RECORD
  5
2AA2
330
277A
100
AcDbSymbolTableRecord
100
AcDbBlockTableRecord
  2
*U78
340
0
  0
BLOCK_RECORD
  5
2E0B
330
277A
100
AcDbSymbolTableRecord
100
AcDbBlockTableRecord
  2
*U79
340
0
  0
ENDTAB
  0
ENDSEC
  0
SECTION
  2
BLOCKS
  0
BLOCK
  5
27EE
330
27ED
100
AcDbEntity
  8
0
100
AcDbBlockBegin
  2
*Model_Space
 70
     0
 10
0.0
 20
0.0
 30
0.0
  3
*Model_Space
  1

  0
ENDBLK
  5
27EF
330
27ED
100
AcDbEntity
  8
0
100
AcDbBlockEnd
  0
BLOCK
  5
27EA
330
27E9
100
AcDbEntity
 67
     1
  8
0
100
AcDbBlockBegin
  2
*Paper_Space
 70
     0
 10
0.0
 20
0.0
 30
0.0
  3
*Paper_Space
  1

  0
ENDBLK
  5
27EB
330
27E9
100
AcDbEntity
 67
     1
  8
0
100
AcDbBlockEnd
  0
BLOCK
  5
2835
330
2834
100
AcDbEntity
  8
0
100
AcDbBlockBegin
  2
$MODEL_SPACE
 70
     0
 10
0.0
 20
0.0
 30
0.0
  3
$MODEL_SPACE
  1

  0
ENDBLK
  5
1FC1
330
2834
100
AcDbEntity
  8
0
100
AcDbBlockEnd
  0
BLOCK
  5
2837
330
2836
100
AcDbEntity
  8
0
100
AcDbBlockBegin
  2
$PAPER_SPACE
 70
     0
 10
0.0
 20
0.0
 30
0.0
  3
$PAPER_SPACE
  1

  0
ENDBLK
  5
1FBD
330
2836
100
AcDbEntity
  8
0
100
AcDbBlockEnd
  0
BLOCK
  5
2839
330
2838
100
AcDbEntity
  8
0
100
AcDbBlockBegin
  2
_ORIGIN
 70
     0
 10
0.0
 20
0.0
 30
0.0
  3
_ORIGIN
  1

  0
CIRCLE
  5
880
330
2838
100
AcDbEntity
  8
0
  6
Continuous
 62
     7
100
AcDbCircle
 10
0.0
 20
0.0
 30
0.0
 40
0.5
  0
LINE
  5
881
330
2838
100
AcDbEntity
  8
0
  6
Continuous
 62
     7
100
AcDbLine
 10
0.0
 20
0.0
 30
0.0
 11
-1.0
 21
0.0
 31
0.0
  0
ENDBLK
  5
882
330
2838
100
AcDbEntity
  8
0
100
AcDbBlockEnd
  0
BLOCK
  5
283B
330
283A
100
AcDbEntity
  8
0
 62
     1
100
AcDbBlockBegin
  2
_DOTBLANK
 70
     0
 10
0.0
 20
0.0
 30
0.0
  3
_DOTBLANK
  1

  0
CIRCLE
  5
AB3
330
283A
100
AcDbEntity
  8
0
  6
ByBlock
 62
     0
100
AcDbCircle
 10
0.0
 20
0.0
 30
0.0
 40
0.5
  0
LINE
  5
AB4
330
283A
100
AcDbEntity
  8
0
  6
ByBlock
 62
     0
100
AcDbLine
 10
-0.5
 20
0.0
 30
0.0
 11
-1.0
 21
0.0
 31
0.0
  0
ENDBLK
  5
AB6
330
283A
100
AcDbEntity
  8
0
 62
     1
100
AcDbBlockEnd
  0
BLOCK
  5
283D
330
283C
100
AcDbEntity
  8
0
 62
     1
100
AcDbBlockBegin
  2
_OPEN30
 70
     0
 10
0.0
 20
0.0
 30
0.0
  3
_OPEN30
  1

  0
LINE
  5
AB8
330
283C
100
AcDbEntity
  8
0
  6
ByBlock
 62
     0
100
AcDbLine
 10
-1.0
 20
0.26794919
 30
0.0
 11
0.0
 21
0.0
 31
0.0
  0
LINE
  5
AB9
330
283C
100
AcDbEntity
  8
0
  6
ByBlock
 62
     0
100
AcDbLine
 10
0.0
 20
0.0
 30
0.0
 11
-1.0
 21
-0.26794919
 31
0.0
  0
LINE
  5
ABA
330
283C
100
AcDbEntity
  8
0
  6
ByBlock
 62
     0
100
AcDbLine
 10
0.0
 20
0.0
 30
0.0
 11
-1.0
 21
0.0
 31
0.0
  0
ENDBLK
  5
ABC
330
283C
100
AcDbEntity
  8
0
 62
     1
100
AcDbBlockEnd
  0
BLOCK
  5
283F
330
283E
100
AcDbEntity
  8
0
100
AcDbBlockBegin
  2
*D5
 70
     1
 10
0.0
 20
0.0
 30
0.0
  3
*D5
  1

  0
LINE
  5
1296
330
283E
100
AcDbEntity
  8
SIZE
 62
     0
100
AcDbLine
 10
-134.5
 20
-320.0
 30
0.0
 11
-134.5
 21
-468.0173952306001
 31
0.0
  0
LINE
  5
1297
330
283E
100
AcDbEntity
  8
SIZE
 62
     0
100
AcDbLine
 10
134.5
 20
-320.0
 30
0.0
 11
134.5
 21
-468.0173952306001
 31
0.0
  0
LINE
  5
1298
330
283E
100
AcDbEntity
  8
SIZE
 62
     0
100
AcDbLine
 10
-122.5
 20
-448.0173952306
 30
0.0
 11
122.5
 21
-448.0173952306
 31
0.0
  0
INSERT
  5
1299
330
283E
100
AcDbEntity
  8
SIZE
 62
     0
100
AcDbBlockReference
  2
_DOTBLANK
 10
-134.5
 20
-448.0173952306
 30
0.0
 41
12.0
 42
12.0
 43
12.0
 50
180.0
  0
INSERT
  5
129A
330
283E
100
AcDbEntity
  8
SIZE
 62
     0
100
AcDbBlockReference
  2
_DOTBLANK
 10
134.5
 20
-448.0173952306
 30
0.0
 41
12.0
 42
12.0
 43
12.0
  0
INSERT
  5
129B
330
283E
100
AcDbEntity
  8
0
100
AcDbBlockReference
  2
*U6
 10
0.0
 20
0.0
 30
0.0
  0
POINT
  5
129C
330
283E
100
AcDbEntity
  8
DEFPOINTS
 62
     0
100
AcDbPoint
 10
-134.5
 20
-300.0
 30
0.0
  0
POINT
  5
129D
330
283E
100
AcDbEntity
  8
DEFPOINTS
 62
     0
100
AcDbPoint
 10
134.5
 20
-300.0
 30
0.0
  0
POINT
  5
129E
330
283E
100
AcDbEntity
  8
DEFPOINTS
 62
     0
100
AcDbPoint
 10
134.5
 20
-448.0173952306
 30
0.0
  0
ENDBLK
  5
D72
330
283E
100
AcDbEntity
  8
0
100
AcDbBlockEnd
  0
BLOCK
  5
2841
330
2840
100
AcDbEntity
  8
0
100
AcDbBlockBegin
  2
*U6
 70
     1
 10
0.0
 20
0.0
 30
0.0
  3
*U6
  1

  0
TEXT
  5
1EF5
330
2840
100
AcDbEntity
  8
SIZE
 62
     0
100
AcDbText
 10
-72.68571428571426
 20
-438.0173952305999
 30
0.0
 40
64.0
  1
269
 41
0.9
100
AcDbText
  0
ENDBLK
  5
1EF7
330
2840
100
AcDbEntity
  8
0
100
AcDbBlockEnd
  0
BLOCK
  5
2843
330
2842
100
AcDbEntity
  8
0
100
AcDbBlockBegin
  2
*D7
 70
     1
 10
0.0
 20
0.0
 30
0.0
  3
*D7
  1

  0
LINE
  5
11A7
330
2842
100
AcDbEntity
  8
SIZE
  6
Continuous
 62
     0
100
AcDbLine
 10
143.5
 20
-300.0
 30
0.0
 11
304.6432844803791
 21
-300.0
 31
0.0
  0
LINE
  5
11A8
330
2842
100
AcDbEntity
  8
SIZE
  6
Continuous
 62
     0
100
AcDbLine
 10
177.5
 20
-0.0000000000000057
 30
0.0
 11
304.6432844803792
 21
-0.0000000000000417
 31
0.0
  0
LINE
  5
11A9
330
2842
100
AcDbEntity
  8
SIZE
  6
Continuous
 62
     0
100
AcDbLine
 10
284.6432844803791
 20
-288.0000000000001
 30
0.0
 11
284.6432844803792
 21
-12.00000000000003
 31
0.0
  0
INSERT
  5
11AA
330
2842
100
AcDbEntity
  8
SIZE
  6
Continuous
 62
     0
100
AcDbBlockReference
  2
_DOTBLANK
 10
284.6432844803791
 20
-300.0
 30
0.0
 41
12.0
 42
12.0
 43
12.0
 50
270.0
  0
INSERT
  5
11AB
330
2842
100
AcDbEntity
  8
SIZE
  6
Continuous
 62
     0
100
AcDbBlockReference
  2
_DOTBLANK
 10
284.6432844803792
 20
-0.000000000000036
 30
0.0
 41
12.0
 42
12.0
 43
12.0
 50
90.0
  0
INSERT
  5
11AC
330
2842
100
AcDbEntity
  8
0
100
AcDbBlockReference
  2
*U8
 10
0.0
 20
0.0
 30
0.0
  0
POINT
  5
11AD
330
2842
100
AcDbEntity
  8
DEFPOINTS
  6
Continuous
 62
     0
100
AcDbPoint
 10
123.5
 20
-300.0
 30
0.0
  0
POINT
  5
11AE
330
2842
100
AcDbEntity
  8
DEFPOINTS
  6
Continuous
 62
     0
100
AcDbPoint
 10
157.5
 20
0.0
 30
0.0
  0
POINT
  5
11AF
330
2842
100
AcDbEntity
  8
DEFPOINTS
  6
Continuous
 62
     0
100
AcDbPoint
 10
284.6432844803792
 20
-0.000000000000036
 30
0.0
  0
ENDBLK
  5
E11
330
2842
100
AcDbEntity
  8
0
100
AcDbBlockEnd
  0
BLOCK
  5
2845
330
2844
100
AcDbEntity
  8
0
100
AcDbBlockBegin
  2
*U8
 70
     1
 10
0.0
 20
0.0
 30
0.0
  3
*U8
  1

  0
TEXT
  5
1EE1
330
2844
100
AcDbEntity
  8
SIZE
 62
     0
100
AcDbText
 10
274.6432844803792
 20
-224.0571428571429
 30
0.0
 40
64.0
  1
300
 50
90.0
 41
0.9
100
AcDbText
  0
ENDBLK
  5
1EE3
330
2844
100
AcDbEntity
  8
0
100
AcDbBlockEnd
  0
BLOCK
  5
2847
330
2846
100
AcDbEntity
  8
0
100
AcDbBlockBegin
  2
*D9
 70
     1
 10
0.0
 20
0.0
 30
0.0
  3
*D9
  1

  0
LINE
  5
E7D
330
2846
100
AcDbEntity
  8
SIZE
 62
     0
100
AcDbLine
 10
-139.9999999999998
 20
32.46448280219375
 30
0.0
 11
-139.9999999999998
 21
136.4516878685508
 31
0.0
  0
LINE
  5
E7E
330
2846
100
AcDbEntity
  8
SIZE
 62
     0
100
AcDbLine
 10
140.0
 20
32.46448280219375
 30
0.0
 11
140.0
 21
136.4516878685508
 31
0.0
  0
LINE
  5
E7F
330
2846
100
AcDbEntity
  8
SIZE
 62
     0
100
AcDbLine
 10
-128.0
 20
116.4516878685508
 30
0.0
 11
128.0
 21
116.4516878685508
 31
0.0
  0
INSERT
  5
E80
330
2846
100
AcDbEntity
  8
SIZE
 62
     0
100
AcDbBlockReference
  2
_DOTBLANK
 10
-139.9999999999998
 20
116.4516878685508
 30
0.0
 41
12.0
 42
12.0
 43
12.0
 50
180.0
  0
INSERT
  5
E81
330
2846
100
AcDbEntity
  8
SIZE
 62
     0
100
AcDbBlockReference
  2
_DOTBLANK
 10
140.0
 20
116.4516878685508
 30
0.0
 41
12.0
 42
12.0
 43
12.0
  0
INSERT
  5
E82
330
2846
100
AcDbEntity
  8
0
100
AcDbBlockReference
  2
*U10
 10
0.0
 20
0.0
 30
0.0
  0
POINT
  5
E83
330
2846
100
AcDbEntity
  8
DEFPOINTS
 62
     0
100
AcDbPoint
 10
-139.9999999999998
 20
12.46448280219374
 30
0.0
  0
POINT
  5
E84
330
2846
100
AcDbEntity
  8
DEFPOINTS
 62
     0
100
AcDbPoint
 10
140.0
 20
12.46448280219374
 30
0.0
  0
POINT
  5
E85
330
2846
100
AcDbEntity
  8
DEFPOINTS
 62
     0
100
AcDbPoint
 10
140.0
 20
116.4516878685508
 30
0.0
  0
ENDBLK
  5
E7C
330
2846
100
AcDbEntity
  8
0
100
AcDbBlockEnd
  0
BLOCK
  5
2849
330
2848
100
AcDbEntity
  8
0
100
AcDbBlockBegin
  2
*U10
 70
     1
 10
0.0
 20
0.0
 30
0.0
  3
*U10
  1

  0
TEXT
  5
1ED8
330
2848
100
AcDbEntity
  8
SIZE
 62
     0
100
AcDbText
 10
-74.05714285714281
 20
126.4516878685508
 30
0.0
 40
64.0
  1
280
 41
0.9
100
AcDbText
  0
ENDBLK
  5
1EDA
330
2848
100
AcDbEntity
  8
0
100
AcDbBlockEnd
  0
BLOCK
  5
284B
330
284A
100
AcDbEntity
  8
0
100
AcDbBlockBegin
  2
GENAXEH
 70
     0
 10
0.0
 20
0.0
 30
0.0
  3
GENAXEH
  1

  0
LINE
  5
FDB
330
284A
100
AcDbEntity
  8
0
100
AcDbLine
 10
-1.0
 20
0.0
 30
0.0
 11
1.0
 21
0.0
 31
0.0
  0
ENDBLK
  5
FDD
330
284A
100
AcDbEntity
  8
0
100
AcDbBlockEnd
  0
BLOCK
  5
284D
330
284C
100
AcDbEntity
  8
0
100
AcDbBlockBegin
  2
*D12
 70
     1
 10
0.0
 20
0.0
 30
0.0
  3
*D12
  1

  0
LINE
  5
1120
330
284C
100
AcDbEntity
  8
SIZE
 62
     0
100
AcDbLine
 10
-157.5
 20
20.0
 30
0.0
 11
-157.5
 21
245.5794621189598
 31
0.0
  0
LINE
  5
1121
330
284C
100
AcDbEntity
  8
SIZE
 62
     0
100
AcDbLine
 10
157.5
 20
20.0
 30
0.0
 11
157.5
 21
245.5794621189598
 31
0.0
  0
LINE
  5
1122
330
284C
100
AcDbEntity
  8
SIZE
 62
     0
100
AcDbLine
 10
-145.5
 20
225.5794621189598
 30
0.0
 11
145.5
 21
225.5794621189598
 31
0.0
  0
INSERT
  5
1123
330
284C
100
AcDbEntity
  8
SIZE
 62
     0
100
AcDbBlockReference
  2
_DOTBLANK
 10
-157.5
 20
225.5794621189598
 30
0.0
 41
12.0
 42
12.0
 43
12.0
 50
180.0
  0
INSERT
  5
1124
330
284C
100
AcDbEntity
  8
SIZE
 62
     0
100
AcDbBlockReference
  2
_DOTBLANK
 10
157.5
 20
225.5794621189598
 30
0.0
 41
12.0
 42
12.0
 43
12.0
  0
INSERT
  5
1125
330
284C
100
AcDbEntity
  8
0
100
AcDbBlockReference
  2
*U13
 10
0.0
 20
0.0
 30
0.0
  0
POINT
  5
1126
330
284C
100
AcDbEntity
  8
DEFPOINTS
 62
     0
100
AcDbPoint
 10
-157.5
 20
0.0
 30
0.0
  0
POINT
  5
1127
330
284C
100
AcDbEntity
  8
DEFPOINTS
 62
     0
100
AcDbPoint
 10
157.5
 20
0.0
 30
0.0
  0
POINT
  5
1128
330
284C
100
AcDbEntity
  8
DEFPOINTS
 62
     0
100
AcDbPoint
 10
157.5
 20
225.5794621189598
 30
0.0
  0
ENDBLK
  5
111F
330
284C
100
AcDbEntity
  8
0
100
AcDbBlockEnd
  0
BLOCK
  5
284F
330
284E
100
AcDbEntity
  8
0
100
AcDbBlockBegin
  2
*U13
 70
     1
 10
0.0
 20
0.0
 30
0.0
  3
*U13
  1

  0
TEXT
  5
1EDD
330
284E
100
AcDbEntity
  8
SIZE
 62
     0
100
AcDbText
 10
-68.57142857142857
 20
235.5794621189599
 30
0.0
 40
64.0
  1
315
 41
0.9
100
AcDbText
  0
ENDBLK
  5
1EDF
330
284E
100
AcDbEntity
  8
0
100
AcDbBlockEnd
  0
BLOCK
  5
2851
330
2850
100
AcDbEntity
  8
0
100
AcDbBlockBegin
  2
*D14
 70
     1
 10
0.0
 20
0.0
 30
0.0
  3
*D14
  1

  0
LINE
  5
11BD
330
2850
100
AcDbEntity
  8
NOTE
 62
     0
100
AcDbLine
 10
-123.4999999999999
 20
-320.0
 30
0.0
 11
-123.4999999999999
 21
-354.9529861856111
 31
0.0
  0
LINE
  5
11BE
330
2850
100
AcDbEntity
  8
NOTE
 62
     0
100
AcDbLine
 10
-133.4999999999998
 20
-331.2126909923287
 30
0.0
 11
-133.4999999999998
 21
-354.9529861856111
 31
0.0
  0
LINE
  5
11BF
330
2850
100
AcDbEntity
  8
NOTE
 62
     0
100
AcDbLine
 10
-111.4999999999999
 20
-334.9529861856112
 30
0.0
 11
-99.4999999999999
 21
-334.9529861856112
 31
0.0
  0
LINE
  5
11C0
330
2850
100
AcDbEntity
  8
NOTE
 62
     0
100
AcDbLine
 10
-145.4999999999998
 20
-334.9529861856112
 30
0.0
 11
-157.4999999999998
 21
-334.9529861856112
 31
0.0
  0
LINE
  5
11C1
330
2850
100
AcDbEntity
  8
NOTE
 62
     0
100
AcDbLine
 10
-123.4999999999999
 20
-334.9529861856112
 30
0.0
 11
-133.4999999999998
 21
-334.9529861856112
 31
0.0
  0
INSERT
  5
11C2
330
2850
100
AcDbEntity
  8
NOTE
 62
     0
100
AcDbBlockReference
  2
_DOTBLANK
 10
-123.4999999999999
 20
-334.9529861856112
 30
0.0
 41
12.0
 42
12.0
 43
12.0
 50
180.0
  0
INSERT
  5
11C3
330
2850
100
AcDbEntity
  8
NOTE
 62
     0
100
AcDbBlockReference
  2
_DOTBLANK
 10
-133.4999999999998
 20
-334.9529861856112
 30
0.0
 41
12.0
 42
12.0
 43
12.0
  0
INSERT
  5
11C4
330
2850
100
AcDbEntity
  8
0
100
AcDbBlockReference
  2
*U15
 10
0.0
 20
0.0
 30
0.0
  0
POINT
  5
11C5
330
2850
100
AcDbEntity
  8
DEFPOINTS
 62
     0
100
AcDbPoint
 10
-123.4999999999999
 20
-300.0
 30
0.0
  0
POINT
  5
11C6
330
2850
100
AcDbEntity
  8
DEFPOINTS
 62
     0
100
AcDbPoint
 10
-133.4999999999998
 20
-311.2126909923287
 30
0.0
  0
POINT
  5
11C7
330
2850
100
AcDbEntity
  8
DEFPOINTS
 62
     0
100
AcDbPoint
 10
-133.4999999999998
 20
-334.9529861856112
 30
0.0
  0
ENDBLK
  5
11BC
330
2850
100
AcDbEntity
  8
0
100
AcDbBlockEnd
  0
BLOCK
  5
2853
330
2852
100
AcDbEntity
  8
0
100
AcDbBlockBegin
  2
*U15
 70
     1
 10
0.0
 20
0.0
 30
0.0
  3
*U15
  1

  0
TEXT
  5
1EE5
330
2852
100
AcDbEntity
  8
NOTE
 62
     0
100
AcDbText
 10
-169.642857142857
 20
-324.9529861856112
 30
0.0
 40
64.0
  1
10
 41
0.9
100
AcDbText
  0
ENDBLK
  5
1EE7
330
2852
100
AcDbEntity
  8
0
100
AcDbBlockEnd
  0
BLOCK
  5
2855
330
2854
100
AcDbEntity
  8
0
100
AcDbBlockBegin
  2
*D16
 70
     1
 10
0.0
 20
0.0
 30
0.0
  3
*D16
  1

  0
LINE
  5
11E7
330
2854
100
AcDbEntity
  8
NOTE
 62
     0
100
AcDbLine
 10
-135.5
 20
-333.2126909923287
 30
0.0
 11
-135.5
 21
-386.2569421441843
 31
0.0
  0
LINE
  5
11E8
330
2854
100
AcDbEntity
  8
NOTE
 62
     0
100
AcDbLine
 10
-123.4999999999999
 20
-320.0
 30
0.0
 11
-123.4999999999999
 21
-386.2569421441843
 31
0.0
  0
LINE
  5
11E9
330
2854
100
AcDbEntity
  8
NOTE
 62
     0
100
AcDbLine
 10
-147.5
 20
-366.2569421441844
 30
0.0
 11
-159.5
 21
-366.2569421441844
 31
0.0
  0
LINE
  5
11EA
330
2854
100
AcDbEntity
  8
NOTE
 62
     0
100
AcDbLine
 10
-111.4999999999999
 20
-366.2569421441844
 30
0.0
 11
-99.4999999999999
 21
-366.2569421441844
 31
0.0
  0
LINE
  5
11EB
330
2854
100
AcDbEntity
  8
NOTE
 62
     0
100
AcDbLine
 10
-135.5
 20
-366.2569421441844
 30
0.0
 11
-123.4999999999999
 21
-366.2569421441844
 31
0.0
  0
INSERT
  5
11EC
330
2854
100
AcDbEntity
  8
NOTE
 62
     0
100
AcDbBlockReference
  2
_DOTBLANK
 10
-135.5
 20
-366.2569421441844
 30
0.0
 41
12.0
 42
12.0
 43
12.0
  0
INSERT
  5
11ED
330
2854
100
AcDbEntity
  8
NOTE
 62
     0
100
AcDbBlockReference
  2
_DOTBLANK
 10
-123.4999999999999
 20
-366.2569421441844
 30
0.0
 41
12.0
 42
12.0
 43
12.0
 50
180.0
  0
INSERT
  5
11EE
330
2854
100
AcDbEntity
  8
0
100
AcDbBlockReference
  2
*U17
 10
0.0
 20
0.0
 30
0.0
  0
POINT
  5
11EF
330
2854
100
AcDbEntity
  8
DEFPOINTS
 62
     0
100
AcDbPoint
 10
-135.5
 20
-313.2126909923287
 30
0.0
  0
POINT
  5
11F0
330
2854
100
AcDbEntity
  8
DEFPOINTS
 62
     0
100
AcDbPoint
 10
-123.4999999999999
 20
-300.0
 30
0.0
  0
POINT
  5
11F1
330
2854
100
AcDbEntity
  8
DEFPOINTS
 62
     0
100
AcDbPoint
 10
-123.4999999999999
 20
-366.2569421441844
 30
0.0
  0
ENDBLK
  5
11E6
330
2854
100
AcDbEntity
  8
0
100
AcDbBlockEnd
  0
BLOCK
  5
2857
330
2856
100
AcDbEntity
  8
0
100
AcDbBlockBegin
  2
*U17
 70
     1
 10
0.0
 20
0.0
 30
0.0
  3
*U17
  1

  0
TEXT
  5
1EE9
330
2856
100
AcDbEntity
  8
NOTE
 62
     0
100
AcDbText
 10
-170.642857142857
 20
-356.2569421441843
 30
0.0
 40
64.0
  1
12
 41
0.9
100
AcDbText
  0
ENDBLK
  5
1EEB
330
2856
100
AcDbEntity
  8
0
100
AcDbBlockEnd
  0
BLOCK
  5
2859
330
2858
100
AcDbEntity
  8
0
100
AcDbBlockBegin
  2
*D18
 70
     1
 10
0.0
 20
0.0
 30
0.0
  3
*D18
  1

  0
LINE
  5
11F6
330
2858
100
AcDbEntity
  8
NOTE
 62
     0
100
AcDbLine
 10
-123.4999999999999
 20
-320.0
 30
0.0
 11
-123.4999999999999
 21
-583.8286022818904
 31
0.0
  0
LINE
  5
11F7
330
2858
100
AcDbEntity
  8
NOTE
 62
     0
100
AcDbLine
 10
123.5
 20
-320.0
 30
0.0
 11
123.5
 21
-583.8286022818904
 31
0.0
  0
LINE
  5
11F8
330
2858
100
AcDbEntity
  8
NOTE
 62
     0
100
AcDbLine
 10
-111.4999999999999
 20
-563.8286022818904
 30
0.0
 11
111.5
 21
-563.8286022818904
 31
0.0
  0
INSERT
  5
11F9
330
2858
100
AcDbEntity
  8
NOTE
 62
     0
100
AcDbBlockReference
  2
_DOTBLANK
 10
-123.4999999999999
 20
-563.8286022818904
 30
0.0
 41
12.0
 42
12.0
 43
12.0
 50
180.0
  0
INSERT
  5
11FA
330
2858
100
AcDbEntity
  8
NOTE
 62
     0
100
AcDbBlockReference
  2
_DOTBLANK
 10
123.5
 20
-563.8286022818904
 30
0.0
 41
12.0
 42
12.0
 43
12.0
  0
INSERT
  5
11FB
330
2858
100
AcDbEntity
  8
0
100
AcDbBlockReference
  2
*U19
 10
0.0
 20
0.0
 30
0.0
  0
POINT
  5
11FC
330
2858
100
AcDbEntity
  8
DEFPOINTS
 62
     0
100
AcDbPoint
 10
-123.4999999999999
 20
-300.0
 30
0.0
  0
POINT
  5
11FD
330
2858
100
AcDbEntity
  8
DEFPOINTS
 62
     0
100
AcDbPoint
 10
123.5
 20
-300.0
 30
0.0
  0
POINT
  5
11FE
330
2858
100
AcDbEntity
  8
DEFPOINTS
 62
     0
100
AcDbPoint
 10
123.5
 20
-563.8286022818904
 30
0.0
  0
ENDBLK
  5
11F5
330
2858
100
AcDbEntity
  8
0
100
AcDbBlockEnd
  0
BLOCK
  5
285B
330
285A
100
AcDbEntity
  8
0
100
AcDbBlockBegin
  2
*U19
 70
     1
 10
0.0
 20
0.0
 30
0.0
  3
*U19
  1

  0
TEXT
  5
1EED
330
285A
100
AcDbEntity
  8
NOTE
 62
     0
100
AcDbText
 10
-74.05714285714281
 20
-553.8286022818904
 30
0.0
 40
64.0
  1
247
 41
0.9
100
AcDbText
  0
ENDBLK
  5
1EEF
330
285A
100
AcDbEntity
  8
0
100
AcDbBlockEnd
  0
BLOCK
  5
285D
330
285C
100
AcDbEntity
  8
0
100
AcDbBlockBegin
  2
*D20
 70
     1
 10
0.0
 20
0.0
 30
0.0
  3
*D20
  1

  0
LINE
  5
1284
330
285C
100
AcDbEntity
  8
NOTE
 62
     0
100
AcDbLine
 10
-123.5
 20
12.0
 30
0.0
 11
-123.5
 21
71.83630134534229
 31
0.0
  0
LINE
  5
1285
330
285C
100
AcDbEntity
  8
NOTE
 62
     0
100
AcDbLine
 10
123.5
 20
12.0
 30
0.0
 11
123.5
 21
71.83630134534229
 31
0.0
  0
LINE
  5
1286
330
285C
100
AcDbEntity
  8
NOTE
 62
     0
100
AcDbLine
 10
-111.5
 20
51.83630134534229
 30
0.0
 11
111.5
 21
51.83630134534229
 31
0.0
  0
INSERT
  5
1287
330
285C
100
AcDbEntity
  8
NOTE
 62
     0
100
AcDbBlockReference
  2
_DOTBLANK
 10
-123.5
 20
51.83630134534229
 30
0.0
 41
12.0
 42
12.0
 43
12.0
 50
180.0
  0
INSERT
  5
1288
330
285C
100
AcDbEntity
  8
NOTE
 62
     0
100
AcDbBlockReference
  2
_DOTBLANK
 10
123.5
 20
51.83630134534229
 30
0.0
 41
12.0
 42
12.0
 43
12.0
  0
INSERT
  5
1289
330
285C
100
AcDbEntity
  8
0
100
AcDbBlockReference
  2
*U21
 10
0.0
 20
0.0
 30
0.0
  0
POINT
  5
128A
330
285C
100
AcDbEntity
  8
DEFPOINTS
 62
     0
100
AcDbPoint
 10
-123.5
 20
-8.0
 30
0.0
  0
POINT
  5
128B
330
285C
100
AcDbEntity
  8
DEFPOINTS
 62
     0
100
AcDbPoint
 10
123.5
 20
-8.0
 30
0.0
  0
POINT
  5
128C
330
285C
100
AcDbEntity
  8
DEFPOINTS
 62
     0
100
AcDbPoint
 10
123.5
 20
51.83630134534229
 30
0.0
  0
ENDBLK
  5
1283
330
285C
100
AcDbEntity
  8
0
100
AcDbBlockEnd
  0
BLOCK
  5
285F
330
285E
100
AcDbEntity
  8
0
100
AcDbBlockBegin
  2
*U21
 70
     1
 10
0.0
 20
0.0
 30
0.0
  3
*U21
  1

  0
TEXT
  5
1EF1
330
285E
100
AcDbEntity
  8
NOTE
 62
     0
100
AcDbText
 10
-74.05714285714283
 20
61.83630134534229
 30
0.0
 40
64.0
  1
247
 41
0.9
100
AcDbText
  0
ENDBLK
  5
1EF3
330
285E
100
AcDbEntity
  8
0
100
AcDbBlockEnd
  0
BLOCK
  5
2861
330
2860
100
AcDbEntity
  8
0
100
AcDbBlockBegin
  2
*D22
 70
     1
 10
0.0
 20
0.0
 30
0.0
  3
*D22
  1

  0
LINE
  5
1414
330
2860
100
AcDbEntity
  8
SIZE
 62
     0
100
AcDbLine
 10
-22313.11521613997
 20
7365.702971374808
 30
0.0
 11
-22313.11521613997
 21
7217.685576144207
 31
0.0
  0
LINE
  5
1415
330
2860
100
AcDbEntity
  8
SIZE
 62
     0
100
AcDbLine
 10
-22044.11521613997
 20
7365.702971374808
 30
0.0
 11
-22044.11521613997
 21
7217.685576144207
 31
0.0
  0
LINE
  5
1416
330
2860
100
AcDbEntity
  8
SIZE
 62
     0
100
AcDbLine
 10
-22301.11521613997
 20
7237.685576144207
 30
0.0
 11
-22056.11521613997
 21
7237.685576144207
 31
0.0
  0
INSERT
  5
1417
330
2860
100
AcDbEntity
  8
SIZE
 62
     0
100
AcDbBlockReference
  2
_DOTBLANK
 10
-22313.11521613997
 20
7237.685576144207
 30
0.0
 41
12.0
 42
12.0
 43
12.0
 50
180.0
  0
INSERT
  5
1418
330
2860
100
AcDbEntity
  8
SIZE
 62
     0
100
AcDbBlockReference
  2
_DOTBLANK
 10
-22044.11521613997
 20
7237.685576144207
 30
0.0
 41
12.0
 42
12.0
 43
12.0
  0
INSERT
  5
1419
330
2860
100
AcDbEntity
  8
0
100
AcDbBlockReference
  2
*U23
 10
0.0
 20
0.0
 30
0.0
  0
POINT
  5
141A
330
2860
100
AcDbEntity
  8
DEFPOINTS
 62
     0
100
AcDbPoint
 10
-22313.11521613997
 20
7385.702971374808
 30
0.0
  0
POINT
  5
141B
330
2860
100
AcDbEntity
  8
DEFPOINTS
 62
     0
100
AcDbPoint
 10
-22044.11521613997
 20
7385.702971374808
 30
0.0
  0
POINT
  5
141C
330
2860
100
AcDbEntity
  8
DEFPOINTS
 62
     0
100
AcDbPoint
 10
-22044.11521613997
 20
7237.685576144207
 30
0.0
  0
ENDBLK
  5
141D
330
2860
100
AcDbEntity
  8
0
100
AcDbBlockEnd
  0
BLOCK
  5
2863
330
2862
100
AcDbEntity
  8
0
100
AcDbBlockBegin
  2
*U23
 70
     1
 10
0.0
 20
0.0
 30
0.0
  3
*U23
  1

  0
TEXT
  5
1EF9
330
2862
100
AcDbEntity
  8
SIZE
 62
     0
100
AcDbText
 10
-22251.30093042568
 20
7247.685576144205
 30
0.0
 40
64.0
  1
269
 41
0.9
100
AcDbText
  0
ENDBLK
  5
1EFB
330
2862
100
AcDbEntity
  8
0
100
AcDbBlockEnd
  0
BLOCK
  5
2865
330
2864
100
AcDbEntity
  8
0
100
AcDbBlockBegin
  2
*D24
 70
     1
 10
0.0
 20
0.0
 30
0.0
  3
*D24
  1

  0
LINE
  5
1420
330
2864
100
AcDbEntity
  8
SIZE
  6
Continuous
 62
     0
100
AcDbLine
 10
-22035.11521613997
 20
7385.702971374808
 30
0.0
 11
-21873.97193165959
 21
7385.702971374808
 31
0.0
  0
LINE
  5
1421
330
2864
100
AcDbEntity
  8
SIZE
  6
Continuous
 62
     0
100
AcDbLine
 10
-22001.11521613997
 20
7685.702971374808
 30
0.0
 11
-21873.97193165959
 21
7685.702971374808
 31
0.0
  0
LINE
  5
1422
330
2864
100
AcDbEntity
  8
SIZE
  6
Continuous
 62
     0
100
AcDbLine
 10
-21893.97193165959
 20
7397.702971374808
 30
0.0
 11
-21893.97193165959
 21
7673.702971374808
 31
0.0
  0
INSERT
  5
1423
330
2864
100
AcDbEntity
  8
SIZE
  6
Continuous
 62
     0
100
AcDbBlockReference
  2
_DOTBLANK
 10
-21893.97193165959
 20
7385.702971374808
 30
0.0
 41
12.0
 42
12.0
 43
12.0
 50
270.0
  0
INSERT
  5
1424
330
2864
100
AcDbEntity
  8
SIZE
  6
Continuous
 62
     0
100
AcDbBlockReference
  2
_DOTBLANK
 10
-21893.97193165959
 20
7685.702971374808
 30
0.0
 41
12.0
 42
12.0
 43
12.0
 50
90.0
  0
INSERT
  5
1425
330
2864
100
AcDbEntity
  8
0
100
AcDbBlockReference
  2
*U25
 10
0.0
 20
0.0
 30
0.0
  0
POINT
  5
1426
330
2864
100
AcDbEntity
  8
DEFPOINTS
  6
Continuous
 62
     0
100
AcDbPoint
 10
-22055.11521613997
 20
7385.702971374808
 30
0.0
  0
POINT
  5
1427
330
2864
100
AcDbEntity
  8
DEFPOINTS
  6
Continuous
 62
     0
100
AcDbPoint
 10
-22021.11521613997
 20
7685.702971374808
 30
0.0
  0
POINT
  5
1428
330
2864
100
AcDbEntity
  8
DEFPOINTS
  6
Continuous
 62
     0
100
AcDbPoint
 10
-21893.97193165959
 20
7685.702971374808
 30
0.0
  0
ENDBLK
  5
1429
330
2864
100
AcDbEntity
  8
0
100
AcDbBlockEnd
  0
BLOCK
  5
2867
330
2866
100
AcDbEntity
  8
0
100
AcDbBlockBegin
  2
*U25
 70
     1
 10
0.0
 20
0.0
 30
0.0
  3
*U25
  1

  0
TEXT
  5
1EFD
330
2866
100
AcDbEntity
  8
SIZE
 62
     0
100
AcDbText
 10
-21903.97193165959
 20
7461.645828517662
 30
0.0
 40
64.0
  1
300
 50
90.0
 41
0.9
100
AcDbText
  0
ENDBLK
  5
1EFF
330
2866
100
AcDbEntity
  8
0
100
AcDbBlockEnd
  0
BLOCK
  5
2869
330
2868
100
AcDbEntity
  8
0
100
AcDbBlockBegin
  2
*D26
 70
     1
 10
0.0
 20
0.0
 30
0.0
  3
*D26
  1

  0
LINE
  5
142C
330
2868
100
AcDbEntity
  8
SIZE
 62
     0
100
AcDbLine
 10
-22318.61521613997
 20
7718.167454177002
 30
0.0
 11
-22318.61521613997
 21
7822.154659243358
 31
0.0
  0
LINE
  5
142D
330
2868
100
AcDbEntity
  8
SIZE
 62
     0
100
AcDbLine
 10
-22038.61521613997
 20
7718.167454177002
 30
0.0
 11
-22038.61521613997
 21
7822.154659243358
 31
0.0
  0
LINE
  5
142E
330
2868
100
AcDbEntity
  8
SIZE
 62
     0
100
AcDbLine
 10
-22306.61521613997
 20
7802.154659243358
 30
0.0
 11
-22050.61521613997
 21
7802.154659243358
 31
0.0
  0
INSERT
  5
142F
330
2868
100
AcDbEntity
  8
SIZE
 62
     0
100
AcDbBlockReference
  2
_DOTBLANK
 10
-22318.61521613997
 20
7802.154659243358
 30
0.0
 41
12.0
 42
12.0
 43
12.0
 50
180.0
  0
INSERT
  5
1430
330
2868
100
AcDbEntity
  8
SIZE
 62
     0
100
AcDbBlockReference
  2
_DOTBLANK
 10
-22038.61521613997
 20
7802.154659243358
 30
0.0
 41
12.0
 42
12.0
 43
12.0
  0
INSERT
  5
1431
330
2868
100
AcDbEntity
  8
0
100
AcDbBlockReference
  2
*U27
 10
0.0
 20
0.0
 30
0.0
  0
POINT
  5
1432
330
2868
100
AcDbEntity
  8
DEFPOINTS
 62
     0
100
AcDbPoint
 10
-22318.61521613997
 20
7698.167454177002
 30
0.0
  0
POINT
  5
1433
330
2868
100
AcDbEntity
  8
DEFPOINTS
 62
     0
100
AcDbPoint
 10
-22038.61521613997
 20
7698.167454177002
 30
0.0
  0
POINT
  5
1434
330
2868
100
AcDbEntity
  8
DEFPOINTS
 62
     0
100
AcDbPoint
 10
-22038.61521613997
 20
7802.154659243358
 30
0.0
  0
ENDBLK
  5
1435
330
2868
100
AcDbEntity
  8
0
100
AcDbBlockEnd
  0
BLOCK
  5
286B
330
286A
100
AcDbEntity
  8
0
100
AcDbBlockBegin
  2
*U27
 70
     1
 10
0.0
 20
0.0
 30
0.0
  3
*U27
  1

  0
TEXT
  5
1F01
330
286A
100
AcDbEntity
  8
SIZE
 62
     0
100
AcDbText
 10
-22252.6723589971
 20
7812.154659243358
 30
0.0
 40
64.0
  1
280
 41
0.9
100
AcDbText
  0
ENDBLK
  5
1F03
330
286A
100
AcDbEntity
  8
0
100
AcDbBlockEnd
  0
BLOCK
  5
286D
330
286C
100
AcDbEntity
  8
0
100
AcDbBlockBegin
  2
*D28
 70
     1
 10
0.0
 20
0.0
 30
0.0
  3
*D28
  1

  0
LINE
  5
1438
330
286C
100
AcDbEntity
  8
SIZE
 62
     0
100
AcDbLine
 10
-22336.11521613997
 20
7705.702971374808
 30
0.0
 11
-22336.11521613997
 21
7931.282433493766
 31
0.0
  0
LINE
  5
1439
330
286C
100
AcDbEntity
  8
SIZE
 62
     0
100
AcDbLine
 10
-22021.11521613997
 20
7705.702971374808
 30
0.0
 11
-22021.11521613997
 21
7931.282433493766
 31
0.0
  0
LINE
  5
143A
330
286C
100
AcDbEntity
  8
SIZE
 62
     0
100
AcDbLine
 10
-22324.11521613997
 20
7911.282433493766
 30
0.0
 11
-22033.11521613997
 21
7911.282433493766
 31
0.0
  0
INSERT
  5
143B
330
286C
100
AcDbEntity
  8
SIZE
 62
     0
100
AcDbBlockReference
  2
_DOTBLANK
 10
-22336.11521613997
 20
7911.282433493766
 30
0.0
 41
12.0
 42
12.0
 43
12.0
 50
180.0
  0
INSERT
  5
143C
330
286C
100
AcDbEntity
  8
SIZE
 62
     0
100
AcDbBlockReference
  2
_DOTBLANK
 10
-22021.11521613997
 20
7911.282433493766
 30
0.0
 41
12.0
 42
12.0
 43
12.0
  0
INSERT
  5
143D
330
286C
100
AcDbEntity
  8
0
100
AcDbBlockReference
  2
*U29
 10
0.0
 20
0.0
 30
0.0
  0
POINT
  5
143E
330
286C
100
AcDbEntity
  8
DEFPOINTS
 62
     0
100
AcDbPoint
 10
-22336.11521613997
 20
7685.702971374808
 30
0.0
  0
POINT
  5
143F
330
286C
100
AcDbEntity
  8
DEFPOINTS
 62
     0
100
AcDbPoint
 10
-22021.11521613997
 20
7685.702971374808
 30
0.0
  0
POINT
  5
1440
330
286C
100
AcDbEntity
  8
DEFPOINTS
 62
     0
100
AcDbPoint
 10
-22021.11521613997
 20
7911.282433493766
 30
0.0
  0
ENDBLK
  5
1441
330
286C
100
AcDbEntity
  8
0
100
AcDbBlockEnd
  0
BLOCK
  5
286F
330
286E
100
AcDbEntity
  8
0
100
AcDbBlockBegin
  2
*U29
 70
     1
 10
0.0
 20
0.0
 30
0.0
  3
*U29
  1

  0
TEXT
  5
1F05
330
286E
100
AcDbEntity
  8
SIZE
 62
     0
100
AcDbText
 10
-22247.18664471139
 20
7921.282433493766
 30
0.0
 40
64.0
  1
315
 41
0.9
100
AcDbText
  0
ENDBLK
  5
1F07
330
286E
100
AcDbEntity
  8
0
100
AcDbBlockEnd
  0
BLOCK
  5
2871
330
2870
100
AcDbEntity
  8
0
100
AcDbBlockBegin
  2
*D30
 70
     1
 10
0.0
 20
0.0
 30
0.0
  3
*D30
  1

  0
LINE
  5
166B
330
2870
100
AcDbEntity
  8
SIZE
 62
     0
100
AcDbLine
 10
-134.5
 20
-320.0
 30
0.0
 11
-134.5
 21
-468.0173952306001
 31
0.0
  0
LINE
  5
166C
330
2870
100
AcDbEntity
  8
SIZE
 62
     0
100
AcDbLine
 10
134.5
 20
-320.0
 30
0.0
 11
134.5
 21
-468.0173952306001
 31
0.0
  0
LINE
  5
166D
330
2870
100
AcDbEntity
  8
SIZE
 62
     0
100
AcDbLine
 10
-122.5
 20
-448.0173952306
 30
0.0
 11
122.5
 21
-448.0173952306
 31
0.0
  0
INSERT
  5
166E
330
2870
100
AcDbEntity
  8
SIZE
 62
     0
100
AcDbBlockReference
  2
_DOTBLANK
 10
-134.5
 20
-448.0173952306
 30
0.0
 41
12.0
 42
12.0
 43
12.0
 50
180.0
  0
INSERT
  5
166F
330
2870
100
AcDbEntity
  8
SIZE
 62
     0
100
AcDbBlockReference
  2
_DOTBLANK
 10
134.5
 20
-448.0173952306
 30
0.0
 41
12.0
 42
12.0
 43
12.0
  0
INSERT
  5
1670
330
2870
100
AcDbEntity
  8
0
100
AcDbBlockReference
  2
*U31
 10
0.0
 20
0.0
 30
0.0
  0
POINT
  5
1671
330
2870
100
AcDbEntity
  8
DEFPOINTS
 62
     0
100
AcDbPoint
 10
-134.5
 20
-300.0
 30
0.0
  0
POINT
  5
1672
330
2870
100
AcDbEntity
  8
DEFPOINTS
 62
     0
100
AcDbPoint
 10
134.5
 20
-300.0
 30
0.0
  0
POINT
  5
1673
330
2870
100
AcDbEntity
  8
DEFPOINTS
 62
     0
100
AcDbPoint
 10
134.5
 20
-448.0173952306
 30
0.0
  0
ENDBLK
  5
14A7
330
2870
100
AcDbEntity
  8
0
100
AcDbBlockEnd
  0
BLOCK
  5
2873
330
2872
100
AcDbEntity
  8
0
100
AcDbBlockBegin
  2
*U31
 70
     1
 10
0.0
 20
0.0
 30
0.0
  3
*U31
  1

  0
TEXT
  5
1F09
330
2872
100
AcDbEntity
  8
SIZE
 62
     0
100
AcDbText
 10
-72.68571428571426
 20
-438.0173952306002
 30
0.0
 40
64.0
  1
269
 41
0.9
100
AcDbText
  0
ENDBLK
  5
1F0B
330
2872
100
AcDbEntity
  8
0
100
AcDbBlockEnd
  0
BLOCK
  5
2875
330
2874
100
AcDbEntity
  8
0
100
AcDbBlockBegin
  2
*D32
 70
     1
 10
0.0
 20
0.0
 30
0.0
  3
*D32
  1

  0
LINE
  5
1674
330
2874
100
AcDbEntity
  8
SIZE
  6
Continuous
 62
     0
100
AcDbLine
 10
143.5
 20
-300.0
 30
0.0
 11
304.6432844803784
 21
-300.0
 31
0.0
  0
LINE
  5
1675
330
2874
100
AcDbEntity
  8
SIZE
  6
Continuous
 62
     0
100
AcDbLine
 10
177.5
 20
-0.0000000000000057
 30
0.0
 11
304.6432844803785
 21
-0.0000000000000417
 31
0.0
  0
LINE
  5
1676
330
2874
100
AcDbEntity
  8
SIZE
  6
Continuous
 62
     0
100
AcDbLine
 10
284.6432844803784
 20
-288.0000000000001
 30
0.0
 11
284.6432844803785
 21
-12.00000000000003
 31
0.0
  0
INSERT
  5
1677
330
2874
100
AcDbEntity
  8
SIZE
  6
Continuous
 62
     0
100
AcDbBlockReference
  2
_DOTBLANK
 10
284.6432844803784
 20
-300.0
 30
0.0
 41
12.0
 42
12.0
 43
12.0
 50
270.0
  0
INSERT
  5
1678
330
2874
100
AcDbEntity
  8
SIZE
  6
Continuous
 62
     0
100
AcDbBlockReference
  2
_DOTBLANK
 10
284.6432844803785
 20
-0.000000000000036
 30
0.0
 41
12.0
 42
12.0
 43
12.0
 50
90.0
  0
INSERT
  5
1679
330
2874
100
AcDbEntity
  8
0
100
AcDbBlockReference
  2
*U33
 10
0.0
 20
0.0
 30
0.0
  0
POINT
  5
167A
330
2874
100
AcDbEntity
  8
DEFPOINTS
  6
Continuous
 62
     0
100
AcDbPoint
 10
123.5
 20
-300.0
 30
0.0
  0
POINT
  5
167B
330
2874
100
AcDbEntity
  8
DEFPOINTS
  6
Continuous
 62
     0
100
AcDbPoint
 10
157.5
 20
0.0
 30
0.0
  0
POINT
  5
167C
330
2874
100
AcDbEntity
  8
DEFPOINTS
  6
Continuous
 62
     0
100
AcDbPoint
 10
284.6432844803785
 20
-0.000000000000036
 30
0.0
  0
ENDBLK
  5
14B3
330
2874
100
AcDbEntity
  8
0
100
AcDbBlockEnd
  0
BLOCK
  5
2877
330
2876
100
AcDbEntity
  8
0
100
AcDbBlockBegin
  2
*U33
 70
     1
 10
0.0
 20
0.0
 30
0.0
  3
*U33
  1

  0
TEXT
  5
1F0D
330
2876
100
AcDbEntity
  8
SIZE
 62
     0
100
AcDbText
 10
274.6432844803785
 20
-224.0571428571429
 30
0.0
 40
64.0
  1
300
 50
90.0
 41
0.9
100
AcDbText
  0
ENDBLK
  5
1F0F
330
2876
100
AcDbEntity
  8
0
100
AcDbBlockEnd
  0
BLOCK
  5
2879
330
2878
100
AcDbEntity
  8
0
100
AcDbBlockBegin
  2
*D34
 70
     1
 10
0.0
 20
0.0
 30
0.0
  3
*D34
  1

  0
LINE
  5
167D
330
2878
100
AcDbEntity
  8
SIZE
 62
     0
100
AcDbLine
 10
-140.0
 20
32.46448280219375
 30
0.0
 11
-140.0
 21
136.4516878685507
 31
0.0
  0
LINE
  5
167E
330
2878
100
AcDbEntity
  8
SIZE
 62
     0
100
AcDbLine
 10
140.0
 20
32.46448280219375
 30
0.0
 11
140.0
 21
136.4516878685507
 31
0.0
  0
LINE
  5
167F
330
2878
100
AcDbEntity
  8
SIZE
 62
     0
100
AcDbLine
 10
-128.0
 20
116.4516878685508
 30
0.0
 11
128.0
 21
116.4516878685508
 31
0.0
  0
INSERT
  5
1680
330
2878
100
AcDbEntity
  8
SIZE
 62
     0
100
AcDbBlockReference
  2
_DOTBLANK
 10
-140.0
 20
116.4516878685508
 30
0.0
 41
12.0
 42
12.0
 43
12.0
 50
180.0
  0
INSERT
  5
1681
330
2878
100
AcDbEntity
  8
SIZE
 62
     0
100
AcDbBlockReference
  2
_DOTBLANK
 10
140.0
 20
116.4516878685508
 30
0.0
 41
12.0
 42
12.0
 43
12.0
  0
INSERT
  5
1682
330
2878
100
AcDbEntity
  8
0
100
AcDbBlockReference
  2
*U35
 10
0.0
 20
0.0
 30
0.0
  0
POINT
  5
1683
330
2878
100
AcDbEntity
  8
DEFPOINTS
 62
     0
100
AcDbPoint
 10
-140.0
 20
12.46448280219374
 30
0.0
  0
POINT
  5
1684
330
2878
100
AcDbEntity
  8
DEFPOINTS
 62
     0
100
AcDbPoint
 10
140.0
 20
12.46448280219374
 30
0.0
  0
POINT
  5
1685
330
2878
100
AcDbEntity
  8
DEFPOINTS
 62
     0
100
AcDbPoint
 10
140.0
 20
116.4516878685508
 30
0.0
  0
ENDBLK
  5
14BF
330
2878
100
AcDbEntity
  8
0
100
AcDbBlockEnd
  0
BLOCK
  5
287B
330
287A
100
AcDbEntity
  8
0
100
AcDbBlockBegin
  2
*U35
 70
     1
 10
0.0
 20
0.0
 30
0.0
  3
*U35
  1

  0
TEXT
  5
1F11
330
287A
100
AcDbEntity
  8
SIZE
 62
     0
100
AcDbText
 10
-74.05714285714283
 20
126.4516878685507
 30
0.0
 40
64.0
  1
280
 41
0.9
100
AcDbText
  0
ENDBLK
  5
1F13
330
287A
100
AcDbEntity
  8
0
100
AcDbBlockEnd
  0
BLOCK
  5
287D
330
287C
100
AcDbEntity
  8
0
100
AcDbBlockBegin
  2
*D36
 70
     1
 10
0.0
 20
0.0
 30
0.0
  3
*D36
  1

  0
LINE
  5
1686
330
287C
100
AcDbEntity
  8
SIZE
 62
     0
100
AcDbLine
 10
-157.5
 20
20.0
 30
0.0
 11
-157.5
 21
245.5794621189598
 31
0.0
  0
LINE
  5
1687
330
287C
100
AcDbEntity
  8
SIZE
 62
     0
100
AcDbLine
 10
157.5
 20
20.0
 30
0.0
 11
157.5
 21
245.5794621189598
 31
0.0
  0
LINE
  5
1688
330
287C
100
AcDbEntity
  8
SIZE
 62
     0
100
AcDbLine
 10
-145.5
 20
225.5794621189598
 30
0.0
 11
145.5
 21
225.5794621189598
 31
0.0
  0
INSERT
  5
1689
330
287C
100
AcDbEntity
  8
SIZE
 62
     0
100
AcDbBlockReference
  2
_DOTBLANK
 10
-157.5
 20
225.5794621189598
 30
0.0
 41
12.0
 42
12.0
 43
12.0
 50
180.0
  0
INSERT
  5
168A
330
287C
100
AcDbEntity
  8
SIZE
 62
     0
100
AcDbBlockReference
  2
_DOTBLANK
 10
157.5
 20
225.5794621189598
 30
0.0
 41
12.0
 42
12.0
 43
12.0
  0
INSERT
  5
168B
330
287C
100
AcDbEntity
  8
0
100
AcDbBlockReference
  2
*U37
 10
0.0
 20
0.0
 30
0.0
  0
POINT
  5
168C
330
287C
100
AcDbEntity
  8
DEFPOINTS
 62
     0
100
AcDbPoint
 10
-157.5
 20
0.0
 30
0.0
  0
POINT
  5
168D
330
287C
100
AcDbEntity
  8
DEFPOINTS
 62
     0
100
AcDbPoint
 10
157.5
 20
0.0
 30
0.0
  0
POINT
  5
168E
330
287C
100
AcDbEntity
  8
DEFPOINTS
 62
     0
100
AcDbPoint
 10
157.5
 20
225.5794621189598
 30
0.0
  0
ENDBLK
  5
14CB
330
287C
100
AcDbEntity
  8
0
100
AcDbBlockEnd
  0
BLOCK
  5
287F
330
287E
100
AcDbEntity
  8
0
100
AcDbBlockBegin
  2
*U37
 70
     1
 10
0.0
 20
0.0
 30
0.0
  3
*U37
  1

  0
TEXT
  5
1F15
330
287E
100
AcDbEntity
  8
SIZE
 62
     0
100
AcDbText
 10
-68.57142857142857
 20
235.5794621189598
 30
0.0
 40
64.0
  1
315
 41
0.9
100
AcDbText
  0
ENDBLK
  5
1F17
330
287E
100
AcDbEntity
  8
0
100
AcDbBlockEnd
  0
BLOCK
  5
2881
330
2880
100
AcDbEntity
  8
0
100
AcDbBlockBegin
  2
*U38
 70
     1
 10
0.0
 20
0.0
 30
0.0
  3
*U38
  1

  0
ENDBLK
  5
15CF
330
2880
100
AcDbEntity
  8
0
100
AcDbBlockEnd
  0
BLOCK
  5
2883
330
2882
100
AcDbEntity
  8
0
100
AcDbBlockBegin
  2
*D39
 70
     1
 10
0.0
 20
0.0
 30
0.0
  3
*D39
  1

  0
LINE
  5
1692
330
2882
100
AcDbEntity
  8
SIZE
 62
     0
100
AcDbLine
 10
-25844.51823276502
 20
7685.702971374808
 30
0.0
 11
-25981.04465488371
 21
7685.702971374808
 31
0.0
  0
LINE
  5
1693
330
2882
100
AcDbEntity
  8
SIZE
 62
     0
100
AcDbLine
 10
-25844.51823276502
 20
7677.702971374808
 30
0.0
 11
-25981.04465488371
 21
7677.702971374808
 31
0.0
  0
LINE
  5
1694
330
2882
100
AcDbEntity
  8
SIZE
 62
     0
100
AcDbLine
 10
-25961.04465488371
 20
7697.702971374808
 30
0.0
 11
-25961.04465488371
 21
7709.702971374809
 31
0.0
  0
LINE
  5
1695
330
2882
100
AcDbEntity
  8
SIZE
 62
     0
100
AcDbLine
 10
-25961.04465488371
 20
7665.70297137481
 30
0.0
 11
-25961.04465488371
 21
7595.302971374808
 31
0.0
  0
INSERT
  5
1696
330
2882
100
AcDbEntity
  8
SIZE
 62
     0
100
AcDbBlockReference
  2
_DOTBLANK
 10
-25961.04465488371
 20
7685.702971374808
 30
0.0
 41
12.0
 42
12.0
 43
12.0
 50
270.0
  0
INSERT
  5
1697
330
2882
100
AcDbEntity
  8
SIZE
 62
     0
100
AcDbBlockReference
  2
_DOTBLANK
 10
-25961.04465488371
 20
7677.702971374808
 30
0.0
 41
12.0
 42
12.0
 43
12.0
 50
90.0
  0
INSERT
  5
1698
330
2882
100
AcDbEntity
  8
0
100
AcDbBlockReference
  2
*U40
 10
0.0
 20
0.0
 30
0.0
  0
POINT
  5
1699
330
2882
100
AcDbEntity
  8
DEFPOINTS
 62
     0
100
AcDbPoint
 10
-25824.51823276501
 20
7685.702971374808
 30
0.0
  0
POINT
  5
169A
330
2882
100
AcDbEntity
  8
DEFPOINTS
 62
     0
100
AcDbPoint
 10
-25824.51823276501
 20
7677.702971374808
 30
0.0
  0
POINT
  5
169B
330
2882
100
AcDbEntity
  8
DEFPOINTS
 62
     0
100
AcDbPoint
 10
-25961.04465488371
 20
7677.702971374808
 30
0.0
  0
ENDBLK
  5
169C
330
2882
100
AcDbEntity
  8
0
100
AcDbBlockEnd
  0
BLOCK
  5
2885
330
2884
100
AcDbEntity
  8
0
100
AcDbBlockBegin
  2
*U40
 70
     1
 10
0.0
 20
0.0
 30
0.0
  3
*U40
  1

  0
TEXT
  5
1F19
330
2884
100
AcDbEntity
  8
SIZE
 62
     0
100
AcDbText
 10
-25971.04465488371
 20
7605.302971374804
 30
0.0
 40
64.0
  1
8
 50
90.0
 41
0.9
100
AcDbText
  0
ENDBLK
  5
1F1B
330
2884
100
AcDbEntity
  8
0
100
AcDbBlockEnd
  0
BLOCK
  5
2887
330
2886
100
AcDbEntity
  8
0
100
AcDbBlockBegin
  2
*D41
 70
     1
 10
0.0
 20
0.0
 30
0.0
  3
*D41
  1

  0
LINE
  5
169F
330
2886
100
AcDbEntity
  8
SIZE
 62
     0
100
AcDbLine
 10
-25512.51823276502
 20
7385.702971374808
 30
0.0
 11
-25362.37494828464
 21
7385.702971374808
 31
0.0
  0
LINE
  5
16A0
330
2886
100
AcDbEntity
  8
SIZE
 62
     0
100
AcDbLine
 10
-25523.51823276501
 20
7373.702971374808
 30
0.0
 11
-25362.37494828464
 21
7373.702971374808
 31
0.0
  0
LINE
  5
16A1
330
2886
100
AcDbEntity
  8
SIZE
 62
     0
100
AcDbLine
 10
-25382.37494828464
 20
7397.702971374808
 30
0.0
 11
-25382.37494828464
 21
7409.70297137481
 31
0.0
  0
LINE
  5
16A2
330
2886
100
AcDbEntity
  8
SIZE
 62
     0
100
AcDbLine
 10
-25382.37494828464
 20
7361.702971374808
 30
0.0
 11
-25382.37494828464
 21
7244.674399946237
 31
0.0
  0
INSERT
  5
16A3
330
2886
100
AcDbEntity
  8
SIZE
 62
     0
100
AcDbBlockReference
  2
_DOTBLANK
 10
-25382.37494828464
 20
7385.702971374808
 30
0.0
 41
12.0
 42
12.0
 43
12.0
 50
270.0
  0
INSERT
  5
16A4
330
2886
100
AcDbEntity
  8
SIZE
 62
     0
100
AcDbBlockReference
  2
_DOTBLANK
 10
-25382.37494828464
 20
7373.702971374808
 30
0.0
 41
12.0
 42
12.0
 43
12.0
 50
90.0
  0
INSERT
  5
16A5
330
2886
100
AcDbEntity
  8
0
100
AcDbBlockReference
  2
*U42
 10
0.0
 20
0.0
 30
0.0
  0
POINT
  5
16A6
330
2886
100
AcDbEntity
  8
DEFPOINTS
 62
     0
100
AcDbPoint
 10
-25532.51823276502
 20
7385.702971374808
 30
0.0
  0
POINT
  5
16A7
330
2886
100
AcDbEntity
  8
DEFPOINTS
 62
     0
100
AcDbPoint
 10
-25543.51823276502
 20
7373.702971374808
 30
0.0
  0
POINT
  5
16A8
330
2886
100
AcDbEntity
  8
DEFPOINTS
 62
     0
100
AcDbPoint
 10
-25382.37494828464
 20
7373.702971374808
 30
0.0
  0
ENDBLK
  5
16A9
330
2886
100
AcDbEntity
  8
0
100
AcDbBlockEnd
  0
BLOCK
  5
2889
330
2888
100
AcDbEntity
  8
0
100
AcDbBlockBegin
  2
*U42
 70
     1
 10
0.0
 20
0.0
 30
0.0
  3
*U42
  1

  0
TEXT
  5
1F1D
330
2888
100
AcDbEntity
  8
SIZE
 62
     0
100
AcDbText
 10
-25392.37494828464
 20
7256.045828517662
 30
0.0
 40
64.0
  1
12
 50
90.0
 41
0.9
100
AcDbText
  0
ENDBLK
  5
1F1F
330
2888
100
AcDbEntity
  8
0
100
AcDbBlockEnd
  0
BLOCK
  5
288B
330
288A
100
AcDbEntity
  8
0
100
AcDbBlockBegin
  2
*D43
 70
     1
 10
0.0
 20
0.0
 30
0.0
  3
*D43
  1

  0
LINE
  5
16AC
330
288A
100
AcDbEntity
  8
SIZE
 62
     0
100
AcDbLine
 10
-25801.51823276501
 20
7365.702971374808
 30
0.0
 11
-25801.51823276501
 21
7217.685576144207
 31
0.0
  0
LINE
  5
16AD
330
288A
100
AcDbEntity
  8
SIZE
 62
     0
100
AcDbLine
 10
-25532.51823276502
 20
7365.702971374808
 30
0.0
 11
-25532.51823276502
 21
7217.685576144207
 31
0.0
  0
LINE
  5
16AE
330
288A
100
AcDbEntity
  8
SIZE
 62
     0
100
AcDbLine
 10
-25789.51823276502
 20
7237.685576144207
 30
0.0
 11
-25544.51823276501
 21
7237.685576144207
 31
0.0
  0
INSERT
  5
16AF
330
288A
100
AcDbEntity
  8
SIZE
 62
     0
100
AcDbBlockReference
  2
_DOTBLANK
 10
-25801.51823276501
 20
7237.685576144207
 30
0.0
 41
12.0
 42
12.0
 43
12.0
 50
180.0
  0
INSERT
  5
16B0
330
288A
100
AcDbEntity
  8
SIZE
 62
     0
100
AcDbBlockReference
  2
_DOTBLANK
 10
-25532.51823276502
 20
7237.685576144207
 30
0.0
 41
12.0
 42
12.0
 43
12.0
  0
INSERT
  5
16B1
330
288A
100
AcDbEntity
  8
0
100
AcDbBlockReference
  2
*U44
 10
0.0
 20
0.0
 30
0.0
  0
POINT
  5
16B2
330
288A
100
AcDbEntity
  8
DEFPOINTS
 62
     0
100
AcDbPoint
 10
-25801.51823276501
 20
7385.702971374808
 30
0.0
  0
POINT
  5
16B3
330
288A
100
AcDbEntity
  8
DEFPOINTS
 62
     0
100
AcDbPoint
 10
-25532.51823276502
 20
7385.702971374808
 30
0.0
  0
POINT
  5
16B4
330
288A
100
AcDbEntity
  8
DEFPOINTS
 62
     0
100
AcDbPoint
 10
-25532.51823276502
 20
7237.685576144207
 30
0.0
  0
ENDBLK
  5
16B5
330
288A
100
AcDbEntity
  8
0
100
AcDbBlockEnd
  0
BLOCK
  5
288D
330
288C
100
AcDbEntity
  8
0
100
AcDbBlockBegin
  2
*U44
 70
     1
 10
0.0
 20
0.0
 30
0.0
  3
*U44
  1

  0
TEXT
  5
1F21
330
288C
100
AcDbEntity
  8
SIZE
 62
     0
100
AcDbText
 10
-25739.70394705074
 20
7247.685576144205
 30
0.0
 40
64.0
  1
269
 41
0.9
100
AcDbText
  0
ENDBLK
  5
1F23
330
288C
100
AcDbEntity
  8
0
100
AcDbBlockEnd
  0
BLOCK
  5
288F
330
288E
100
AcDbEntity
  8
0
100
AcDbBlockBegin
  2
*D45
 70
     1
 10
0.0
 20
0.0
 30
0.0
  3
*D45
  1

  0
LINE
  5
16B8
330
288E
100
AcDbEntity
  8
SIZE
 62
     0
100
AcDbLine
 10
-25512.51823276502
 20
7385.702971374808
 30
0.0
 11
-25362.37494828464
 21
7385.702971374808
 31
0.0
  0
LINE
  5
16B9
330
288E
100
AcDbEntity
  8
SIZE
 62
     0
100
AcDbLine
 10
-25489.51823276501
 20
7685.702971374808
 30
0.0
 11
-25362.37494828464
 21
7685.702971374808
 31
0.0
  0
LINE
  5
16BA
330
288E
100
AcDbEntity
  8
SIZE
 62
     0
100
AcDbLine
 10
-25382.37494828464
 20
7397.702971374808
 30
0.0
 11
-25382.37494828464
 21
7673.702971374808
 31
0.0
  0
INSERT
  5
16BB
330
288E
100
AcDbEntity
  8
SIZE
 62
     0
100
AcDbBlockReference
  2
_DOTBLANK
 10
-25382.37494828464
 20
7385.702971374808
 30
0.0
 41
12.0
 42
12.0
 43
12.0
 50
270.0
  0
INSERT
  5
16BC
330
288E
100
AcDbEntity
  8
SIZE
 62
     0
100
AcDbBlockReference
  2
_DOTBLANK
 10
-25382.37494828464
 20
7685.702971374808
 30
0.0
 41
12.0
 42
12.0
 43
12.0
 50
90.0
  0
INSERT
  5
16BD
330
288E
100
AcDbEntity
  8
0
100
AcDbBlockReference
  2
*U46
 10
0.0
 20
0.0
 30
0.0
  0
POINT
  5
16BE
330
288E
100
AcDbEntity
  8
DEFPOINTS
 62
     0
100
AcDbPoint
 10
-25532.51823276502
 20
7385.702971374808
 30
0.0
  0
POINT
  5
16BF
330
288E
100
AcDbEntity
  8
DEFPOINTS
 62
     0
100
AcDbPoint
 10
-25509.51823276502
 20
7685.702971374808
 30
0.0
  0
POINT
  5
16C0
330
288E
100
AcDbEntity
  8
DEFPOINTS
 62
     0
100
AcDbPoint
 10
-25382.37494828464
 20
7685.702971374808
 30
0.0
  0
ENDBLK
  5
16C1
330
288E
100
AcDbEntity
  8
0
100
AcDbBlockEnd
  0
BLOCK
  5
2891
330
2890
100
AcDbEntity
  8
0
100
AcDbBlockBegin
  2
*U46
 70
     1
 10
0.0
 20
0.0
 30
0.0
  3
*U46
  1

  0
TEXT
  5
1F25
330
2890
100
AcDbEntity
  8
SIZE
 62
     0
100
AcDbText
 10
-25392.37494828464
 20
7461.645828517662
 30
0.0
 40
64.0
  1
300
 50
90.0
 41
0.9
100
AcDbText
  0
ENDBLK
  5
1F27
330
2890
100
AcDbEntity
  8
0
100
AcDbBlockEnd
  0
BLOCK
  5
2893
330
2892
100
AcDbEntity
  8
0
100
AcDbBlockBegin
  2
*D47
 70
     1
 10
0.0
 20
0.0
 30
0.0
  3
*D47
  1

  0
LINE
  5
16C4
330
2892
100
AcDbEntity
  8
SIZE
 62
     0
100
AcDbLine
 10
-25807.01823276501
 20
7718.167454177002
 30
0.0
 11
-25807.01823276501
 21
7822.154659243358
 31
0.0
  0
LINE
  5
16C5
330
2892
100
AcDbEntity
  8
SIZE
 62
     0
100
AcDbLine
 10
-25527.01823276501
 20
7718.167454177002
 30
0.0
 11
-25527.01823276501
 21
7822.154659243358
 31
0.0
  0
LINE
  5
16C6
330
2892
100
AcDbEntity
  8
SIZE
 62
     0
100
AcDbLine
 10
-25795.01823276502
 20
7802.154659243358
 30
0.0
 11
-25539.01823276501
 21
7802.154659243358
 31
0.0
  0
INSERT
  5
16C7
330
2892
100
AcDbEntity
  8
SIZE
 62
     0
100
AcDbBlockReference
  2
_DOTBLANK
 10
-25807.01823276501
 20
7802.154659243358
 30
0.0
 41
12.0
 42
12.0
 43
12.0
 50
180.0
  0
INSERT
  5
16C8
330
2892
100
AcDbEntity
  8
SIZE
 62
     0
100
AcDbBlockReference
  2
_DOTBLANK
 10
-25527.01823276501
 20
7802.154659243358
 30
0.0
 41
12.0
 42
12.0
 43
12.0
  0
INSERT
  5
16C9
330
2892
100
AcDbEntity
  8
0
100
AcDbBlockReference
  2
*U48
 10
0.0
 20
0.0
 30
0.0
  0
POINT
  5
16CA
330
2892
100
AcDbEntity
  8
DEFPOINTS
 62
     0
100
AcDbPoint
 10
-25807.01823276501
 20
7698.167454177002
 30
0.0
  0
POINT
  5
16CB
330
2892
100
AcDbEntity
  8
DEFPOINTS
 62
     0
100
AcDbPoint
 10
-25527.01823276501
 20
7698.167454177002
 30
0.0
  0
POINT
  5
16CC
330
2892
100
AcDbEntity
  8
DEFPOINTS
 62
     0
100
AcDbPoint
 10
-25527.01823276501
 20
7802.154659243358
 30
0.0
  0
ENDBLK
  5
16CD
330
2892
100
AcDbEntity
  8
0
100
AcDbBlockEnd
  0
BLOCK
  5
2895
330
2894
100
AcDbEntity
  8
0
100
AcDbBlockBegin
  2
*U48
 70
     1
 10
0.0
 20
0.0
 30
0.0
  3
*U48
  1

  0
TEXT
  5
1F29
330
2894
100
AcDbEntity
  8
SIZE
 62
     0
100
AcDbText
 10
-25741.07537562216
 20
7812.154659243358
 30
0.0
 40
64.0
  1
280
 41
0.9
100
AcDbText
  0
ENDBLK
  5
1F2B
330
2894
100
AcDbEntity
  8
0
100
AcDbBlockEnd
  0
BLOCK
  5
2897
330
2896
100
AcDbEntity
  8
0
100
AcDbBlockBegin
  2
*D49
 70
     1
 10
0.0
 20
0.0
 30
0.0
  3
*D49
  1

  0
LINE
  5
16D0
330
2896
100
AcDbEntity
  8
SIZE
 62
     0
100
AcDbLine
 10
-25824.51823276501
 20
7705.702971374808
 30
0.0
 11
-25824.51823276501
 21
7931.282433493766
 31
0.0
  0
LINE
  5
16D1
330
2896
100
AcDbEntity
  8
SIZE
 62
     0
100
AcDbLine
 10
-25509.51823276502
 20
7705.702971374808
 30
0.0
 11
-25509.51823276502
 21
7931.282433493766
 31
0.0
  0
LINE
  5
16D2
330
2896
100
AcDbEntity
  8
SIZE
 62
     0
100
AcDbLine
 10
-25812.51823276502
 20
7911.282433493766
 30
0.0
 11
-25521.51823276501
 21
7911.282433493766
 31
0.0
  0
INSERT
  5
16D3
330
2896
100
AcDbEntity
  8
SIZE
 62
     0
100
AcDbBlockReference
  2
_DOTBLANK
 10
-25824.51823276501
 20
7911.282433493766
 30
0.0
 41
12.0
 42
12.0
 43
12.0
 50
180.0
  0
INSERT
  5
16D4
330
2896
100
AcDbEntity
  8
SIZE
 62
     0
100
AcDbBlockReference
  2
_DOTBLANK
 10
-25509.51823276502
 20
7911.282433493766
 30
0.0
 41
12.0
 42
12.0
 43
12.0
  0
INSERT
  5
16D5
330
2896
100
AcDbEntity
  8
0
100
AcDbBlockReference
  2
*U50
 10
0.0
 20
0.0
 30
0.0
  0
POINT
  5
16D6
330
2896
100
AcDbEntity
  8
DEFPOINTS
 62
     0
100
AcDbPoint
 10
-25824.51823276501
 20
7685.702971374808
 30
0.0
  0
POINT
  5
16D7
330
2896
100
AcDbEntity
  8
DEFPOINTS
 62
     0
100
AcDbPoint
 10
-25509.51823276502
 20
7685.702971374808
 30
0.0
  0
POINT
  5
16D8
330
2896
100
AcDbEntity
  8
DEFPOINTS
 62
     0
100
AcDbPoint
 10
-25509.51823276502
 20
7911.282433493766
 30
0.0
  0
ENDBLK
  5
16D9
330
2896
100
AcDbEntity
  8
0
100
AcDbBlockEnd
  0
BLOCK
  5
2899
330
2898
100
AcDbEntity
  8
0
100
AcDbBlockBegin
  2
*U50
 70
     1
 10
0.0
 20
0.0
 30
0.0
  3
*U50
  1

  0
TEXT
  5
1F2D
330
2898
100
AcDbEntity
  8
SIZE
 62
     0
100
AcDbText
 10
-25735.58966133645
 20
7921.282433493766
 30
0.0
 40
64.0
  1
315
 41
0.9
100
AcDbText
  0
ENDBLK
  5
1F2F
330
2898
100
AcDbEntity
  8
0
100
AcDbBlockEnd
  0
BLOCK
  5
289B
330
289A
100
AcDbEntity
  8
0
100
AcDbBlockBegin
  2
*D51
 70
     1
 10
0.0
 20
0.0
 30
0.0
  3
*D51
  1

  0
LINE
  5
1D83
330
289A
100
AcDbEntity
  8
SIZE
 62
     0
100
AcDbLine
 10
-134.5
 20
-320.0
 30
0.0
 11
-134.5
 21
-468.0173952306001
 31
0.0
  0
LINE
  5
1D84
330
289A
100
AcDbEntity
  8
SIZE
 62
     0
100
AcDbLine
 10
134.5
 20
-320.0
 30
0.0
 11
134.5
 21
-468.0173952306001
 31
0.0
  0
LINE
  5
1D85
330
289A
100
AcDbEntity
  8
SIZE
 62
     0
100
AcDbLine
 10
-122.5
 20
-448.0173952306
 30
0.0
 11
122.5
 21
-448.0173952306
 31
0.0
  0
INSERT
  5
1D86
330
289A
100
AcDbEntity
  8
SIZE
 62
     0
100
AcDbBlockReference
  2
_DOTBLANK
 10
-134.5
 20
-448.0173952306
 30
0.0
 41
12.0
 42
12.0
 43
12.0
 50
180.0
  0
INSERT
  5
1D87
330
289A
100
AcDbEntity
  8
SIZE
 62
     0
100
AcDbBlockReference
  2
_DOTBLANK
 10
134.5
 20
-448.0173952306
 30
0.0
 41
12.0
 42
12.0
 43
12.0
  0
INSERT
  5
1D88
330
289A
100
AcDbEntity
  8
0
100
AcDbBlockReference
  2
*U52
 10
0.0
 20
0.0
 30
0.0
  0
POINT
  5
1D89
330
289A
100
AcDbEntity
  8
DEFPOINTS
 62
     0
100
AcDbPoint
 10
-134.5
 20
-300.0
 30
0.0
  0
POINT
  5
1D8A
330
289A
100
AcDbEntity
  8
DEFPOINTS
 62
     0
100
AcDbPoint
 10
134.5
 20
-300.0
 30
0.0
  0
POINT
  5
1D8B
330
289A
100
AcDbEntity
  8
DEFPOINTS
 62
     0
100
AcDbPoint
 10
134.5
 20
-448.0173952306
 30
0.0
  0
ENDBLK
  5
173D
330
289A
100
AcDbEntity
  8
0
100
AcDbBlockEnd
  0
BLOCK
  5
289D
330
289C
100
AcDbEntity
  8
0
100
AcDbBlockBegin
  2
*U52
 70
     1
 10
0.0
 20
0.0
 30
0.0
  3
*U52
  1

  0
TEXT
  5
1F31
330
289C
100
AcDbEntity
  8
SIZE
 62
     0
100
AcDbText
 10
-72.68571428571426
 20
-438.0173952306003
 30
0.0
 40
64.0
  1
269
 41
0.9
100
AcDbText
  0
ENDBLK
  5
1F33
330
289C
100
AcDbEntity
  8
0
100
AcDbBlockEnd
  0
BLOCK
  5
289F
330
289E
100
AcDbEntity
  8
0
100
AcDbBlockBegin
  2
*D53
 70
     1
 10
0.0
 20
0.0
 30
0.0
  3
*D53
  1

  0
LINE
  5
1D8C
330
289E
100
AcDbEntity
  8
SIZE
 62
     0
100
AcDbLine
 10
154.5
 20
-300.0
 30
0.0
 11
304.6432844803784
 21
-300.0
 31
0.0
  0
LINE
  5
1D8D
330
289E
100
AcDbEntity
  8
SIZE
 62
     0
100
AcDbLine
 10
177.5
 20
-0.0000000000000057
 30
0.0
 11
304.6432844803785
 21
-0.0000000000000417
 31
0.0
  0
LINE
  5
1D8E
330
289E
100
AcDbEntity
  8
SIZE
 62
     0
100
AcDbLine
 10
284.6432844803784
 20
-288.0
 30
0.0
 11
284.6432844803785
 21
-12.00000000000003
 31
0.0
  0
INSERT
  5
1D8F
330
289E
100
AcDbEntity
  8
SIZE
 62
     0
100
AcDbBlockReference
  2
_DOTBLANK
 10
284.6432844803784
 20
-300.0
 30
0.0
 41
12.0
 42
12.0
 43
12.0
 50
270.0
  0
INSERT
  5
1D90
330
289E
100
AcDbEntity
  8
SIZE
 62
     0
100
AcDbBlockReference
  2
_DOTBLANK
 10
284.6432844803785
 20
-0.000000000000036
 30
0.0
 41
12.0
 42
12.0
 43
12.0
 50
90.0
  0
INSERT
  5
1D91
330
289E
100
AcDbEntity
  8
0
100
AcDbBlockReference
  2
*U54
 10
0.0
 20
0.0
 30
0.0
  0
POINT
  5
1D92
330
289E
100
AcDbEntity
  8
DEFPOINTS
 62
     0
100
AcDbPoint
 10
134.5
 20
-300.0
 30
0.0
  0
POINT
  5
1D93
330
289E
100
AcDbEntity
  8
DEFPOINTS
 62
     0
100
AcDbPoint
 10
157.5
 20
0.0
 30
0.0
  0
POINT
  5
1D94
330
289E
100
AcDbEntity
  8
DEFPOINTS
 62
     0
100
AcDbPoint
 10
284.6432844803785
 20
-0.000000000000036
 30
0.0
  0
ENDBLK
  5
1749
330
289E
100
AcDbEntity
  8
0
100
AcDbBlockEnd
  0
BLOCK
  5
28A1
330
28A0
100
AcDbEntity
  8
0
100
AcDbBlockBegin
  2
*U54
 70
     1
 10
0.0
 20
0.0
 30
0.0
  3
*U54
  1

  0
TEXT
  5
1F35
330
28A0
100
AcDbEntity
  8
SIZE
 62
     0
100
AcDbText
 10
274.6432844803785
 20
-224.0571428571429
 30
0.0
 40
64.0
  1
300
 50
90.0
 41
0.9
100
AcDbText
  0
ENDBLK
  5
1F37
330
28A0
100
AcDbEntity
  8
0
100
AcDbBlockEnd
  0
BLOCK
  5
28A3
330
28A2
100
AcDbEntity
  8
0
100
AcDbBlockBegin
  2
*D55
 70
     1
 10
0.0
 20
0.0
 30
0.0
  3
*D55
  1

  0
LINE
  5
1D95
330
28A2
100
AcDbEntity
  8
SIZE
 62
     0
100
AcDbLine
 10
-140.0
 20
32.46448280219375
 30
0.0
 11
-140.0
 21
136.4516878685508
 31
0.0
  0
LINE
  5
1D96
330
28A2
100
AcDbEntity
  8
SIZE
 62
     0
100
AcDbLine
 10
140.0
 20
32.46448280219375
 30
0.0
 11
140.0
 21
136.4516878685508
 31
0.0
  0
LINE
  5
1D97
330
28A2
100
AcDbEntity
  8
SIZE
 62
     0
100
AcDbLine
 10
-128.0
 20
116.4516878685508
 30
0.0
 11
128.0
 21
116.4516878685508
 31
0.0
  0
INSERT
  5
1D98
330
28A2
100
AcDbEntity
  8
SIZE
 62
     0
100
AcDbBlockReference
  2
_DOTBLANK
 10
-140.0
 20
116.4516878685508
 30
0.0
 41
12.0
 42
12.0
 43
12.0
 50
180.0
  0
INSERT
  5
1D99
330
28A2
100
AcDbEntity
  8
SIZE
 62
     0
100
AcDbBlockReference
  2
_DOTBLANK
 10
140.0
 20
116.4516878685508
 30
0.0
 41
12.0
 42
12.0
 43
12.0
  0
INSERT
  5
1D9A
330
28A2
100
AcDbEntity
  8
0
100
AcDbBlockReference
  2
*U56
 10
0.0
 20
0.0
 30
0.0
  0
POINT
  5
1D9B
330
28A2
100
AcDbEntity
  8
DEFPOINTS
 62
     0
100
AcDbPoint
 10
-140.0
 20
12.46448280219374
 30
0.0
  0
POINT
  5
1D9C
330
28A2
100
AcDbEntity
  8
DEFPOINTS
 62
     0
100
AcDbPoint
 10
140.0
 20
12.46448280219374
 30
0.0
  0
POINT
  5
1D9D
330
28A2
100
AcDbEntity
  8
DEFPOINTS
 62
     0
100
AcDbPoint
 10
140.0
 20
116.4516878685508
 30
0.0
  0
ENDBLK
  5
1755
330
28A2
100
AcDbEntity
  8
0
100
AcDbBlockEnd
  0
BLOCK
  5
28A5
330
28A4
100
AcDbEntity
  8
0
100
AcDbBlockBegin
  2
*U56
 70
     1
 10
0.0
 20
0.0
 30
0.0
  3
*U56
  1

  0
TEXT
  5
1F39
330
28A4
100
AcDbEntity
  8
SIZE
 62
     0
100
AcDbText
 10
-74.05714285714283
 20
126.4516878685508
 30
0.0
 40
64.0
  1
280
 41
0.9
100
AcDbText
  0
ENDBLK
  5
1F3B
330
28A4
100
AcDbEntity
  8
0
100
AcDbBlockEnd
  0
BLOCK
  5
28A7
330
28A6
100
AcDbEntity
  8
0
100
AcDbBlockBegin
  2
*D57
 70
     1
 10
0.0
 20
0.0
 30
0.0
  3
*D57
  1

  0
LINE
  5
1D9E
330
28A6
100
AcDbEntity
  8
SIZE
 62
     0
100
AcDbLine
 10
-157.5
 20
20.0
 30
0.0
 11
-157.5
 21
245.5794621189598
 31
0.0
  0
LINE
  5
1D9F
330
28A6
100
AcDbEntity
  8
SIZE
 62
     0
100
AcDbLine
 10
157.5
 20
20.0
 30
0.0
 11
157.5
 21
245.5794621189598
 31
0.0
  0
LINE
  5
1DA0
330
28A6
100
AcDbEntity
  8
SIZE
 62
     0
100
AcDbLine
 10
-145.5
 20
225.5794621189598
 30
0.0
 11
145.5
 21
225.5794621189598
 31
0.0
  0
INSERT
  5
1DA1
330
28A6
100
AcDbEntity
  8
SIZE
 62
     0
100
AcDbBlockReference
  2
_DOTBLANK
 10
-157.5
 20
225.5794621189598
 30
0.0
 41
12.0
 42
12.0
 43
12.0
 50
180.0
  0
INSERT
  5
1DA2
330
28A6
100
AcDbEntity
  8
SIZE
 62
     0
100
AcDbBlockReference
  2
_DOTBLANK
 10
157.5
 20
225.5794621189598
 30
0.0
 41
12.0
 42
12.0
 43
12.0
  0
INSERT
  5
1DA3
330
28A6
100
AcDbEntity
  8
0
100
AcDbBlockReference
  2
*U58
 10
0.0
 20
0.0
 30
0.0
  0
POINT
  5
1DA4
330
28A6
100
AcDbEntity
  8
DEFPOINTS
 62
     0
100
AcDbPoint
 10
-157.5
 20
0.0
 30
0.0
  0
POINT
  5
1DA5
330
28A6
100
AcDbEntity
  8
DEFPOINTS
 62
     0
100
AcDbPoint
 10
157.5
 20
0.0
 30
0.0
  0
POINT
  5
1DA6
330
28A6
100
AcDbEntity
  8
DEFPOINTS
 62
     0
100
AcDbPoint
 10
157.5
 20
225.5794621189598
 30
0.0
  0
ENDBLK
  5
1761
330
28A6
100
AcDbEntity
  8
0
100
AcDbBlockEnd
  0
BLOCK
  5
28A9
330
28A8
100
AcDbEntity
  8
0
100
AcDbBlockBegin
  2
*U58
 70
     1
 10
0.0
 20
0.0
 30
0.0
  3
*U58
  1

  0
TEXT
  5
1F3D
330
28A8
100
AcDbEntity
  8
SIZE
 62
     0
100
AcDbText
 10
-68.57142857142857
 20
235.5794621189599
 30
0.0
 40
64.0
  1
315
 41
0.9
100
AcDbText
  0
ENDBLK
  5
1F3F
330
28A8
100
AcDbEntity
  8
0
100
AcDbBlockEnd
  0
BLOCK
  5
28AB
330
28AA
100
AcDbEntity
  8
0
100
AcDbBlockBegin
  2
*D59
 70
     1
 10
0.0
 20
0.0
 30
0.0
  3
*D59
  1

  0
LINE
  5
1DA7
330
28AA
100
AcDbEntity
  8
SIZE
 62
     0
100
AcDbLine
 10
-177.5
 20
0.0000000000000057
 30
0.0
 11
-314.0264221186908
 21
0.0000000000000443
 31
0.0
  0
LINE
  5
1DA8
330
28AA
100
AcDbEntity
  8
SIZE
 62
     0
100
AcDbLine
 10
-177.5
 20
-7.999999999999995
 30
0.0
 11
-314.0264221186908
 21
-7.999999999999957
 31
0.0
  0
LINE
  5
1DA9
330
28AA
100
AcDbEntity
  8
SIZE
 62
     0
100
AcDbLine
 10
-294.0264221186908
 20
12.00000000000003
 30
0.0
 11
-294.0264221186908
 21
24.00000000000004
 31
0.0
  0
LINE
  5
1DAA
330
28AA
100
AcDbEntity
  8
SIZE
 62
     0
100
AcDbLine
 10
-294.0264221186908
 20
-19.99999999999996
 30
0.0
 11
-294.0264221186908
 21
-90.39999999999997
 31
0.0
  0
INSERT
  5
1DAB
330
28AA
100
AcDbEntity
  8
SIZE
 62
     0
100
AcDbBlockReference
  2
_DOTBLANK
 10
-294.0264221186908
 20
0.0000000000000387
 30
0.0
 41
12.0
 42
12.0
 43
12.0
 50
270.0
  0
INSERT
  5
1DAC
330
28AA
100
AcDbEntity
  8
SIZE
 62
     0
100
AcDbBlockReference
  2
_DOTBLANK
 10
-294.0264221186908
 20
-7.999999999999959
 30
0.0
 41
12.0
 42
12.0
 43
12.0
 50
90.0
  0
INSERT
  5
1DAD
330
28AA
100
AcDbEntity
  8
0
100
AcDbBlockReference
  2
*U60
 10
0.0
 20
0.0
 30
0.0
  0
POINT
  5
1DAE
330
28AA
100
AcDbEntity
  8
DEFPOINTS
 62
     0
100
AcDbPoint
 10
-157.5
 20
0.0
 30
0.0
  0
POINT
  5
1DAF
330
28AA
100
AcDbEntity
  8
DEFPOINTS
 62
     0
100
AcDbPoint
 10
-157.5
 20
-8.000000000000001
 30
0.0
  0
POINT
  5
1DB0
330
28AA
100
AcDbEntity
  8
DEFPOINTS
 62
     0
100
AcDbPoint
 10
-294.0264221186908
 20
-7.999999999999959
 30
0.0
  0
ENDBLK
  5
176D
330
28AA
100
AcDbEntity
  8
0
100
AcDbBlockEnd
  0
BLOCK
  5
28AD
330
28AC
100
AcDbEntity
  8
0
100
AcDbBlockBegin
  2
*U60
 70
     1
 10
0.0
 20
0.0
 30
0.0
  3
*U60
  1

  0
TEXT
  5
1F41
330
28AC
100
AcDbEntity
  8
SIZE
 62
     0
100
AcDbText
 10
-304.0264221186908
 20
-80.4
 30
0.0
 40
64.0
  1
8
 50
90.0
 41
0.9
100
AcDbText
  0
ENDBLK
  5
1F43
330
28AC
100
AcDbEntity
  8
0
100
AcDbBlockEnd
  0
BLOCK
  5
28AF
330
28AE
100
AcDbEntity
  8
0
100
AcDbBlockBegin
  2
*D61
 70
     1
 10
0.0
 20
0.0
 30
0.0
  3
*D61
  1

  0
LINE
  5
1DB1
330
28AE
100
AcDbEntity
  8
SIZE
 62
     0
100
AcDbLine
 10
154.5
 20
-300.0
 30
0.0
 11
304.6432844803785
 21
-300.0
 31
0.0
  0
LINE
  5
1DB2
330
28AE
100
AcDbEntity
  8
SIZE
 62
     0
100
AcDbLine
 10
143.5
 20
-312.0
 30
0.0
 11
304.6432844803785
 21
-312.0
 31
0.0
  0
LINE
  5
1DB3
330
28AE
100
AcDbEntity
  8
SIZE
 62
     0
100
AcDbLine
 10
284.6432844803785
 20
-288.0
 30
0.0
 11
284.6432844803785
 21
-276.0
 31
0.0
  0
LINE
  5
1DB4
330
28AE
100
AcDbEntity
  8
SIZE
 62
     0
100
AcDbLine
 10
284.6432844803785
 20
-324.0000000000001
 30
0.0
 11
284.6432844803784
 21
-438.2857142857143
 31
0.0
  0
INSERT
  5
1DB5
330
28AE
100
AcDbEntity
  8
SIZE
 62
     0
100
AcDbBlockReference
  2
_DOTBLANK
 10
284.6432844803785
 20
-300.0
 30
0.0
 41
12.0
 42
12.0
 43
12.0
 50
270.0
  0
INSERT
  5
1DB6
330
28AE
100
AcDbEntity
  8
SIZE
 62
     0
100
AcDbBlockReference
  2
_DOTBLANK
 10
284.6432844803785
 20
-312.0
 30
0.0
 41
12.0
 42
12.0
 43
12.0
 50
90.0
  0
INSERT
  5
1DB7
330
28AE
100
AcDbEntity
  8
0
100
AcDbBlockReference
  2
*U62
 10
0.0
 20
0.0
 30
0.0
  0
POINT
  5
1DB8
330
28AE
100
AcDbEntity
  8
DEFPOINTS
 62
     0
100
AcDbPoint
 10
134.5
 20
-300.0
 30
0.0
  0
POINT
  5
1DB9
330
28AE
100
AcDbEntity
  8
DEFPOINTS
 62
     0
100
AcDbPoint
 10
123.5
 20
-312.0
 30
0.0
  0
POINT
  5
1DBA
330
28AE
100
AcDbEntity
  8
DEFPOINTS
 62
     0
100
AcDbPoint
 10
284.6432844803785
 20
-312.0
 30
0.0
  0
ENDBLK
  5
177B
330
28AE
100
AcDbEntity
  8
0
100
AcDbBlockEnd
  0
BLOCK
  5
28B1
330
28B0
100
AcDbEntity
  8
0
100
AcDbBlockBegin
  2
*U62
 70
     1
 10
0.0
 20
0.0
 30
0.0
  3
*U62
  1

  0
TEXT
  5
1F45
330
28B0
100
AcDbEntity
  8
SIZE
 62
     0
100
AcDbText
 10
274.6432844803785
 20
-428.2857142857142
 30
0.0
 40
64.0
  1
12
 50
90.0
 41
0.9
100
AcDbText
  0
ENDBLK
  5
1F47
330
28B0
100
AcDbEntity
  8
0
100
AcDbBlockEnd
  0
BLOCK
  5
28B3
330
28B2
100
AcDbEntity
  8
0
100
AcDbBlockBegin
  2
*U63
 70
     1
 10
0.0
 20
0.0
 30
0.0
  3
*U63
  1

  0
ENDBLK
  5
1D57
330
28B2
100
AcDbEntity
  8
0
100
AcDbBlockEnd
  0
BLOCK
  5
28B5
330
28B4
100
AcDbEntity
  8
0
100
AcDbBlockBegin
  2
*U64
 70
     1
 10
0.0
 20
0.0
 30
0.0
  3
*U64
  1

  0
INSERT
  5
2087
330
28B4
100
AcDbEntity
  8
NOTE
100
AcDbBlockReference
  2
_OPEN30
 10
-325.0
 20
0.0
 30
0.0
 41
12.0
 42
12.0
 43
12.0
 50
312.6090116116894
  0
POLYLINE
  5
2088
330
28B4
100
AcDbEntity
  8
NOTE
100
AcDb2dPolyline
 66
     1
 10
0.0
 20
0.0
 30
0.0
  0
VERTEX
  5
274E
330
2088
100
AcDbEntity
  8
NOTE
100
AcDbVertex
100
AcDb2dVertex
 10
-333.1239008361895
 20
8.831887408915473
 30
0.0
  0
VERTEX
  5
274F
330
2088
100
AcDbEntity
  8
NOTE
100
AcDbVertex
100
AcDb2dVertex
 10
-412.8693999922543
 20
95.5270950580134
 30
0.0
  0
VERTEX
  5
2750
330
2088
100
AcDbEntity
  8
NOTE
100
AcDbVertex
100
AcDb2dVertex
 10
-961.4522571351114
 20
95.5270950580134
 30
0.0
  0
SEQEND
  5
2751
330
2088
100
AcDbEntity
  8
NOTE
  0
ENDBLK
  5
2089
330
28B4
100
AcDbEntity
  8
0
100
AcDbBlockEnd
  0
BLOCK
  5
28B7
330
28B6
100
AcDbEntity
  8
0
100
AcDbBlockBegin
  2
*U65
 70
     1
 10
0.0
 20
0.0
 30
0.0
  3
*U65
  1

  0
TEXT
  5
208C
330
28B6
100
AcDbEntity
  8
NOTE
100
AcDbText
 10
-958.7093999922544
 20
113.5270950580134
 30
0.0
 40
64.0
  1
4×φ15取付穴
 41
0.9
100
AcDbText
  0
ENDBLK
  5
208D
330
28B6
100
AcDbEntity
  8
0
100
AcDbBlockEnd
  0
BLOCK
  5
28B9
330
28B8
100
AcDbEntity
  8
0
100
AcDbBlockBegin
  2
*U66
 70
     1
 10
0.0
 20
0.0
 30
0.0
  3
*U66
  1

  0
INSERT
  5
216D
330
28B8
100
AcDbEntity
  8
NOTE
100
AcDbBlockReference
  2
_OPEN30
 10
325.0
 20
325.0
 30
0.0
 41
12.0
 42
12.0
 43
12.0
 50
230.7091310502217
  0
POLYLINE
  5
216E
330
28B8
100
AcDbEntity
  8
NOTE
100
AcDb2dPolyline
 66
     1
 10
0.0
 20
0.0
 30
0.0
  0
VERTEX
  5
2752
330
216E
100
AcDbEntity
  8
NOTE
100
AcDbVertex
100
AcDb2dVertex
 10
332.599090480922
 20
334.2872936780722
 30
0.0
  0
VERTEX
  5
2753
330
216E
100
AcDbEntity
  8
NOTE
100
AcDbVertex
100
AcDb2dVertex
 10
388.4345623698608
 20
402.5270950580134
 30
0.0
  0
VERTEX
  5
2754
330
216E
100
AcDbEntity
  8
NOTE
100
AcDbVertex
100
AcDb2dVertex
 10
937.0174195127182
 20
402.5270950580134
 30
0.0
  0
SEQEND
  5
2755
330
216E
100
AcDbEntity
  8
NOTE
  0
ENDBLK
  5
216F
330
28B8
100
AcDbEntity
  8
0
100
AcDbBlockEnd
  0
BLOCK
  5
28BB
330
28BA
100
AcDbEntity
  8
0
100
AcDbBlockBegin
  2
*U67
 70
     1
 10
0.0
 20
0.0
 30
0.0
  3
*U67
  1

  0
TEXT
  5
2172
330
28BA
100
AcDbEntity
  8
NOTE
100
AcDbText
 10
450.4345623698608
 20
420.5270950580134
 30
0.0
 40
64.0
  1
4×φ15取付穴
 41
0.9
100
AcDbText
  0
ENDBLK
  5
2173
330
28BA
100
AcDbEntity
  8
0
100
AcDbBlockEnd
  0
BLOCK
  5
28BD
330
28BC
100
AcDbEntity
  8
0
100
AcDbBlockBegin
  2
*U68
 70
     1
 10
0.0
 20
0.0
 30
0.0
  3
*U68
  1

  0
INSERT
  5
2244
330
28BC
100
AcDbEntity
  8
NOTE
100
AcDbBlockReference
  2
_OPEN30
 10
325.0
 20
324.9999999999992
 30
0.0
 41
12.0
 42
12.0
 43
12.0
 50
232.3258907693334
  0
POLYLINE
  5
2245
330
28BC
100
AcDbEntity
  8
NOTE
100
AcDb2dPolyline
 66
     1
 10
0.0
 20
0.0
 30
0.0
  0
VERTEX
  5
2756
330
2245
100
AcDbEntity
  8
NOTE
100
AcDbVertex
100
AcDb2dVertex
 10
332.3340332839448
 20
334.4979974620955
 30
0.0
  0
VERTEX
  5
2757
330
2245
100
AcDbEntity
  8
NOTE
100
AcDbVertex
100
AcDb2dVertex
 10
398.7628007872081
 20
420.5270950580112
 30
0.0
  0
VERTEX
  5
2758
330
2245
100
AcDbEntity
  8
NOTE
100
AcDbVertex
100
AcDb2dVertex
 10
944.6028007872079
 20
420.5270950580112
 30
0.0
  0
SEQEND
  5
2759
330
2245
100
AcDbEntity
  8
NOTE
  0
ENDBLK
  5
2246
330
28BC
100
AcDbEntity
  8
0
100
AcDbBlockEnd
  0
BLOCK
  5
28BF
330
28BE
100
AcDbEntity
  8
0
100
AcDbBlockBegin
  2
*U69
 70
     1
 10
0.0
 20
0.0
 30
0.0
  3
*U69
  1

  0
TEXT
  5
2249
330
28BE
100
AcDbEntity
  8
NOTE
100
AcDbText
 10
460.762800787208
 20
438.5270950580116
 30
0.0
 40
64.0
  1
4×φ15取付穴
 41
0.9
100
AcDbText
  0
ENDBLK
  5
224A
330
28BE
100
AcDbEntity
  8
0
100
AcDbBlockEnd
  0
BLOCK
  5
28C1
330
28C0
100
AcDbEntity
  8
0
100
AcDbBlockBegin
  2
*U70
 70
     1
 10
0.0
 20
0.0
 30
0.0
  3
*U70
  1

  0
INSERT
  5
2337
330
28C0
100
AcDbEntity
  8
NOTE
100
AcDbBlockReference
  2
_OPEN30
 10
0.0
 20
325.0
 30
0.0
 41
12.0
 42
12.0
 43
12.0
 50
312.6090116116897
  0
POLYLINE
  5
2338
330
28C0
100
AcDbEntity
  8
NOTE
100
AcDb2dPolyline
 66
     1
 10
0.0
 20
0.0
 30
0.0
  0
VERTEX
  5
276E
330
2338
100
AcDbEntity
  8
NOTE
100
AcDbVertex
100
AcDb2dVertex
 10
-8.123900836189518
 20
333.8318874089154
 30
0.0
  0
VERTEX
  5
276F
330
2338
100
AcDbEntity
  8
NOTE
100
AcDbVertex
100
AcDb2dVertex
 10
-87.86939999225436
 20
420.5270950580128
 30
0.0
  0
VERTEX
  5
2770
330
2338
100
AcDbEntity
  8
NOTE
100
AcDbVertex
100
AcDb2dVertex
 10
-633.7093999922545
 20
420.5270950580128
 30
0.0
  0
SEQEND
  5
2771
330
2338
100
AcDbEntity
  8
NOTE
  0
ENDBLK
  5
2339
330
28C0
100
AcDbEntity
  8
0
100
AcDbBlockEnd
  0
BLOCK
  5
28C3
330
28C2
100
AcDbEntity
  8
0
100
AcDbBlockBegin
  2
*U71
 70
     1
 10
0.0
 20
0.0
 30
0.0
  3
*U71
  1

  0
TEXT
  5
233C
330
28C2
100
AcDbEntity
  8
NOTE
100
AcDbText
 10
-633.7093999922545
 20
438.5270950580128
 30
0.0
 40
64.0
  1
4×φ15取付穴
 41
0.9
100
AcDbText
  0
ENDBLK
  5
233D
330
28C2
100
AcDbEntity
  8
0
100
AcDbBlockEnd
  0
BLOCK
  5
28C5
330
28C4
100
AcDbEntity
  8
0
100
AcDbBlockBegin
  2
*U72
 70
     1
 10
0.0
 20
0.0
 30
0.0
  3
*U72
  1

  0
INSERT
  5
2462
330
28C4
100
AcDbEntity
  8
NOTE
100
AcDbBlockReference
  2
_OPEN30
 10
0.0
 20
325.0
 30
0.0
 41
12.0
 42
12.0
 43
12.0
 50
227.3909883883104
  0
POLYLINE
  5
2463
330
28C4
100
AcDbEntity
  8
NOTE
100
AcDb2dPolyline
 66
     1
 10
0.0
 20
0.0
 30
0.0
  0
VERTEX
  5
2772
330
2463
100
AcDbEntity
  8
NOTE
100
AcDbVertex
100
AcDb2dVertex
 10
8.123900836189518
 20
333.8318874089154
 30
0.0
  0
VERTEX
  5
2773
330
2463
100
AcDbEntity
  8
NOTE
100
AcDbVertex
100
AcDb2dVertex
 10
87.86939999225436
 20
420.5270950580128
 30
0.0
  0
VERTEX
  5
2774
330
2463
100
AcDbEntity
  8
NOTE
100
AcDbVertex
100
AcDb2dVertex
 10
633.7093999922545
 20
420.5270950580128
 30
0.0
  0
SEQEND
  5
2775
330
2463
100
AcDbEntity
  8
NOTE
  0
ENDBLK
  5
2464
330
28C4
100
AcDbEntity
  8
0
100
AcDbBlockEnd
  0
BLOCK
  5
28C7
330
28C6
100
AcDbEntity
  8
0
100
AcDbBlockBegin
  2
*U73
 70
     1
 10
0.0
 20
0.0
 30
0.0
  3
*U73
  1

  0
TEXT
  5
2467
330
28C6
100
AcDbEntity
  8
NOTE
100
AcDbText
 10
149.8693999922543
 20
438.5270950580128
 30
0.0
 40
64.0
  1
4×φ15取付穴
 41
0.9
100
AcDbText
  0
ENDBLK
  5
2468
330
28C6
100
AcDbEntity
  8
0
100
AcDbBlockEnd
  0
BLOCK
  5
28C9
330
28C8
100
AcDbEntity
  8
0
100
AcDbBlockBegin
  2
*U74
 70
     1
 10
0.0
 20
0.0
 30
0.0
  3
*U74
  1

  0
INSERT
  5
2591
330
28C8
100
AcDbEntity
  8
NOTE
100
AcDbBlockReference
  2
_OPEN30
 10
-325.0
 20
0.0
 30
0.0
 41
12.0
 42
12.0
 43
12.0
 50
312.6090116116894
  0
POLYLINE
  5
2592
330
28C8
100
AcDbEntity
  8
NOTE
100
AcDb2dPolyline
 66
     1
 10
0.0
 20
0.0
 30
0.0
  0
VERTEX
  5
2776
330
2592
100
AcDbEntity
  8
NOTE
100
AcDbVertex
100
AcDb2dVertex
 10
-333.1239008361895
 20
8.831887408915473
 30
0.0
  0
VERTEX
  5
2777
330
2592
100
AcDbEntity
  8
NOTE
100
AcDbVertex
100
AcDb2dVertex
 10
-412.8693999922543
 20
95.52709505801338
 30
0.0
  0
VERTEX
  5
2778
330
2592
100
AcDbEntity
  8
NOTE
100
AcDbVertex
100
AcDb2dVertex
 10
-958.7093999922544
 20
95.52709505801338
 30
0.0
  0
SEQEND
  5
2779
330
2592
100
AcDbEntity
  8
NOTE
  0
ENDBLK
  5
2593
330
28C8
100
AcDbEntity
  8
0
100
AcDbBlockEnd
  0
BLOCK
  5
28CB
330
28CA
100
AcDbEntity
  8
0
100
AcDbBlockBegin
  2
*U75
 70
     1
 10
0.0
 20
0.0
 30
0.0
  3
*U75
  1

  0
TEXT
  5
2596
330
28CA
100
AcDbEntity
  8
NOTE
100
AcDbText
 10
-958.7093999922544
 20
113.5270950580134
 30
0.0
 40
64.0
  1
4×φ15取付穴
 41
0.9
100
AcDbText
  0
ENDBLK
  5
2597
330
28CA
100
AcDbEntity
  8
0
100
AcDbBlockEnd
  0
BLOCK
  5
28CD
330
28CC
100
AcDbEntity
  8
0
100
AcDbBlockBegin
  2
*X76
 70
     1
 10
0.0
 20
0.0
 30
0.0
  3
*X76
  1

  0
LINE
  5
259A
330
28CC
100
AcDbEntity
  8
0
 62
     0
100
AcDbLine
 10
-295.7000000000062
 20
-642.3126998560847
 30
0.0
 11
-291.7366676077218
 21
-644.1999999999989
 31
0.0
  0
LINE
  5
259B
330
28CC
100
AcDbEntity
  8
0
 62
     0
100
AcDbLine
 10
-295.7000000000062
 20
-632.31274811195
 30
0.0
 11
-270.7367578707326
 21
-644.1999999999989
 31
0.0
  0
LINE
  5
259C
330
28CC
100
AcDbEntity
  8
0
 62
     0
100
AcDbLine
 10
-295.700000000008
 20
-622.312796367817
 30
0.0
 11
-249.7368481337399
 21
-644.2000000000007
 31
0.0
  0
LINE
  5
259D
330
28CC
100
AcDbEntity
  8
0
 62
     0
100
AcDbLine
 10
-295.700000000008
 20
-612.3128446236814
 30
0.0
 11
-228.7369383967489
 21
-644.1999999999998
 31
0.0
  0
LINE
  5
259E
330
28CC
100
AcDbEntity
  8
0
 62
     0
100
AcDbLine
 10
-295.700000000008
 20
-602.3128928795476
 30
0.0
 11
-207.7370286597597
 21
-644.1999999999998
 31
0.0
  0
LINE
  5
259F
330
28CC
100
AcDbEntity
  8
0
 62
     0
100
AcDbLine
 10
-295.700000000008
 20
-592.3129411354119
 30
0.0
 11
-186.7371189227668
 21
-644.1999999999998
 31
0.0
  0
LINE
  5
25A0
330
28CC
100
AcDbEntity
  8
0
 62
     0
100
AcDbLine
 10
-295.7000000000062
 20
-582.3129893912781
 30
0.0
 11
-165.737209185776
 21
-644.1999999999998
 31
0.0
  0
LINE
  5
25A1
330
28CC
100
AcDbEntity
  8
0
 62
     0
100
AcDbLine
 10
-295.7000000000098
 20
-572.3130376471424
 30
0.0
 11
-144.737299448785
 21
-644.1999999999998
 31
0.0
  0
LINE
  5
25A2
330
28CC
100
AcDbEntity
  8
0
 62
     0
100
AcDbLine
 10
-295.7000000000062
 20
-562.3130859030107
 30
0.0
 11
-123.737389711794
 21
-644.2000000000016
 31
0.0
  0
LINE
  5
25A3
330
28CC
100
AcDbEntity
  8
0
 62
     0
100
AcDbLine
 10
-295.700000000008
 20
-552.3131341588748
 30
0.0
 11
-102.7374799748013
 21
-644.2000000000016
 31
0.0
  0
LINE
  5
25A4
330
28CC
100
AcDbEntity
  8
0
 62
     0
100
AcDbLine
 10
-295.7000000000062
 20
-542.3131824147413
 30
0.0
 11
-81.73757023781218
 21
-644.2000000000016
 31
0.0
  0
LINE
  5
25A5
330
28CC
100
AcDbEntity
  8
0
 62
     0
100
AcDbLine
 10
-295.7000000000062
 20
-532.3132306706056
 30
0.0
 11
-60.73766050082122
 21
-644.1999999999998
 31
0.0
  0
LINE
  5
25A6
330
28CC
100
AcDbEntity
  8
0
 62
     0
100
AcDbLine
 10
-295.700000000008
 20
-522.31327892647
 30
0.0
 11
-39.73775076383572
 21
-644.1999999999977
 31
0.0
  0
LINE
  5
25A7
330
28CC
100
AcDbEntity
  8
0
 62
     0
100
AcDbLine
 10
-295.700000000008
 20
-512.313327182338
 30
0.0
 11
-18.73784102684476
 21
-644.1999999999998
 31
0.0
  0
LINE
  5
25A8
330
28CC
100
AcDbEntity
  8
0
 62
     0
100
AcDbLine
 10
-295.700000000008
 20
-502.3133754382023
 30
0.0
 11
2.262068710148013
 21
-644.1999999999998
 31
0.0
  0
LINE
  5
25A9
330
28CC
100
AcDbEntity
  8
0
 62
     0
100
AcDbLine
 10
-295.7000000000062
 20
-492.3134236940685
 30
0.0
 11
23.26197844713715
 21
-644.1999999999998
 31
0.0
  0
LINE
  5
25AA
330
28CC
100
AcDbEntity
  8
0
 62
     0
100
AcDbLine
 10
-295.700000000008
 20
-482.3134719499329
 30
0.0
 11
44.26188818412994
 21
-644.1999999999989
 31
0.0
  0
LINE
  5
25AB
330
28CC
100
AcDbEntity
  8
0
 62
     0
100
AcDbLine
 10
-295.7000000000062
 20
-472.3135202057988
 30
0.0
 11
65.26179792112086
 21
-644.1999999999989
 31
0.0
  0
LINE
  5
25AC
330
28CC
100
AcDbEntity
  8
0
 62
     0
100
AcDbLine
 10
-295.700000000008
 20
-462.3135684616649
 30
0.0
 11
86.26170765811185
 21
-644.2000000000007
 31
0.0
  0
LINE
  5
25AD
330
28CC
100
AcDbEntity
  8
0
 62
     0
100
AcDbLine
 10
-295.7000000000062
 20
-452.3136167175316
 30
0.0
 11
107.2616173951028
 21
-644.2000000000007
 31
0.0
  0
LINE
  5
25AE
330
28CC
100
AcDbEntity
  8
0
 62
     0
100
AcDbLine
 10
-295.7000000000062
 20
-442.313664973396
 30
0.0
 11
128.2615271320955
 21
-644.2000000000007
 31
0.0
  0
LINE
  5
25AF
330
28CC
100
AcDbEntity
  8
0
 62
     0
100
AcDbLine
 10
-295.7000000000062
 20
-432.3137132292621
 30
0.0
 11
149.2614368690847
 21
-644.2000000000007
 31
0.0
  0
LINE
  5
25B0
330
28CC
100
AcDbEntity
  8
0
 62
     0
100
AcDbLine
 10
-295.700000000008
 20
-422.3137614851274
 30
0.0
 11
170.2613466060757
 21
-644.2000000000007
 31
0.0
  0
LINE
  5
25B1
330
28CC
100
AcDbEntity
  8
0
 62
     0
100
AcDbLine
 10
-295.7000000000044
 20
-412.3138097409928
 30
0.0
 11
191.2612563430684
 21
-644.2000000000007
 31
0.0
  0
LINE
  5
25B2
330
28CC
100
AcDbEntity
  8
0
 62
     0
100
AcDbLine
 10
-295.700000000008
 20
-402.3138579968598
 30
0.0
 11
212.261166080054
 21
-644.2000000000007
 31
0.0
  0
LINE
  5
25B3
330
28CC
100
AcDbEntity
  8
0
 62
     0
100
AcDbLine
 10
-295.700000000008
 20
-392.3139062527241
 30
0.0
 11
233.2610758170467
 21
-644.2000000000007
 31
0.0
  0
LINE
  5
25B4
330
28CC
100
AcDbEntity
  8
0
 62
     0
100
AcDbLine
 10
-295.7000000000062
 20
-382.3139545085906
 30
0.0
 11
254.260985554034
 21
-644.1999999999989
 31
0.0
  0
LINE
  5
25B5
330
28CC
100
AcDbEntity
  8
0
 62
     0
100
AcDbLine
 10
-295.700000000008
 20
-372.3140027644549
 30
0.0
 11
275.260895291025
 21
-644.1999999999989
 31
0.0
  0
LINE
  5
25B6
330
28CC
100
AcDbEntity
  8
0
 62
     0
100
AcDbLine
 10
-295.7000000000044
 20
-362.314051020321
 30
0.0
 11
295.6999999999971
 21
-643.9329501274832
 31
0.0
  0
LINE
  5
25B7
330
28CC
100
AcDbEntity
  8
0
 62
     0
100
AcDbLine
 10
-295.700000000008
 20
-352.3140992761873
 30
0.0
 11
295.6999999999935
 21
-633.9329983833492
 31
0.0
  0
LINE
  5
25B8
330
28CC
100
AcDbEntity
  8
0
 62
     0
100
AcDbLine
 10
-295.7000000000044
 20
-342.3141475320536
 30
0.0
 11
295.6999999999953
 21
-623.9330466392154
 31
0.0
  0
LINE
  5
25B9
330
28CC
100
AcDbEntity
  8
0
 62
     0
100
AcDbLine
 10
-295.7000000000062
 20
-332.3141957879179
 30
0.0
 11
295.6999999999953
 21
-613.9330948950799
 31
0.0
  0
LINE
  5
25BA
330
28CC
100
AcDbEntity
  8
0
 62
     0
100
AcDbLine
 10
-295.7000000000062
 20
-322.3142440437841
 30
0.0
 11
295.6999999999916
 21
-603.9331431509452
 31
0.0
  0
LINE
  5
25BB
330
28CC
100
AcDbEntity
  8
0
 62
     0
100
AcDbLine
 10
-295.7000000000062
 20
-312.3142922996485
 30
0.0
 11
295.6999999999953
 21
-593.9331914068105
 31
0.0
  0
LINE
  5
25BC
330
28CC
100
AcDbEntity
  8
0
 62
     0
100
AcDbLine
 10
-295.700000000008
 20
-302.3143405555129
 30
0.0
 11
295.6999999999935
 21
-583.9332396626756
 31
0.0
  0
LINE
  5
25BD
330
28CC
100
AcDbEntity
  8
0
 62
     0
100
AcDbLine
 10
-295.7000000000062
 20
-292.3143888113809
 30
0.0
 11
295.6999999999935
 21
-573.9332879185431
 31
0.0
  0
LINE
  5
25BE
330
28CC
100
AcDbEntity
  8
0
 62
     0
100
AcDbLine
 10
-295.700000000008
 20
-282.3144370672452
 30
0.0
 11
295.6999999999935
 21
-563.9333361744084
 31
0.0
  0
LINE
  5
25BF
330
28CC
100
AcDbEntity
  8
0
 62
     0
100
AcDbLine
 10
-295.7000000000044
 20
-272.3144853231115
 30
0.0
 11
295.6999999999953
 21
-553.9333844302746
 31
0.0
  0
LINE
  5
25C0
330
28CC
100
AcDbEntity
  8
0
 62
     0
100
AcDbLine
 10
-295.700000000008
 20
-262.3145335789759
 30
0.0
 11
295.6999999999935
 21
-543.9334326861389
 31
0.0
  0
LINE
  5
25C1
330
28CC
100
AcDbEntity
  8
0
 62
     0
100
AcDbLine
 10
-295.7000000000062
 20
-252.3145818348421
 30
0.0
 11
295.6999999999953
 21
-533.9334809420051
 31
0.0
  0
LINE
  5
25C2
330
28CC
100
AcDbEntity
  8
0
 62
     0
100
AcDbLine
 10
-295.7000000000062
 20
-242.3146300907083
 30
0.0
 11
295.6999999999935
 21
-523.9335291978711
 31
0.0
  0
LINE
  5
25C3
330
28CC
100
AcDbEntity
  8
0
 62
     0
100
AcDbLine
 10
-295.7000000000062
 20
-232.3146783465745
 30
0.0
 11
295.6999999999916
 21
-513.9335774537356
 31
0.0
  0
LINE
  5
25C4
330
28CC
100
AcDbEntity
  8
0
 62
     0
100
AcDbLine
 10
-295.7000000000062
 20
-222.3147266024389
 30
0.0
 11
295.6999999999935
 21
-503.9336257096016
 31
0.0
  0
LINE
  5
25C5
330
28CC
100
AcDbEntity
  8
0
 62
     0
100
AcDbLine
 10
-295.700000000008
 20
-212.3147748583041
 30
0.0
 11
295.6999999999935
 21
-493.9336739654661
 31
0.0
  0
LINE
  5
25C6
330
28CC
100
AcDbEntity
  8
0
 62
     0
100
AcDbLine
 10
-295.700000000008
 20
-202.3148231141704
 30
0.0
 11
295.6999999999935
 21
-483.9337222213321
 31
0.0
  0
LINE
  5
25C7
330
28CC
100
AcDbEntity
  8
0
 62
     0
100
AcDbLine
 10
-295.7000000000062
 20
-192.3148713700364
 30
0.0
 11
295.6999999999916
 21
-473.9337704771966
 31
0.0
  0
LINE
  5
25C8
330
28CC
100
AcDbEntity
  8
0
 62
     0
100
AcDbLine
 10
-295.7000000000062
 20
-182.3149196259028
 30
0.0
 11
295.6999999999916
 21
-463.9338187330631
 31
0.0
  0
LINE
  5
25C9
330
28CC
100
AcDbEntity
  8
0
 62
     0
100
AcDbLine
 10
-295.7000000000062
 20
-172.3149678817672
 30
0.0
 11
295.6999999999898
 21
-453.9338669889271
 31
0.0
  0
LINE
  5
25CA
330
28CC
100
AcDbEntity
  8
0
 62
     0
100
AcDbLine
 10
-295.7000000000044
 20
-162.3150161376334
 30
0.0
 11
295.6999999999935
 21
-443.9339152447937
 31
0.0
  0
LINE
  5
25CB
330
28CC
100
AcDbEntity
  8
0
 62
     0
100
AcDbLine
 10
-295.700000000008
 20
-152.3150643934978
 30
0.0
 11
295.6999999999898
 21
-433.933963500658
 31
0.0
  0
LINE
  5
25CC
330
28CC
100
AcDbEntity
  8
0
 62
     0
100
AcDbLine
 10
-295.700000000008
 20
-142.315112649362
 30
0.0
 11
295.6999999999898
 21
-423.9340117565232
 31
0.0
  0
LINE
  5
25CD
330
28CC
100
AcDbEntity
  8
0
 62
     0
100
AcDbLine
 10
-295.7000000000062
 20
-132.3151609052302
 30
0.0
 11
295.6999999999916
 21
-413.9340600123913
 31
0.0
  0
LINE
  5
25CE
330
28CC
100
AcDbEntity
  8
0
 62
     0
100
AcDbLine
 10
79.89999999999056
 20
-301.1722576978718
 30
0.0
 11
97.59826816764508
 21
-309.5999999999995
 31
0.0
  0
LINE
  5
25CF
330
28CC
100
AcDbEntity
  8
0
 62
     0
100
AcDbLine
 10
97.59826816764508
 20
-309.5999999999995
 30
0.0
 11
295.6999999999898
 21
-403.9341082682557
 31
0.0
  0
LINE
  5
25D0
330
28CC
100
AcDbEntity
  8
0
 62
     0
100
AcDbLine
 10
-295.700000000008
 20
-122.3152091610945
 30
0.0
 11
79.89999999999056
 21
-301.1722576978718
 31
0.0
  0
LINE
  5
25D1
330
28CC
100
AcDbEntity
  8
0
 62
     0
100
AcDbLine
 10
79.89999999999419
 20
-291.172305953738
 30
0.0
 11
118.5981779046378
 21
-309.5999999999995
 31
0.0
  0
LINE
  5
25D2
330
28CC
100
AcDbEntity
  8
0
 62
     0
100
AcDbLine
 10
118.5981779046378
 20
-309.5999999999995
 30
0.0
 11
295.6999999999916
 21
-393.9341565241221
 31
0.0
  0
LINE
  5
25D3
330
28CC
100
AcDbEntity
  8
0
 62
     0
100
AcDbLine
 10
-288.3820367164935
 20
-115.7999999999993
 30
0.0
 11
79.89999999999419
 21
-291.172305953738
 31
0.0
  0
LINE
  5
25D4
330
28CC
100
AcDbEntity
  8
0
 62
     0
100
AcDbLine
 10
79.89999999999236
 20
-281.1723542096024
 30
0.0
 11
139.5980876416288
 21
-309.5999999999985
 31
0.0
  0
LINE
  5
25D5
330
28CC
100
AcDbEntity
  8
0
 62
     0
100
AcDbLine
 10
139.5980876416288
 20
-309.5999999999985
 30
0.0
 11
295.6999999999898
 21
-383.9342047799863
 31
0.0
  0
LINE
  5
25D6
330
28CC
100
AcDbEntity
  8
0
 62
     0
100
AcDbLine
 10
-267.3821269795026
 20
-115.7999999999993
 30
0.0
 11
79.89999999999236
 21
-281.1723542096024
 31
0.0
  0
LINE
  5
25D7
330
28CC
100
AcDbEntity
  8
0
 62
     0
100
AcDbLine
 10
79.89999999999236
 20
-271.1724024654686
 30
0.0
 11
160.5979973786197
 21
-309.5999999999985
 31
0.0
  0
LINE
  5
25D8
330
28CC
100
AcDbEntity
  8
0
 62
     0
100
AcDbLine
 10
160.5979973786197
 20
-309.5999999999985
 30
0.0
 11
295.6999999999916
 21
-373.9342530358527
 31
0.0
  0
LINE
  5
25D9
330
28CC
100
AcDbEntity
  8
0
 62
     0
100
AcDbLine
 10
-246.3822172425135
 20
-115.7999999999993
 30
0.0
 11
79.89999999999236
 21
-271.1724024654686
 31
0.0
  0
LINE
  5
25DA
330
28CC
100
AcDbEntity
  8
0
 62
     0
100
AcDbLine
 10
79.89999999999236
 20
-261.1724507213348
 30
0.0
 11
181.5979071156107
 21
-309.6000000000004
 31
0.0
  0
LINE
  5
25DB
330
28CC
100
AcDbEntity
  8
0
 62
     0
100
AcDbLine
 10
181.5979071156107
 20
-309.6000000000004
 30
0.0
 11
295.6999999999898
 21
-363.9343012917188
 31
0.0
  0
LINE
  5
25DC
330
28CC
100
AcDbEntity
  8
0
 62
     0
100
AcDbLine
 10
-225.3823075055207
 20
-115.8000000000011
 30
0.0
 11
79.89999999999236
 21
-261.1724507213348
 31
0.0
  0
LINE
  5
25DD
330
28CC
100
AcDbEntity
  8
0
 62
     0
100
AcDbLine
 10
79.89999999999056
 20
-251.1724989771992
 30
0.0
 11
202.5978168526017
 21
-309.6000000000004
 31
0.0
  0
LINE
  5
25DE
330
28CC
100
AcDbEntity
  8
0
 62
     0
100
AcDbLine
 10
202.5978168526017
 20
-309.6000000000004
 30
0.0
 11
295.6999999999898
 21
-353.9343495475832
 31
0.0
  0
LINE
  5
25DF
330
28CC
100
AcDbEntity
  8
0
 62
     0
100
AcDbLine
 10
-204.3823977685297
 20
-115.8000000000011
 30
0.0
 11
79.89999999999056
 21
-251.1724989771992
 31
0.0
  0
LINE
  5
25E0
330
28CC
100
AcDbEntity
  8
0
 62
     0
100
AcDbLine
 10
79.89999999999236
 20
-241.1725472330654
 30
0.0
 11
223.5977265895926
 21
-309.6000000000004
 31
0.0
  0
LINE
  5
25E1
330
28CC
100
AcDbEntity
  8
0
 62
     0
100
AcDbLine
 10
223.5977265895926
 20
-309.6000000000004
 30
0.0
 11
295.6999999999898
 21
-343.9343978034494
 31
0.0
  0
LINE
  5
25E2
330
28CC
100
AcDbEntity
  8
0
 62
     0
100
AcDbLine
 10
-183.3824880315424
 20
-115.7999999999993
 30
0.0
 11
79.89999999999236
 21
-241.1725472330654
 31
0.0
  0
LINE
  5
25E3
330
28CC
100
AcDbEntity
  8
0
 62
     0
100
AcDbLine
 10
79.89999999999236
 20
-231.1725954889298
 30
0.0
 11
244.5976363265854
 21
-309.6000000000004
 31
0.0
  0
LINE
  5
25E4
330
28CC
100
AcDbEntity
  8
0
 62
     0
100
AcDbLine
 10
244.5976363265854
 20
-309.6000000000004
 30
0.0
 11
295.6999999999898
 21
-333.9344460593138
 31
0.0
  0
LINE
  5
25E5
330
28CC
100
AcDbEntity
  8
0
 62
     0
100
AcDbLine
 10
-162.3825782945496
 20
-115.7999999999993
 30
0.0
 11
79.89999999999236
 21
-231.1725954889298
 31
0.0
  0
LINE
  5
25E6
330
28CC
100
AcDbEntity
  8
0
 62
     0
100
AcDbLine
 10
79.89999999999236
 20
-221.172643744796
 30
0.0
 11
265.5975460635727
 21
-309.5999999999985
 31
0.0
  0
LINE
  5
25E7
330
28CC
100
AcDbEntity
  8
0
 62
     0
100
AcDbLine
 10
265.5975460635727
 20
-309.5999999999985
 30
0.0
 11
295.6999999999916
 21
-323.93449431518
 31
0.0
  0
LINE
  5
25E8
330
28CC
100
AcDbEntity
  8
0
 62
     0
100
AcDbLine
 10
-141.3826685575586
 20
-115.7999999999993
 30
0.0
 11
79.89999999999236
 21
-221.172643744796
 31
0.0
  0
LINE
  5
25E9
330
28CC
100
AcDbEntity
  8
0
 62
     0
100
AcDbLine
 10
79.89999999999056
 20
-211.1726920006622
 30
0.0
 11
286.5974558005619
 21
-309.6000000000004
 31
0.0
  0
LINE
  5
25EA
330
28CC
100
AcDbEntity
  8
0
 62
     0
100
AcDbLine
 10
286.5974558005619
 20
-309.6000000000004
 30
0.0
 11
295.699999999988
 21
-313.9345425710463
 31
0.0
  0
LINE
  5
25EB
330
28CC
100
AcDbEntity
  8
0
 62
     0
100
AcDbLine
 10
-120.3827588205695
 20
-115.8000000000011
 30
0.0
 11
79.89999999999056
 21
-211.1726920006622
 31
0.0
  0
LINE
  5
25EC
330
28CC
100
AcDbEntity
  8
0
 62
     0
100
AcDbLine
 10
79.89999999999419
 20
-201.1727402565284
 30
0.0
 11
295.6999999999953
 21
-303.9345908269142
 31
0.0
  0
LINE
  5
25ED
330
28CC
100
AcDbEntity
  8
0
 62
     0
100
AcDbLine
 10
-99.38284908357493
 20
-115.8000000000011
 30
0.0
 11
79.89999999999419
 21
-201.1727402565284
 31
0.0
  0
LINE
  5
25EE
330
28CC
100
AcDbEntity
  8
0
 62
     0
100
AcDbLine
 10
79.89999999999236
 20
-191.1727885123928
 30
0.0
 11
295.6999999999935
 21
-293.9346390827786
 31
0.0
  0
LINE
  5
25EF
330
28CC
100
AcDbEntity
  8
0
 62
     0
100
AcDbLine
 10
-78.3829393465858
 20
-115.8000000000002
 30
0.0
 11
79.89999999999236
 21
-191.1727885123928
 31
0.0
  0
LINE
  5
25F0
330
28CC
100
AcDbEntity
  8
0
 62
     0
100
AcDbLine
 10
79.89999999999419
 20
-181.172836768259
 30
0.0
 11
295.6999999999953
 21
-283.9346873386448
 31
0.0
  0
LINE
  5
25F1
330
28CC
100
AcDbEntity
  8
0
 62
     0
100
AcDbLine
 10
-57.38302960959481
 20
-115.8000000000002
 30
0.0
 11
79.89999999999056
 21
-181.1728367682581
 31
0.0
  0
LINE
  5
25F2
330
28CC
100
AcDbEntity
  8
0
 62
     0
100
AcDbLine
 10
79.89999999999419
 20
-171.1728850241234
 30
0.0
 11
295.6999999999953
 21
-273.9347355945092
 31
0.0
  0
LINE
  5
25F3
330
28CC
100
AcDbEntity
  8
0
 62
     0
100
AcDbLine
 10
-36.38311987260204
 20
-115.8000000000002
 30
0.0
 11
79.89999999999419
 21
-171.1728850241234
 31
0.0
  0
LINE
  5
25F4
330
28CC
100
AcDbEntity
  8
0
 62
     0
100
AcDbLine
 10
79.89999999999419
 20
-161.1729332799896
 30
0.0
 11
295.6999999999916
 21
-263.9347838503736
 31
0.0
  0
LINE
  5
25F5
330
28CC
100
AcDbEntity
  8
0
 62
     0
100
AcDbLine
 10
-15.3832101356129
 20
-115.8000000000002
 30
0.0
 11
79.89999999999056
 21
-161.1729332799887
 31
0.0
  0
LINE
  5
25F6
330
28CC
100
AcDbEntity
  8
0
 62
     0
100
AcDbLine
 10
79.89999999999236
 20
-151.1729815358558
 30
0.0
 11
295.6999999999935
 21
-253.9348321062416
 31
0.0
  0
LINE
  5
25F7
330
28CC
100
AcDbEntity
  8
0
 62
     0
100
AcDbLine
 10
5.616699601379878
 20
-115.800000000002
 30
0.0
 11
79.89999999999236
 21
-151.1729815358558
 31
0.0
  0
LINE
  5
25F8
330
28CC
100
AcDbEntity
  8
0
 62
     0
100
AcDbLine
 10
79.89999999999236
 20
-141.1730297917211
 30
0.0
 11
295.6999999999935
 21
-243.934880362106
 31
0.0
  0
LINE
  5
25F9
330
28CC
100
AcDbEntity
  8
0
 62
     0
100
AcDbLine
 10
26.6166093383672
 20
-115.8000000000002
 30
0.0
 11
79.89999999999236
 21
-141.1730297917211
 31
0.0
  0
LINE
  5
25FA
330
28CC
100
AcDbEntity
  8
0
 62
     0
100
AcDbLine
 10
79.89999999999236
 20
-131.1730780475873
 30
0.0
 11
295.6999999999935
 21
-233.9349286179722
 31
0.0
  0
LINE
  5
25FB
330
28CC
100
AcDbEntity
  8
0
 62
     0
100
AcDbLine
 10
47.61651907535815
 20
-115.8000000000002
 30
0.0
 11
79.89999999999236
 21
-131.1730780475873
 31
0.0
  0
LINE
  5
25FC
330
28CC
100
AcDbEntity
  8
0
 62
     0
100
AcDbLine
 10
79.89999999999236
 20
-121.1731263034517
 30
0.0
 11
295.6999999999935
 21
-223.9349768738366
 31
0.0
  0
LINE
  5
25FD
330
28CC
100
AcDbEntity
  8
0
 62
     0
100
AcDbLine
 10
68.61642881234911
 20
-115.8000000000002
 30
0.0
 11
79.89999999999236
 21
-121.1731263034517
 31
0.0
  0
LINE
  5
25FE
330
28CC
100
AcDbEntity
  8
0
 62
     0
100
AcDbLine
 10
89.6163385493419
 20
-115.8000000000002
 30
0.0
 11
295.6999999999953
 21
-213.9350251297028
 31
0.0
  0
LINE
  5
25FF
330
28CC
100
AcDbEntity
  8
0
 62
     0
100
AcDbLine
 10
110.6162482863274
 20
-115.8000000000002
 30
0.0
 11
295.6999999999916
 21
-203.935073385569
 31
0.0
  0
LINE
  5
2600
330
28CC
100
AcDbEntity
  8
0
 62
     0
100
AcDbLine
 10
131.6161580233201
 20
-115.8000000000002
 30
0.0
 11
295.6999999999953
 21
-193.9351216414352
 31
0.0
  0
LINE
  5
2601
330
28CC
100
AcDbEntity
  8
0
 62
     0
100
AcDbLine
 10
152.6160677603111
 20
-115.8000000000002
 30
0.0
 11
295.6999999999935
 21
-183.9351698972994
 31
0.0
  0
LINE
  5
2602
330
28CC
100
AcDbEntity
  8
0
 62
     0
100
AcDbLine
 10
173.6159774973002
 20
-115.8000000000002
 30
0.0
 11
295.6999999999953
 21
-173.9352181531658
 31
0.0
  0
LINE
  5
2603
330
28CC
100
AcDbEntity
  8
0
 62
     0
100
AcDbLine
 10
194.6158872342948
 20
-115.7999999999993
 30
0.0
 11
295.6999999999953
 21
-163.9352664090302
 31
0.0
  0
LINE
  5
2604
330
28CC
100
AcDbEntity
  8
0
 62
     0
100
AcDbLine
 10
215.615796971284
 20
-115.7999999999993
 30
0.0
 11
295.6999999999953
 21
-153.9353146648964
 31
0.0
  0
LINE
  5
2605
330
28CC
100
AcDbEntity
  8
0
 62
     0
100
AcDbLine
 10
236.6157067082749
 20
-115.8000000000011
 30
0.0
 11
295.6999999999935
 21
-143.9353629207634
 31
0.0
  0
LINE
  5
2606
330
28CC
100
AcDbEntity
  8
0
 62
     0
100
AcDbLine
 10
257.6156164452641
 20
-115.7999999999993
 30
0.0
 11
295.6999999999935
 21
-133.9354111766279
 31
0.0
  0
LINE
  5
2607
330
28CC
100
AcDbEntity
  8
0
 62
     0
100
AcDbLine
 10
278.6155261822551
 20
-115.7999999999993
 30
0.0
 11
295.6999999999953
 21
-123.9354594324941
 31
0.0
  0
ENDBLK
  5
2608
330
28CC
100
AcDbEntity
  8
0
100
AcDbBlockEnd
  0
BLOCK
  5
28CF
330
28CE
100
AcDbEntity
  8
0
100
AcDbBlockBegin
  2
*X77
 70
     1
 10
0.0
 20
0.0
 30
0.0
  3
*X77
  1

  0
LINE
  5
260B
330
28CE
100
AcDbEntity
  8
0
 62
     0
100
AcDbLine
 10
292.2675752934811
 20
-644.1999999999977
 30
0.0
 11
295.7000000000008
 21
-642.5655129064597
 31
0.0
  0
LINE
  5
260C
330
28CE
100
AcDbEntity
  8
0
 62
     0
100
AcDbLine
 10
271.2676655564901
 20
-644.1999999999977
 30
0.0
 11
295.7000000000008
 21
-632.5655611623261
 31
0.0
  0
LINE
  5
260D
330
28CE
100
AcDbEntity
  8
0
 62
     0
100
AcDbLine
 10
250.2677558195028
 20
-644.1999999999989
 30
0.0
 11
295.7000000000044
 21
-622.5656094181912
 31
0.0
  0
LINE
  5
260E
330
28CE
100
AcDbEntity
  8
0
 62
     0
100
AcDbLine
 10
229.2678460825082
 20
-644.1999999999989
 30
0.0
 11
295.7000000000008
 21
-612.5656576740566
 31
0.0
  0
LINE
  5
260F
330
28CE
100
AcDbEntity
  8
0
 62
     0
100
AcDbLine
 10
208.2679363455172
 20
-644.1999999999977
 30
0.0
 11
295.7000000000008
 21
-602.5657059299216
 31
0.0
  0
LINE
  5
2610
330
28CE
100
AcDbEntity
  8
0
 62
     0
100
AcDbLine
 10
187.2680266085263
 20
-644.1999999999989
 30
0.0
 11
295.7000000000008
 21
-592.5657541857881
 31
0.0
  0
LINE
  5
2611
330
28CE
100
AcDbEntity
  8
0
 62
     0
100
AcDbLine
 10
166.2681168715353
 20
-644.1999999999989
 30
0.0
 11
295.7000000000008
 21
-582.5658024416542
 31
0.0
  0
LINE
  5
2612
330
28CE
100
AcDbEntity
  8
0
 62
     0
100
AcDbLine
 10
145.2682071345443
 20
-644.1999999999998
 30
0.0
 11
295.7000000000044
 21
-572.5658506975196
 31
0.0
  0
LINE
  5
2613
330
28CE
100
AcDbEntity
  8
0
 62
     0
100
AcDbLine
 10
124.268297397557
 20
-644.1999999999998
 30
0.0
 11
295.7000000000044
 21
-562.5658989533857
 31
0.0
  0
LINE
  5
2614
330
28CE
100
AcDbEntity
  8
0
 62
     0
100
AcDbLine
 10
103.2683876605624
 20
-644.1999999999998
 30
0.0
 11
295.7000000000008
 21
-552.5659472092502
 31
0.0
  0
LINE
  5
2615
330
28CE
100
AcDbEntity
  8
0
 62
     0
100
AcDbLine
 10
82.26847792357148
 20
-644.2000000000007
 30
0.0
 11
295.7000000000008
 21
-542.5659954651172
 31
0.0
  0
LINE
  5
2616
330
28CE
100
AcDbEntity
  8
0
 62
     0
100
AcDbLine
 10
61.26856818658052
 20
-644.1999999999989
 30
0.0
 11
295.7000000000008
 21
-532.5660437209817
 31
0.0
  0
LINE
  5
2617
330
28CE
100
AcDbEntity
  8
0
 62
     0
100
AcDbLine
 10
40.2686584495932
 20
-644.1999999999989
 30
0.0
 11
295.7000000000008
 21
-522.5660919768478
 31
0.0
  0
LINE
  5
2618
330
28CE
100
AcDbEntity
  8
0
 62
     0
100
AcDbLine
 10
19.26874871260588
 20
-644.1999999999977
 30
0.0
 11
295.7000000000008
 21
-512.5661402327131
 31
0.0
  0
LINE
  5
2619
330
28CE
100
AcDbEntity
  8
0
 62
     0
100
AcDbLine
 10
-1.731161024388709
 20
-644.1999999999977
 30
0.0
 11
295.7000000000008
 21
-502.5661884885776
 31
0.0
  0
LINE
  5
261A
330
28CE
100
AcDbEntity
  8
0
 62
     0
100
AcDbLine
 10
-22.73107076137967
 20
-644.1999999999989
 30
0.0
 11
295.7000000000008
 21
-492.5662367444446
 31
0.0
  0
LINE
  5
261B
330
28CE
100
AcDbEntity
  8
0
 62
     0
100
AcDbLine
 10
-43.73098049836698
 20
-644.1999999999989
 30
0.0
 11
295.7000000000044
 21
-482.5662850003091
 31
0.0
  0
LINE
  5
261C
330
28CE
100
AcDbEntity
  8
0
 62
     0
100
AcDbLine
 10
-64.7308902353616
 20
-644.1999999999977
 30
0.0
 11
295.6999999999971
 21
-472.5663332561769
 31
0.0
  0
LINE
  5
261D
330
28CE
100
AcDbEntity
  8
0
 62
     0
100
AcDbLine
 10
-85.73079997235254
 20
-644.1999999999989
 30
0.0
 11
295.7000000000008
 21
-462.5663815120423
 31
0.0
  0
LINE
  5
261E
330
28CE
100
AcDbEntity
  8
0
 62
     0
100
AcDbLine
 10
-106.7307097093398
 20
-644.1999999999989
 30
0.0
 11
295.6999999999971
 21
-452.5664297679083
 31
0.0
  0
LINE
  5
261F
330
28CE
100
AcDbEntity
  8
0
 62
     0
100
AcDbLine
 10
-127.7306194463344
 20
-644.1999999999998
 30
0.0
 11
295.6999999999971
 21
-442.5664780237728
 31
0.0
  0
LINE
  5
2620
330
28CE
100
AcDbEntity
  8
0
 62
     0
100
AcDbLine
 10
-148.7305291833254
 20
-644.2000000000007
 30
0.0
 11
295.7000000000008
 21
-432.5665262796383
 31
0.0
  0
LINE
  5
2621
330
28CE
100
AcDbEntity
  8
0
 62
     0
100
AcDbLine
 10
-169.73043892032
 20
-644.1999999999989
 30
0.0
 11
295.6999999999971
 21
-422.5665745355045
 31
0.0
  0
LINE
  5
2622
330
28CE
100
AcDbEntity
  8
0
 62
     0
100
AcDbLine
 10
-190.7303486573073
 20
-644.1999999999998
 30
0.0
 11
295.6999999999971
 21
-412.5666227913698
 31
0.0
  0
LINE
  5
2623
330
28CE
100
AcDbEntity
  8
0
 62
     0
100
AcDbLine
 10
-211.7302583942983
 20
-644.1999999999998
 30
0.0
 11
295.6999999999971
 21
-402.566671047236
 31
0.0
  0
LINE
  5
2624
330
28CE
100
AcDbEntity
  8
0
 62
     0
100
AcDbLine
 10
-232.7301681312856
 20
-644.1999999999977
 30
0.0
 11
295.7000000000008
 21
-392.5667193031003
 31
0.0
  0
LINE
  5
2625
330
28CE
100
AcDbEntity
  8
0
 62
     0
100
AcDbLine
 10
-253.7300778682766
 20
-644.1999999999969
 30
0.0
 11
295.6999999999971
 21
-382.5667675589675
 31
0.0
  0
LINE
  5
2626
330
28CE
100
AcDbEntity
  8
0
 62
     0
100
AcDbLine
 10
-274.7299876052639
 20
-644.1999999999969
 30
0.0
 11
295.7000000000008
 21
-372.5668158148319
 31
0.0
  0
LINE
  5
2627
330
28CE
100
AcDbEntity
  8
0
 62
     0
100
AcDbLine
 10
-295.7000000000008
 20
-644.1857631778603
 30
0.0
 11
295.6999999999971
 21
-362.5668640706981
 31
0.0
  0
LINE
  5
2628
330
28CE
100
AcDbEntity
  8
0
 62
     0
100
AcDbLine
 10
-295.7000000000008
 20
-634.1858114337257
 30
0.0
 11
295.6999999999971
 21
-352.5669123265633
 31
0.0
  0
LINE
  5
2629
330
28CE
100
AcDbEntity
  8
0
 62
     0
100
AcDbLine
 10
-295.7000000000008
 20
-624.1858596895918
 30
0.0
 11
295.6999999999971
 21
-342.5669605824296
 31
0.0
  0
LINE
  5
262A
330
28CE
100
AcDbEntity
  8
0
 62
     0
100
AcDbLine
 10
-295.7000000000044
 20
-614.1859079454585
 30
0.0
 11
295.6999999999971
 21
-332.5670088382949
 31
0.0
  0
LINE
  5
262B
330
28CE
100
AcDbEntity
  8
0
 62
     0
100
AcDbLine
 10
-295.7000000000008
 20
-604.1859562013232
 30
0.0
 11
295.7000000000008
 21
-322.5670570941602
 31
0.0
  0
LINE
  5
262C
330
28CE
100
AcDbEntity
  8
0
 62
     0
100
AcDbLine
 10
-295.7000000000008
 20
-594.1860044571892
 30
0.0
 11
295.7000000000008
 21
-312.5671053500255
 31
0.0
  0
LINE
  5
262D
330
28CE
100
AcDbEntity
  8
0
 62
     0
100
AcDbLine
 10
280.9310147839424
 20
-309.6000000000004
 30
0.0
 11
295.7000000000008
 21
-302.5671536058899
 31
0.0
  0
LINE
  5
262E
330
28CE
100
AcDbEntity
  8
0
 62
     0
100
AcDbLine
 10
-295.7000000000008
 20
-584.1860527130545
 30
0.0
 11
280.9310147839424
 21
-309.6000000000004
 31
0.0
  0
LINE
  5
262F
330
28CE
100
AcDbEntity
  8
0
 62
     0
100
AcDbLine
 10
259.931105046955
 20
-309.5999999999985
 30
0.0
 11
295.7000000000008
 21
-292.5672018617561
 31
0.0
  0
LINE
  5
2630
330
28CE
100
AcDbEntity
  8
0
 62
     0
100
AcDbLine
 10
-295.7000000000044
 20
-574.1861009689207
 30
0.0
 11
259.931105046955
 21
-309.5999999999985
 31
0.0
  0
LINE
  5
2631
330
28CE
100
AcDbEntity
  8
0
 62
     0
100
AcDbLine
 10
238.9311953099641
 20
-309.5999999999985
 30
0.0
 11
295.7000000000044
 21
-282.5672501176205
 31
0.0
  0
LINE
  5
2632
330
28CE
100
AcDbEntity
  8
0
 62
     0
100
AcDbLine
 10
-295.7000000000008
 20
-564.1861492247852
 30
0.0
 11
238.9311953099641
 21
-309.5999999999985
 31
0.0
  0
LINE
  5
2633
330
28CE
100
AcDbEntity
  8
0
 62
     0
100
AcDbLine
 10
217.9312855729695
 20
-309.5999999999995
 30
0.0
 11
295.7000000000044
 21
-272.5672983734857
 31
0.0
  0
LINE
  5
2634
330
28CE
100
AcDbEntity
  8
0
 62
     0
100
AcDbLine
 10
-295.7000000000044
 20
-554.1861974806525
 30
0.0
 11
217.9312855729695
 21
-309.5999999999995
 31
0.0
  0
LINE
  5
2635
330
28CE
100
AcDbEntity
  8
0
 62
     0
100
AcDbLine
 10
196.9313758359822
 20
-309.5999999999995
 30
0.0
 11
295.7000000000008
 21
-262.567346629352
 31
0.0
  0
LINE
  5
2636
330
28CE
100
AcDbEntity
  8
0
 62
     0
100
AcDbLine
 10
-295.7000000000008
 20
-544.1862457365167
 30
0.0
 11
196.9313758359822
 21
-309.5999999999995
 31
0.0
  0
LINE
  5
2637
330
28CE
100
AcDbEntity
  8
0
 62
     0
100
AcDbLine
 10
175.9314660989912
 20
-309.5999999999985
 30
0.0
 11
295.7000000000008
 21
-252.5673948852173
 31
0.0
  0
LINE
  5
2638
330
28CE
100
AcDbEntity
  8
0
 62
     0
100
AcDbLine
 10
-295.7000000000044
 20
-534.1862939923819
 30
0.0
 11
175.9314660989876
 21
-309.6000000000004
 31
0.0
  0
LINE
  5
2639
330
28CE
100
AcDbEntity
  8
0
 62
     0
100
AcDbLine
 10
154.9315563620002
 20
-309.5999999999985
 30
0.0
 11
295.7000000000008
 21
-242.5674431410834
 31
0.0
  0
LINE
  5
263A
330
28CE
100
AcDbEntity
  8
0
 62
     0
100
AcDbLine
 10
-295.7000000000044
 20
-524.1863422482484
 30
0.0
 11
154.9315563619966
 21
-309.5999999999995
 31
0.0
  0
LINE
  5
263B
330
28CE
100
AcDbEntity
  8
0
 62
     0
100
AcDbLine
 10
133.9316466250092
 20
-309.5999999999985
 30
0.0
 11
295.7000000000044
 21
-232.5674913969479
 31
0.0
  0
LINE
  5
263C
330
28CE
100
AcDbEntity
  8
0
 62
     0
100
AcDbLine
 10
-295.7000000000008
 20
-514.1863905041127
 30
0.0
 11
133.9316466250092
 21
-309.5999999999995
 31
0.0
  0
LINE
  5
263D
330
28CE
100
AcDbEntity
  8
0
 62
     0
100
AcDbLine
 10
112.9317368880183
 20
-309.5999999999985
 30
0.0
 11
295.7000000000008
 21
-222.567539652815
 31
0.0
  0
LINE
  5
263E
330
28CE
100
AcDbEntity
  8
0
 62
     0
100
AcDbLine
 10
-295.7000000000044
 20
-504.1864387599797
 30
0.0
 11
112.9317368880183
 21
-309.5999999999985
 31
0.0
  0
LINE
  5
263F
330
28CE
100
AcDbEntity
  8
0
 62
     0
100
AcDbLine
 10
91.93182715102741
 20
-309.5999999999985
 30
0.0
 11
295.7000000000008
 21
-212.5675879086793
 31
0.0
  0
LINE
  5
2640
330
28CE
100
AcDbEntity
  8
0
 62
     0
100
AcDbLine
 10
-295.7000000000008
 20
-494.1864870158442
 30
0.0
 11
91.93182715102741
 21
-309.5999999999985
 31
0.0
  0
LINE
  5
2641
330
28CE
100
AcDbEntity
  8
0
 62
     0
100
AcDbLine
 10
79.90000000000145
 20
-305.3294867349322
 30
0.0
 11
295.7000000000008
 21
-202.5676361645464
 31
0.0
  0
LINE
  5
2642
330
28CE
100
AcDbEntity
  8
0
 62
     0
100
AcDbLine
 10
-295.7000000000008
 20
-484.1865352717111
 30
0.0
 11
79.90000000000145
 21
-305.3294867349322
 31
0.0
  0
LINE
  5
2643
330
28CE
100
AcDbEntity
  8
0
 62
     0
100
AcDbLine
 10
79.8999999999978
 20
-295.3295349907967
 30
0.0
 11
295.7000000000008
 21
-192.5676844204108
 31
0.0
  0
LINE
  5
2644
330
28CE
100
AcDbEntity
  8
0
 62
     0
100
AcDbLine
 10
-295.7000000000044
 20
-474.1865835275756
 30
0.0
 11
79.8999999999978
 21
-295.3295349907967
 31
0.0
  0
LINE
  5
2645
330
28CE
100
AcDbEntity
  8
0
 62
     0
100
AcDbLine
 10
79.8999999999978
 20
-285.3295832466629
 30
0.0
 11
295.7000000000044
 21
-182.5677326762761
 31
0.0
  0
LINE
  5
2646
330
28CE
100
AcDbEntity
  8
0
 62
     0
100
AcDbLine
 10
-295.7000000000044
 20
-464.1866317834414
 30
0.0
 11
79.8999999999978
 21
-285.3295832466629
 31
0.0
  0
LINE
  5
2647
330
28CE
100
AcDbEntity
  8
0
 62
     0
100
AcDbLine
 10
79.90000000000145
 20
-275.3296315025282
 30
0.0
 11
295.7000000000044
 21
-172.5677809321423
 31
0.0
  0
LINE
  5
2648
330
28CE
100
AcDbEntity
  8
0
 62
     0
100
AcDbLine
 10
-295.7000000000008
 20
-454.1866800393072
 30
0.0
 11
79.90000000000145
 21
-275.3296315025282
 31
0.0
  0
LINE
  5
2649
330
28CE
100
AcDbEntity
  8
0
 62
     0
100
AcDbLine
 10
79.90000000000145
 20
-265.3296797583926
 30
0.0
 11
295.7000000000008
 21
-162.5678291880076
 31
0.0
  0
LINE
  5
264A
330
28CE
100
AcDbEntity
  8
0
 62
     0
100
AcDbLine
 10
-295.7000000000008
 20
-444.1867282951716
 30
0.0
 11
79.8999999999978
 21
-265.3296797583944
 31
0.0
  0
LINE
  5
264B
330
28CE
100
AcDbEntity
  8
0
 62
     0
100
AcDbLine
 10
79.90000000000145
 20
-255.3297280142587
 30
0.0
 11
295.7000000000008
 21
-152.5678774438738
 31
0.0
  0
LINE
  5
264C
330
28CE
100
AcDbEntity
  8
0
 62
     0
100
AcDbLine
 10
-295.7000000000044
 20
-434.1867765510376
 30
0.0
 11
79.90000000000145
 21
-255.3297280142587
 31
0.0
  0
LINE
  5
264D
330
28CE
100
AcDbEntity
  8
0
 62
     0
100
AcDbLine
 10
79.90000000000145
 20
-245.329776270124
 30
0.0
 11
295.7000000000044
 21
-142.5679256997391
 31
0.0
  0
LINE
  5
264E
330
28CE
100
AcDbEntity
  8
0
 62
     0
100
AcDbLine
 10
-295.7000000000008
 20
-424.1868248069031
 30
0.0
 11
79.90000000000145
 21
-245.329776270124
 31
0.0
  0
LINE
  5
264F
330
28CE
100
AcDbEntity
  8
0
 62
     0
100
AcDbLine
 10
79.8999999999978
 20
-235.3298245259903
 30
0.0
 11
295.7000000000008
 21
-132.5679739556053
 31
0.0
  0
LINE
  5
2650
330
28CE
100
AcDbEntity
  8
0
 62
     0
100
AcDbLine
 10
-295.7000000000044
 20
-414.1868730627691
 30
0.0
 11
79.8999999999978
 21
-235.3298245259903
 31
0.0
  0
LINE
  5
2651
330
28CE
100
AcDbEntity
  8
0
 62
     0
100
AcDbLine
 10
79.90000000000145
 20
-225.3298727818556
 30
0.0
 11
295.7000000000044
 21
-122.5680222114706
 31
0.0
  0
LINE
  5
2652
330
28CE
100
AcDbEntity
  8
0
 62
     0
100
AcDbLine
 10
-295.7000000000008
 20
-404.1869213186346
 30
0.0
 11
79.90000000000145
 21
-225.3298727818556
 31
0.0
  0
LINE
  5
2653
330
28CE
100
AcDbEntity
  8
0
 62
     0
100
AcDbLine
 10
79.90000000000145
 20
-215.3299210377217
 30
0.0
 11
288.912944402251
 21
-115.8000000000002
 31
0.0
  0
LINE
  5
2654
330
28CE
100
AcDbEntity
  8
0
 62
     0
100
AcDbLine
 10
-295.7000000000008
 20
-394.1869695745008
 30
0.0
 11
79.90000000000145
 21
-215.3299210377217
 31
0.0
  0
LINE
  5
2655
330
28CE
100
AcDbEntity
  8
0
 62
     0
100
AcDbLine
 10
79.90000000000145
 20
-205.3299692935862
 30
0.0
 11
267.9130346652601
 21
-115.8000000000002
 31
0.0
  0
LINE
  5
2656
330
28CE
100
AcDbEntity
  8
0
 62
     0
100
AcDbLine
 10
-295.7000000000044
 20
-384.1870178303652
 30
0.0
 11
79.8999999999978
 21
-205.329969293588
 31
0.0
  0
LINE
  5
2657
330
28CE
100
AcDbEntity
  8
0
 62
     0
100
AcDbLine
 10
79.8999999999978
 20
-195.3300175494532
 30
0.0
 11
246.9131249282691
 21
-115.8000000000011
 31
0.0
  0
LINE
  5
2658
330
28CE
100
AcDbEntity
  8
0
 62
     0
100
AcDbLine
 10
-295.7000000000044
 20
-374.1870660862324
 30
0.0
 11
79.8999999999978
 21
-195.3300175494551
 31
0.0
  0
LINE
  5
2659
330
28CE
100
AcDbEntity
  8
0
 62
     0
100
AcDbLine
 10
79.8999999999978
 20
-185.3300658053176
 30
0.0
 11
225.9132151912745
 21
-115.8000000000011
 31
0.0
  0
LINE
  5
265A
330
28CE
100
AcDbEntity
  8
0
 62
     0
100
AcDbLine
 10
-295.7000000000044
 20
-364.1871143420968
 30
0.0
 11
79.89999999999419
 21
-185.3300658053194
 31
0.0
  0
LINE
  5
265B
330
28CE
100
AcDbEntity
  8
0
 62
     0
100
AcDbLine
 10
79.90000000000145
 20
-175.3301140611829
 30
0.0
 11
204.9133054542835
 21
-115.8000000000011
 31
0.0
  0
LINE
  5
265C
330
28CE
100
AcDbEntity
  8
0
 62
     0
100
AcDbLine
 10
-295.7000000000008
 20
-354.1871625979611
 30
0.0
 11
79.89999999999419
 21
-175.3301140611857
 31
0.0
  0
LINE
  5
265D
330
28CE
100
AcDbEntity
  8
0
 62
     0
100
AcDbLine
 10
79.90000000000145
 20
-165.33016231705
 30
0.0
 11
183.9133957172961
 21
-115.800000000002
 31
0.0
  0
LINE
  5
265E
330
28CE
100
AcDbEntity
  8
0
 62
     0
100
AcDbLine
 10
-295.7000000000008
 20
-344.1872108538283
 30
0.0
 11
79.8999999999978
 21
-165.3301623170509
 31
0.0
  0
LINE
  5
265F
330
28CE
100
AcDbEntity
  8
0
 62
     0
100
AcDbLine
 10
79.90000000000145
 20
-155.3302105729144
 30
0.0
 11
162.9134859803052
 21
-115.8000000000002
 31
0.0
  0
LINE
  5
2660
330
28CE
100
AcDbEntity
  8
0
 62
     0
100
AcDbLine
 10
-295.7000000000044
 20
-334.1872591096926
 30
0.0
 11
79.8999999999978
 21
-155.3302105729153
 31
0.0
  0
LINE
  5
2661
330
28CE
100
AcDbEntity
  8
0
 62
     0
100
AcDbLine
 10
79.8999999999978
 20
-145.3302588287815
 30
0.0
 11
141.9135762433178
 21
-115.7999999999993
 31
0.0
  0
LINE
  5
2662
330
28CE
100
AcDbEntity
  8
0
 62
     0
100
AcDbLine
 10
-295.7000000000044
 20
-324.1873073655597
 30
0.0
 11
79.8999999999978
 21
-145.3302588287824
 31
0.0
  0
LINE
  5
2663
330
28CE
100
AcDbEntity
  8
0
 62
     0
100
AcDbLine
 10
79.90000000000145
 20
-135.3303070846459
 30
0.0
 11
120.913666506327
 21
-115.7999999999993
 31
0.0
  0
LINE
  5
2664
330
28CE
100
AcDbEntity
  8
0
 62
     0
100
AcDbLine
 10
-295.7000000000008
 20
-314.1873556214243
 30
0.0
 11
79.8999999999978
 21
-135.3303070846468
 31
0.0
  0
LINE
  5
2665
330
28CE
100
AcDbEntity
  8
0
 62
     0
100
AcDbLine
 10
79.8999999999978
 20
-125.3303553405121
 30
0.0
 11
99.91375676933605
 21
-115.7999999999993
 31
0.0
  0
LINE
  5
2666
330
28CE
100
AcDbEntity
  8
0
 62
     0
100
AcDbLine
 10
-295.7000000000044
 20
-304.1874038772903
 30
0.0
 11
79.89999999999419
 21
-125.330355340513
 31
0.0
  0
LINE
  5
2667
330
28CE
100
AcDbEntity
  8
0
 62
     0
100
AcDbLine
 10
-295.7000000000008
 20
-294.1874521331556
 30
0.0
 11
78.91384703234506
 21
-115.8000000000002
 31
0.0
  0
LINE
  5
2668
330
28CE
100
AcDbEntity
  8
0
 62
     0
100
AcDbLine
 10
-295.7000000000044
 20
-284.1875003890218
 30
0.0
 11
57.9139372953541
 21
-115.7999999999993
 31
0.0
  0
LINE
  5
2669
330
28CE
100
AcDbEntity
  8
0
 62
     0
100
AcDbLine
 10
-295.7000000000044
 20
-274.1875486448862
 30
0.0
 11
36.91402755836316
 21
-115.7999999999993
 31
0.0
  0
LINE
  5
266A
330
28CE
100
AcDbEntity
  8
0
 62
     0
100
AcDbLine
 10
-295.7000000000008
 20
-264.1875969007514
 30
0.0
 11
15.9141178213722
 21
-115.8000000000002
 31
0.0
  0
LINE
  5
266B
330
28CE
100
AcDbEntity
  8
0
 62
     0
100
AcDbLine
 10
-295.7000000000008
 20
-254.1876451566186
 30
0.0
 11
-5.085791915615118
 21
-115.7999999999983
 31
0.0
  0
LINE
  5
266C
330
28CE
100
AcDbEntity
  8
0
 62
     0
100
AcDbLine
 10
-295.7000000000008
 20
-244.1876934124839
 30
0.0
 11
-26.08570165260971
 21
-115.7999999999993
 31
0.0
  0
LINE
  5
266D
330
28CE
100
AcDbEntity
  8
0
 62
     0
100
AcDbLine
 10
-295.7000000000044
 20
-234.1877416683501
 30
0.0
 11
-47.08561138959703
 21
-115.7999999999993
 31
0.0
  0
LINE
  5
266E
330
28CE
100
AcDbEntity
  8
0
 62
     0
100
AcDbLine
 10
-295.7000000000008
 20
-224.1877899242145
 30
0.0
 11
-68.08552112658799
 21
-115.7999999999993
 31
0.0
  0
LINE
  5
266F
330
28CE
100
AcDbEntity
  8
0
 62
     0
100
AcDbLine
 10
-295.7000000000044
 20
-214.1878381800816
 30
0.0
 11
-89.08543086358255
 21
-115.8000000000002
 31
0.0
  0
LINE
  5
2670
330
28CE
100
AcDbEntity
  8
0
 62
     0
100
AcDbLine
 10
-295.7000000000008
 20
-204.187886435946
 30
0.0
 11
-110.0853406005699
 21
-115.8000000000002
 31
0.0
  0
LINE
  5
2671
330
28CE
100
AcDbEntity
  8
0
 62
     0
100
AcDbLine
 10
-295.7000000000044
 20
-194.1879346918121
 30
0.0
 11
-131.0852503375608
 21
-115.7999999999983
 31
0.0
  0
LINE
  5
2672
330
28CE
100
AcDbEntity
  8
0
 62
     0
100
AcDbLine
 10
-295.7000000000044
 20
-184.1879829476775
 30
0.0
 11
-152.0851600745518
 21
-115.7999999999993
 31
0.0
  0
LINE
  5
2673
330
28CE
100
AcDbEntity
  8
0
 62
     0
100
AcDbLine
 10
-295.7000000000008
 20
-174.1880312035418
 30
0.0
 11
-173.0850698115428
 21
-115.7999999999993
 31
0.0
  0
LINE
  5
2674
330
28CE
100
AcDbEntity
  8
0
 62
     0
100
AcDbLine
 10
-295.7000000000044
 20
-164.188079459409
 30
0.0
 11
-194.0849795485337
 21
-115.8000000000002
 31
0.0
  0
LINE
  5
2675
330
28CE
100
AcDbEntity
  8
0
 62
     0
100
AcDbLine
 10
-295.7000000000008
 20
-154.1881277152733
 30
0.0
 11
-215.0848892855247
 21
-115.8000000000002
 31
0.0
  0
LINE
  5
2676
330
28CE
100
AcDbEntity
  8
0
 62
     0
100
AcDbLine
 10
-295.7000000000008
 20
-144.1881759711394
 30
0.0
 11
-236.084799022512
 21
-115.7999999999983
 31
0.0
  0
LINE
  5
2677
330
28CE
100
AcDbEntity
  8
0
 62
     0
100
AcDbLine
 10
-295.7000000000044
 20
-134.1882242270048
 30
0.0
 11
-257.0847087595066
 21
-115.7999999999993
 31
0.0
  0
LINE
  5
2678
330
28CE
100
AcDbEntity
  8
0
 62
     0
100
AcDbLine
 10
-295.7000000000044
 20
-124.188272482871
 30
0.0
 11
-278.0846184964939
 21
-115.7999999999983
 31
0.0
  0
ENDBLK
  5
2679
330
28CE
100
AcDbEntity
  8
0
100
AcDbBlockEnd
  0
BLOCK
  5
2AA3
330
2AA2
100
AcDbEntity
  8
0
100
AcDbBlockBegin
  2
*U78
 70
     1
 10
0.0
 20
0.0
 30
0.0
  3
*U78
  1

  0
ENDBLK
  5
2AA4
330
2AA2
100
AcDbEntity
  8
0
100
AcDbBlockEnd
  0
BLOCK
  5
2E0C
330
2E0B
100
AcDbEntity
  8
0
100
AcDbBlockBegin
  2
*U79
 70
     1
 10
0.0
 20
0.0
 30
0.0
  3
*U79
  1

  0
ENDBLK
  5
2E0D
330
2E0B
100
AcDbEntity
  8
0
100
AcDbBlockEnd
  0
ENDSEC
  0
SECTION
  2
ENTITIES
  0
TEXT
  5
953
330
27ED
100
AcDbEntity
  8
OUTLINE
  6
Continuous
 62
     3
100
AcDbText
 10
-418.231467
 20
13.715189
 30
0.0
 40
64.0
  1
 
 41
0.9
100
AcDbText
  0
TEXT
  5
954
330
27ED
100
AcDbEntity
  8
OUTLINE
  6
Continuous
 62
     3
100
AcDbText
 10
-418.231467
 20
13.715189
 30
0.0
 40
64.0
  1
 
 41
0.9
100
AcDbText
  0
TEXT
  5
955
330
27ED
100
AcDbEntity
  8
OUTLINE
  6
Continuous
 62
     3
100
AcDbText
 10
1341.41903
 20
-706.0588199999997
 30
0.0
 40
64.0
  1
 
 41
0.9
100
AcDbText
  0
TEXT
  5
956
330
27ED
100
AcDbEntity
  8
OUTLINE
  6
Continuous
 62
     3
100
AcDbText
 10
1341.41903
 20
-706.0588199999997
 30
0.0
 40
64.0
  1
 
 41
0.9
100
AcDbText
  0
TEXT
  5
957
330
27ED
100
AcDbEntity
  8
OUTLINE
  6
Continuous
 62
     3
100
AcDbText
 10
1341.41903
 20
-706.0588199999997
 30
0.0
 40
64.0
  1
 
 41
0.9
100
AcDbText
  0
TEXT
  5
958
330
27ED
100
AcDbEntity
  8
OUTLINE
  6
Continuous
 62
     3
100
AcDbText
 10
1341.41903
 20
-706.0588199999997
 30
0.0
 40
64.0
  1
 
 41
0.9
100
AcDbText
  0
TEXT
  5
2C19
330
27ED
100
AcDbEntity
  8
ETC
100
AcDbText
 10
331.2372789172116
 20
678.4770007335918
 30
0.0
 40
64.0
  1
システム部材
 41
0.9
100
AcDbText
  0
TEXT
  5
2C1A
330
27ED
100
AcDbEntity
  8
ETC
100
AcDbText
 10
337.4452769172096
 20
779.360326733592
 30
0.0
 40
64.0
  1
QW-60SCF_6
 41
0.9
100
AcDbText
  0
TEXT
  5
2C1B
330
27ED
100
AcDbEntity
  8
ETC
100
AcDbText
 10
331.2372789172116
 20
578.4770007335918
 30
0.0
 40
64.0
  1
QW-60SCF
 41
0.9
100
AcDbText
  0
POINT
  5
2C1C
330
27ED
100
AcDbEntity
  8
ARRANGE
100
AcDbPoint
 10
-228.0614570673749
 20
220.0338566900946
 30
0.0
 39
50.0
  0
LINE
  5
2C1D
330
27ED
100
AcDbEntity
  8
SIZE
100
AcDbLine
 10
116.938542932625
 20
240.0338566900946
 30
0.0
 11
116.938542932625
 21
519.7204496266117
 31
0.0
  0
LINE
  5
2C1E
330
27ED
100
AcDbEntity
  8
SIZE
100
AcDbLine
 10
-573.0614570673749
 20
240.0338566900946
 30
0.0
 11
-573.0614570673749
 21
519.7204496266117
 31
0.0
  0
LINE
  5
2C1F
330
27ED
100
AcDbEntity
  8
SIZE
100
AcDbLine
 10
104.9385429326251
 20
499.7204496266117
 30
0.0
 11
-561.0614570673749
 21
499.7204496266117
 31
0.0
  0
INSERT
  5
2C20
330
27ED
100
AcDbEntity
  8
SIZE
100
AcDbBlockReference
  2
_DOTBLANK
 10
116.938542932625
 20
499.7204496266117
 30
0.0
 41
12.0
 42
12.0
 43
12.0
  0
INSERT
  5
2C21
330
27ED
100
AcDbEntity
  8
SIZE
100
AcDbBlockReference
  2
_DOTBLANK
 10
-573.0614570673749
 20
499.7204496266117
 30
0.0
 41
12.0
 42
12.0
 43
12.0
 50
180.0
  0
MTEXT
  5
2C22
330
27ED
100
AcDbEntity
  8
SIZE
100
AcDbMText
 10
-228.0614570673749
 20
541.7204496266117
 30
0.0
 40
64.0
 41
0.0
 71
     5
 72
     1
  1
\A1;690
 73
     1
 44
1.0
  0
LINE
  5
2C23
330
27ED
100
AcDbEntity
  8
DETAIL
100
AcDbLine
 10
-523.7614570673756
 20
104.2338566900953
 30
0.0
 11
67.63854293262579
 21
104.2338566900948
 31
0.0
  0
LINE
  5
2C24
330
27ED
100
AcDbEntity
  8
DETAIL
100
AcDbLine
 10
67.63854293262579
 20
-424.1661433099046
 30
0.0
 11
-523.7614570673756
 21
-424.1661433099046
 31
0.0
  0
LINE
  5
2C25
330
27ED
100
AcDbEntity
  8
SIZE
100
AcDbLine
 10
96.93854293262509
 20
-459.966143309905
 30
0.0
 11
96.93854293262509
 21
-628.7618958472926
 31
0.0
  0
LINE
  5
2C26
330
27ED
100
AcDbEntity
  8
SIZE
100
AcDbLine
 10
-553.0614570673749
 20
-459.966143309905
 30
0.0
 11
-553.0614570673749
 21
-628.7618958472926
 31
0.0
  0
LINE
  5
2C27
330
27ED
100
AcDbEntity
  8
SIZE
100
AcDbLine
 10
84.93854293262506
 20
-608.7618958472926
 30
0.0
 11
-541.0614570673749
 21
-608.7618958472926
 31
0.0
  0
INSERT
  5
2C28
330
27ED
100
AcDbEntity
  8
SIZE
100
AcDbBlockReference
  2
_DOTBLANK
 10
96.93854293262509
 20
-608.7618958472926
 30
0.0
 41
12.0
 42
12.0
 43
12.0
  0
INSERT
  5
2C29
330
27ED
100
AcDbEntity
  8
SIZE
100
AcDbBlockReference
  2
_DOTBLANK
 10
-553.0614570673749
 20
-608.7618958472926
 30
0.0
 41
12.0
 42
12.0
 43
12.0
 50
180.0
  0
MTEXT
  5
2C2A
330
27ED
100
AcDbEntity
  8
SIZE
100
AcDbMText
 10
-228.0614570673749
 20
-566.7618958472926
 30
0.0
 40
64.0
 41
0.0
 71
     5
 72
     1
  1
\A1;650
 73
     1
 44
1.0
  0
LINE
  5
2C2B
330
27ED
100
AcDbEntity
  8
SIZE
100
AcDbLine
 10
96.93854293262509
 20
252.5338566900946
 30
0.0
 11
96.93854293262509
 21
401.1659476997119
 31
0.0
  0
LINE
  5
2C2C
330
27ED
100
AcDbEntity
  8
SIZE
100
AcDbLine
 10
-553.0614570673749
 20
252.5338566900946
 30
0.0
 11
-553.0614570673749
 21
401.1659476997119
 31
0.0
  0
LINE
  5
2C2D
330
27ED
100
AcDbEntity
  8
SIZE
100
AcDbLine
 10
84.93854293262506
 20
381.165947699712
 30
0.0
 11
-541.0614570673749
 21
381.165947699712
 31
0.0
  0
INSERT
  5
2C2E
330
27ED
100
AcDbEntity
  8
SIZE
100
AcDbBlockReference
  2
_DOTBLANK
 10
96.93854293262509
 20
381.165947699712
 30
0.0
 41
12.0
 42
12.0
 43
12.0
  0
INSERT
  5
2C2F
330
27ED
100
AcDbEntity
  8
SIZE
100
AcDbBlockReference
  2
_DOTBLANK
 10
-553.0614570673749
 20
381.165947699712
 30
0.0
 41
12.0
 42
12.0
 43
12.0
 50
180.0
  0
MTEXT
  5
2C30
330
27ED
100
AcDbEntity
  8
SIZE
100
AcDbMText
 10
-228.617334701368
 20
423.1659476997118
 30
0.0
 40
64.0
 41
0.0
 71
     5
 72
     1
  1
\A1;650
 73
     1
 44
1.0
  0
LINE
  5
2C31
330
27ED
100
AcDbEntity
  8
DETAIL
100
AcDbLine
 10
-523.7614570673756
 20
-424.1661433099046
 30
0.0
 11
-523.7614570673756
 21
104.2338566900948
 31
0.0
  0
LINE
  5
2C32
330
27ED
100
AcDbEntity
  8
SIZE
100
AcDbLine
 10
-573.0614570673749
 20
-439.966143309905
 30
0.0
 11
-771.6247823730807
 21
-439.966143309905
 31
0.0
  0
LINE
  5
2C33
330
27ED
100
AcDbEntity
  8
SIZE
100
AcDbLine
 10
-593.0614570673749
 20
220.0338566900946
 30
0.0
 11
-771.6247823730807
 21
220.0338566900946
 31
0.0
  0
LINE
  5
2C34
330
27ED
100
AcDbEntity
  8
SIZE
100
AcDbLine
 10
-751.6247823730807
 20
-427.9661433099049
 30
0.0
 11
-751.6247823730807
 21
208.0338566900946
 31
0.0
  0
INSERT
  5
2C35
330
27ED
100
AcDbEntity
  8
SIZE
100
AcDbBlockReference
  2
_DOTBLANK
 10
-751.6247823730807
 20
-439.966143309905
 30
0.0
 41
12.0
 42
12.0
 43
12.0
 50
270.0
  0
INSERT
  5
2C36
330
27ED
100
AcDbEntity
  8
SIZE
100
AcDbBlockReference
  2
_DOTBLANK
 10
-751.6247823730807
 20
220.0338566900946
 30
0.0
 41
12.0
 42
12.0
 43
12.0
 50
90.0
  0
MTEXT
  5
2C37
330
27ED
100
AcDbEntity
  8
SIZE
100
AcDbMText
 10
-793.6247823730807
 20
-109.9661433099049
 30
0.0
 40
64.0
 41
0.0
 71
     5
 72
     1
  1
\A1;660
 11
0.0000000000000001
 21
1.0
 31
0.0
 73
     1
 44
1.0
  0
LINE
  5
2C38
330
27ED
100
AcDbEntity
  8
NOTE
100
AcDbLine
 10
-553.0614570673749
 20
232.5338566900946
 30
0.0
 11
-553.0614570673749
 21
207.5338566900946
 31
0.0
  0
LINE
  5
2C39
330
27ED
100
AcDbEntity
  8
DETAIL
100
AcDbLine
 10
67.63854293262579
 20
-424.1661433099046
 30
0.0
 11
67.63854293262579
 21
104.2338566900948
 31
0.0
  0
LINE
  5
2C3A
330
27ED
100
AcDbEntity
  8
BASIS
100
AcDbLine
 10
-228.0614570673749
 20
245.0338566900946
 30
0.0
 11
-228.0614570673749
 21
-485.9661433099048
 31
0.0
  0
CIRCLE
  5
2C3B
330
27ED
100
AcDbEntity
  8
ARRANGE
100
AcDbCircle
 10
-228.0614570673749
 20
220.0338565914212
 30
0.0
 40
40.0
  0
LINE
  5
2C3C
330
27ED
100
AcDbEntity
  8
NOTE
100
AcDbLine
 10
96.93854293262509
 20
207.5338566900946
 30
0.0
 11
96.93854293262509
 21
232.5338566900946
 31
0.0
  0
INSERT
  5
2C3D
330
27ED
100
AcDbEntity
  8
NOTE
100
AcDbBlockReference
  2
_OPEN30
 10
-553.0614570673749
 20
220.0338566900946
 30
0.0
 41
11.99999999999906
 42
12.0
 43
12.0
 50
312.6090116116846
1001
ACAD
1000
DSTYLE
1002
{
1070
    41
1040
12.0
1070
    42
1040
20.0
1070
    43
1040
200.0
1070
    44
1040
20.0
1070
    73
1070
     0
1070
    74
1070
     0
1070
    77
1070
     1
1070
    78
1070
     8
1070
   140
1040
64.0
1070
   147
1040
50.0
1070
   172
1070
     1
1070
   174
1070
     1
1070
   275
1070
     0
1070
   284
1070
     0
1070
   285
1070
     0
1070
   286
1070
     0
1070
   341
1005
283C
1070
   342
1005
283A
1002
}
  0
LWPOLYLINE
  5
2C3E
330
27ED
100
AcDbEntity
  8
NOTE
100
AcDbPolyline
 90
        3
 70
     0
 43
0.0
 10
-561.185357903563
 20
228.8657440990101
 10
-640.9308570596293
 20
315.560951748108
 10
-1189.513714202486
 20
315.560951748108
1001
ACAD
1000
DSTYLE
1002
{
1070
    41
1040
12.0
1070
    42
1040
20.0
1070
    43
1040
200.0
1070
    44
1040
20.0
1070
    73
1070
     0
1070
    74
1070
     0
1070
    77
1070
     1
1070
    78
1070
     8
1070
   140
1040
64.0
1070
   147
1040
50.0
1070
   172
1070
     1
1070
   174
1070
     1
1070
   275
1070
     0
1070
   284
1070
     0
1070
   285
1070
     0
1070
   286
1070
     0
1070
   341
1005
283C
1070
   342
1005
283A
1002
}
  0
TEXT
  5
2C3F
330
27ED
100
AcDbEntity
  8
NOTE
100
AcDbText
 10
-1197.742285631058
 20
333.560951748108
 30
0.0
 40
64.0
  1
4×φ15取付穴
 41
0.9
100
AcDbText
  0
LINE
  5
2C40
330
27ED
100
AcDbEntity
  8
SIZE
100
AcDbLine
 10
-573.0614570673749
 20
-439.966143309905
 30
0.0
 11
-771.6247823730807
 21
-439.966143309905
 31
0.0
  0
LINE
  5
2C41
330
27ED
100
AcDbEntity
  8
SIZE
100
AcDbLine
 10
-559.5614570673749
 20
-460.9661433099048
 30
0.0
 11
-771.6247823730807
 21
-460.9661433099048
 31
0.0
  0
LINE
  5
2C42
330
27ED
100
AcDbEntity
  8
SIZE
100
AcDbLine
 10
-751.6247823730807
 20
-427.9661433099049
 30
0.0
 11
-751.6247823730807
 21
-415.9661433099048
 31
0.0
  0
LINE
  5
2C43
330
27ED
100
AcDbEntity
  8
SIZE
100
AcDbLine
 10
-751.6247823730807
 20
-472.966143309905
 30
0.0
 11
-751.6247823730807
 21
-581.7661433099051
 31
0.0
  0
LINE
  5
2C44
330
27ED
100
AcDbEntity
  8
SIZE
100
AcDbLine
 10
-751.6247823730807
 20
-439.966143309905
 30
0.0
 11
-751.6247823730807
 21
-460.9661433099048
 31
0.0
  0
INSERT
  5
2C45
330
27ED
100
AcDbEntity
  8
SIZE
100
AcDbBlockReference
  2
_DOTBLANK
 10
-751.6247823730807
 20
-439.966143309905
 30
0.0
 41
12.0
 42
12.0
 43
12.0
 50
270.0
  0
INSERT
  5
2C46
330
27ED
100
AcDbEntity
  8
SIZE
100
AcDbBlockReference
  2
_DOTBLANK
 10
-751.6247823730807
 20
-460.9661433099048
 30
0.0
 41
12.0
 42
12.0
 43
12.0
 50
90.0
  0
MTEXT
  5
2C47
330
27ED
100
AcDbEntity
  8
SIZE
100
AcDbMText
 10
-793.6247823730807
 20
-533.3661433099082
 30
0.0
 40
64.0
 41
0.0
 71
     5
 72
     1
  1
\A1;21
 11
0.0000000000000001
 21
1.0
 31
0.0
 73
     1
 44
1.0
  0
LINE
  5
2C48
330
27ED
100
AcDbEntity
  8
SIZE
100
AcDbLine
 10
136.938542932625
 20
220.0338566900946
 30
0.0
 11
258.749525378462
 21
220.0338566900946
 31
0.0
  0
LINE
  5
2C49
330
27ED
100
AcDbEntity
  8
SIZE
100
AcDbLine
 10
136.938542932625
 20
210.0338566900946
 30
0.0
 11
258.749525378462
 21
210.0338566900946
 31
0.0
  0
LINE
  5
2C4A
330
27ED
100
AcDbEntity
  8
SIZE
100
AcDbLine
 10
238.7495253784621
 20
232.0338566900946
 30
0.0
 11
238.7495253784621
 21
244.0338566900946
 31
0.0
  0
LINE
  5
2C4B
330
27ED
100
AcDbEntity
  8
SIZE
100
AcDbLine
 10
238.7495253784621
 20
198.0338566900946
 30
0.0
 11
238.7495253784621
 21
81.00528526152357
 31
0.0
  0
LINE
  5
2C4C
330
27ED
100
AcDbEntity
  8
SIZE
100
AcDbLine
 10
238.7495253784621
 20
220.0338566900946
 30
0.0
 11
238.7495253784621
 21
210.0338566900946
 31
0.0
  0
INSERT
  5
2C4D
330
27ED
100
AcDbEntity
  8
SIZE
100
AcDbBlockReference
  2
_DOTBLANK
 10
238.7495253784621
 20
220.0338566900946
 30
0.0
 41
12.0
 42
12.0
 43
12.0
 50
270.0
  0
INSERT
  5
2C4E
330
27ED
100
AcDbEntity
  8
SIZE
100
AcDbBlockReference
  2
_DOTBLANK
 10
238.7495253784621
 20
210.0338566900946
 30
0.0
 41
12.0
 42
12.0
 43
12.0
 50
90.0
  0
MTEXT
  5
2C4F
330
27ED
100
AcDbEntity
  8
SIZE
100
AcDbMText
 10
196.7495253784619
 20
133.5195709758059
 30
0.0
 40
64.0
 41
0.0
 71
     5
 72
     1
  1
\A1;10
 11
0.0000000000000001
 21
1.0
 31
0.0
 73
     1
 44
1.0
  0
LINE
  5
2C50
330
27ED
100
AcDbEntity
  8
DETAIL
100
AcDbLine
 10
-553.0614570673749
 20
135.033856690095
 30
0.0
 11
96.93854293262509
 21
135.0338566900946
 31
0.0
  0
LINE
  5
2C51
330
27ED
100
AcDbEntity
  8
DETAIL
100
AcDbLine
 10
-539.5614570673749
 20
120.033856690095
 30
0.0
 11
83.43854293262507
 21
120.033856690095
 31
0.0
  0
LINE
  5
2C52
330
27ED
100
AcDbEntity
  8
DETAIL
100
AcDbLine
 10
-573.0614570673749
 20
220.0338566900946
 30
0.0
 11
116.938542932625
 21
220.0338566900946
 31
0.0
  0
LINE
  5
2C53
330
27ED
100
AcDbEntity
  8
DETAIL
100
AcDbLine
 10
-573.0614570673749
 20
210.0338566900946
 30
0.0
 11
116.938542932625
 21
210.0338566900946
 31
0.0
  0
LINE
  5
2C54
330
27ED
100
AcDbEntity
  8
DETAIL
100
AcDbLine
 10
96.93854293262509
 20
-439.966143309905
 30
0.0
 11
-553.0614570673749
 21
-439.966143309905
 31
0.0
  0
LINE
  5
2C55
330
27ED
100
AcDbEntity
  8
DETAIL
100
AcDbLine
 10
-539.5614570673749
 20
-460.9661433099048
 30
0.0
 11
-539.5614570673749
 21
120.033856690095
 31
0.0
  0
LINE
  5
2C56
330
27ED
100
AcDbEntity
  8
DETAIL
100
AcDbLine
 10
-553.0614570673749
 20
135.0338566900946
 30
0.0
 11
-553.0614570673749
 21
-439.966143309905
 31
0.0
  0
LINE
  5
2C57
330
27ED
100
AcDbEntity
  8
DETAIL
100
AcDbLine
 10
-573.0614570673749
 20
210.0338566900946
 30
0.0
 11
-573.0614570673749
 21
220.0338566900946
 31
0.0
  0
LINE
  5
2C58
330
27ED
100
AcDbEntity
  8
DETAIL
100
AcDbLine
 10
-539.5614570673749
 20
135.033856690095
 30
0.0
 11
-539.5614570673749
 21
210.0338566900946
 31
0.0
  0
LINE
  5
2C59
330
27ED
100
AcDbEntity
  8
DETAIL
100
AcDbLine
 10
-539.5614570673749
 20
135.033856690095
 30
0.0
 11
-539.5614570673749
 21
210.0338566900946
 31
0.0
  0
LINE
  5
2C5A
330
27ED
100
AcDbEntity
  8
DETAIL
100
AcDbLine
 10
-539.5614570673749
 20
15.03385669009503
 30
0.0
 11
-539.5614570673749
 21
120.0338566900955
 31
0.0
  0
LINE
  5
2C5B
330
27ED
100
AcDbEntity
  8
DETAIL
100
AcDbLine
 10
83.43854293262507
 20
-460.9661433099048
 30
0.0
 11
83.43854293262507
 21
120.0338566900946
 31
0.0
  0
LINE
  5
2C5C
330
27ED
100
AcDbEntity
  8
DETAIL
100
AcDbLine
 10
96.93854293262509
 20
135.0338566900946
 30
0.0
 11
96.93854293262509
 21
-439.966143309905
 31
0.0
  0
LINE
  5
2C5D
330
27ED
100
AcDbEntity
  8
DETAIL
100
AcDbLine
 10
83.43854293262507
 20
135.0338566900941
 30
0.0
 11
83.43854293262507
 21
210.0338566900946
 31
0.0
  0
LINE
  5
2C5E
330
27ED
100
AcDbEntity
  8
DETAIL
100
AcDbLine
 10
116.938542932625
 20
210.0338566900946
 30
0.0
 11
116.938542932625
 21
220.0338566900946
 31
0.0
  0
LINE
  5
2C5F
330
27ED
100
AcDbEntity
  8
DETAIL
100
AcDbLine
 10
-84.56145706737492
 20
-439.966143309905
 30
0.0
 11
51.93854293262507
 21
-439.966143309905
 31
0.0
  0
LINE
  5
2C60
330
27ED
100
AcDbEntity
  8
DETAIL
100
AcDbLine
 10
83.43854293262507
 20
-454.9661433099047
 30
0.0
 11
-539.5614570673749
 21
-454.9661433099047
 31
0.0
  0
LINE
  5
2C61
330
27ED
100
AcDbEntity
  8
DETAIL
100
AcDbLine
 10
83.43854293262507
 20
-460.9661433099048
 30
0.0
 11
-539.5614570673749
 21
-460.9661433099048
 31
0.0
  0
LINE
  5
2C62
330
27ED
100
AcDbEntity
  8
OUTLINE
100
AcDbLine
 10
-553.0614570673749
 20
135.033856690095
 30
0.0
 11
96.93854293262509
 21
135.0338566900946
 31
0.0
  0
LINE
  5
2C63
330
27ED
100
AcDbEntity
  8
OUTLINE
100
AcDbLine
 10
-539.5614570673749
 20
120.033856690095
 30
0.0
 11
83.43854293262507
 21
120.033856690095
 31
0.0
  0
LINE
  5
2C64
330
27ED
100
AcDbEntity
  8
OUTLINE
100
AcDbLine
 10
-573.0614570673749
 20
210.0338566900946
 30
0.0
 11
116.938542932625
 21
210.0338566900946
 31
0.0
  0
LINE
  5
2C65
330
27ED
100
AcDbEntity
  8
OUTLINE
100
AcDbLine
 10
96.93854293262509
 20
-439.966143309905
 30
0.0
 11
-553.0614570673749
 21
-439.966143309905
 31
0.0
  0
LINE
  5
2C66
330
27ED
100
AcDbEntity
  8
OUTLINE
100
AcDbLine
 10
-539.5614570673749
 20
-460.9661433099048
 30
0.0
 11
-539.5614570673749
 21
120.033856690095
 31
0.0
  0
LINE
  5
2C67
330
27ED
100
AcDbEntity
  8
OUTLINE
100
AcDbLine
 10
-553.0614570673749
 20
135.0338566900946
 30
0.0
 11
-553.0614570673749
 21
-439.966143309905
 31
0.0
  0
LINE
  5
2C68
330
27ED
100
AcDbEntity
  8
OUTLINE
100
AcDbLine
 10
-573.0614570673749
 20
210.0338566900946
 30
0.0
 11
-573.0614570673749
 21
220.0338566900946
 31
0.0
  0
LINE
  5
2C69
330
27ED
100
AcDbEntity
  8
OUTLINE
100
AcDbLine
 10
-539.5614570673749
 20
135.033856690095
 30
0.0
 11
-539.5614570673749
 21
210.0338566900946
 31
0.0
  0
LINE
  5
2C6A
330
27ED
100
AcDbEntity
  8
OUTLINE
100
AcDbLine
 10
-539.5614570673749
 20
135.033856690095
 30
0.0
 11
-539.5614570673749
 21
210.0338566900946
 31
0.0
  0
LINE
  5
2C6B
330
27ED
100
AcDbEntity
  8
OUTLINE
100
AcDbLine
 10
-539.5614570673749
 20
15.03385669009503
 30
0.0
 11
-539.5614570673749
 21
120.0338566900955
 31
0.0
  0
LINE
  5
2C6C
330
27ED
100
AcDbEntity
  8
OUTLINE
100
AcDbLine
 10
83.43854293262507
 20
-460.9661433099048
 30
0.0
 11
83.43854293262507
 21
120.0338566900946
 31
0.0
  0
LINE
  5
2C6D
330
27ED
100
AcDbEntity
  8
OUTLINE
100
AcDbLine
 10
96.93854293262509
 20
135.0338566900946
 30
0.0
 11
96.93854293262509
 21
-439.966143309905
 31
0.0
  0
LINE
  5
2C6E
330
27ED
100
AcDbEntity
  8
OUTLINE
100
AcDbLine
 10
83.43854293262507
 20
135.0338566900941
 30
0.0
 11
83.43854293262507
 21
210.0338566900946
 31
0.0
  0
LINE
  5
2C6F
330
27ED
100
AcDbEntity
  8
OUTLINE
100
AcDbLine
 10
116.938542932625
 20
210.0338566900946
 30
0.0
 11
116.938542932625
 21
220.0338566900946
 31
0.0
  0
LINE
  5
2C70
330
27ED
100
AcDbEntity
  8
OUTLINE
100
AcDbLine
 10
-84.56145706737492
 20
-439.966143309905
 30
0.0
 11
51.93854293262507
 21
-439.966143309905
 31
0.0
  0
LINE
  5
2C71
330
27ED
100
AcDbEntity
  8
OUTLINE
100
AcDbLine
 10
83.43854293262507
 20
-454.9661433099047
 30
0.0
 11
-539.5614570673749
 21
-454.9661433099047
 31
0.0
  0
LINE
  5
2C72
330
27ED
100
AcDbEntity
  8
OUTLINE
100
AcDbLine
 10
83.43854293262507
 20
-460.9661433099048
 30
0.0
 11
-539.5614570673749
 21
-460.9661433099048
 31
0.0
  0
LINE
  5
2C73
330
27ED
100
AcDbEntity
  8
NOTE
100
AcDbLine
 39
50.0
 10
-565.5614570673749
 20
220.0338566900946
 30
0.0
 11
-540.5614570673749
 21
220.0338566900946
 31
0.0
  0
LINE
  5
2C74
330
27ED
100
AcDbEntity
  8
NOTE
100
AcDbLine
 39
50.0
 10
84.43854293262507
 20
220.0338566900946
 30
0.0
 11
109.438542932625
 21
220.0338566900946
 31
0.0
  0
LINE
  5
2C75
330
27ED
100
AcDbEntity
  8
OUTLINE
100
AcDbLine
 39
50.0
 10
-573.0614570673749
 20
220.0338566900946
 30
0.0
 11
116.938542932625
 21
220.0338566900946
 31
0.0
  0
LINE
  5
2C76
330
27ED
100
AcDbEntity
  8
DETAIL
100
AcDbLine
 10
50.55406911489285
 20
104.233856690093
 30
0.0
 11
67.63854293261852
 21
96.09839725760547
 31
0.0
1001
ACAD
1010
0.0
1020
0.0
1030
0.0
1001
ACADANNOTATIVE
1000
AnnotativeData
1002
{
1070
     1
1070
     1
1002
}
  0
LINE
  5
2C77
330
27ED
100
AcDbEntity
  8
DETAIL
100
AcDbLine
 10
29.55415937789826
 20
104.233856690093
 30
0.0
 11
67.63854293261852
 21
86.09844551346986
 31
0.0
1001
ACAD
1010
0.0
1020
0.0
1030
0.0
1001
ACADANNOTATIVE
1000
AnnotativeData
1002
{
1070
     1
1070
     1
1002
}
  0
LINE
  5
2C78
330
27ED
100
AcDbEntity
  8
DETAIL
100
AcDbLine
 10
8.554249640907297
 20
104.233856690093
 30
0.0
 11
67.63854293261488
 21
76.09849376933606
 31
0.0
1001
ACAD
1010
0.0
1020
0.0
1030
0.0
1001
ACADANNOTATIVE
1000
AnnotativeData
1002
{
1070
     1
1070
     1
1002
}
  0
LINE
  5
2C79
330
27ED
100
AcDbEntity
  8
DETAIL
100
AcDbLine
 10
-12.44566009608365
 20
104.2338566900948
 30
0.0
 11
67.63854293261852
 21
66.09854202520228
 31
0.0
1001
ACAD
1010
0.0
1020
0.0
1030
0.0
1001
ACADANNOTATIVE
1000
AnnotativeData
1002
{
1070
     1
1070
     1
1002
}
  0
LINE
  5
2C7A
330
27ED
100
AcDbEntity
  8
DETAIL
100
AcDbLine
 10
-33.44556983307098
 20
104.233856690093
 30
0.0
 11
67.63854293261852
 21
56.09859028106665
 31
0.0
1001
ACAD
1010
0.0
1020
0.0
1030
0.0
1001
ACADANNOTATIVE
1000
AnnotativeData
1002
{
1070
     1
1070
     1
1002
}
  0
LINE
  5
2C7B
330
27ED
100
AcDbEntity
  8
DETAIL
100
AcDbLine
 10
-54.44547957006193
 20
104.233856690093
 30
0.0
 11
67.63854293261852
 21
46.09863853693286
 31
0.0
1001
ACAD
1010
0.0
1020
0.0
1030
0.0
1001
ACADANNOTATIVE
1000
AnnotativeData
1002
{
1070
     1
1070
     1
1002
}
  0
LINE
  5
2C7C
330
27ED
100
AcDbEntity
  8
DETAIL
100
AcDbLine
 10
-75.44538930705289
 20
104.233856690093
 30
0.0
 11
67.63854293261852
 21
36.09868679279725
 31
0.0
1001
ACAD
1010
0.0
1020
0.0
1030
0.0
1001
ACADANNOTATIVE
1000
AnnotativeData
1002
{
1070
     1
1070
     1
1002
}
  0
LINE
  5
2C7D
330
27ED
100
AcDbEntity
  8
DETAIL
100
AcDbLine
 10
-96.44529904404748
 20
104.2338566900921
 30
0.0
 11
67.63854293261852
 21
26.09873504866346
 31
0.0
1001
ACAD
1010
0.0
1020
0.0
1030
0.0
1001
ACADANNOTATIVE
1000
AnnotativeData
1002
{
1070
     1
1070
     1
1002
}
  0
LINE
  5
2C7E
330
27ED
100
AcDbEntity
  8
DETAIL
100
AcDbLine
 10
-117.4452087810348
 20
104.2338566900921
 30
0.0
 11
67.63854293261852
 21
16.09878330452784
 31
0.0
1001
ACAD
1010
0.0
1020
0.0
1030
0.0
1001
ACADANNOTATIVE
1000
AnnotativeData
1002
{
1070
     1
1070
     1
1002
}
  0
LINE
  5
2C7F
330
27ED
100
AcDbEntity
  8
DETAIL
100
AcDbLine
 10
-138.4451185180257
 20
104.2338566900939
 30
0.0
 11
67.63854293261852
 21
6.098831560395865
 31
0.0
1001
ACAD
1010
0.0
1020
0.0
1030
0.0
1001
ACADANNOTATIVE
1000
AnnotativeData
1002
{
1070
     1
1070
     1
1002
}
  0
LINE
  5
2C80
330
27ED
100
AcDbEntity
  8
DETAIL
100
AcDbLine
 10
-159.4450282550167
 20
104.2338566900939
 30
0.0
 11
-148.1614570673844
 21
98.86073038664699
 31
0.0
1001
ACAD
1010
0.0
1020
0.0
1030
0.0
1001
ACADANNOTATIVE
1000
AnnotativeData
1002
{
1070
     1
1070
     1
1002
}
  0
LINE
  5
2C81
330
27ED
100
AcDbEntity
  8
DETAIL
100
AcDbLine
 10
-148.1614570673771
 20
98.86073038664429
 30
0.0
 11
67.63854293261852
 21
-3.901120183739747
 31
0.0
1001
ACAD
1010
0.0
1020
0.0
1030
0.0
1001
ACADANNOTATIVE
1000
AnnotativeData
1002
{
1070
     1
1070
     1
1002
}
  0
LINE
  5
2C82
330
27ED
100
AcDbEntity
  8
DETAIL
100
AcDbLine
 10
-180.444937992004
 20
104.2338566900921
 30
0.0
 11
-148.1614570673844
 21
88.8607786425123
 31
0.0
1001
ACAD
1010
0.0
1020
0.0
1030
0.0
1001
ACADANNOTATIVE
1000
AnnotativeData
1002
{
1070
     1
1070
     1
1002
}
  0
LINE
  5
2C83
330
27ED
100
AcDbEntity
  8
DETAIL
100
AcDbLine
 10
-148.1614570673807
 20
88.86077864251047
 30
0.0
 11
67.63854293261852
 21
-13.90107192787354
 31
0.0
1001
ACAD
1010
0.0
1020
0.0
1030
0.0
1001
ACADANNOTATIVE
1000
AnnotativeData
1002
{
1070
     1
1070
     1
1002
}
  0
LINE
  5
2C84
330
27ED
100
AcDbEntity
  8
DETAIL
100
AcDbLine
 10
-201.4448477289986
 20
104.2338566900921
 30
0.0
 11
-148.1614570673844
 21
78.86082689837667
 31
0.0
1001
ACAD
1010
0.0
1020
0.0
1030
0.0
1001
ACADANNOTATIVE
1000
AnnotativeData
1002
{
1070
     1
1070
     1
1002
}
  0
LINE
  5
2C85
330
27ED
100
AcDbEntity
  8
DETAIL
100
AcDbLine
 10
-148.1614570673807
 20
78.86082689837484
 30
0.0
 11
67.63854293261852
 21
-23.90102367200916
 31
0.0
1001
ACAD
1010
0.0
1020
0.0
1030
0.0
1001
ACADANNOTATIVE
1000
AnnotativeData
1002
{
1070
     1
1070
     1
1002
}
  0
LINE
  5
2C86
330
27ED
100
AcDbEntity
  8
DETAIL
100
AcDbLine
 10
-222.444757465986
 20
104.2338566900921
 30
0.0
 11
-148.1614570673844
 21
68.86087515424286
 31
0.0
1001
ACAD
1010
0.0
1020
0.0
1030
0.0
1001
ACADANNOTATIVE
1000
AnnotativeData
1002
{
1070
     1
1070
     1
1002
}
  0
LINE
  5
2C87
330
27ED
100
AcDbEntity
  8
DETAIL
100
AcDbLine
 10
-148.1614570673807
 20
68.86087515424105
 30
0.0
 11
67.63854293261852
 21
-33.90097541614478
 31
0.0
1001
ACAD
1010
0.0
1020
0.0
1030
0.0
1001
ACADANNOTATIVE
1000
AnnotativeData
1002
{
1070
     1
1070
     1
1002
}
  0
LINE
  5
2C88
330
27ED
100
AcDbEntity
  8
DETAIL
100
AcDbLine
 10
-243.4446672029805
 20
104.2338566900939
 30
0.0
 11
-148.1614570673844
 21
58.86092341010908
 31
0.0
1001
ACAD
1010
0.0
1020
0.0
1030
0.0
1001
ACADANNOTATIVE
1000
AnnotativeData
1002
{
1070
     1
1070
     1
1002
}
  0
LINE
  5
2C89
330
27ED
100
AcDbEntity
  8
DETAIL
100
AcDbLine
 10
-148.1614570673807
 20
58.86092341010726
 30
0.0
 11
67.63854293261852
 21
-43.90092716027674
 31
0.0
1001
ACAD
1010
0.0
1020
0.0
1030
0.0
1001
ACADANNOTATIVE
1000
AnnotativeData
1002
{
1070
     1
1070
     1
1002
}
  0
LINE
  5
2C8A
330
27ED
100
AcDbEntity
  8
DETAIL
100
AcDbLine
 10
-264.4445769399715
 20
104.2338566900939
 30
0.0
 11
-148.1614570673844
 21
48.86097166597529
 31
0.0
1001
ACAD
1010
0.0
1020
0.0
1030
0.0
1001
ACADANNOTATIVE
1000
AnnotativeData
1002
{
1070
     1
1070
     1
1002
}
  0
LINE
  5
2C8B
330
27ED
100
AcDbEntity
  8
DETAIL
100
AcDbLine
 10
-148.1614570673771
 20
48.86097166597163
 30
0.0
 11
67.63854293261852
 21
-53.90087890441236
 31
0.0
1001
ACAD
1010
0.0
1020
0.0
1030
0.0
1001
ACADANNOTATIVE
1000
AnnotativeData
1002
{
1070
     1
1070
     1
1002
}
  0
LINE
  5
2C8C
330
27ED
100
AcDbEntity
  8
DETAIL
100
AcDbLine
 10
-285.4444866769625
 20
104.2338566900939
 30
0.0
 11
-148.1614570673844
 21
38.86101992183967
 31
0.0
1001
ACAD
1010
0.0
1020
0.0
1030
0.0
1001
ACADANNOTATIVE
1000
AnnotativeData
1002
{
1070
     1
1070
     1
1002
}
  0
LINE
  5
2C8D
330
27ED
100
AcDbEntity
  8
DETAIL
100
AcDbLine
 10
-148.1614570673807
 20
38.86101992183785
 30
0.0
 11
67.63854293261852
 21
-63.90083064854615
 31
0.0
1001
ACAD
1010
0.0
1020
0.0
1030
0.0
1001
ACADANNOTATIVE
1000
AnnotativeData
1002
{
1070
     1
1070
     1
1002
}
  0
LINE
  5
2C8E
330
27ED
100
AcDbEntity
  8
DETAIL
100
AcDbLine
 10
-306.4443964139534
 20
104.2338566900939
 30
0.0
 11
-148.1614570673844
 21
28.86106817770587
 31
0.0
1001
ACAD
1010
0.0
1020
0.0
1030
0.0
1001
ACADANNOTATIVE
1000
AnnotativeData
1002
{
1070
     1
1070
     1
1002
}
  0
LINE
  5
2C8F
330
27ED
100
AcDbEntity
  8
DETAIL
100
AcDbLine
 10
-148.1614570673771
 20
28.86106817770224
 30
0.0
 11
67.63854293261852
 21
-73.90078239268087
 31
0.0
1001
ACAD
1010
0.0
1020
0.0
1030
0.0
1001
ACADANNOTATIVE
1000
AnnotativeData
1002
{
1070
     1
1070
     1
1002
}
  0
LINE
  5
2C90
330
27ED
100
AcDbEntity
  8
DETAIL
100
AcDbLine
 10
-327.4443061509444
 20
104.233856690093
 30
0.0
 11
-148.1614570673844
 21
18.86111643357026
 31
0.0
1001
ACAD
1010
0.0
1020
0.0
1030
0.0
1001
ACADANNOTATIVE
1000
AnnotativeData
1002
{
1070
     1
1070
     1
1002
}
  0
LINE
  5
2C91
330
27ED
100
AcDbEntity
  8
DETAIL
100
AcDbLine
 10
-148.1614570673807
 20
18.86111643356844
 30
0.0
 11
67.63854293261852
 21
-83.90073413681557
 31
0.0
1001
ACAD
1010
0.0
1020
0.0
1030
0.0
1001
ACADANNOTATIVE
1000
AnnotativeData
1002
{
1070
     1
1070
     1
1002
}
  0
LINE
  5
2C92
330
27ED
100
AcDbEntity
  8
DETAIL
100
AcDbLine
 10
-348.4442158879316
 20
104.2338566900921
 30
0.0
 11
-148.1614570673844
 21
8.861164689434643
 31
0.0
1001
ACAD
1010
0.0
1020
0.0
1030
0.0
1001
ACADANNOTATIVE
1000
AnnotativeData
1002
{
1070
     1
1070
     1
1002
}
  0
LINE
  5
2C93
330
27ED
100
AcDbEntity
  8
DETAIL
100
AcDbLine
 10
58.53599873319422
 20
-89.56614330990623
 30
0.0
 11
67.63854293261488
 21
-93.90068588094937
 31
0.0
1001
ACAD
1010
0.0
1020
0.0
1030
0.0
1001
ACADANNOTATIVE
1000
AnnotativeData
1002
{
1070
     1
1070
     1
1002
}
  0
LINE
  5
2C94
330
27ED
100
AcDbEntity
  8
DETAIL
100
AcDbLine
 10
-148.1614570673807
 20
8.861164689432824
 30
0.0
 11
58.53599873319422
 21
-89.56614330990623
 31
0.0
1001
ACAD
1010
0.0
1020
0.0
1030
0.0
1001
ACADANNOTATIVE
1000
AnnotativeData
1002
{
1070
     1
1070
     1
1002
}
  0
LINE
  5
2C95
330
27ED
100
AcDbEntity
  8
DETAIL
100
AcDbLine
 10
-369.4441256249227
 20
104.233856690093
 30
0.0
 11
-148.1614570673807
 21
-1.138787054699149
 31
0.0
1001
ACAD
1010
0.0
1020
0.0
1030
0.0
1001
ACADANNOTATIVE
1000
AnnotativeData
1002
{
1070
     1
1070
     1
1002
}
  0
LINE
  5
2C96
330
27ED
100
AcDbEntity
  8
DETAIL
100
AcDbLine
 10
37.53608899620326
 20
-89.56614330990442
 30
0.0
 11
67.63854293261124
 21
-103.9006376250813
 31
0.0
1001
ACAD
1010
0.0
1020
0.0
1030
0.0
1001
ACADANNOTATIVE
1000
AnnotativeData
1002
{
1070
     1
1070
     1
1002
}
  0
LINE
  5
2C97
330
27ED
100
AcDbEntity
  8
DETAIL
100
AcDbLine
 10
-148.1614570673807
 20
-1.138787054699149
 30
0.0
 11
37.53608899620326
 21
-89.56614330990442
 31
0.0
1001
ACAD
1010
0.0
1020
0.0
1030
0.0
1001
ACADANNOTATIVE
1000
AnnotativeData
1002
{
1070
     1
1070
     1
1002
}
  0
LINE
  5
2C98
330
27ED
100
AcDbEntity
  8
DETAIL
100
AcDbLine
 10
-390.4440353619136
 20
104.233856690093
 30
0.0
 11
-148.1614570673807
 21
-11.13873879883476
 31
0.0
1001
ACAD
1010
0.0
1020
0.0
1030
0.0
1001
ACADANNOTATIVE
1000
AnnotativeData
1002
{
1070
     1
1070
     1
1002
}
  0
LINE
  5
2C99
330
27ED
100
AcDbEntity
  8
DETAIL
100
AcDbLine
 10
16.53617925921594
 20
-89.56614330990623
 30
0.0
 11
67.63854293261488
 21
-113.9005893692169
 31
0.0
1001
ACAD
1010
0.0
1020
0.0
1030
0.0
1001
ACADANNOTATIVE
1000
AnnotativeData
1002
{
1070
     1
1070
     1
1002
}
  0
LINE
  5
2C9A
330
27ED
100
AcDbEntity
  8
DETAIL
100
AcDbLine
 10
-148.1614570673807
 20
-11.13873879883476
 30
0.0
 11
16.53617925921594
 21
-89.56614330990623
 31
0.0
1001
ACAD
1010
0.0
1020
0.0
1030
0.0
1001
ACADANNOTATIVE
1000
AnnotativeData
1002
{
1070
     1
1070
     1
1002
}
  0
LINE
  5
2C9B
330
27ED
100
AcDbEntity
  8
DETAIL
100
AcDbLine
 10
-411.4439450989046
 20
104.233856690093
 30
0.0
 11
-148.1614570673807
 21
-21.13869054296856
 31
0.0
1001
ACAD
1010
0.0
1020
0.0
1030
0.0
1001
ACADANNOTATIVE
1000
AnnotativeData
1002
{
1070
     1
1070
     1
1002
}
  0
LINE
  5
2C9C
330
27ED
100
AcDbEntity
  8
DETAIL
100
AcDbLine
 10
-4.463730477775015
 20
-89.56614330990623
 30
0.0
 11
67.63854293261488
 21
-123.9005411133507
 31
0.0
1001
ACAD
1010
0.0
1020
0.0
1030
0.0
1001
ACADANNOTATIVE
1000
AnnotativeData
1002
{
1070
     1
1070
     1
1002
}
  0
LINE
  5
2C9D
330
27ED
100
AcDbEntity
  8
DETAIL
100
AcDbLine
 10
-148.1614570673807
 20
-21.13869054296856
 30
0.0
 11
-4.463730477775015
 21
-89.56614330990623
 31
0.0
1001
ACAD
1010
0.0
1020
0.0
1030
0.0
1001
ACADANNOTATIVE
1000
AnnotativeData
1002
{
1070
     1
1070
     1
1002
}
  0
LINE
  5
2C9E
330
27ED
100
AcDbEntity
  8
DETAIL
100
AcDbLine
 10
-432.4438548358953
 20
104.233856690093
 30
0.0
 11
-148.1614570673771
 21
-31.13864228710327
 31
0.0
1001
ACAD
1010
0.0
1020
0.0
1030
0.0
1001
ACADANNOTATIVE
1000
AnnotativeData
1002
{
1070
     1
1070
     1
1002
}
  0
LINE
  5
2C9F
330
27ED
100
AcDbEntity
  8
DETAIL
100
AcDbLine
 10
-25.46364021476597
 20
-89.56614330990623
 30
0.0
 11
67.63854293261488
 21
-133.9004928574863
 31
0.0
1001
ACAD
1010
0.0
1020
0.0
1030
0.0
1001
ACADANNOTATIVE
1000
AnnotativeData
1002
{
1070
     1
1070
     1
1002
}
  0
LINE
  5
2CA0
330
27ED
100
AcDbEntity
  8
DETAIL
100
AcDbLine
 10
-148.1614570673771
 20
-31.13864228710327
 30
0.0
 11
-25.46364021476597
 21
-89.56614330990623
 31
0.0
1001
ACAD
1010
0.0
1020
0.0
1030
0.0
1001
ACADANNOTATIVE
1000
AnnotativeData
1002
{
1070
     1
1070
     1
1002
}
  0
LINE
  5
2CA1
330
27ED
100
AcDbEntity
  8
DETAIL
100
AcDbLine
 10
-453.4437645728828
 20
104.2338566900912
 30
0.0
 11
-148.1614570673844
 21
-41.13859403123797
 31
0.0
1001
ACAD
1010
0.0
1020
0.0
1030
0.0
1001
ACADANNOTATIVE
1000
AnnotativeData
1002
{
1070
     1
1070
     1
1002
}
  0
LINE
  5
2CA2
330
27ED
100
AcDbEntity
  8
DETAIL
100
AcDbLine
 10
-46.46354995175329
 20
-89.56614330990808
 30
0.0
 11
67.63854293261124
 21
-143.9004446016201
 31
0.0
1001
ACAD
1010
0.0
1020
0.0
1030
0.0
1001
ACADANNOTATIVE
1000
AnnotativeData
1002
{
1070
     1
1070
     1
1002
}
  0
LINE
  5
2CA3
330
27ED
100
AcDbEntity
  8
DETAIL
100
AcDbLine
 10
-148.1614570673844
 20
-41.13859403123797
 30
0.0
 11
-46.46354995175692
 21
-89.56614330990623
 31
0.0
1001
ACAD
1010
0.0
1020
0.0
1030
0.0
1001
ACADANNOTATIVE
1000
AnnotativeData
1002
{
1070
     1
1070
     1
1002
}
  0
LINE
  5
2CA4
330
27ED
100
AcDbEntity
  8
DETAIL
100
AcDbLine
 10
-474.4436743098773
 20
104.233856690093
 30
0.0
 11
-148.1614570673807
 21
-51.13854577537086
 31
0.0
1001
ACAD
1010
0.0
1020
0.0
1030
0.0
1001
ACADANNOTATIVE
1000
AnnotativeData
1002
{
1070
     1
1070
     1
1002
}
  0
LINE
  5
2CA5
330
27ED
100
AcDbEntity
  8
DETAIL
100
AcDbLine
 10
-67.46345968874425
 20
-89.56614330990623
 30
0.0
 11
67.63854293261488
 21
-153.900396345753
 31
0.0
1001
ACAD
1010
0.0
1020
0.0
1030
0.0
1001
ACADANNOTATIVE
1000
AnnotativeData
1002
{
1070
     1
1070
     1
1002
}
  0
LINE
  5
2CA6
330
27ED
100
AcDbEntity
  8
DETAIL
100
AcDbLine
 10
-148.1614570673807
 20
-51.13854577537086
 30
0.0
 11
-67.46345968874789
 21
-89.56614330990442
 31
0.0
1001
ACAD
1010
0.0
1020
0.0
1030
0.0
1001
ACADANNOTATIVE
1000
AnnotativeData
1002
{
1070
     1
1070
     1
1002
}
  0
LINE
  5
2CA7
330
27ED
100
AcDbEntity
  8
DETAIL
100
AcDbLine
 10
-495.4435840468683
 20
104.233856690093
 30
0.0
 11
-148.1614570673807
 21
-61.13849751950646
 31
0.0
1001
ACAD
1010
0.0
1020
0.0
1030
0.0
1001
ACADANNOTATIVE
1000
AnnotativeData
1002
{
1070
     1
1070
     1
1002
}
  0
LINE
  5
2CA8
330
27ED
100
AcDbEntity
  8
DETAIL
100
AcDbLine
 10
-88.4633694257352
 20
-89.56614330990623
 30
0.0
 11
67.63854293261488
 21
-163.9003480898885
 31
0.0
1001
ACAD
1010
0.0
1020
0.0
1030
0.0
1001
ACADANNOTATIVE
1000
AnnotativeData
1002
{
1070
     1
1070
     1
1002
}
  0
LINE
  5
2CA9
330
27ED
100
AcDbEntity
  8
DETAIL
100
AcDbLine
 10
-148.1614570673807
 20
-61.13849751950646
 30
0.0
 11
-88.4633694257352
 21
-89.56614330990623
 31
0.0
1001
ACAD
1010
0.0
1020
0.0
1030
0.0
1001
ACADANNOTATIVE
1000
AnnotativeData
1002
{
1070
     1
1070
     1
1002
}
  0
LINE
  5
2CAA
330
27ED
100
AcDbEntity
  8
DETAIL
100
AcDbLine
 10
-516.4434937838593
 20
104.233856690093
 30
0.0
 11
-148.1614570673807
 21
-71.13844926364027
 31
0.0
1001
ACAD
1010
0.0
1020
0.0
1030
0.0
1001
ACADANNOTATIVE
1000
AnnotativeData
1002
{
1070
     1
1070
     1
1002
}
  0
LINE
  5
2CAB
330
27ED
100
AcDbEntity
  8
DETAIL
100
AcDbLine
 10
-109.4632791627298
 20
-89.56614330990623
 30
0.0
 11
67.63854293261124
 21
-173.9002998340224
 31
0.0
1001
ACAD
1010
0.0
1020
0.0
1030
0.0
1001
ACADANNOTATIVE
1000
AnnotativeData
1002
{
1070
     1
1070
     1
1002
}
  0
LINE
  5
2CAC
330
27ED
100
AcDbEntity
  8
DETAIL
100
AcDbLine
 10
-148.1614570673807
 20
-71.13844926364027
 30
0.0
 11
-109.4632791627298
 21
-89.56614330990623
 31
0.0
1001
ACAD
1010
0.0
1020
0.0
1030
0.0
1001
ACADANNOTATIVE
1000
AnnotativeData
1002
{
1070
     1
1070
     1
1002
}
  0
LINE
  5
2CAD
330
27ED
100
AcDbEntity
  8
DETAIL
100
AcDbLine
 10
-523.7614570673829
 20
97.71864752900228
 30
0.0
 11
-148.1614570673807
 21
-81.13840100777588
 31
0.0
1001
ACAD
1010
0.0
1020
0.0
1030
0.0
1001
ACADANNOTATIVE
1000
AnnotativeData
1002
{
1070
     1
1070
     1
1002
}
  0
LINE
  5
2CAE
330
27ED
100
AcDbEntity
  8
DETAIL
100
AcDbLine
 10
-130.4631888997171
 20
-89.56614330990623
 30
0.0
 11
67.63854293261488
 21
-183.900251578158
 31
0.0
1001
ACAD
1010
0.0
1020
0.0
1030
0.0
1001
ACADANNOTATIVE
1000
AnnotativeData
1002
{
1070
     1
1070
     1
1002
}
  0
LINE
  5
2CAF
330
27ED
100
AcDbEntity
  8
DETAIL
100
AcDbLine
 10
-148.1614570673807
 20
-81.13840100777588
 30
0.0
 11
-130.4631888997171
 21
-89.56614330990623
 31
0.0
1001
ACAD
1010
0.0
1020
0.0
1030
0.0
1001
ACADANNOTATIVE
1000
AnnotativeData
1002
{
1070
     1
1070
     1
1002
}
  0
LINE
  5
2CB0
330
27ED
100
AcDbEntity
  8
DETAIL
100
AcDbLine
 10
-523.7614570673829
 20
87.71869578486848
 30
0.0
 11
67.63854293261488
 21
-193.9002033222918
 31
0.0
1001
ACAD
1010
0.0
1020
0.0
1030
0.0
1001
ACADANNOTATIVE
1000
AnnotativeData
1002
{
1070
     1
1070
     1
1002
}
  0
LINE
  5
2CB1
330
27ED
100
AcDbEntity
  8
DETAIL
100
AcDbLine
 10
-523.7614570673829
 20
77.71874404073469
 30
0.0
 11
67.63854293261488
 21
-203.9001550664257
 31
0.0
1001
ACAD
1010
0.0
1020
0.0
1030
0.0
1001
ACADANNOTATIVE
1000
AnnotativeData
1002
{
1070
     1
1070
     1
1002
}
  0
LINE
  5
2CB2
330
27ED
100
AcDbEntity
  8
DETAIL
100
AcDbLine
 10
-523.7614570673829
 20
67.7187922966009
 30
0.0
 11
67.63854293261124
 21
-213.9001068105595
 31
0.0
1001
ACAD
1010
0.0
1020
0.0
1030
0.0
1001
ACADANNOTATIVE
1000
AnnotativeData
1002
{
1070
     1
1070
     1
1002
}
  0
LINE
  5
2CB3
330
27ED
100
AcDbEntity
  8
DETAIL
100
AcDbLine
 10
-523.7614570673829
 20
57.71884055246619
 30
0.0
 11
67.63854293261488
 21
-223.9000585546951
 31
0.0
1001
ACAD
1010
0.0
1020
0.0
1030
0.0
1001
ACADANNOTATIVE
1000
AnnotativeData
1002
{
1070
     1
1070
     1
1002
}
  0
LINE
  5
2CB4
330
27ED
100
AcDbEntity
  8
DETAIL
100
AcDbLine
 10
-523.7614570673829
 20
47.71888880833057
 30
0.0
 11
67.63854293261124
 21
-233.9000102988289
 31
0.0
1001
ACAD
1010
0.0
1020
0.0
1030
0.0
1001
ACADANNOTATIVE
1000
AnnotativeData
1002
{
1070
     1
1070
     1
1002
}
  0
LINE
  5
2CB5
330
27ED
100
AcDbEntity
  8
DETAIL
100
AcDbLine
 10
-523.7614570673829
 20
37.71893706419678
 30
0.0
 11
67.63854293261488
 21
-243.8999620429645
 31
0.0
1001
ACAD
1010
0.0
1020
0.0
1030
0.0
1001
ACADANNOTATIVE
1000
AnnotativeData
1002
{
1070
     1
1070
     1
1002
}
  0
LINE
  5
2CB6
330
27ED
100
AcDbEntity
  8
DETAIL
100
AcDbLine
 10
-523.7614570673829
 20
27.71898532006118
 30
0.0
 11
67.63854293261488
 21
-253.8999137871001
 31
0.0
1001
ACAD
1010
0.0
1020
0.0
1030
0.0
1001
ACADANNOTATIVE
1000
AnnotativeData
1002
{
1070
     1
1070
     1
1002
}
  0
LINE
  5
2CB7
330
27ED
100
AcDbEntity
  8
DETAIL
100
AcDbLine
 10
-523.7614570673829
 20
17.71903357592919
 30
0.0
 11
67.63854293261852
 21
-263.8998655312339
 31
0.0
1001
ACAD
1010
0.0
1020
0.0
1030
0.0
1001
ACADANNOTATIVE
1000
AnnotativeData
1002
{
1070
     1
1070
     1
1002
}
  0
LINE
  5
2CB8
330
27ED
100
AcDbEntity
  8
DETAIL
100
AcDbLine
 10
-523.7614570673829
 20
7.719081831793571
 30
0.0
 11
67.63854293261852
 21
-273.8998172753695
 31
0.0
1001
ACAD
1010
0.0
1020
0.0
1030
0.0
1001
ACADANNOTATIVE
1000
AnnotativeData
1002
{
1070
     1
1070
     1
1002
}
  0
LINE
  5
2CB9
330
27ED
100
AcDbEntity
  8
DETAIL
100
AcDbLine
 10
-523.7614570673829
 20
-2.28086991234022
 30
0.0
 11
67.63854293261852
 21
-283.8997690195033
 31
0.0
1001
ACAD
1010
0.0
1020
0.0
1030
0.0
1001
ACADANNOTATIVE
1000
AnnotativeData
1002
{
1070
     1
1070
     1
1002
}
  0
LINE
  5
2CBA
330
27ED
100
AcDbEntity
  8
DETAIL
100
AcDbLine
 10
-523.7614570673829
 20
-12.28082165647583
 30
0.0
 11
67.63854293261852
 21
-293.899720763639
 31
0.0
1001
ACAD
1010
0.0
1020
0.0
1030
0.0
1001
ACADANNOTATIVE
1000
AnnotativeData
1002
{
1070
     1
1070
     1
1002
}
  0
LINE
  5
2CBB
330
27ED
100
AcDbEntity
  8
DETAIL
100
AcDbLine
 10
-523.7614570673829
 20
-22.28077340060963
 30
0.0
 11
67.63854293261852
 21
-303.8996725077727
 31
0.0
1001
ACAD
1010
0.0
1020
0.0
1030
0.0
1001
ACADANNOTATIVE
1000
AnnotativeData
1002
{
1070
     1
1070
     1
1002
}
  0
LINE
  5
2CBC
330
27ED
100
AcDbEntity
  8
DETAIL
100
AcDbLine
 10
-523.7614570673829
 20
-32.28072514474343
 30
0.0
 11
67.63854293261852
 21
-313.8996242519056
 31
0.0
1001
ACAD
1010
0.0
1020
0.0
1030
0.0
1001
ACADANNOTATIVE
1000
AnnotativeData
1002
{
1070
     1
1070
     1
1002
}
  0
LINE
  5
2CBD
330
27ED
100
AcDbEntity
  8
DETAIL
100
AcDbLine
 10
-523.7614570673829
 20
-42.28067688887903
 30
0.0
 11
67.63854293261852
 21
-323.8995759960412
 31
0.0
1001
ACAD
1010
0.0
1020
0.0
1030
0.0
1001
ACADANNOTATIVE
1000
AnnotativeData
1002
{
1070
     1
1070
     1
1002
}
  0
LINE
  5
2CBE
330
27ED
100
AcDbEntity
  8
DETAIL
100
AcDbLine
 10
-523.7614570673829
 20
-52.28062863301285
 30
0.0
 11
67.63854293261852
 21
-333.899527740175
 31
0.0
1001
ACAD
1010
0.0
1020
0.0
1030
0.0
1001
ACADANNOTATIVE
1000
AnnotativeData
1002
{
1070
     1
1070
     1
1002
}
  0
LINE
  5
2CBF
330
27ED
100
AcDbEntity
  8
DETAIL
100
AcDbLine
 10
-523.7614570673829
 20
-62.28058037714845
 30
0.0
 11
67.63854293261852
 21
-343.8994794843106
 31
0.0
1001
ACAD
1010
0.0
1020
0.0
1030
0.0
1001
ACADANNOTATIVE
1000
AnnotativeData
1002
{
1070
     1
1070
     1
1002
}
  0
LINE
  5
2CC0
330
27ED
100
AcDbEntity
  8
DETAIL
100
AcDbLine
 10
-523.7614570673829
 20
-72.28053212128225
 30
0.0
 11
67.63854293261852
 21
-353.8994312284444
 31
0.0
1001
ACAD
1010
0.0
1020
0.0
1030
0.0
1001
ACADANNOTATIVE
1000
AnnotativeData
1002
{
1070
     1
1070
     1
1002
}
  0
LINE
  5
2CC1
330
27ED
100
AcDbEntity
  8
DETAIL
100
AcDbLine
 10
-523.7614570673829
 20
-82.28048386541605
 30
0.0
 11
67.63854293261852
 21
-363.8993829725782
 31
0.0
1001
ACAD
1010
0.0
1020
0.0
1030
0.0
1001
ACADANNOTATIVE
1000
AnnotativeData
1002
{
1070
     1
1070
     1
1002
}
  0
LINE
  5
2CC2
330
27ED
100
AcDbEntity
  8
DETAIL
100
AcDbLine
 10
-523.7614570673829
 20
-92.28043560954985
 30
0.0
 11
67.63854293261852
 21
-373.899334716712
 31
0.0
1001
ACAD
1010
0.0
1020
0.0
1030
0.0
1001
ACADANNOTATIVE
1000
AnnotativeData
1002
{
1070
     1
1070
     1
1002
}
  0
LINE
  5
2CC3
330
27ED
100
AcDbEntity
  8
DETAIL
100
AcDbLine
 10
-523.7614570673829
 20
-102.2803873536854
 30
0.0
 11
67.63854293261852
 21
-383.8992864608476
 31
0.0
1001
ACAD
1010
0.0
1020
0.0
1030
0.0
1001
ACADANNOTATIVE
1000
AnnotativeData
1002
{
1070
     1
1070
     1
1002
}
  0
LINE
  5
2CC4
330
27ED
100
AcDbEntity
  8
DETAIL
100
AcDbLine
 10
-523.7614570673829
 20
-112.2803390978192
 30
0.0
 11
67.63854293261488
 21
-393.8992382049814
 31
0.0
1001
ACAD
1010
0.0
1020
0.0
1030
0.0
1001
ACADANNOTATIVE
1000
AnnotativeData
1002
{
1070
     1
1070
     1
1002
}
  0
LINE
  5
2CC5
330
27ED
100
AcDbEntity
  8
DETAIL
100
AcDbLine
 10
-523.7614570673829
 20
-122.2802908419548
 30
0.0
 11
67.63854293261852
 21
-403.8991899491168
 31
0.0
1001
ACAD
1010
0.0
1020
0.0
1030
0.0
1001
ACADANNOTATIVE
1000
AnnotativeData
1002
{
1070
     1
1070
     1
1002
}
  0
LINE
  5
2CC6
330
27ED
100
AcDbEntity
  8
DETAIL
100
AcDbLine
 10
-523.7614570673829
 20
-132.2802425860895
 30
0.0
 11
67.63854293261852
 21
-413.8991416932526
 31
0.0
1001
ACAD
1010
0.0
1020
0.0
1030
0.0
1001
ACADANNOTATIVE
1000
AnnotativeData
1002
{
1070
     1
1070
     1
1002
}
  0
LINE
  5
2CC7
330
27ED
100
AcDbEntity
  8
DETAIL
100
AcDbLine
 10
-523.7614570673829
 20
-142.2801943302224
 30
0.0
 11
67.63854293261852
 21
-423.8990934373846
 31
0.0
1001
ACAD
1010
0.0
1020
0.0
1030
0.0
1001
ACADANNOTATIVE
1000
AnnotativeData
1002
{
1070
     1
1070
     1
1002
}
  0
LINE
  5
2CC8
330
27ED
100
AcDbEntity
  8
DETAIL
100
AcDbLine
 10
-523.7614570673829
 20
-152.280146074357
 30
0.0
 11
47.19943822366281
 21
-424.1661433099056
 31
0.0
1001
ACAD
1010
0.0
1020
0.0
1030
0.0
1001
ACADANNOTATIVE
1000
AnnotativeData
1002
{
1070
     1
1070
     1
1002
}
  0
LINE
  5
2CC9
330
27ED
100
AcDbEntity
  8
DETAIL
100
AcDbLine
 10
-523.7614570673829
 20
-162.2800978184918
 30
0.0
 11
26.19952848667185
 21
-424.1661433099056
 31
0.0
1001
ACAD
1010
0.0
1020
0.0
1030
0.0
1001
ACADANNOTATIVE
1000
AnnotativeData
1002
{
1070
     1
1070
     1
1002
}
  0
LINE
  5
2CCA
330
27ED
100
AcDbEntity
  8
DETAIL
100
AcDbLine
 10
-523.7614570673829
 20
-172.2800495626264
 30
0.0
 11
5.199618749677255
 21
-424.1661433099066
 31
0.0
1001
ACAD
1010
0.0
1020
0.0
1030
0.0
1001
ACADANNOTATIVE
1000
AnnotativeData
1002
{
1070
     1
1070
     1
1002
}
  0
LINE
  5
2CCB
330
27ED
100
AcDbEntity
  8
DETAIL
100
AcDbLine
 10
-523.7614570673829
 20
-182.2800013067603
 30
0.0
 11
-15.8002909873137
 21
-424.1661433099066
 31
0.0
1001
ACAD
1010
0.0
1020
0.0
1030
0.0
1001
ACADANNOTATIVE
1000
AnnotativeData
1002
{
1070
     1
1070
     1
1002
}
  0
LINE
  5
2CCC
330
27ED
100
AcDbEntity
  8
DETAIL
100
AcDbLine
 10
-523.7614570673829
 20
-192.2799530508941
 30
0.0
 11
-36.80020072429738
 21
-424.1661433099066
 31
0.0
1001
ACAD
1010
0.0
1020
0.0
1030
0.0
1001
ACADANNOTATIVE
1000
AnnotativeData
1002
{
1070
     1
1070
     1
1002
}
  0
LINE
  5
2CCD
330
27ED
100
AcDbEntity
  8
DETAIL
100
AcDbLine
 10
-523.7614570673829
 20
-202.279904795028
 30
0.0
 11
-57.80011046129198
 21
-424.1661433099066
 31
0.0
1001
ACAD
1010
0.0
1020
0.0
1030
0.0
1001
ACADANNOTATIVE
1000
AnnotativeData
1002
{
1070
     1
1070
     1
1002
}
  0
LINE
  5
2CCE
330
27ED
100
AcDbEntity
  8
DETAIL
100
AcDbLine
 10
-523.7614570673829
 20
-212.2798565391636
 30
0.0
 11
-78.80002019828293
 21
-424.1661433099066
 31
0.0
1001
ACAD
1010
0.0
1020
0.0
1030
0.0
1001
ACADANNOTATIVE
1000
AnnotativeData
1002
{
1070
     1
1070
     1
1002
}
  0
LINE
  5
2CCF
330
27ED
100
AcDbEntity
  8
DETAIL
100
AcDbLine
 10
-523.7614570673829
 20
-222.2798082832992
 30
0.0
 11
-99.79992993527028
 21
-424.1661433099083
 31
0.0
1001
ACAD
1010
0.0
1020
0.0
1030
0.0
1001
ACADANNOTATIVE
1000
AnnotativeData
1002
{
1070
     1
1070
     1
1002
}
  0
LINE
  5
2CD0
330
27ED
100
AcDbEntity
  8
DETAIL
100
AcDbLine
 10
-523.7614570673829
 20
-232.279760027433
 30
0.0
 11
-120.7998396722612
 21
-424.1661433099083
 31
0.0
1001
ACAD
1010
0.0
1020
0.0
1030
0.0
1001
ACADANNOTATIVE
1000
AnnotativeData
1002
{
1070
     1
1070
     1
1002
}
  0
LINE
  5
2CD1
330
27ED
100
AcDbEntity
  8
DETAIL
100
AcDbLine
 10
-523.7614570673829
 20
-242.2797117715686
 30
0.0
 11
-141.7997494092522
 21
-424.1661433099083
 31
0.0
1001
ACAD
1010
0.0
1020
0.0
1030
0.0
1001
ACADANNOTATIVE
1000
AnnotativeData
1002
{
1070
     1
1070
     1
1002
}
  0
LINE
  5
2CD2
330
27ED
100
AcDbEntity
  8
DETAIL
100
AcDbLine
 10
-523.7614570673829
 20
-252.2796635157006
 30
0.0
 11
-162.7996591462431
 21
-424.1661433099066
 31
0.0
1001
ACAD
1010
0.0
1020
0.0
1030
0.0
1001
ACADANNOTATIVE
1000
AnnotativeData
1002
{
1070
     1
1070
     1
1002
}
  0
LINE
  5
2CD3
330
27ED
100
AcDbEntity
  8
DETAIL
100
AcDbLine
 10
-523.7614570673829
 20
-262.2796152598362
 30
0.0
 11
-183.7995688832341
 21
-424.1661433099066
 31
0.0
1001
ACAD
1010
0.0
1020
0.0
1030
0.0
1001
ACADANNOTATIVE
1000
AnnotativeData
1002
{
1070
     1
1070
     1
1002
}
  0
LINE
  5
2CD4
330
27ED
100
AcDbEntity
  8
DETAIL
100
AcDbLine
 10
-523.7614570673829
 20
-272.2795670039701
 30
0.0
 11
-204.799478620225
 21
-424.1661433099066
 31
0.0
1001
ACAD
1010
0.0
1020
0.0
1030
0.0
1001
ACADANNOTATIVE
1000
AnnotativeData
1002
{
1070
     1
1070
     1
1002
}
  0
LINE
  5
2CD5
330
27ED
100
AcDbEntity
  8
DETAIL
100
AcDbLine
 10
-523.7614570673829
 20
-282.2795187481056
 30
0.0
 11
-225.799388357216
 21
-424.1661433099066
 31
0.0
1001
ACAD
1010
0.0
1020
0.0
1030
0.0
1001
ACADANNOTATIVE
1000
AnnotativeData
1002
{
1070
     1
1070
     1
1002
}
  0
LINE
  5
2CD6
330
27ED
100
AcDbEntity
  8
DETAIL
100
AcDbLine
 10
-523.7614570673866
 20
-292.2794704922394
 30
0.0
 11
-246.7992980942106
 21
-424.1661433099066
 31
0.0
1001
ACAD
1010
0.0
1020
0.0
1030
0.0
1001
ACADANNOTATIVE
1000
AnnotativeData
1002
{
1070
     1
1070
     1
1002
}
  0
LINE
  5
2CD7
330
27ED
100
AcDbEntity
  8
DETAIL
100
AcDbLine
 10
-523.7614570673829
 20
-302.2794222363732
 30
0.0
 11
-267.7992078312016
 21
-424.1661433099056
 31
0.0
1001
ACAD
1010
0.0
1020
0.0
1030
0.0
1001
ACADANNOTATIVE
1000
AnnotativeData
1002
{
1070
     1
1070
     1
1002
}
  0
LINE
  5
2CD8
330
27ED
100
AcDbEntity
  8
DETAIL
100
AcDbLine
 10
-523.7614570673829
 20
-312.2793739805088
 30
0.0
 11
-288.7991175681889
 21
-424.1661433099056
 31
0.0
1001
ACAD
1010
0.0
1020
0.0
1030
0.0
1001
ACADANNOTATIVE
1000
AnnotativeData
1002
{
1070
     1
1070
     1
1002
}
  0
LINE
  5
2CD9
330
27ED
100
AcDbEntity
  8
DETAIL
100
AcDbLine
 10
-523.7614570673829
 20
-322.2793257246427
 30
0.0
 11
-309.7990273051798
 21
-424.1661433099075
 31
0.0
1001
ACAD
1010
0.0
1020
0.0
1030
0.0
1001
ACADANNOTATIVE
1000
AnnotativeData
1002
{
1070
     1
1070
     1
1002
}
  0
LINE
  5
2CDA
330
27ED
100
AcDbEntity
  8
DETAIL
100
AcDbLine
 10
-523.7614570673829
 20
-332.2792774687782
 30
0.0
 11
-330.7989370421708
 21
-424.1661433099075
 31
0.0
1001
ACAD
1010
0.0
1020
0.0
1030
0.0
1001
ACADANNOTATIVE
1000
AnnotativeData
1002
{
1070
     1
1070
     1
1002
}
  0
LINE
  5
2CDB
330
27ED
100
AcDbEntity
  8
DETAIL
100
AcDbLine
 10
-523.7614570673829
 20
-342.279229212912
 30
0.0
 11
-351.7988467791618
 21
-424.1661433099075
 31
0.0
1001
ACAD
1010
0.0
1020
0.0
1030
0.0
1001
ACADANNOTATIVE
1000
AnnotativeData
1002
{
1070
     1
1070
     1
1002
}
  0
LINE
  5
2CDC
330
27ED
100
AcDbEntity
  8
DETAIL
100
AcDbLine
 10
-523.7614570673829
 20
-352.2791809570458
 30
0.0
 11
-372.7987565161527
 21
-424.1661433099056
 31
0.0
1001
ACAD
1010
0.0
1020
0.0
1030
0.0
1001
ACADANNOTATIVE
1000
AnnotativeData
1002
{
1070
     1
1070
     1
1002
}
  0
LINE
  5
2CDD
330
27ED
100
AcDbEntity
  8
DETAIL
100
AcDbLine
 10
-523.7614570673829
 20
-362.2791327011797
 30
0.0
 11
-393.79866625314
 21
-424.1661433099075
 31
0.0
1001
ACAD
1010
0.0
1020
0.0
1030
0.0
1001
ACADANNOTATIVE
1000
AnnotativeData
1002
{
1070
     1
1070
     1
1002
}
  0
LINE
  5
2CDE
330
27ED
100
AcDbEntity
  8
DETAIL
100
AcDbLine
 10
-523.7614570673829
 20
-372.2790844453143
 30
0.0
 11
-414.798575990131
 21
-424.1661433099075
 31
0.0
1001
ACAD
1010
0.0
1020
0.0
1030
0.0
1001
ACADANNOTATIVE
1000
AnnotativeData
1002
{
1070
     1
1070
     1
1002
}
  0
LINE
  5
2CDF
330
27ED
100
AcDbEntity
  8
DETAIL
100
AcDbLine
 10
-523.7614570673829
 20
-382.279036189449
 30
0.0
 11
-435.7984857271218
 21
-424.1661433099075
 31
0.0
1001
ACAD
1010
0.0
1020
0.0
1030
0.0
1001
ACADANNOTATIVE
1000
AnnotativeData
1002
{
1070
     1
1070
     1
1002
}
  0
LINE
  5
2CE0
330
27ED
100
AcDbEntity
  8
DETAIL
100
AcDbLine
 10
-523.7614570673829
 20
-392.2789879335837
 30
0.0
 11
-456.7983954641127
 21
-424.1661433099075
 31
0.0
1001
ACAD
1010
0.0
1020
0.0
1030
0.0
1001
ACADANNOTATIVE
1000
AnnotativeData
1002
{
1070
     1
1070
     1
1002
}
  0
LINE
  5
2CE1
330
27ED
100
AcDbEntity
  8
DETAIL
100
AcDbLine
 10
-523.7614570673829
 20
-402.2789396777175
 30
0.0
 11
-477.7983052011038
 21
-424.1661433099075
 31
0.0
1001
ACAD
1010
0.0
1020
0.0
1030
0.0
1001
ACADANNOTATIVE
1000
AnnotativeData
1002
{
1070
     1
1070
     1
1002
}
  0
LINE
  5
2CE2
330
27ED
100
AcDbEntity
  8
DETAIL
100
AcDbLine
 10
-523.7614570673829
 20
-412.2788914218514
 30
0.0
 11
-498.7982149380982
 21
-424.1661433099056
 31
0.0
1001
ACAD
1010
0.0
1020
0.0
1030
0.0
1001
ACADANNOTATIVE
1000
AnnotativeData
1002
{
1070
     1
1070
     1
1002
}
  0
LINE
  5
2CE3
330
27ED
100
AcDbEntity
  8
DETAIL
100
AcDbLine
 10
-523.7614570673829
 20
-422.2788431659869
 30
0.0
 11
-519.7981246750855
 21
-424.1661433099056
 31
0.0
1001
ACAD
1010
0.0
1020
0.0
1030
0.0
1001
ACADANNOTATIVE
1000
AnnotativeData
1002
{
1070
     1
1070
     1
1002
}
  0
LINE
  5
2CE4
330
27ED
100
AcDbEntity
  8
DETAIL
100
AcDbLine
 10
-523.7614570673756
 20
95.84558420722215
 30
0.0
 11
-506.1460755638687
 21
104.233856690093
 31
0.0
1001
ACAD
1010
0.0
1020
0.0
1030
0.0
1001
ACADANNOTATIVE
1000
AnnotativeData
1002
{
1070
     1
1070
     1
1002
}
  0
LINE
  5
2CE5
330
27ED
100
AcDbEntity
  8
DETAIL
100
AcDbLine
 10
-523.7614570673756
 20
85.84563246308926
 30
0.0
 11
-485.1461658268779
 21
104.2338566900939
 31
0.0
1001
ACAD
1010
0.0
1020
0.0
1030
0.0
1001
ACADANNOTATIVE
1000
AnnotativeData
1002
{
1070
     1
1070
     1
1002
}
  0
LINE
  5
2CE6
330
27ED
100
AcDbEntity
  8
DETAIL
100
AcDbLine
 10
-523.7614570673756
 20
75.84568071895366
 30
0.0
 11
-464.1462560898867
 21
104.2338566900939
 31
0.0
1001
ACAD
1010
0.0
1020
0.0
1030
0.0
1001
ACADANNOTATIVE
1000
AnnotativeData
1002
{
1070
     1
1070
     1
1002
}
  0
LINE
  5
2CE7
330
27ED
100
AcDbEntity
  8
DETAIL
100
AcDbLine
 10
-523.761457067372
 20
65.84572897481985
 30
0.0
 11
-443.146346352896
 21
104.2338566900939
 31
0.0
1001
ACAD
1010
0.0
1020
0.0
1030
0.0
1001
ACADANNOTATIVE
1000
AnnotativeData
1002
{
1070
     1
1070
     1
1002
}
  0
LINE
  5
2CE8
330
27ED
100
AcDbEntity
  8
DETAIL
100
AcDbLine
 10
-523.7614570673756
 20
55.84577723068512
 30
0.0
 11
-422.1464366159048
 21
104.2338566900948
 31
0.0
1001
ACAD
1010
0.0
1020
0.0
1030
0.0
1001
ACADANNOTATIVE
1000
AnnotativeData
1002
{
1070
     1
1070
     1
1002
}
  0
LINE
  5
2CE9
330
27ED
100
AcDbEntity
  8
DETAIL
100
AcDbLine
 10
-523.7614570673756
 20
45.84582548654952
 30
0.0
 11
-401.146526878914
 21
104.2338566900948
 31
0.0
1001
ACAD
1010
0.0
1020
0.0
1030
0.0
1001
ACADANNOTATIVE
1000
AnnotativeData
1002
{
1070
     1
1070
     1
1002
}
  0
LINE
  5
2CEA
330
27ED
100
AcDbEntity
  8
DETAIL
100
AcDbLine
 10
-523.7614570673756
 20
35.84587374241664
 30
0.0
 11
-380.1466171419231
 21
104.2338566900948
 31
0.0
1001
ACAD
1010
0.0
1020
0.0
1030
0.0
1001
ACADANNOTATIVE
1000
AnnotativeData
1002
{
1070
     1
1070
     1
1002
}
  0
LINE
  5
2CEB
330
27ED
100
AcDbEntity
  8
DETAIL
100
AcDbLine
 10
-523.7614570673756
 20
25.84592199828103
 30
0.0
 11
-359.1467074049358
 21
104.2338566900939
 31
0.0
1001
ACAD
1010
0.0
1020
0.0
1030
0.0
1001
ACADANNOTATIVE
1000
AnnotativeData
1002
{
1070
     1
1070
     1
1002
}
  0
LINE
  5
2CEC
330
27ED
100
AcDbEntity
  8
DETAIL
100
AcDbLine
 10
-523.761457067372
 20
15.84597025414723
 30
0.0
 11
-338.1467976679411
 21
104.233856690093
 31
0.0
1001
ACAD
1010
0.0
1020
0.0
1030
0.0
1001
ACADANNOTATIVE
1000
AnnotativeData
1002
{
1070
     1
1070
     1
1002
}
  0
LINE
  5
2CED
330
27ED
100
AcDbEntity
  8
DETAIL
100
AcDbLine
 10
-523.7614570673756
 20
5.846018510013434
 30
0.0
 11
-317.1468879309539
 21
104.2338566900939
 31
0.0
1001
ACAD
1010
0.0
1020
0.0
1030
0.0
1001
ACADANNOTATIVE
1000
AnnotativeData
1002
{
1070
     1
1070
     1
1002
}
  0
LINE
  5
2CEE
330
27ED
100
AcDbEntity
  8
DETAIL
100
AcDbLine
 10
-523.7614570673756
 20
-4.153933234121267
 30
0.0
 11
-296.1469781939666
 21
104.233856690093
 31
0.0
1001
ACAD
1010
0.0
1020
0.0
1030
0.0
1001
ACADANNOTATIVE
1000
AnnotativeData
1002
{
1070
     1
1070
     1
1002
}
  0
LINE
  5
2CEF
330
27ED
100
AcDbEntity
  8
DETAIL
100
AcDbLine
 10
-523.761457067372
 20
-14.15388497825506
 30
0.0
 11
-275.147068456972
 21
104.233856690093
 31
0.0
1001
ACAD
1010
0.0
1020
0.0
1030
0.0
1001
ACADANNOTATIVE
1000
AnnotativeData
1002
{
1070
     1
1070
     1
1002
}
  0
LINE
  5
2CF0
330
27ED
100
AcDbEntity
  8
DETAIL
100
AcDbLine
 10
-523.761457067372
 20
-24.15383672238977
 30
0.0
 11
-254.147158719981
 21
104.233856690093
 31
0.0
1001
ACAD
1010
0.0
1020
0.0
1030
0.0
1001
ACADANNOTATIVE
1000
AnnotativeData
1002
{
1070
     1
1070
     1
1002
}
  0
LINE
  5
2CF1
330
27ED
100
AcDbEntity
  8
DETAIL
100
AcDbLine
 10
-523.7614570673756
 20
-34.15378846652448
 30
0.0
 11
-233.1472489829937
 21
104.233856690093
 31
0.0
1001
ACAD
1010
0.0
1020
0.0
1030
0.0
1001
ACADANNOTATIVE
1000
AnnotativeData
1002
{
1070
     1
1070
     1
1002
}
  0
LINE
  5
2CF2
330
27ED
100
AcDbEntity
  8
DETAIL
100
AcDbLine
 10
-523.7614570673756
 20
-44.15374021065917
 30
0.0
 11
-212.1473392459991
 21
104.2338566900939
 31
0.0
1001
ACAD
1010
0.0
1020
0.0
1030
0.0
1001
ACADANNOTATIVE
1000
AnnotativeData
1002
{
1070
     1
1070
     1
1002
}
  0
LINE
  5
2CF3
330
27ED
100
AcDbEntity
  8
DETAIL
100
AcDbLine
 10
-523.7614570673756
 20
-54.15369195479295
 30
0.0
 11
-191.1474295090117
 21
104.2338566900921
 31
0.0
1001
ACAD
1010
0.0
1020
0.0
1030
0.0
1001
ACADANNOTATIVE
1000
AnnotativeData
1002
{
1070
     1
1070
     1
1002
}
  0
LINE
  5
2CF4
330
27ED
100
AcDbEntity
  8
DETAIL
100
AcDbLine
 10
-523.7614570673756
 20
-64.15364369892859
 30
0.0
 11
-170.1475197720208
 21
104.2338566900921
 31
0.0
1001
ACAD
1010
0.0
1020
0.0
1030
0.0
1001
ACADANNOTATIVE
1000
AnnotativeData
1002
{
1070
     1
1070
     1
1002
}
  0
LINE
  5
2CF5
330
27ED
100
AcDbEntity
  8
DETAIL
100
AcDbLine
 10
-523.761457067372
 20
-74.15359544306149
 30
0.0
 11
-149.1476100350298
 21
104.233856690093
 31
0.0
1001
ACAD
1010
0.0
1020
0.0
1030
0.0
1001
ACADANNOTATIVE
1000
AnnotativeData
1002
{
1070
     1
1070
     1
1002
}
  0
LINE
  5
2CF6
330
27ED
100
AcDbEntity
  8
DETAIL
100
AcDbLine
 10
-523.7614570673756
 20
-84.1535471871971
 30
0.0
 11
-148.1614570673771
 21
94.70350134958016
 31
0.0
1001
ACAD
1010
0.0
1020
0.0
1030
0.0
1001
ACADANNOTATIVE
1000
AnnotativeData
1002
{
1070
     1
1070
     1
1002
}
  0
LINE
  5
2CF7
330
27ED
100
AcDbEntity
  8
DETAIL
100
AcDbLine
 10
-148.1614570673771
 20
94.70350134958016
 30
0.0
 11
-128.1477002980389
 21
104.233856690093
 31
0.0
1001
ACAD
1010
0.0
1020
0.0
1030
0.0
1001
ACADANNOTATIVE
1000
AnnotativeData
1002
{
1070
     1
1070
     1
1002
}
  0
LINE
  5
2CF8
330
27ED
100
AcDbEntity
  8
DETAIL
100
AcDbLine
 10
-523.7614570673756
 20
-94.15349893133088
 30
0.0
 11
-148.1614570673771
 21
84.70354960544637
 31
0.0
1001
ACAD
1010
0.0
1020
0.0
1030
0.0
1001
ACADANNOTATIVE
1000
AnnotativeData
1002
{
1070
     1
1070
     1
1002
}
  0
LINE
  5
2CF9
330
27ED
100
AcDbEntity
  8
DETAIL
100
AcDbLine
 10
-148.1614570673771
 20
84.70354960544637
 30
0.0
 11
-107.1477905610443
 21
104.233856690093
 31
0.0
1001
ACAD
1010
0.0
1020
0.0
1030
0.0
1001
ACADANNOTATIVE
1000
AnnotativeData
1002
{
1070
     1
1070
     1
1002
}
  0
LINE
  5
2CFA
330
27ED
100
AcDbEntity
  8
DETAIL
100
AcDbLine
 10
-523.7614570673756
 20
-104.1534506754656
 30
0.0
 11
-148.1614570673734
 21
74.70359786131165
 31
0.0
1001
ACAD
1010
0.0
1020
0.0
1030
0.0
1001
ACADANNOTATIVE
1000
AnnotativeData
1002
{
1070
     1
1070
     1
1002
}
  0
LINE
  5
2CFB
330
27ED
100
AcDbEntity
  8
DETAIL
100
AcDbLine
 10
-148.1614570673734
 20
74.70359786131165
 30
0.0
 11
-86.14788082405699
 21
104.2338566900939
 31
0.0
1001
ACAD
1010
0.0
1020
0.0
1030
0.0
1001
ACADANNOTATIVE
1000
AnnotativeData
1002
{
1070
     1
1070
     1
1002
}
  0
LINE
  5
2CFC
330
27ED
100
AcDbEntity
  8
DETAIL
100
AcDbLine
 10
-523.761457067372
 20
-114.1534024195994
 30
0.0
 11
-148.1614570673771
 21
64.70364611717605
 31
0.0
1001
ACAD
1010
0.0
1020
0.0
1030
0.0
1001
ACADANNOTATIVE
1000
AnnotativeData
1002
{
1070
     1
1070
     1
1002
}
  0
LINE
  5
2CFD
330
27ED
100
AcDbEntity
  8
DETAIL
100
AcDbLine
 10
-148.1614570673734
 20
64.70364611717787
 30
0.0
 11
-65.14797108706602
 21
104.2338566900939
 31
0.0
1001
ACAD
1010
0.0
1020
0.0
1030
0.0
1001
ACADANNOTATIVE
1000
AnnotativeData
1002
{
1070
     1
1070
     1
1002
}
  0
LINE
  5
2CFE
330
27ED
100
AcDbEntity
  8
DETAIL
100
AcDbLine
 10
-523.761457067372
 20
-124.1533541637341
 30
0.0
 11
-148.1614570673734
 21
54.70369437304317
 31
0.0
1001
ACAD
1010
0.0
1020
0.0
1030
0.0
1001
ACADANNOTATIVE
1000
AnnotativeData
1002
{
1070
     1
1070
     1
1002
}
  0
LINE
  5
2CFF
330
27ED
100
AcDbEntity
  8
DETAIL
100
AcDbLine
 10
-148.1614570673734
 20
54.70369437304317
 30
0.0
 11
-44.14806135007142
 21
104.2338566900939
 31
0.0
1001
ACAD
1010
0.0
1020
0.0
1030
0.0
1001
ACADANNOTATIVE
1000
AnnotativeData
1002
{
1070
     1
1070
     1
1002
}
  0
LINE
  5
2D00
330
27ED
100
AcDbEntity
  8
DETAIL
100
AcDbLine
 10
-523.7614570673756
 20
-134.1533059078697
 30
0.0
 11
-148.1614570673771
 21
44.70374262890755
 31
0.0
1001
ACAD
1010
0.0
1020
0.0
1030
0.0
1001
ACADANNOTATIVE
1000
AnnotativeData
1002
{
1070
     1
1070
     1
1002
}
  0
LINE
  5
2D01
330
27ED
100
AcDbEntity
  8
DETAIL
100
AcDbLine
 10
-148.1614570673771
 20
44.70374262890755
 30
0.0
 11
-23.14815161308411
 21
104.233856690093
 31
0.0
1001
ACAD
1010
0.0
1020
0.0
1030
0.0
1001
ACADANNOTATIVE
1000
AnnotativeData
1002
{
1070
     1
1070
     1
1002
}
  0
LINE
  5
2D02
330
27ED
100
AcDbEntity
  8
DETAIL
100
AcDbLine
 10
-523.7614570673756
 20
-144.1532576520035
 30
0.0
 11
-148.1614570673771
 21
34.70379088477375
 31
0.0
1001
ACAD
1010
0.0
1020
0.0
1030
0.0
1001
ACADANNOTATIVE
1000
AnnotativeData
1002
{
1070
     1
1070
     1
1002
}
  0
LINE
  5
2D03
330
27ED
100
AcDbEntity
  8
DETAIL
100
AcDbLine
 10
-148.1614570673771
 20
34.70379088477375
 30
0.0
 11
-2.14824187609679
 21
104.2338566900921
 31
0.0
1001
ACAD
1010
0.0
1020
0.0
1030
0.0
1001
ACADANNOTATIVE
1000
AnnotativeData
1002
{
1070
     1
1070
     1
1002
}
  0
LINE
  5
2D04
330
27ED
100
AcDbEntity
  8
DETAIL
100
AcDbLine
 10
-523.7614570673756
 20
-154.1532093961382
 30
0.0
 11
-148.1614570673734
 21
24.70383914063905
 31
0.0
1001
ACAD
1010
0.0
1020
0.0
1030
0.0
1001
ACADANNOTATIVE
1000
AnnotativeData
1002
{
1070
     1
1070
     1
1002
}
  0
LINE
  5
2D05
330
27ED
100
AcDbEntity
  8
DETAIL
100
AcDbLine
 10
-148.1614570673734
 20
24.70383914063905
 30
0.0
 11
18.8516678608978
 21
104.233856690093
 31
0.0
1001
ACAD
1010
0.0
1020
0.0
1030
0.0
1001
ACADANNOTATIVE
1000
AnnotativeData
1002
{
1070
     1
1070
     1
1002
}
  0
LINE
  5
2D06
330
27ED
100
AcDbEntity
  8
DETAIL
100
AcDbLine
 10
-523.761457067372
 20
-164.153161140272
 30
0.0
 11
-148.1614570673734
 21
14.70388739650525
 31
0.0
1001
ACAD
1010
0.0
1020
0.0
1030
0.0
1001
ACADANNOTATIVE
1000
AnnotativeData
1002
{
1070
     1
1070
     1
1002
}
  0
LINE
  5
2D07
330
27ED
100
AcDbEntity
  8
DETAIL
100
AcDbLine
 10
-148.1614570673734
 20
14.70388739650525
 30
0.0
 11
39.85157759788876
 21
104.233856690093
 31
0.0
1001
ACAD
1010
0.0
1020
0.0
1030
0.0
1001
ACADANNOTATIVE
1000
AnnotativeData
1002
{
1070
     1
1070
     1
1002
}
  0
LINE
  5
2D08
330
27ED
100
AcDbEntity
  8
DETAIL
100
AcDbLine
 10
-523.7614570673756
 20
-174.1531128844067
 30
0.0
 11
-148.1614570673771
 21
4.703935652370544
 31
0.0
1001
ACAD
1010
0.0
1020
0.0
1030
0.0
1001
ACADANNOTATIVE
1000
AnnotativeData
1002
{
1070
     1
1070
     1
1002
}
  0
LINE
  5
2D09
330
27ED
100
AcDbEntity
  8
DETAIL
100
AcDbLine
 10
-148.1614570673771
 20
4.703935652370544
 30
0.0
 11
60.85148733487608
 21
104.2338566900939
 31
0.0
1001
ACAD
1010
0.0
1020
0.0
1030
0.0
1001
ACADANNOTATIVE
1000
AnnotativeData
1002
{
1070
     1
1070
     1
1002
}
  0
LINE
  5
2D0A
330
27ED
100
AcDbEntity
  8
DETAIL
100
AcDbLine
 10
-523.761457067372
 20
-184.1530646285405
 30
0.0
 11
-148.1614570673734
 21
-5.296016091763249
 31
0.0
1001
ACAD
1010
0.0
1020
0.0
1030
0.0
1001
ACADANNOTATIVE
1000
AnnotativeData
1002
{
1070
     1
1070
     1
1002
}
  0
LINE
  5
2D0B
330
27ED
100
AcDbEntity
  8
DETAIL
100
AcDbLine
 10
-148.1614570673734
 20
-5.296016091763249
 30
0.0
 11
67.63854293262943
 21
97.46583447862256
 31
0.0
1001
ACAD
1010
0.0
1020
0.0
1030
0.0
1001
ACADANNOTATIVE
1000
AnnotativeData
1002
{
1070
     1
1070
     1
1002
}
  0
LINE
  5
2D0C
330
27ED
100
AcDbEntity
  8
DETAIL
100
AcDbLine
 10
-523.7614570673756
 20
-194.1530163726761
 30
0.0
 11
-148.1614570673771
 21
-15.29596783589886
 31
0.0
1001
ACAD
1010
0.0
1020
0.0
1030
0.0
1001
ACADANNOTATIVE
1000
AnnotativeData
1002
{
1070
     1
1070
     1
1002
}
  0
LINE
  5
2D0D
330
27ED
100
AcDbEntity
  8
DETAIL
100
AcDbLine
 10
-148.1614570673771
 20
-15.29596783589886
 30
0.0
 11
67.63854293262579
 21
87.46588273448697
 31
0.0
1001
ACAD
1010
0.0
1020
0.0
1030
0.0
1001
ACADANNOTATIVE
1000
AnnotativeData
1002
{
1070
     1
1070
     1
1002
}
  0
LINE
  5
2D0E
330
27ED
100
AcDbEntity
  8
DETAIL
100
AcDbLine
 10
-523.7614570673756
 20
-204.152968116809
 30
0.0
 11
-148.1614570673771
 21
-25.29591958003266
 31
0.0
1001
ACAD
1010
0.0
1020
0.0
1030
0.0
1001
ACADANNOTATIVE
1000
AnnotativeData
1002
{
1070
     1
1070
     1
1002
}
  0
LINE
  5
2D0F
330
27ED
100
AcDbEntity
  8
DETAIL
100
AcDbLine
 10
-148.1614570673734
 20
-25.29591958003175
 30
0.0
 11
67.63854293262579
 21
77.46593099035408
 31
0.0
1001
ACAD
1010
0.0
1020
0.0
1030
0.0
1001
ACADANNOTATIVE
1000
AnnotativeData
1002
{
1070
     1
1070
     1
1002
}
  0
LINE
  5
2D10
330
27ED
100
AcDbEntity
  8
DETAIL
100
AcDbLine
 10
-523.761457067372
 20
-214.1529198609446
 30
0.0
 11
-148.1614570673734
 21
-35.29587132416736
 31
0.0
1001
ACAD
1010
0.0
1020
0.0
1030
0.0
1001
ACADANNOTATIVE
1000
AnnotativeData
1002
{
1070
     1
1070
     1
1002
}
  0
LINE
  5
2D11
330
27ED
100
AcDbEntity
  8
DETAIL
100
AcDbLine
 10
-148.1614570673734
 20
-35.29587132416736
 30
0.0
 11
67.63854293262579
 21
67.46597924621847
 31
0.0
1001
ACAD
1010
0.0
1020
0.0
1030
0.0
1001
ACADANNOTATIVE
1000
AnnotativeData
1002
{
1070
     1
1070
     1
1002
}
  0
LINE
  5
2D12
330
27ED
100
AcDbEntity
  8
DETAIL
100
AcDbLine
 10
-523.7614570673756
 20
-224.1528716050802
 30
0.0
 11
-148.1614570673771
 21
-45.29582306830207
 31
0.0
1001
ACAD
1010
0.0
1020
0.0
1030
0.0
1001
ACADANNOTATIVE
1000
AnnotativeData
1002
{
1070
     1
1070
     1
1002
}
  0
LINE
  5
2D13
330
27ED
100
AcDbEntity
  8
DETAIL
100
AcDbLine
 10
-148.1614570673771
 20
-45.29582306830207
 30
0.0
 11
67.63854293262579
 21
57.46602750208285
 31
0.0
1001
ACAD
1010
0.0
1020
0.0
1030
0.0
1001
ACADANNOTATIVE
1000
AnnotativeData
1002
{
1070
     1
1070
     1
1002
}
  0
LINE
  5
2D14
330
27ED
100
AcDbEntity
  8
DETAIL
100
AcDbLine
 10
-523.7614570673756
 20
-234.1528233492131
 30
0.0
 11
-148.1614570673771
 21
-55.29577481243496
 31
0.0
1001
ACAD
1010
0.0
1020
0.0
1030
0.0
1001
ACADANNOTATIVE
1000
AnnotativeData
1002
{
1070
     1
1070
     1
1002
}
  0
LINE
  5
2D15
330
27ED
100
AcDbEntity
  8
DETAIL
100
AcDbLine
 10
-148.1614570673771
 20
-55.29577481243496
 30
0.0
 11
67.63854293262579
 21
47.46607575794996
 31
0.0
1001
ACAD
1010
0.0
1020
0.0
1030
0.0
1001
ACADANNOTATIVE
1000
AnnotativeData
1002
{
1070
     1
1070
     1
1002
}
  0
LINE
  5
2D16
330
27ED
100
AcDbEntity
  8
DETAIL
100
AcDbLine
 10
-523.7614570673756
 20
-244.1527750933488
 30
0.0
 11
-148.1614570673771
 21
-65.29572655657057
 31
0.0
1001
ACAD
1010
0.0
1020
0.0
1030
0.0
1001
ACADANNOTATIVE
1000
AnnotativeData
1002
{
1070
     1
1070
     1
1002
}
  0
LINE
  5
2D17
330
27ED
100
AcDbEntity
  8
DETAIL
100
AcDbLine
 10
-148.1614570673771
 20
-65.29572655657057
 30
0.0
 11
67.63854293262579
 21
37.46612401381435
 31
0.0
1001
ACAD
1010
0.0
1020
0.0
1030
0.0
1001
ACADANNOTATIVE
1000
AnnotativeData
1002
{
1070
     1
1070
     1
1002
}
  0
LINE
  5
2D18
330
27ED
100
AcDbEntity
  8
DETAIL
100
AcDbLine
 10
-523.7614570673756
 20
-254.1527268374825
 30
0.0
 11
-148.1614570673734
 21
-75.29567830070438
 31
0.0
1001
ACAD
1010
0.0
1020
0.0
1030
0.0
1001
ACADANNOTATIVE
1000
AnnotativeData
1002
{
1070
     1
1070
     1
1002
}
  0
LINE
  5
2D19
330
27ED
100
AcDbEntity
  8
DETAIL
100
AcDbLine
 10
-148.1614570673734
 20
-75.29567830070438
 30
0.0
 11
67.63854293262579
 21
27.46617226968055
 31
0.0
1001
ACAD
1010
0.0
1020
0.0
1030
0.0
1001
ACADANNOTATIVE
1000
AnnotativeData
1002
{
1070
     1
1070
     1
1002
}
  0
LINE
  5
2D1A
330
27ED
100
AcDbEntity
  8
DETAIL
100
AcDbLine
 10
-523.7614570673756
 20
-264.1526785816172
 30
0.0
 11
-148.1614570673771
 21
-85.29563004483906
 31
0.0
1001
ACAD
1010
0.0
1020
0.0
1030
0.0
1001
ACADANNOTATIVE
1000
AnnotativeData
1002
{
1070
     1
1070
     1
1002
}
  0
LINE
  5
2D1B
330
27ED
100
AcDbEntity
  8
DETAIL
100
AcDbLine
 10
-148.1614570673771
 20
-85.29563004483906
 30
0.0
 11
67.63854293262579
 21
17.46622052554585
 31
0.0
1001
ACAD
1010
0.0
1020
0.0
1030
0.0
1001
ACADANNOTATIVE
1000
AnnotativeData
1002
{
1070
     1
1070
     1
1002
}
  0
LINE
  5
2D1C
330
27ED
100
AcDbEntity
  8
DETAIL
100
AcDbLine
 10
-523.761457067372
 20
-274.1526303257511
 30
0.0
 11
-136.1296299163475
 21
-89.56614330990715
 31
0.0
1001
ACAD
1010
0.0
1020
0.0
1030
0.0
1001
ACADANNOTATIVE
1000
AnnotativeData
1002
{
1070
     1
1070
     1
1002
}
  0
LINE
  5
2D1D
330
27ED
100
AcDbEntity
  8
DETAIL
100
AcDbLine
 10
-136.1296299163439
 20
-89.56614330990531
 30
0.0
 11
67.63854293262943
 21
7.466268781412054
 31
0.0
1001
ACAD
1010
0.0
1020
0.0
1030
0.0
1001
ACADANNOTATIVE
1000
AnnotativeData
1002
{
1070
     1
1070
     1
1002
}
  0
LINE
  5
2D1E
330
27ED
100
AcDbEntity
  8
DETAIL
100
AcDbLine
 10
-523.7614570673756
 20
-284.1525820698858
 30
0.0
 11
-115.1297201793566
 21
-89.56614330990623
 31
0.0
1001
ACAD
1010
0.0
1020
0.0
1030
0.0
1001
ACADANNOTATIVE
1000
AnnotativeData
1002
{
1070
     1
1070
     1
1002
}
  0
LINE
  5
2D1F
330
27ED
100
AcDbEntity
  8
DETAIL
100
AcDbLine
 10
-115.1297201793529
 20
-89.56614330990442
 30
0.0
 11
67.63854293262579
 21
-2.533682962722648
 31
0.0
1001
ACAD
1010
0.0
1020
0.0
1030
0.0
1001
ACADANNOTATIVE
1000
AnnotativeData
1002
{
1070
     1
1070
     1
1002
}
  0
LINE
  5
2D20
330
27ED
100
AcDbEntity
  8
DETAIL
100
AcDbLine
 10
-523.761457067372
 20
-294.1525338140195
 30
0.0
 11
-94.12981044236198
 21
-89.56614330990623
 31
0.0
1001
ACAD
1010
0.0
1020
0.0
1030
0.0
1001
ACADANNOTATIVE
1000
AnnotativeData
1002
{
1070
     1
1070
     1
1002
}
  0
LINE
  5
2D21
330
27ED
100
AcDbEntity
  8
DETAIL
100
AcDbLine
 10
-94.12981044235834
 20
-89.56614330990442
 30
0.0
 11
67.63854293262943
 21
-12.53363470685644
 31
0.0
1001
ACAD
1010
0.0
1020
0.0
1030
0.0
1001
ACADANNOTATIVE
1000
AnnotativeData
1002
{
1070
     1
1070
     1
1002
}
  0
LINE
  5
2D22
330
27ED
100
AcDbEntity
  8
DETAIL
100
AcDbLine
 10
-523.7614570673756
 20
-304.1524855581552
 30
0.0
 11
-73.12990070537466
 21
-89.56614330990623
 31
0.0
1001
ACAD
1010
0.0
1020
0.0
1030
0.0
1001
ACADANNOTATIVE
1000
AnnotativeData
1002
{
1070
     1
1070
     1
1002
}
  0
LINE
  5
2D23
330
27ED
100
AcDbEntity
  8
DETAIL
100
AcDbLine
 10
-73.12990070537466
 20
-89.56614330990623
 30
0.0
 11
67.63854293262579
 21
-22.53358645099206
 31
0.0
1001
ACAD
1010
0.0
1020
0.0
1030
0.0
1001
ACADANNOTATIVE
1000
AnnotativeData
1002
{
1070
     1
1070
     1
1002
}
  0
LINE
  5
2D24
330
27ED
100
AcDbEntity
  8
DETAIL
100
AcDbLine
 10
-523.7614570673756
 20
-314.1524373022881
 30
0.0
 11
-52.12999096838371
 21
-89.56614330990531
 31
0.0
1001
ACAD
1010
0.0
1020
0.0
1030
0.0
1001
ACADANNOTATIVE
1000
AnnotativeData
1002
{
1070
     1
1070
     1
1002
}
  0
LINE
  5
2D25
330
27ED
100
AcDbEntity
  8
DETAIL
100
AcDbLine
 10
-52.12999096838371
 20
-89.56614330990531
 30
0.0
 11
67.63854293262216
 21
-32.53353819512586
 31
0.0
1001
ACAD
1010
0.0
1020
0.0
1030
0.0
1001
ACADANNOTATIVE
1000
AnnotativeData
1002
{
1070
     1
1070
     1
1002
}
  0
LINE
  5
2D26
330
27ED
100
AcDbEntity
  8
DETAIL
100
AcDbLine
 10
-523.761457067372
 20
-324.1523890464236
 30
0.0
 11
-31.13008123138911
 21
-89.56614330990531
 31
0.0
1001
ACAD
1010
0.0
1020
0.0
1030
0.0
1001
ACADANNOTATIVE
1000
AnnotativeData
1002
{
1070
     1
1070
     1
1002
}
  0
LINE
  5
2D27
330
27ED
100
AcDbEntity
  8
DETAIL
100
AcDbLine
 10
-31.13008123138911
 20
-89.56614330990531
 30
0.0
 11
67.63854293262943
 21
-42.53348993925963
 31
0.0
1001
ACAD
1010
0.0
1020
0.0
1030
0.0
1001
ACADANNOTATIVE
1000
AnnotativeData
1002
{
1070
     1
1070
     1
1002
}
  0
LINE
  5
2D28
330
27ED
100
AcDbEntity
  8
DETAIL
100
AcDbLine
 10
-523.7614570673756
 20
-334.1523407905565
 30
0.0
 11
-10.13017149440179
 21
-89.56614330990442
 31
0.0
1001
ACAD
1010
0.0
1020
0.0
1030
0.0
1001
ACADANNOTATIVE
1000
AnnotativeData
1002
{
1070
     1
1070
     1
1002
}
  0
LINE
  5
2D29
330
27ED
100
AcDbEntity
  8
DETAIL
100
AcDbLine
 10
-10.13017149440179
 20
-89.56614330990442
 30
0.0
 11
67.63854293262579
 21
-52.53344168339435
 31
0.0
1001
ACAD
1010
0.0
1020
0.0
1030
0.0
1001
ACADANNOTATIVE
1000
AnnotativeData
1002
{
1070
     1
1070
     1
1002
}
  0
LINE
  5
2D2A
330
27ED
100
AcDbEntity
  8
DETAIL
100
AcDbLine
 10
-523.7614570673756
 20
-344.1522925346922
 30
0.0
 11
10.86973824258916
 21
-89.56614330990531
 31
0.0
1001
ACAD
1010
0.0
1020
0.0
1030
0.0
1001
ACADANNOTATIVE
1000
AnnotativeData
1002
{
1070
     1
1070
     1
1002
}
  0
LINE
  5
2D2B
330
27ED
100
AcDbEntity
  8
DETAIL
100
AcDbLine
 10
10.86973824258916
 20
-89.56614330990531
 30
0.0
 11
67.63854293262579
 21
-62.53339342752815
 31
0.0
1001
ACAD
1010
0.0
1020
0.0
1030
0.0
1001
ACADANNOTATIVE
1000
AnnotativeData
1002
{
1070
     1
1070
     1
1002
}
  0
LINE
  5
2D2C
330
27ED
100
AcDbEntity
  8
DETAIL
100
AcDbLine
 10
-523.7614570673756
 20
-354.1522442788259
 30
0.0
 11
31.86964797958376
 21
-89.56614330990531
 31
0.0
1001
ACAD
1010
0.0
1020
0.0
1030
0.0
1001
ACADANNOTATIVE
1000
AnnotativeData
1002
{
1070
     1
1070
     1
1002
}
  0
LINE
  5
2D2D
330
27ED
100
AcDbEntity
  8
DETAIL
100
AcDbLine
 10
31.86964797958376
 20
-89.56614330990531
 30
0.0
 11
67.63854293262579
 21
-72.53334517166376
 31
0.0
1001
ACAD
1010
0.0
1020
0.0
1030
0.0
1001
ACADANNOTATIVE
1000
AnnotativeData
1002
{
1070
     1
1070
     1
1002
}
  0
LINE
  5
2D2E
330
27ED
100
AcDbEntity
  8
DETAIL
100
AcDbLine
 10
-523.761457067372
 20
-364.1521960229588
 30
0.0
 11
52.86955771657471
 21
-89.56614330990442
 31
0.0
1001
ACAD
1010
0.0
1020
0.0
1030
0.0
1001
ACADANNOTATIVE
1000
AnnotativeData
1002
{
1070
     1
1070
     1
1002
}
  0
LINE
  5
2D2F
330
27ED
100
AcDbEntity
  8
DETAIL
100
AcDbLine
 10
52.86955771657471
 20
-89.56614330990442
 30
0.0
 11
67.63854293262579
 21
-82.53329691579665
 31
0.0
1001
ACAD
1010
0.0
1020
0.0
1030
0.0
1001
ACADANNOTATIVE
1000
AnnotativeData
1002
{
1070
     1
1070
     1
1002
}
  0
LINE
  5
2D30
330
27ED
100
AcDbEntity
  8
DETAIL
100
AcDbLine
 10
-523.7614570673756
 20
-374.1521477670945
 30
0.0
 11
67.63854293262579
 21
-92.53324865993409
 31
0.0
1001
ACAD
1010
0.0
1020
0.0
1030
0.0
1001
ACADANNOTATIVE
1000
AnnotativeData
1002
{
1070
     1
1070
     1
1002
}
  0
LINE
  5
2D31
330
27ED
100
AcDbEntity
  8
DETAIL
100
AcDbLine
 10
-523.761457067372
 20
-384.1520995112282
 30
0.0
 11
67.63854293262216
 21
-102.5332004040697
 31
0.0
1001
ACAD
1010
0.0
1020
0.0
1030
0.0
1001
ACADANNOTATIVE
1000
AnnotativeData
1002
{
1070
     1
1070
     1
1002
}
  0
LINE
  5
2D32
330
27ED
100
AcDbEntity
  8
DETAIL
100
AcDbLine
 10
-523.7614570673756
 20
-394.1520512553628
 30
0.0
 11
67.63854293262216
 21
-112.5331521482026
 31
0.0
1001
ACAD
1010
0.0
1020
0.0
1030
0.0
1001
ACADANNOTATIVE
1000
AnnotativeData
1002
{
1070
     1
1070
     1
1002
}
  0
LINE
  5
2D33
330
27ED
100
AcDbEntity
  8
DETAIL
100
AcDbLine
 10
-523.7614570673756
 20
-404.1520029994966
 30
0.0
 11
67.63854293261852
 21
-122.5331038923382
 31
0.0
1001
ACAD
1010
0.0
1020
0.0
1030
0.0
1001
ACADANNOTATIVE
1000
AnnotativeData
1002
{
1070
     1
1070
     1
1002
}
  0
LINE
  5
2D34
330
27ED
100
AcDbEntity
  8
DETAIL
100
AcDbLine
 10
-523.761457067372
 20
-414.1519547436321
 30
0.0
 11
67.63854293262216
 21
-132.533055636472
 31
0.0
1001
ACAD
1010
0.0
1020
0.0
1030
0.0
1001
ACADANNOTATIVE
1000
AnnotativeData
1002
{
1070
     1
1070
     1
1002
}
  0
LINE
  5
2D35
330
27ED
100
AcDbEntity
  8
DETAIL
100
AcDbLine
 10
-523.7614570673756
 20
-424.1519064877668
 30
0.0
 11
67.63854293262216
 21
-142.5330073806066
 31
0.0
1001
ACAD
1010
0.0
1020
0.0
1030
0.0
1001
ACADANNOTATIVE
1000
AnnotativeData
1002
{
1070
     1
1070
     1
1002
}
  0
LINE
  5
2D36
330
27ED
100
AcDbEntity
  8
DETAIL
100
AcDbLine
 10
-502.7914446726387
 20
-424.1661433099056
 30
0.0
 11
67.63854293262579
 21
-152.5329591247405
 31
0.0
1001
ACAD
1010
0.0
1020
0.0
1030
0.0
1001
ACADANNOTATIVE
1000
AnnotativeData
1002
{
1070
     1
1070
     1
1002
}
  0
LINE
  5
2D37
330
27ED
100
AcDbEntity
  8
DETAIL
100
AcDbLine
 10
-481.7915349356479
 20
-424.1661433099046
 30
0.0
 11
67.63854293262216
 21
-162.5329108688752
 31
0.0
1001
ACAD
1010
0.0
1020
0.0
1030
0.0
1001
ACADANNOTATIVE
1000
AnnotativeData
1002
{
1070
     1
1070
     1
1002
}
  0
LINE
  5
2D38
330
27ED
100
AcDbEntity
  8
DETAIL
100
AcDbLine
 10
-460.7916251986605
 20
-424.1661433099046
 30
0.0
 11
67.63854293262216
 21
-172.532862613009
 31
0.0
1001
ACAD
1010
0.0
1020
0.0
1030
0.0
1001
ACADANNOTATIVE
1000
AnnotativeData
1002
{
1070
     1
1070
     1
1002
}
  0
LINE
  5
2D39
330
27ED
100
AcDbEntity
  8
DETAIL
100
AcDbLine
 10
-439.7917154616657
 20
-424.1661433099046
 30
0.0
 11
67.63854293262579
 21
-182.5328143571446
 31
0.0
1001
ACAD
1010
0.0
1020
0.0
1030
0.0
1001
ACADANNOTATIVE
1000
AnnotativeData
1002
{
1070
     1
1070
     1
1002
}
  0
LINE
  5
2D3A
330
27ED
100
AcDbEntity
  8
DETAIL
100
AcDbLine
 10
-418.7918057246786
 20
-424.1661433099056
 30
0.0
 11
67.63854293262216
 21
-192.5327661012784
 31
0.0
1001
ACAD
1010
0.0
1020
0.0
1030
0.0
1001
ACADANNOTATIVE
1000
AnnotativeData
1002
{
1070
     1
1070
     1
1002
}
  0
LINE
  5
2D3B
330
27ED
100
AcDbEntity
  8
DETAIL
100
AcDbLine
 10
-397.7918959876914
 20
-424.1661433099056
 30
0.0
 11
67.63854293262216
 21
-202.5327178454122
 31
0.0
1001
ACAD
1010
0.0
1020
0.0
1030
0.0
1001
ACADANNOTATIVE
1000
AnnotativeData
1002
{
1070
     1
1070
     1
1002
}
  0
LINE
  5
2D3C
330
27ED
100
AcDbEntity
  8
DETAIL
100
AcDbLine
 10
-376.7919862506967
 20
-424.1661433099046
 30
0.0
 11
67.63854293262216
 21
-212.5326695895469
 31
0.0
1001
ACAD
1010
0.0
1020
0.0
1030
0.0
1001
ACADANNOTATIVE
1000
AnnotativeData
1002
{
1070
     1
1070
     1
1002
}
  0
LINE
  5
2D3D
330
27ED
100
AcDbEntity
  8
DETAIL
100
AcDbLine
 10
-355.7920765137057
 20
-424.1661433099046
 30
0.0
 11
67.63854293262216
 21
-222.5326213336807
 31
0.0
1001
ACAD
1010
0.0
1020
0.0
1030
0.0
1001
ACADANNOTATIVE
1000
AnnotativeData
1002
{
1070
     1
1070
     1
1002
}
  0
LINE
  5
2D3E
330
27ED
100
AcDbEntity
  8
DETAIL
100
AcDbLine
 10
-334.7921667767148
 20
-424.1661433099056
 30
0.0
 11
67.63854293262216
 21
-232.5325730778163
 31
0.0
1001
ACAD
1010
0.0
1020
0.0
1030
0.0
1001
ACADANNOTATIVE
1000
AnnotativeData
1002
{
1070
     1
1070
     1
1002
}
  0
LINE
  5
2D3F
330
27ED
100
AcDbEntity
  8
DETAIL
100
AcDbLine
 10
-313.7922570397238
 20
-424.1661433099046
 30
0.0
 11
67.63854293262579
 21
-242.5325248219492
 31
0.0
1001
ACAD
1010
0.0
1020
0.0
1030
0.0
1001
ACADANNOTATIVE
1000
AnnotativeData
1002
{
1070
     1
1070
     1
1002
}
  0
LINE
  5
2D40
330
27ED
100
AcDbEntity
  8
DETAIL
100
AcDbLine
 10
-292.7923473027329
 20
-424.1661433099046
 30
0.0
 11
67.63854293262216
 21
-252.5324765660848
 31
0.0
1001
ACAD
1010
0.0
1020
0.0
1030
0.0
1001
ACADANNOTATIVE
1000
AnnotativeData
1002
{
1070
     1
1070
     1
1002
}
  0
LINE
  5
2D41
330
27ED
100
AcDbEntity
  8
DETAIL
100
AcDbLine
 10
-271.7924375657383
 20
-424.1661433099046
 30
0.0
 11
67.63854293262579
 21
-262.5324283102177
 31
0.0
1001
ACAD
1010
0.0
1020
0.0
1030
0.0
1001
ACADANNOTATIVE
1000
AnnotativeData
1002
{
1070
     1
1070
     1
1002
}
  0
LINE
  5
2D42
330
27ED
100
AcDbEntity
  8
DETAIL
100
AcDbLine
 10
-250.792527828751
 20
-424.1661433099056
 30
0.0
 11
67.63854293262579
 21
-272.5323800543515
 31
0.0
1001
ACAD
1010
0.0
1020
0.0
1030
0.0
1001
ACADANNOTATIVE
1000
AnnotativeData
1002
{
1070
     1
1070
     1
1002
}
  0
LINE
  5
2D43
330
27ED
100
AcDbEntity
  8
DETAIL
100
AcDbLine
 10
-229.7926180917636
 20
-424.1661433099056
 30
0.0
 11
67.63854293262579
 21
-282.5323317984853
 31
0.0
1001
ACAD
1010
0.0
1020
0.0
1030
0.0
1001
ACADANNOTATIVE
1000
AnnotativeData
1002
{
1070
     1
1070
     1
1002
}
  0
LINE
  5
2D44
330
27ED
100
AcDbEntity
  8
DETAIL
100
AcDbLine
 10
-208.7927083547691
 20
-424.1661433099056
 30
0.0
 11
67.63854293262579
 21
-292.5322835426209
 31
0.0
1001
ACAD
1010
0.0
1020
0.0
1030
0.0
1001
ACADANNOTATIVE
1000
AnnotativeData
1002
{
1070
     1
1070
     1
1002
}
  0
LINE
  5
2D45
330
27ED
100
AcDbEntity
  8
DETAIL
100
AcDbLine
 10
-187.7927986177781
 20
-424.1661433099046
 30
0.0
 11
67.63854293262579
 21
-302.5322352867556
 31
0.0
1001
ACAD
1010
0.0
1020
0.0
1030
0.0
1001
ACADANNOTATIVE
1000
AnnotativeData
1002
{
1070
     1
1070
     1
1002
}
  0
LINE
  5
2D46
330
27ED
100
AcDbEntity
  8
DETAIL
100
AcDbLine
 10
-166.7928888807908
 20
-424.1661433099056
 30
0.0
 11
67.63854293262579
 21
-312.5321870308894
 31
0.0
1001
ACAD
1010
0.0
1020
0.0
1030
0.0
1001
ACADANNOTATIVE
1000
AnnotativeData
1002
{
1070
     1
1070
     1
1002
}
  0
LINE
  5
2D47
330
27ED
100
AcDbEntity
  8
DETAIL
100
AcDbLine
 10
-145.7929791437998
 20
-424.1661433099056
 30
0.0
 11
67.63854293262579
 21
-322.5321387750241
 31
0.0
1001
ACAD
1010
0.0
1020
0.0
1030
0.0
1001
ACADANNOTATIVE
1000
AnnotativeData
1002
{
1070
     1
1070
     1
1002
}
  0
LINE
  5
2D48
330
27ED
100
AcDbEntity
  8
DETAIL
100
AcDbLine
 10
-124.7930694068088
 20
-424.1661433099066
 30
0.0
 11
67.63854293262579
 21
-332.5320905191579
 31
0.0
1001
ACAD
1010
0.0
1020
0.0
1030
0.0
1001
ACADANNOTATIVE
1000
AnnotativeData
1002
{
1070
     1
1070
     1
1002
}
  0
LINE
  5
2D49
330
27ED
100
AcDbEntity
  8
DETAIL
100
AcDbLine
 10
-103.7931596698179
 20
-424.1661433099066
 30
0.0
 11
67.63854293262579
 21
-342.5320422632935
 31
0.0
1001
ACAD
1010
0.0
1020
0.0
1030
0.0
1001
ACADANNOTATIVE
1000
AnnotativeData
1002
{
1070
     1
1070
     1
1002
}
  0
LINE
  5
2D4A
330
27ED
100
AcDbEntity
  8
DETAIL
100
AcDbLine
 10
-82.79324993282694
 20
-424.1661433099056
 30
0.0
 11
67.63854293262943
 21
-352.5319940074264
 31
0.0
1001
ACAD
1010
0.0
1020
0.0
1030
0.0
1001
ACADANNOTATIVE
1000
AnnotativeData
1002
{
1070
     1
1070
     1
1002
}
  0
LINE
  5
2D4B
330
27ED
100
AcDbEntity
  8
DETAIL
100
AcDbLine
 10
-61.79334019583597
 20
-424.1661433099056
 30
0.0
 11
67.63854293262579
 21
-362.531945751562
 31
0.0
1001
ACAD
1010
0.0
1020
0.0
1030
0.0
1001
ACADANNOTATIVE
1000
AnnotativeData
1002
{
1070
     1
1070
     1
1002
}
  0
LINE
  5
2D4C
330
27ED
100
AcDbEntity
  8
DETAIL
100
AcDbLine
 10
-40.79343045884502
 20
-424.1661433099046
 30
0.0
 11
67.63854293262579
 21
-372.5318974956949
 31
0.0
1001
ACAD
1010
0.0
1020
0.0
1030
0.0
1001
ACADANNOTATIVE
1000
AnnotativeData
1002
{
1070
     1
1070
     1
1002
}
  0
LINE
  5
2D4D
330
27ED
100
AcDbEntity
  8
DETAIL
100
AcDbLine
 10
-19.79352072185406
 20
-424.1661433099046
 30
0.0
 11
67.63854293262579
 21
-382.5318492398305
 31
0.0
1001
ACAD
1010
0.0
1020
0.0
1030
0.0
1001
ACADANNOTATIVE
1000
AnnotativeData
1002
{
1070
     1
1070
     1
1002
}
  0
LINE
  5
2D4E
330
27ED
100
AcDbEntity
  8
DETAIL
100
AcDbLine
 10
1.206389015136892
 20
-424.1661433099046
 30
0.0
 11
67.63854293262579
 21
-392.5318009839661
 31
0.0
1001
ACAD
1010
0.0
1020
0.0
1030
0.0
1001
ACADANNOTATIVE
1000
AnnotativeData
1002
{
1070
     1
1070
     1
1002
}
  0
LINE
  5
2D4F
330
27ED
100
AcDbEntity
  8
DETAIL
100
AcDbLine
 10
22.20629875212785
 20
-424.1661433099038
 30
0.0
 11
67.63854293262579
 21
-402.5317527280988
 31
0.0
1001
ACAD
1010
0.0
1020
0.0
1030
0.0
1001
ACADANNOTATIVE
1000
AnnotativeData
1002
{
1070
     1
1070
     1
1002
}
  0
LINE
  5
2D50
330
27ED
100
AcDbEntity
  8
DETAIL
100
AcDbLine
 10
43.20620848911882
 20
-424.1661433099056
 30
0.0
 11
67.63854293262579
 21
-412.5317044722346
 31
0.0
1001
ACAD
1010
0.0
1020
0.0
1030
0.0
1001
ACADANNOTATIVE
1000
AnnotativeData
1002
{
1070
     1
1070
     1
1002
}
  0
LINE
  5
2D51
330
27ED
100
AcDbEntity
  8
DETAIL
100
AcDbLine
 10
64.20611822610613
 20
-424.1661433099056
 30
0.0
 11
67.63854293262579
 21
-422.5316562163683
 31
0.0
1001
ACAD
1010
0.0
1020
0.0
1030
0.0
1001
ACADANNOTATIVE
1000
AnnotativeData
1002
{
1070
     1
1070
     1
1002
}
  0
LINE
  5
2D52
330
27ED
100
AcDbEntity
  8
DETAIL
100
AcDbLine
 10
-523.7614570673756
 20
104.2338566900953
 30
0.0
 11
67.63854293262579
 21
104.2338566900948
 31
0.0
  0
LINE
  5
2D53
330
27ED
100
AcDbEntity
  8
DETAIL
100
AcDbLine
 10
67.63854293262579
 20
-424.1661433099046
 30
0.0
 11
-523.7614570673756
 21
-424.1661433099046
 31
0.0
  0
LINE
  5
2D54
330
27ED
100
AcDbEntity
  8
DETAIL
100
AcDbLine
 10
-523.7614570673756
 20
-424.1661433099046
 30
0.0
 11
-523.7614570673756
 21
104.2338566900948
 31
0.0
  0
LINE
  5
2D55
330
27ED
100
AcDbEntity
  8
DETAIL
100
AcDbLine
 10
67.63854293262579
 20
-424.1661433099046
 30
0.0
 11
67.63854293262579
 21
104.2338566900948
 31
0.0
  0
ENDSEC
  0
SECTION
  2
OBJECTS
  0
DICTIONARY
  5
2785
330
0
100
AcDbDictionary
281
     1
  3
ACAD_2007HEADERVARS_RT
350
2F1E
  3
ACAD_COLOR
350
27E3
  3
ACAD_GROUP
350
2786
  3
ACAD_LAYOUT
350
27E2
  3
ACAD_MATERIAL
350
2789
  3
ACAD_MLEADERSTYLE
350
27E6
  3
ACAD_MLINESTYLE
350
27DF
  3
ACAD_PLOTSETTINGS
350
27E1
  3
ACAD_PLOTSTYLENAME
350
2787
  3
ACAD_SCALELIST
350
27B3
  3
ACAD_TABLESTYLE
350
27E4
  3
ACAD_VISUALSTYLE
350
27A2
  3
ACDB_RECOMPOSE_DATA
350
29E0
  3
AcDbVariableDictionary
350
29D7
  3
AcmDictionary
350
2983
  3
AMG
350
28D0
  3
AMGSNAPSETTINGS
350
29AB
  0
DICTIONARY
  5
2AD3
330
277B
100
AcDbDictionary
280
     1
281
     1
  3
ACAD_LAYERSTATES
360
2AD4
  0
DICTIONARY
  5
29B2
330
27D5
100
AcDbDictionary
280
     1
281
     1
  3
ADSK_XREC_LAYER_RECONCILED
360
29B3
  0
DICTIONARY
  5
29B4
330
2804
100
AcDbDictionary
280
     1
281
     1
  3
ADSK_XREC_LAYER_RECONCILED
360
29B5
  0
DICTIONARY
  5
29B6
330
2805
100
AcDbDictionary
280
     1
281
     1
  3
ADSK_XREC_LAYER_RECONCILED
360
29B7
  0
DICTIONARY
  5
29B8
330
2806
100
AcDbDictionary
280
     1
281
     1
  3
ADSK_XREC_LAYER_RECONCILED
360
29B9
  0
DICTIONARY
  5
29BA
330
2807
100
AcDbDictionary
280
     1
281
     1
  3
ADSK_XREC_LAYER_RECONCILED
360
29BB
  0
DICTIONARY
  5
29BC
330
2808
100
AcDbDictionary
280
     1
281
     1
  3
ADSK_XREC_LAYER_RECONCILED
360
29BD
  0
DICTIONARY
  5
29BE
330
280A
100
AcDbDictionary
280
     1
281
     1
  3
ADSK_XREC_LAYER_RECONCILED
360
29BF
  0
DICTIONARY
  5
29C0
330
280B
100
AcDbDictionary
280
     1
281
     1
  3
ADSK_XREC_LAYER_RECONCILED
360
29C1
  0
DICTIONARY
  5
29C2
330
280C
100
AcDbDictionary
280
     1
281
     1
  3
ADSK_XREC_LAYER_RECONCILED
360
29C3
  0
DICTIONARY
  5
29C4
330
280D
100
AcDbDictionary
280
     1
281
     1
  3
ADSK_XREC_LAYER_RECONCILED
360
29C5
  0
DICTIONARY
  5
29C6
330
280E
100
AcDbDictionary
280
     1
281
     1
  3
ADSK_XREC_LAYER_RECONCILED
360
29C7
  0
DICTIONARY
  5
29C8
330
27ED
100
AcDbDictionary
280
     1
281
     1
  3
ACAD_INDEX
360
29C9
  0
DICTIONARY
  5
2F1E
102
{ACAD_REACTORS
330
2785
102
}
330
2785
100
AcDbDictionary
281
     1
  3
DIMARCSYM
350
2F1F
  3
DIMLTEX1
350
2F21
  3
DIMLTEX2
350
2F22
  3
DIMLTYPE
350
2F20
  0
DICTIONARY
  5
27E3
102
{ACAD_REACTORS
330
2785
102
}
330
2785
100
AcDbDictionary
281
     1
  0
DICTIONARY
  5
2786
102
{ACAD_REACTORS
330
2785
102
}
330
2785
100
AcDbDictionary
281
     1
  0
DICTIONARY
  5
27E2
102
{ACAD_REACTORS
330
2785
102
}
330
2785
100
AcDbDictionary
281
     1
  3
Model
350
27F0
  3
レイアウト1
350
27EC
  0
DICTIONARY
  5
2789
102
{ACAD_REACTORS
330
2785
102
}
330
2785
100
AcDbDictionary
281
     1
  3
ByBlock
350
2792
  3
ByLayer
350
278A
  3
Global
350
279A
  0
DICTIONARY
  5
27E6
102
{ACAD_REACTORS
330
2785
102
}
330
2785
100
AcDbDictionary
281
     1
  3
Standard
350
27E7
  0
DICTIONARY
  5
27DF
102
{ACAD_REACTORS
330
2785
102
}
330
2785
100
AcDbDictionary
281
     1
  3
Standard
350
27E0
  0
DICTIONARY
  5
27E1
102
{ACAD_REACTORS
330
2785
102
}
330
2785
100
AcDbDictionary
281
     1
  0
ACDBDICTIONARYWDFLT
  5
2787
102
{ACAD_REACTORS
330
2785
102
}
330
2785
100
AcDbDictionary
281
     1
  3
Normal
350
2788
100
AcDbDictionaryWithDefault
340
2788
  0
DICTIONARY
  5
27B3
102
{ACAD_REACTORS
330
2785
102
}
330
2785
100
AcDbDictionary
281
     1
  3
A0
350
27B4
  3
A1
350
27B5
  3
A2
350
27B6
  3
A3
350
27B7
  3
A4
350
27B8
  3
A5
350
27B9
  3
A6
350
27BA
  3
A7
350
27BB
  3
A8
350
27BC
  3
A9
350
27BD
  3
B0
350
27BE
  3
B1
350
27BF
  3
B2
350
27C0
  3
B3
350
27C1
  3
B4
350
27C2
  3
B5
350
27C3
  3
B6
350
27C4
  3
B7
350
27C5
  3
B8
350
27C6
  3
B9
350
27C7
  3
C0
350
27C8
  3
C1
350
27C9
  3
C2
350
27CA
  3
C3
350
27CB
  3
C4
350
27CC
  3
C5
350
27CD
  3
C6
350
27CE
  3
C7
350
27CF
  3
C8
350
27D0
  3
C9
350
27D1
  3
D0
350
27D2
  3
D1
350
27D3
  3
D2
350
27D4
  0
DICTIONARY
  5
27E4
102
{ACAD_REACTORS
330
2785
102
}
330
2785
100
AcDbDictionary
281
     1
  3
Standard
350
27E5
  0
DICTIONARY
  5
27A2
102
{ACAD_REACTORS
330
2785
102
}
330
2785
100
AcDbDictionary
281
     1
  3
2dWireframe
350
27A8
  3
3D Hidden
350
27AA
  3
3dWireframe
350
27A9
  3
Basic
350
27A7
  3
Brighten
350
27AE
  3
ColorChange
350
27B2
  3
Conceptual
350
27AB
  3
Dim
350
27AD
  3
Facepattern
350
27B1
  3
Flat
350
27A3
  3
FlatWithEdges
350
27A4
  3
Gouraud
350
27A5
  3
GouraudWithEdges
350
27A6
  3
Linepattern
350
27B0
  3
Realistic
350
27AC
  3
Thicken
350
27AF
  0
XRECORD
  5
29E0
102
{ACAD_REACTORS
330
2785
102
}
330
2785
100
AcDbXrecord
280
     1
 90
        1
330
27E5
  0
DICTIONARY
  5
29D7
102
{ACAD_REACTORS
330
2785
102
}
330
2785
100
AcDbDictionary
281
     1
  3
CANNOSCALE
350
29DA
  3
CMLEADERSTYLE
350
29D9
  3
CTABLESTYLE
350
29D8
  3
DIMASSOC
350
29DD
  3
INDEXCTL
350
29DC
  3
LAYEREVAL
350
2D58
  3
LAYERNOTIFY
350
2D59
  3
LIGHTINGUNITS
350
2D57
  3
LOFTANG1
350
2F1A
  3
LOFTANG2
350
2F1B
  3
LONGITUDE
350
2F1C
  3
MSLTSCALE
350
2D56
  3
SORTENTS
350
29DB
  0
DICTIONARY
  5
2983
102
{ACAD_REACTORS
330
2785
102
}
330
2785
100
AcDbDictionary
281
     1
  3
AcmStdDictionary
350
2991
  0
DICTIONARY
  5
28D0
102
{ACAD_REACTORS
330
2785
102
}
330
2785
100
AcDbDictionary
281
     1
  3
AcMgSettings
350
28D1
  0
DICTIONARY
  5
29AB
102
{ACAD_REACTORS
330
2785
102
}
330
2785
100
AcDbDictionary
281
     1
  3
DIMENSION
350
29B0
  3
FEA
350
29AF
  3
HATCH (1)
350
29AC
  3
HATCH (2)
350
29AD
  3
SIMPLE WELD
350
29B1
  3
SYMBOLS
350
29AE
  0
DICTIONARY
  5
2AD4
102
{ACAD_REACTORS
330
2AD3
102
}
330
2AD3
100
AcDbDictionary
281
     1
  0
XRECORD
  5
29B3
102
{ACAD_REACTORS
330
29B2
102
}
330
29B2
100
AcDbXrecord
280
     1
290
     1
  0
XRECORD
  5
29B5
102
{ACAD_REACTORS
330
29B4
102
}
330
29B4
100
AcDbXrecord
280
     1
290
     1
  0
XRECORD
  5
29B7
102
{ACAD_REACTORS
330
29B6
102
}
330
29B6
100
AcDbXrecord
280
     1
290
     1
  0
XRECORD
  5
29B9
102
{ACAD_REACTORS
330
29B8
102
}
330
29B8
100
AcDbXrecord
280
     1
290
     1
  0
XRECORD
  5
29BB
102
{ACAD_REACTORS
330
29BA
102
}
330
29BA
100
AcDbXrecord
280
     1
290
     1
  0
XRECORD
  5
29BD
102
{ACAD_REACTORS
330
29BC
102
}
330
29BC
100
AcDbXrecord
280
     1
290
     1
  0
XRECORD
  5
29BF
102
{ACAD_REACTORS
330
29BE
102
}
330
29BE
100
AcDbXrecord
280
     1
290
     1
  0
XRECORD
  5
29C1
102
{ACAD_REACTORS
330
29C0
102
}
330
29C0
100
AcDbXrecord
280
     1
290
     1
  0
XRECORD
  5
29C3
102
{ACAD_REACTORS
330
29C2
102
}
330
29C2
100
AcDbXrecord
280
     1
290
     1
  0
XRECORD
  5
29C5
102
{ACAD_REACTORS
330
29C4
102
}
330
29C4
100
AcDbXrecord
280
     1
290
     1
  0
XRECORD
  5
29C7
102
{ACAD_REACTORS
330
29C6
102
}
330
29C6
100
AcDbXrecord
280
     1
290
     1
  0
DICTIONARY
  5
29C9
102
{ACAD_REACTORS
330
29C8
102
}
330
29C8
100
AcDbDictionary
281
     1
  3
*A1
350
29CA
  0
XRECORD
  5
2F1F
102
{ACAD_REACTORS
330
2F1E
102
}
330
2F1E
100
AcDbXrecord
280
     1
 70
     1
  0
XRECORD
  5
2F21
102
{ACAD_REACTORS
330
2F1E
102
}
330
2F1E
100
AcDbXrecord
280
     1
340
27DB
  0
XRECORD
  5
2F22
102
{ACAD_REACTORS
330
2F1E
102
}
330
2F1E
100
AcDbXrecord
280
     1
340
27DB
  0
XRECORD
  5
2F20
102
{ACAD_REACTORS
330
2F1E
102
}
330
2F1E
100
AcDbXrecord
280
     1
340
27DB
  0
LAYOUT
  5
27F0
102
{ACAD_REACTORS
330
27E2
102
}
330
27E2
100
AcDbPlotSettings
  1

  2
自動 EPSON LP-9600S (W2450527 上)
  4

  6

 40
0.0
 41
0.0
 42
0.0
 43
0.0
 44
0.0
 45
0.0
 46
0.0
 47
0.0
 48
0.0
 49
0.0
140
0.0
141
0.0
142
1.0
143
1.0
 70
  1712
 72
     0
 73
     0
 74
     0
  7

 75
     0
147
1.0
 76
     0
 77
     2
 78
   300
148
0.0
149
0.0
100
AcDbLayout
  1
Model
 70
     1
 71
     0
 10
0.0
 20
0.0
 11
12.0
 21
9.0
 12
0.0
 22
0.0
 32
0.0
 14
0.0
 24
0.0
 34
0.0
 15
0.0
 25
0.0
 35
0.0
146
0.0
 13
0.0
 23
0.0
 33
0.0
 16
1.0
 26
0.0
 36
0.0
 17
0.0
 27
1.0
 37
0.0
 76
     0
330
27ED
331
27F1
  0
LAYOUT
  5
27EC
102
{ACAD_REACTORS
330
27E2
102
}
330
27E2
100
AcDbPlotSettings
  1

  2
自動 EPSON LP-9600S (W2450527 上)
  4

  6

 40
0.0
 41
0.0
 42
0.0
 43
0.0
 44
0.0
 45
0.0
 46
0.0
 47
0.0
 48
0.0
 49
0.0
140
0.0
141
0.0
142
1.0
143
1.0
 70
   688
 72
     0
 73
     0
 74
     5
  7

 75
    16
147
1.0
 76
     0
 77
     2
 78
   300
148
0.0
149
0.0
100
AcDbLayout
  1
レイアウト1
 70
     1
 71
     1
 10
0.0
 20
0.0
 11
12.0
 21
9.0
 12
0.0
 22
0.0
 32
0.0
 14
1.000000000000000E+20
 24
1.000000000000000E+20
 34
1.000000000000000E+20
 15
-1.000000000000000E+20
 25
-1.000000000000000E+20
 35
-1.000000000000000E+20
146
0.0
 13
0.0
 23
0.0
 33
0.0
 16
1.0
 26
0.0
 36
0.0
 17
0.0
 27
1.0
 37
0.0
 76
     0
330
27E9
  0
MATERIAL
  5
2792
102
{ACAD_XDICTIONARY
360
2793
102
}
102
{ACAD_REACTORS
330
2789
102
}
330
2789
100
AcDbMaterial
  1
ByBlock
 72
     0
 43
0.0208333333333333
 43
0.0
 43
0.0
 43
0.0
 43
0.0
 43
0.0208333333333333
 43
0.0
 43
0.0
 43
0.0
 43
0.0
 43
1.0
 43
0.0
 43
0.0
 43
0.0
 43
0.0
 43
1.0
 77
     0
 47
0.0208333333333333
 47
0.0
 47
0.0
 47
0.0
 47
0.0
 47
0.0208333333333333
 47
0.0
 47
0.0
 47
0.0
 47
0.0
 47
1.0
 47
0.0
 47
0.0
 47
0.0
 47
0.0
 47
1.0
171
     0
 49
0.0208333333333333
 49
0.0
 49
0.0
 49
0.0
 49
0.0
 49
0.0208333333333333
 49
0.0
 49
0.0
 49
0.0
 49
0.0
 49
1.0
 49
0.0
 49
0.0
 49
0.0
 49
0.0
 49
1.0
175
     0
142
0.0208333333333333
142
0.0
142
0.0
142
0.0
142
0.0
142
0.0208333333333333
142
0.0
142
0.0
142
0.0
142
0.0
142
1.0
142
0.0
142
0.0
142
0.0
142
0.0
142
1.0
179
     0
144
0.0208333333333333
144
0.0
144
0.0
144
0.0
144
0.0
144
0.0208333333333333
144
0.0
144
0.0
144
0.0
144
0.0
144
1.0
144
0.0
144
0.0
144
0.0
144
0.0
144
1.0
147
0.0208333333333333
147
0.0
147
0.0
147
0.0
147
0.0
147
0.0208333333333333
147
0.0
147
0.0
147
0.0
147
0.0
147
1.0
147
0.0
147
0.0
147
0.0
147
0.0
147
1.0
  0
MATERIAL
  5
278A
102
{ACAD_XDICTIONARY
360
278B
102
}
102
{ACAD_REACTORS
330
2789
102
}
330
2789
100
AcDbMaterial
  1
ByLayer
 72
     0
 43
0.0208333333333333
 43
0.0
 43
0.0
 43
0.0
 43
0.0
 43
0.0208333333333333
 43
0.0
 43
0.0
 43
0.0
 43
0.0
 43
1.0
 43
0.0
 43
0.0
 43
0.0
 43
0.0
 43
1.0
 77
     0
 47
0.0208333333333333
 47
0.0
 47
0.0
 47
0.0
 47
0.0
 47
0.0208333333333333
 47
0.0
 47
0.0
 47
0.0
 47
0.0
 47
1.0
 47
0.0
 47
0.0
 47
0.0
 47
0.0
 47
1.0
171
     0
 49
0.0208333333333333
 49
0.0
 49
0.0
 49
0.0
 49
0.0
 49
0.0208333333333333
 49
0.0
 49
0.0
 49
0.0
 49
0.0
 49
1.0
 49
0.0
 49
0.0
 49
0.0
 49
0.0
 49
1.0
175
     0
142
0.0208333333333333
142
0.0
142
0.0
142
0.0
142
0.0
142
0.0208333333333333
142
0.0
142
0.0
142
0.0
142
0.0
142
1.0
142
0.0
142
0.0
142
0.0
142
0.0
142
1.0
179
     0
144
0.0208333333333333
144
0.0
144
0.0
144
0.0
144
0.0
144
0.0208333333333333
144
0.0
144
0.0
144
0.0
144
0.0
144
1.0
144
0.0
144
0.0
144
0.0
144
0.0
144
1.0
147
0.0208333333333333
147
0.0
147
0.0
147
0.0
147
0.0
147
0.0208333333333333
147
0.0
147
0.0
147
0.0
147
0.0
147
1.0
147
0.0
147
0.0
147
0.0
147
0.0
147
1.0
  0
MATERIAL
  5
279A
102
{ACAD_XDICTIONARY
360
279B
102
}
102
{ACAD_REACTORS
330
2789
102
}
330
2789
100
AcDbMaterial
  1
Global
 72
     0
 43
0.0208333333333333
 43
0.0
 43
0.0
 43
0.0
 43
0.0
 43
0.0208333333333333
 43
0.0
 43
0.0
 43
0.0
 43
0.0
 43
1.0
 43
0.0
 43
0.0
 43
0.0
 43
0.0
 43
1.0
 77
     0
 47
0.0208333333333333
 47
0.0
 47
0.0
 47
0.0
 47
0.0
 47
0.0208333333333333
 47
0.0
 47
0.0
 47
0.0
 47
0.0
 47
1.0
 47
0.0
 47
0.0
 47
0.0
 47
0.0
 47
1.0
171
     0
 49
0.0208333333333333
 49
0.0
 49
0.0
 49
0.0
 49
0.0
 49
0.0208333333333333
 49
0.0
 49
0.0
 49
0.0
 49
0.0
 49
1.0
 49
0.0
 49
0.0
 49
0.0
 49
0.0
 49
1.0
175
     0
142
0.0208333333333333
142
0.0
142
0.0
142
0.0
142
0.0
142
0.0208333333333333
142
0.0
142
0.0
142
0.0
142
0.0
142
1.0
142
0.0
142
0.0
142
0.0
142
0.0
142
1.0
179
     0
144
0.0208333333333333
144
0.0
144
0.0
144
0.0
144
0.0
144
0.0208333333333333
144
0.0
144
0.0
144
0.0
144
0.0
144
1.0
144
0.0
144
0.0
144
0.0
144
0.0
144
1.0
147
0.0208333333333333
147
0.0
147
0.0
147
0.0
147
0.0
147
0.0208333333333333
147
0.0
147
0.0
147
0.0
147
0.0
147
1.0
147
0.0
147
0.0
147
0.0
147
0.0
147
1.0
  0
MLEADERSTYLE
  5
27E7
102
{ACAD_REACTORS
330
27E6
102
}
330
27E6
100
AcDbMLeaderStyle
170
     2
171
     1
172
     0
 90
        2
 40
0.0
 41
0.0
173
     1
 91
-1056964608
340
27DB
 92
       -2
290
     1
 42
0.09
291
     1
 43
0.36
  3
Standard
 44
0.18
300

342
27D6
174
     1
178
     6
175
     1
176
     0
 93
-1056964608
 45
0.18
292
     0
297
     0
 46
0.18
 94
-1056964608
 47
1.0
 49
1.0
140
1.0
293
     1
141
0.0
294
     1
177
     0
142
1.0
295
     0
296
     0
143
0.125
1001
ACAD_MLEADERVER
1070
     2
  0
MLINESTYLE
  5
27E0
102
{ACAD_REACTORS
330
27DF
102
}
330
27DF
100
AcDbMlineStyle
  2
STANDARD
 70
     0
  3

 62
   256
 51
90.0
 52
90.0
 71
     2
 49
0.5
 62
   256
  6
BYLAYER
 49
-0.5
 62
   256
  6
BYLAYER
  0
ACDBPLACEHOLDER
  5
2788
102
{ACAD_REACTORS
330
2787
102
}
330
2787
  0
SCALE
  5
27B4
102
{ACAD_REACTORS
330
27B3
102
}
330
27B3
100
AcDbScale
 70
     0
300
1:1
140
1.0
141
1.0
290
     1
  0
SCALE
  5
27B5
102
{ACAD_REACTORS
330
27B3
102
}
330
27B3
100
AcDbScale
 70
     0
300
1:2
140
1.0
141
2.0
290
     0
  0
SCALE
  5
27B6
102
{ACAD_REACTORS
330
27B3
102
}
330
27B3
100
AcDbScale
 70
     0
300
1:4
140
1.0
141
4.0
290
     0
  0
SCALE
  5
27B7
102
{ACAD_REACTORS
330
27B3
102
}
330
27B3
100
AcDbScale
 70
     0
300
1:5
140
1.0
141
5.0
290
     0
  0
SCALE
  5
27B8
102
{ACAD_REACTORS
330
27B3
102
}
330
27B3
100
AcDbScale
 70
     0
300
1:8
140
1.0
141
8.0
290
     0
  0
SCALE
  5
27B9
102
{ACAD_REACTORS
330
27B3
102
}
330
27B3
100
AcDbScale
 70
     0
300
1:10
140
1.0
141
10.0
290
     0
  0
SCALE
  5
27BA
102
{ACAD_REACTORS
330
27B3
102
}
330
27B3
100
AcDbScale
 70
     0
300
1:16
140
1.0
141
16.0
290
     0
  0
SCALE
  5
27BB
102
{ACAD_REACTORS
330
27B3
102
}
330
27B3
100
AcDbScale
 70
     0
300
1:20
140
1.0
141
20.0
290
     0
  0
SCALE
  5
27BC
102
{ACAD_REACTORS
330
27B3
102
}
330
27B3
100
AcDbScale
 70
     0
300
1:30
140
1.0
141
30.0
290
     0
  0
SCALE
  5
27BD
102
{ACAD_REACTORS
330
27B3
102
}
330
27B3
100
AcDbScale
 70
     0
300
1:40
140
1.0
141
40.0
290
     0
  0
SCALE
  5
27BE
102
{ACAD_REACTORS
330
27B3
102
}
330
27B3
100
AcDbScale
 70
     0
300
1:50
140
1.0
141
50.0
290
     0
  0
SCALE
  5
27BF
102
{ACAD_REACTORS
330
27B3
102
}
330
27B3
100
AcDbScale
 70
     0
300
1:100
140
1.0
141
100.0
290
     0
  0
SCALE
  5
27C0
102
{ACAD_REACTORS
330
27B3
102
}
330
27B3
100
AcDbScale
 70
     0
300
2:1
140
2.0
141
1.0
290
     0
  0
SCALE
  5
27C1
102
{ACAD_REACTORS
330
27B3
102
}
330
27B3
100
AcDbScale
 70
     0
300
4:1
140
4.0
141
1.0
290
     0
  0
SCALE
  5
27C2
102
{ACAD_REACTORS
330
27B3
102
}
330
27B3
100
AcDbScale
 70
     0
300
8:1
140
8.0
141
1.0
290
     0
  0
SCALE
  5
27C3
102
{ACAD_REACTORS
330
27B3
102
}
330
27B3
100
AcDbScale
 70
     0
300
10:1
140
10.0
141
1.0
290
     0
  0
SCALE
  5
27C4
102
{ACAD_REACTORS
330
27B3
102
}
330
27B3
100
AcDbScale
 70
     0
300
100:1
140
100.0
141
1.0
290
     0
  0
SCALE
  5
27C5
102
{ACAD_REACTORS
330
27B3
102
}
330
27B3
100
AcDbScale
 70
     0
300
1/128" = 1'-0"
140
0.0078125
141
12.0
290
     0
  0
SCALE
  5
27C6
102
{ACAD_REACTORS
330
27B3
102
}
330
27B3
100
AcDbScale
 70
     0
300
1/64" = 1'-0"
140
0.015625
141
12.0
290
     0
  0
SCALE
  5
27C7
102
{ACAD_REACTORS
330
27B3
102
}
330
27B3
100
AcDbScale
 70
     0
300
1/32" = 1'-0"
140
0.03125
141
12.0
290
     0
  0
SCALE
  5
27C8
102
{ACAD_REACTORS
330
27B3
102
}
330
27B3
100
AcDbScale
 70
     0
300
1/16" = 1'-0"
140
0.0625
141
12.0
290
     0
  0
SCALE
  5
27C9
102
{ACAD_REACTORS
330
27B3
102
}
330
27B3
100
AcDbScale
 70
     0
300
3/32" = 1'-0"
140
0.09375
141
12.0
290
     0
  0
SCALE
  5
27CA
102
{ACAD_REACTORS
330
27B3
102
}
330
27B3
100
AcDbScale
 70
     0
300
1/8" = 1'-0"
140
0.125
141
12.0
290
     0
  0
SCALE
  5
27CB
102
{ACAD_REACTORS
330
27B3
102
}
330
27B3
100
AcDbScale
 70
     0
300
3/16" = 1'-0"
140
0.1875
141
12.0
290
     0
  0
SCALE
  5
27CC
102
{ACAD_REACTORS
330
27B3
102
}
330
27B3
100
AcDbScale
 70
     0
300
1/4" = 1'-0"
140
0.25
141
12.0
290
     0
  0
SCALE
  5
27CD
102
{ACAD_REACTORS
330
27B3
102
}
330
27B3
100
AcDbScale
 70
     0
300
3/8" = 1'-0"
140
0.375
141
12.0
290
     0
  0
SCALE
  5
27CE
102
{ACAD_REACTORS
330
27B3
102
}
330
27B3
100
AcDbScale
 70
     0
300
1/2" = 1'-0"
140
0.5
141
12.0
290
     0
  0
SCALE
  5
27CF
102
{ACAD_REACTORS
330
27B3
102
}
330
27B3
100
AcDbScale
 70
     0
300
3/4" = 1'-0"
140
0.75
141
12.0
290
     0
  0
SCALE
  5
27D0
102
{ACAD_REACTORS
330
27B3
102
}
330
27B3
100
AcDbScale
 70
     0
300
1" = 1'-0"
140
1.0
141
12.0
290
     0
  0
SCALE
  5
27D1
102
{ACAD_REACTORS
330
27B3
102
}
330
27B3
100
AcDbScale
 70
     0
300
1-1/2" = 1'-0"
140
1.5
141
12.0
290
     0
  0
SCALE
  5
27D2
102
{ACAD_REACTORS
330
27B3
102
}
330
27B3
100
AcDbScale
 70
     0
300
3" = 1'-0"
140
3.0
141
12.0
290
     0
  0
SCALE
  5
27D3
102
{ACAD_REACTORS
330
27B3
102
}
330
27B3
100
AcDbScale
 70
     0
300
6" = 1'-0"
140
6.0
141
12.0
290
     0
  0
SCALE
  5
27D4
102
{ACAD_REACTORS
330
27B3
102
}
330
27B3
100
AcDbScale
 70
     0
300
1'-0" = 1'-0"
140
12.0
141
12.0
290
     0
  0
TABLESTYLE
  5
27E5
102
{ACAD_XDICTIONARY
360
29DE
102
}
102
{ACAD_REACTORS
330
27E4
102
}
330
27E4
100
AcDbTableStyle
  3
Standard
 70
     0
 71
     0
 40
0.06
 41
0.06
280
     0
281
     0
  7
STANDARD
140
0.18
170
     2
 62
     0
 63
     7
283
     0
274
    -2
284
     1
 64
     0
275
    -2
285
     1
 65
     0
276
    -2
286
     1
 66
     0
277
    -2
287
     1
 67
     0
278
    -2
288
     1
 68
     0
279
    -2
289
     1
 69
     0
  7
STANDARD
140
0.25
170
     5
 62
     0
 63
     7
283
     0
274
    -2
284
     1
 64
     0
275
    -2
285
     1
 65
     0
276
    -2
286
     1
 66
     0
277
    -2
287
     1
 67
     0
278
    -2
288
     1
 68
     0
279
    -2
289
     1
 69
     0
  7
STANDARD
140
0.18
170
     5
 62
     0
 63
     7
283
     0
274
    -2
284
     1
 64
     0
275
    -2
285
     1
 65
     0
276
    -2
286
     1
 66
     0
277
    -2
287
     1
 67
     0
278
    -2
288
     1
 68
     0
279
    -2
289
     1
 69
     0
  0
VISUALSTYLE
  5
27A8
102
{ACAD_REACTORS
330
27A2
102
}
330
27A2
100
AcDbVisualStyle
  2
2dWireframe
 70
     4
 71
     0
 72
     2
 73
     0
 90
        0
 40
-0.6
 41
-30.0
 62
     5
 63
     7
 74
     1
 91
        4
 64
     7
 65
   257
 75
     1
175
     1
 42
1.0
 92
        0
 66
   257
 43
1.0
 76
     1
 77
     6
 78
     2
 67
     7
 79
     5
170
     0
171
     0
290
     0
174
     0
 93
        1
 44
0.0
173
     0
291
     0
 45
0.0
1001
ACAD
1000
AcDbSavedByObjectVersion
1070
     0
1000
AcDbSavedByObjectVersion
1070
     0
  0
VISUALSTYLE
  5
27AA
102
{ACAD_REACTORS
330
27A2
102
}
330
27A2
100
AcDbVisualStyle
  2
3D Hidden
 70
     6
 71
     1
 72
     2
 73
     2
 90
        0
 40
-0.6
 41
-30.0
 62
     5
 63
     7
 74
     2
 91
        2
 64
     7
 65
   257
 75
     2
175
     1
 42
40.0
 92
        0
 66
   257
 43
1.0
 76
     1
 77
     6
 78
     2
 67
     7
 79
     3
170
     0
171
     0
290
     0
174
     0
 93
        1
 44
0.0
173
     0
291
     0
 45
0.0
1001
ACAD
1000
AcDbSavedByObjectVersion
1070
     0
1000
AcDbSavedByObjectVersion
1070
     0
  0
VISUALSTYLE
  5
27A9
102
{ACAD_REACTORS
330
27A2
102
}
330
27A2
100
AcDbVisualStyle
  2
3dWireframe
 70
     5
 71
     0
 72
     2
 73
     0
 90
        0
 40
-0.6
 41
-30.0
 62
     5
 63
     7
 74
     1
 91
        4
 64
     7
 65
   257
 75
     1
175
     1
 42
1.0
 92
        0
 66
   257
 43
1.0
 76
     1
 77
     6
 78
     2
 67
     7
 79
     5
170
     0
171
     0
290
     0
174
     0
 93
        1
 44
0.0
173
     0
291
     0
 45
0.0
1001
ACAD
1000
AcDbSavedByObjectVersion
1070
     0
1000
AcDbSavedByObjectVersion
1070
     0
  0
VISUALSTYLE
  5
27A7
102
{ACAD_REACTORS
330
27A2
102
}
330
27A2
100
AcDbVisualStyle
  2
Basic
 70
     7
 71
     1
 72
     0
 73
     1
 90
        0
 40
-0.6
 41
-30.0
 62
     5
 63
     7
 74
     0
 91
        4
 64
     7
 65
   257
 75
     1
175
     1
 42
1.0
 92
        8
 66
     7
 43
1.0
 76
     1
 77
     6
 78
     2
 67
     7
 79
     5
170
     0
171
     0
290
     0
174
     0
 93
        1
 44
0.0
173
     0
291
     1
 45
0.0
1001
ACAD
1000
AcDbSavedByObjectVersion
1070
     0
1000
AcDbSavedByObjectVersion
1070
     0
  0
VISUALSTYLE
  5
27AE
102
{ACAD_REACTORS
330
27A2
102
}
330
27A2
100
AcDbVisualStyle
  2
Brighten
 70
    12
 71
     2
 72
     2
 73
     0
 90
        0
 40
-0.6
 41
-30.0
 62
     5
 63
     7
 74
     1
 91
        4
 64
     7
 65
   257
 75
     1
175
     1
 42
1.0
 92
        8
 66
     7
 43
1.0
 76
     1
 77
     6
 78
     2
 67
     7
 79
     5
170
     0
171
     0
290
     0
174
     0
 93
        1
 44
50.0
173
     0
291
     1
 45
0.0
1001
ACAD
1000
AcDbSavedByObjectVersion
1070
     0
1000
AcDbSavedByObjectVersion
1070
     0
  0
VISUALSTYLE
  5
27B2
102
{ACAD_REACTORS
330
27A2
102
}
330
27A2
100
AcDbVisualStyle
  2
ColorChange
 70
    16
 71
     2
 72
     2
 73
     3
 90
        0
 40
-0.6
 41
-30.0
 62
     5
 63
     8
 74
     1
 91
        4
 64
     7
 65
   257
 75
     1
175
     1
 42
1.0
 92
        8
 66
     8
 43
1.0
 76
     1
 77
     6
 78
     2
 67
     7
 79
     5
170
     0
171
     0
290
     0
174
     0
 93
        1
 44
0.0
173
     0
291
     1
 45
0.0
1001
ACAD
1000
AcDbSavedByObjectVersion
1070
     0
1000
AcDbSavedByObjectVersion
1070
     0
  0
VISUALSTYLE
  5
27AB
102
{ACAD_REACTORS
330
27A2
102
}
330
27A2
100
AcDbVisualStyle
  2
Conceptual
 70
     9
 71
     3
 72
     2
 73
     0
 90
        0
 40
-0.6
 41
-30.0
 62
     5
 63
     7
 74
     2
 91
        2
 64
     7
 65
   257
 75
     1
175
     1
 42
40.0
 92
        8
 66
     7
 43
1.0
 76
     1
 77
     6
 78
     2
 67
     7
 79
     3
170
     0
171
     0
290
     0
174
     0
 93
        1
 44
0.0
173
     0
291
     0
 45
0.0
1001
ACAD
1000
AcDbSavedByObjectVersion
1070
     0
1000
AcDbSavedByObjectVersion
1070
     0
  0
VISUALSTYLE
  5
27AD
102
{ACAD_REACTORS
330
27A2
102
}
330
27A2
100
AcDbVisualStyle
  2
Dim
 70
    11
 71
     2
 72
     2
 73
     0
 90
        0
 40
-0.6
 41
-30.0
 62
     5
 63
     7
 74
     1
 91
        4
 64
     7
 65
   257
 75
     1
175
     1
 42
1.0
 92
        8
 66
     7
 43
1.0
 76
     1
 77
     6
 78
     2
 67
     7
 79
     5
170
     0
171
     0
290
     0
174
     0
 93
        1
 44
-50.0
173
     0
291
     1
 45
0.0
1001
ACAD
1000
AcDbSavedByObjectVersion
1070
     0
1000
AcDbSavedByObjectVersion
1070
     0
  0
VISUALSTYLE
  5
27B1
102
{ACAD_REACTORS
330
27A2
102
}
330
27A2
100
AcDbVisualStyle
  2
Facepattern
 70
    15
 71
     2
 72
     2
 73
     0
 90
        0
 40
-0.6
 41
-30.0
 62
     5
 63
     7
 74
     1
 91
        4
 64
     7
 65
   257
 75
     1
175
     1
 42
1.0
 92
        8
 66
     7
 43
1.0
 76
     1
 77
     6
 78
     2
 67
     7
 79
     5
170
     0
171
     0
290
     0
174
     0
 93
        1
 44
0.0
173
     0
291
     1
 45
0.0
1001
ACAD
1000
AcDbSavedByObjectVersion
1070
     0
1000
AcDbSavedByObjectVersion
1070
     0
  0
VISUALSTYLE
  5
27A3
102
{ACAD_REACTORS
330
27A2
102
}
330
27A2
100
AcDbVisualStyle
  2
Flat
 70
     0
 71
     2
 72
     1
 73
     1
 90
        2
 40
-0.6
 41
30.0
 62
     5
 63
     7
 74
     0
 91
        4
 64
     7
 65
   257
 75
     1
175
     1
 42
1.0
 92
        8
 66
     7
 43
1.0
 76
     1
 77
     6
 78
     2
 67
     7
 79
     5
170
     0
171
     0
290
     0
174
     0
 93
       13
 44
0.0
173
     0
291
     1
 45
0.0
1001
ACAD
1000
AcDbSavedByObjectVersion
1070
     0
1000
AcDbSavedByObjectVersion
1070
     0
  0
VISUALSTYLE
  5
27A4
102
{ACAD_REACTORS
330
27A2
102
}
330
27A2
100
AcDbVisualStyle
  2
FlatWithEdges
 70
     1
 71
     2
 72
     1
 73
     1
 90
        2
 40
-0.6
 41
30.0
 62
     5
 63
     7
 74
     1
 91
        4
 64
     7
 65
   257
 75
     1
175
     1
 42
1.0
 92
        0
 66
   257
 43
1.0
 76
     1
 77
     6
 78
     2
 67
     7
 79
     5
170
     0
171
     0
290
     0
174
     0
 93
       13
 44
0.0
173
     0
291
     1
 45
0.0
1001
ACAD
1000
AcDbSavedByObjectVersion
1070
     0
1000
AcDbSavedByObjectVersion
1070
     0
  0
VISUALSTYLE
  5
27A5
102
{ACAD_REACTORS
330
27A2
102
}
330
27A2
100
AcDbVisualStyle
  2
Gouraud
 70
     2
 71
     2
 72
     2
 73
     1
 90
        2
 40
-0.6
 41
30.0
 62
     5
 63
     7
 74
     0
 91
        4
 64
     7
 65
   257
 75
     1
175
     1
 42
1.0
 92
        0
 66
     7
 43
1.0
 76
     1
 77
     6
 78
     2
 67
     7
 79
     5
170
     0
171
     0
290
     0
174
     0
 93
       13
 44
0.0
173
     0
291
     1
 45
0.0
1001
ACAD
1000
AcDbSavedByObjectVersion
1070
     0
1000
AcDbSavedByObjectVersion
1070
     0
  0
VISUALSTYLE
  5
27A6
102
{ACAD_REACTORS
330
27A2
102
}
330
27A2
100
AcDbVisualStyle
  2
GouraudWithEdges
 70
     3
 71
     2
 72
     2
 73
     1
 90
        2
 40
-0.6
 41
30.0
 62
     5
 63
     7
 74
     1
 91
        4
 64
     7
 65
   257
 75
     1
175
     1
 42
1.0
 92
        0
 66
   257
 43
1.0
 76
     1
 77
     6
 78
     2
 67
     7
 79
     5
170
     0
171
     0
290
     0
174
     0
 93
       13
 44
0.0
173
     0
291
     1
 45
0.0
1001
ACAD
1000
AcDbSavedByObjectVersion
1070
     0
1000
AcDbSavedByObjectVersion
1070
     0
  0
VISUALSTYLE
  5
27B0
102
{ACAD_REACTORS
330
27A2
102
}
330
27A2
100
AcDbVisualStyle
  2
Linepattern
 70
    14
 71
     2
 72
     2
 73
     0
 90
        0
 40
-0.6
 41
-30.0
 62
     5
 63
     7
 74
     1
 91
        4
 64
     7
 65
   257
 75
     7
175
     7
 42
1.0
 92
        8
 66
     7
 43
1.0
 76
     1
 77
     6
 78
     2
 67
     7
 79
     5
170
     0
171
     0
290
     0
174
     0
 93
        1
 44
0.0
173
     0
291
     1
 45
0.0
1001
ACAD
1000
AcDbSavedByObjectVersion
1070
     0
1000
AcDbSavedByObjectVersion
1070
     0
  0
VISUALSTYLE
  5
27AC
102
{ACAD_REACTORS
330
27A2
102
}
330
27A2
100
AcDbVisualStyle
  2
Realistic
 70
     8
 71
     2
 72
     2
 73
     0
 90
        0
 40
-0.6
 41
-30.0
 62
     5
 63
     7
 74
     1
 91
        0
 64
     7
 65
   257
 75
     1
175
     1
 42
1.0
 92
        8
 66
     8
 43
1.0
 76
     1
 77
     6
 78
     2
 67
     7
 79
     5
170
     0
171
     0
290
     0
174
     0
 93
       13
 44
0.0
173
     0
291
     0
 45
0.0
1001
ACAD
1000
AcDbSavedByObjectVersion
1070
     0
1000
AcDbSavedByObjectVersion
1070
     0
  0
VISUALSTYLE
  5
27AF
102
{ACAD_REACTORS
330
27A2
102
}
330
27A2
100
AcDbVisualStyle
  2
Thicken
 70
    13
 71
     2
 72
     2
 73
     0
 90
        0
 40
-0.6
 41
-30.0
 62
     5
 63
     7
 74
     1
 91
        4
 64
     7
 65
   257
 75
     1
175
     1
 42
1.0
 92
       12
 66
     7
 43
1.0
 76
     1
 77
     6
 78
     2
 67
     7
 79
     5
170
     0
171
     0
290
     0
174
     0
 93
        1
 44
0.0
173
     0
291
     1
 45
0.0
1001
ACAD
1000
AcDbSavedByObjectVersion
1070
     0
1000
AcDbSavedByObjectVersion
1070
     0
  0
DICTIONARYVAR
  5
29DA
102
{ACAD_REACTORS
330
29D7
102
}
330
29D7
100
DictionaryVariables
280
     0
  1
1:1
  0
DICTIONARYVAR
  5
29D9
102
{ACAD_REACTORS
330
29D7
102
}
330
29D7
100
DictionaryVariables
280
     0
  1
STANDARD
  0
DICTIONARYVAR
  5
29D8
102
{ACAD_REACTORS
330
29D7
102
}
330
29D7
100
DictionaryVariables
280
     0
  1
STANDARD
  0
DICTIONARYVAR
  5
29DD
102
{ACAD_REACTORS
330
29D7
102
}
330
29D7
100
DictionaryVariables
280
     0
  1
1
  0
DICTIONARYVAR
  5
29DC
102
{ACAD_REACTORS
330
29D7
102
}
330
29D7
100
DictionaryVariables
280
     0
  1
1
  0
DICTIONARYVAR
  5
2D58
102
{ACAD_REACTORS
330
29D7
102
}
330
29D7
100
DictionaryVariables
280
     0
  1
1
  0
DICTIONARYVAR
  5
2D59
102
{ACAD_REACTORS
330
29D7
102
}
330
29D7
100
DictionaryVariables
280
     0
  1
15
  0
DICTIONARYVAR
  5
2D57
102
{ACAD_REACTORS
330
29D7
102
}
330
29D7
100
DictionaryVariables
280
     0
  1
0
  0
DICTIONARYVAR
  5
2F1A
102
{ACAD_REACTORS
330
29D7
102
}
330
29D7
100
DictionaryVariables
280
     0
  1
1.570796
  0
DICTIONARYVAR
  5
2F1B
102
{ACAD_REACTORS
330
29D7
102
}
330
29D7
100
DictionaryVariables
280
     0
  1
1.570796
  0
DICTIONARYVAR
  5
2F1C
102
{ACAD_REACTORS
330
29D7
102
}
330
29D7
100
DictionaryVariables
280
     0
  1
-122.394000
  0
DICTIONARYVAR
  5
2D56
102
{ACAD_REACTORS
330
29D7
102
}
330
29D7
100
DictionaryVariables
280
     0
  1
0
  0
DICTIONARYVAR
  5
29DB
102
{ACAD_REACTORS
330
29D7
102
}
330
29D7
100
DictionaryVariables
280
     0
  1
127
  0
DICTIONARY
  5
2991
102
{ACAD_REACTORS
330
2983
102
}
330
2983
100
AcDbDictionary
281
     1
  0
DICTIONARY
  5
28D1
102
{ACAD_REACTORS
330
28D0
102
}
330
28D0
100
AcDbDictionary
281
     1
  3
DWGSETTINGS
350
2E45
  3
TRANSSETTINGS
350
2E46
  0
ACAMGFILTERDAT
  5
29B0
102
{ACAD_REACTORS
330
29AB
102
}
330
29AB
100
AcAmgFilterDat
 70
    15
  1
DIMENSION,AMDT_*_DIM
  2
*
  3
*
  4
*
  5
*
290
     1
  0
ACAMGFILTERDAT
  5
29AF
102
{ACAD_REACTORS
330
29AB
102
}
330
29AB
100
AcAmgFilterDat
 70
    15
  1
*
  2
AM_FEA-AM_*
  3
*
  4
*
  5
*
290
     1
  0
ACAMGFILTERDAT
  5
29AC
102
{ACAD_REACTORS
330
29AB
102
}
330
29AB
100
AcAmgFilterDat
 70
    15
  1
HATCH
  2
*
  3
*
  4
*
  5
*
290
     1
  0
ACAMGFILTERDAT
  5
29AD
102
{ACAD_REACTORS
330
29AB
102
}
330
29AB
100
AcAmgFilterDat
 70
    15
  1
LINE
  2
8,8N,*-8,*-8N,AM_8,AM_8N,*-AM_8,*-AM_8N
  3
*
  4
*
  5
INSERT,STDPART2D
290
     1
  0
ACAMGFILTERDAT
  5
29B1
102
{ACAD_REACTORS
330
29AB
102
}
330
29AB
100
AcAmgFilterDat
 70
    15
  1
ARC
  2
AM_5
  3
*
  4
2
  5
INSERT
290
     0
  0
ACAMGFILTERDAT
  5
29AE
102
{ACAD_REACTORS
330
29AB
102
}
330
29AB
100
AcAmgFilterDat
 70
    15
  1
ACMFCFRAME,ACMDATUMTARGET,ACMDATUMID,ACMWELDSYM,ACMSURFSYM,ACMFEATID,ACMPARTREF,ACMBALLOON,AMDTEDGESYM,AMGSCREWCALCTABLE,ACMMARKSTAMP
  2
*
  3
*
  4
*
  5
*
290
     1
  0
LAYER_INDEX
  5
29CA
102
{ACAD_REACTORS
330
29C9
102
}
330
29C9
100
AcDbIndex
 40
2457491.553338553
100
AcDbLayerIndex
  8
0
360
29CB
 90
        0
  8
OUTLINE
360
29CC
 90
       24
  8
SIZE
360
29CD
 90
       40
  8
BASIS
360
29CE
 90
        1
  8
DETAIL
360
29CF
 90
      246
  8
ARRANGE
360
29D0
 90
        2
  8
DEFPOINTS
360
29D1
 90
        0
  8
ETC
360
29D2
 90
        3
  8
FIX
360
29D3
 90
        0
  8
NOTE
360
29D4
 90
        7
  8
SERVICESPACE
360
29D5
 90
        0
  8
SYMBOLLINE
360
29D6
 90
        0
  0
DICTIONARY
  5
2793
330
2792
100
AcDbDictionary
280
     1
281
     1
  3
ACAD_XREC_ROUNDTRIP
360
29E8
  3
BUMPTILE
360
2795
  3
DIFFUSETILE
360
2794
  3
OPACITYTILE
360
2798
  3
REFLECTIONTILE
360
2797
  3
REFRACTIONTILE
360
2799
  3
SPECULARTILE
360
2796
  0
DICTIONARY
  5
278B
330
278A
100
AcDbDictionary
280
     1
281
     1
  3
ACAD_XREC_ROUNDTRIP
360
29E7
  3
BUMPTILE
360
278D
  3
DIFFUSETILE
360
278C
  3
OPACITYTILE
360
2790
  3
REFLECTIONTILE
360
278F
  3
REFRACTIONTILE
360
2791
  3
SPECULARTILE
360
278E
  0
DICTIONARY
  5
279B
330
279A
100
AcDbDictionary
280
     1
281
     1
  3
ACAD_XREC_ROUNDTRIP
360
29E9
  3
BUMPTILE
360
279D
  3
DIFFUSETILE
360
279C
  3
OPACITYTILE
360
27A0
  3
REFLECTIONTILE
360
279F
  3
REFRACTIONTILE
360
27A1
  3
SPECULARTILE
360
279E
  0
DICTIONARY
  5
29DE
330
27E5
100
AcDbDictionary
280
     1
281
     1
  3
ACAD_ROUNDTRIP_2008_TABLESTYLE_CELLSTYLEMAP
360
2F1D
  3
ACAD_XREC_ROUNDTRIP
360
2F23
  0
IDBUFFER
  5
29CB
330
0
100
AcDbIdBuffer
  0
IDBUFFER
  5
29CC
330
0
100
AcDbIdBuffer
330
953
330
954
330
955
330
956
330
957
330
958
330
2C62
330
2C63
330
2C64
330
2C65
330
2C66
330
2C67
330
2C68
330
2C69
330
2C6A
330
2C6B
330
2C6C
330
2C6D
330
2C6E
330
2C6F
330
2C70
330
2C71
330
2C72
330
2C75
  0
IDBUFFER
  5
29CD
330
0
100
AcDbIdBuffer
330
2C1D
330
2C1E
330
2C1F
330
2C20
330
2C21
330
2C22
330
2C25
330
2C26
330
2C27
330
2C28
330
2C29
330
2C2A
330
2C2B
330
2C2C
330
2C2D
330
2C2E
330
2C2F
330
2C30
330
2C32
330
2C33
330
2C34
330
2C35
330
2C36
330
2C37
330
2C40
330
2C41
330
2C42
330
2C43
330
2C44
330
2C45
330
2C46
330
2C47
330
2C48
330
2C49
330
2C4A
330
2C4B
330
2C4C
330
2C4D
330
2C4E
330
2C4F
  0
IDBUFFER
  5
29CE
330
0
100
AcDbIdBuffer
330
2C3A
  0
IDBUFFER
  5
29CF
330
0
100
AcDbIdBuffer
330
2C23
330
2C24
330
2C31
330
2C39
330
2C50
330
2C51
330
2C52
330
2C53
330
2C54
330
2C55
330
2C56
330
2C57
330
2C58
330
2C59
330
2C5A
330
2C5B
330
2C5C
330
2C5D
330
2C5E
330
2C5F
330
2C60
330
2C61
330
2C76
330
2C77
330
2C78
330
2C79
330
2C7A
330
2C7B
330
2C7C
330
2C7D
330
2C7E
330
2C7F
330
2C80
330
2C81
330
2C82
330
2C83
330
2C84
330
2C85
330
2C86
330
2C87
330
2C88
330
2C89
330
2C8A
330
2C8B
330
2C8C
330
2C8D
330
2C8E
330
2C8F
330
2C90
330
2C91
330
2C92
330
2C93
330
2C94
330
2C95
330
2C96
330
2C97
330
2C98
330
2C99
330
2C9A
330
2C9B
330
2C9C
330
2C9D
330
2C9E
330
2C9F
330
2CA0
330
2CA1
330
2CA2
330
2CA3
330
2CA4
330
2CA5
330
2CA6
330
2CA7
330
2CA8
330
2CA9
330
2CAA
330
2CAB
330
2CAC
330
2CAD
330
2CAE
330
2CAF
330
2CB0
330
2CB1
330
2CB2
330
2CB3
330
2CB4
330
2CB5
330
2CB6
330
2CB7
330
2CB8
330
2CB9
330
2CBA
330
2CBB
330
2CBC
330
2CBD
330
2CBE
330
2CBF
330
2CC0
330
2CC1
330
2CC2
330
2CC3
330
2CC4
330
2CC5
330
2CC6
330
2CC7
330
2CC8
330
2CC9
330
2CCA
330
2CCB
330
2CCC
330
2CCD
330
2CCE
330
2CCF
330
2CD0
330
2CD1
330
2CD2
330
2CD3
330
2CD4
330
2CD5
330
2CD6
330
2CD7
330
2CD8
330
2CD9
330
2CDA
330
2CDB
330
2CDC
330
2CDD
330
2CDE
330
2CDF
330
2CE0
330
2CE1
330
2CE2
330
2CE3
330
2CE4
330
2CE5
330
2CE6
330
2CE7
330
2CE8
330
2CE9
330
2CEA
330
2CEB
330
2CEC
330
2CED
330
2CEE
330
2CEF
330
2CF0
330
2CF1
330
2CF2
330
2CF3
330
2CF4
330
2CF5
330
2CF6
330
2CF7
330
2CF8
330
2CF9
330
2CFA
330
2CFB
330
2CFC
330
2CFD
330
2CFE
330
2CFF
330
2D00
330
2D01
330
2D02
330
2D03
330
2D04
330
2D05
330
2D06
330
2D07
330
2D08
330
2D09
330
2D0A
330
2D0B
330
2D0C
330
2D0D
330
2D0E
330
2D0F
330
2D10
330
2D11
330
2D12
330
2D13
330
2D14
330
2D15
330
2D16
330
2D17
330
2D18
330
2D19
330
2D1A
330
2D1B
330
2D1C
330
2D1D
330
2D1E
330
2D1F
330
2D20
330
2D21
330
2D22
330
2D23
330
2D24
330
2D25
330
2D26
330
2D27
330
2D28
330
2D29
330
2D2A
330
2D2B
330
2D2C
330
2D2D
330
2D2E
330
2D2F
330
2D30
330
2D31
330
2D32
330
2D33
330
2D34
330
2D35
330
2D36
330
2D37
330
2D38
330
2D39
330
2D3A
330
2D3B
330
2D3C
330
2D3D
330
2D3E
330
2D3F
330
2D40
330
2D41
330
2D42
330
2D43
330
2D44
330
2D45
330
2D46
330
2D47
330
2D48
330
2D49
330
2D4A
330
2D4B
330
2D4C
330
2D4D
330
2D4E
330
2D4F
330
2D50
330
2D51
330
2D52
330
2D53
330
2D54
330
2D55
  0
IDBUFFER
  5
29D0
330
0
100
AcDbIdBuffer
330
2C1C
330
2C3B
  0
IDBUFFER
  5
29D1
330
0
100
AcDbIdBuffer
  0
IDBUFFER
  5
29D2
330
0
100
AcDbIdBuffer
330
2C19
330
2C1A
330
2C1B
  0
IDBUFFER
  5
29D3
330
0
100
AcDbIdBuffer
  0
IDBUFFER
  5
29D4
330
0
100
AcDbIdBuffer
330
2C38
330
2C3C
330
2C3D
330
2C3E
330
2C3F
330
2C73
330
2C74
  0
IDBUFFER
  5
29D5
330
0
100
AcDbIdBuffer
  0
IDBUFFER
  5
29D6
330
0
100
AcDbIdBuffer
  0
XRECORD
  5
29E8
102
{ACAD_REACTORS
330
2793
102
}
330
2793
100
AcDbXrecord
280
     1
102
MATERIAL
148
0.0
149
0.0
149
0.0
 93
        0
 94
      127
282
     0
 72
     0
 77
     0
171
     0
175
     0
179
     0
273
     0
  0
XRECORD
  5
2795
102
{ACAD_REACTORS
330
2793
102
}
330
2793
100
AcDbXrecord
280
     1
270
     1
271
     1
  0
XRECORD
  5
2794
102
{ACAD_REACTORS
330
2793
102
}
330
2793
100
AcDbXrecord
280
     1
270
     1
271
     1
  0
XRECORD
  5
2798
102
{ACAD_REACTORS
330
2793
102
}
330
2793
100
AcDbXrecord
280
     1
270
     1
271
     1
  0
XRECORD
  5
2797
102
{ACAD_REACTORS
330
2793
102
}
330
2793
100
AcDbXrecord
280
     1
270
     1
271
     1
  0
XRECORD
  5
2799
102
{ACAD_REACTORS
330
2793
102
}
330
2793
100
AcDbXrecord
280
     1
270
     1
271
     1
  0
XRECORD
  5
2796
102
{ACAD_REACTORS
330
2793
102
}
330
2793
100
AcDbXrecord
280
     1
270
     1
271
     1
  0
XRECORD
  5
29E7
102
{ACAD_REACTORS
330
278B
102
}
330
278B
100
AcDbXrecord
280
     1
102
MATERIAL
148
0.0
149
0.0
149
0.0
 93
        0
 94
      127
282
     0
 72
     0
 77
     0
171
     0
175
     0
179
     0
273
     0
  0
XRECORD
  5
278D
102
{ACAD_REACTORS
330
278B
102
}
330
278B
100
AcDbXrecord
280
     1
270
     1
271
     1
  0
XRECORD
  5
278C
102
{ACAD_REACTORS
330
278B
102
}
330
278B
100
AcDbXrecord
280
     1
270
     1
271
     1
  0
XRECORD
  5
2790
102
{ACAD_REACTORS
330
278B
102
}
330
278B
100
AcDbXrecord
280
     1
270
     1
271
     1
  0
XRECORD
  5
278F
102
{ACAD_REACTORS
330
278B
102
}
330
278B
100
AcDbXrecord
280
     1
270
     1
271
     1
  0
XRECORD
  5
2791
102
{ACAD_REACTORS
330
278B
102
}
330
278B
100
AcDbXrecord
280
     1
270
     1
271
     1
  0
XRECORD
  5
278E
102
{ACAD_REACTORS
330
278B
102
}
330
278B
100
AcDbXrecord
280
     1
270
     1
271
     1
  0
XRECORD
  5
29E9
102
{ACAD_REACTORS
330
279B
102
}
330
279B
100
AcDbXrecord
280
     1
102
MATERIAL
148
0.0
149
0.0
149
0.0
 93
        0
 94
      127
282
     0
 72
     0
 77
     0
171
     0
175
     0
179
     0
273
     0
  0
XRECORD
  5
279D
102
{ACAD_REACTORS
330
279B
102
}
330
279B
100
AcDbXrecord
280
     1
270
     1
271
     1
  0
XRECORD
  5
279C
102
{ACAD_REACTORS
330
279B
102
}
330
279B
100
AcDbXrecord
280
     1
270
     1
271
     1
  0
XRECORD
  5
27A0
102
{ACAD_REACTORS
330
279B
102
}
330
279B
100
AcDbXrecord
280
     1
270
     1
271
     1
  0
XRECORD
  5
279F
102
{ACAD_REACTORS
330
279B
102
}
330
279B
100
AcDbXrecord
280
     1
270
     1
271
     1
  0
XRECORD
  5
27A1
102
{ACAD_REACTORS
330
279B
102
}
330
279B
100
AcDbXrecord
280
     1
270
     1
271
     1
  0
XRECORD
  5
279E
102
{ACAD_REACTORS
330
279B
102
}
330
279B
100
AcDbXrecord
280
     1
270
     1
271
     1
  0
CELLSTYLEMAP
  5
2F1D
102
{ACAD_REACTORS
330
29DE
102
}
330
29DE
100
AcDbCellStyleMap
 90
        3
300
CELLSTYLE
  1
TABLEFORMAT_BEGIN
 90
        5
170
     1
 91
        0
 92
    32768
 62
   257
 93
        1
300
CONTENTFORMAT
  1
CONTENTFORMAT_BEGIN
 90
        0
 91
        0
 92
      512
 93
        0
300

 40
0.0
140
1.0
 94
        5
 62
     0
340
27D6
144
0.25
309
CONTENTFORMAT_END
171
     1
301
MARGIN
  1
CELLMARGIN_BEGIN
 40
0.06
 40
0.06
 40
0.06
 40
0.06
 40
0.18
 40
0.18
309
CELLMARGIN_END
 94
        6
 95
        1
302
GRIDFORMAT
  1
GRIDFORMAT_BEGIN
 90
        0
 91
        1
 62
     0
 92
       -2
340
0
 93
        0
 40
0.045
309
GRIDFORMAT_END
 95
        2
302
GRIDFORMAT
  1
GRIDFORMAT_BEGIN
 90
        0
 91
        1
 62
     0
 92
       -2
340
0
 93
        0
 40
0.045
309
GRIDFORMAT_END
 95
        4
302
GRIDFORMAT
  1
GRIDFORMAT_BEGIN
 90
        0
 91
        1
 62
     0
 92
       -2
340
0
 93
        0
 40
0.045
309
GRIDFORMAT_END
 95
        8
302
GRIDFORMAT
  1
GRIDFORMAT_BEGIN
 90
        0
 91
        1
 62
     0
 92
       -2
340
0
 93
        0
 40
0.045
309
GRIDFORMAT_END
 95
       16
302
GRIDFORMAT
  1
GRIDFORMAT_BEGIN
 90
        0
 91
        1
 62
     0
 92
       -2
340
0
 93
        0
 40
0.045
309
GRIDFORMAT_END
 95
       32
302
GRIDFORMAT
  1
GRIDFORMAT_BEGIN
 90
        0
 91
        1
 62
     0
 92
       -2
340
0
 93
        0
 40
0.045
309
GRIDFORMAT_END
309
TABLEFORMAT_END
  1
CELLSTYLE_BEGIN
 90
        1
 91
        1
300
_TITLE
309
CELLSTYLE_END
300
CELLSTYLE
  1
TABLEFORMAT_BEGIN
 90
        5
170
     1
 91
        0
 92
        0
 62
   257
 93
        1
300
CONTENTFORMAT
  1
CONTENTFORMAT_BEGIN
 90
        0
 91
        0
 92
      512
 93
        0
300

 40
0.0
140
1.0
 94
        5
 62
     0
340
27D6
144
0.18
309
CONTENTFORMAT_END
171
     1
301
MARGIN
  1
CELLMARGIN_BEGIN
 40
0.06
 40
0.06
 40
0.06
 40
0.06
 40
0.18
 40
0.18
309
CELLMARGIN_END
 94
        6
 95
        1
302
GRIDFORMAT
  1
GRIDFORMAT_BEGIN
 90
        0
 91
        1
 62
     0
 92
       -2
340
0
 93
        0
 40
0.045
309
GRIDFORMAT_END
 95
        2
302
GRIDFORMAT
  1
GRIDFORMAT_BEGIN
 90
        0
 91
        1
 62
     0
 92
       -2
340
0
 93
        0
 40
0.045
309
GRIDFORMAT_END
 95
        4
302
GRIDFORMAT
  1
GRIDFORMAT_BEGIN
 90
        0
 91
        1
 62
     0
 92
       -2
340
0
 93
        0
 40
0.045
309
GRIDFORMAT_END
 95
        8
302
GRIDFORMAT
  1
GRIDFORMAT_BEGIN
 90
        0
 91
        1
 62
     0
 92
       -2
340
0
 93
        0
 40
0.045
309
GRIDFORMAT_END
 95
       16
302
GRIDFORMAT
  1
GRIDFORMAT_BEGIN
 90
        0
 91
        1
 62
     0
 92
       -2
340
0
 93
        0
 40
0.045
309
GRIDFORMAT_END
 95
       32
302
GRIDFORMAT
  1
GRIDFORMAT_BEGIN
 90
        0
 91
        1
 62
     0
 92
       -2
340
0
 93
        0
 40
0.045
309
GRIDFORMAT_END
309
TABLEFORMAT_END
  1
CELLSTYLE_BEGIN
 90
        2
 91
        1
300
_HEADER
309
CELLSTYLE_END
300
CELLSTYLE
  1
TABLEFORMAT_BEGIN
 90
        5
170
     1
 91
        0
 92
        0
 62
   257
 93
        1
300
CONTENTFORMAT
  1
CONTENTFORMAT_BEGIN
 90
        0
 91
        0
 92
      512
 93
        0
300

 40
0.0
140
1.0
 94
        2
 62
     0
340
27D6
144
0.18
309
CONTENTFORMAT_END
171
     1
301
MARGIN
  1
CELLMARGIN_BEGIN
 40
0.06
 40
0.06
 40
0.06
 40
0.06
 40
0.18
 40
0.18
309
CELLMARGIN_END
 94
        6
 95
        1
302
GRIDFORMAT
  1
GRIDFORMAT_BEGIN
 90
        0
 91
        1
 62
     0
 92
       -2
340
0
 93
        0
 40
0.045
309
GRIDFORMAT_END
 95
        2
302
GRIDFORMAT
  1
GRIDFORMAT_BEGIN
 90
        0
 91
        1
 62
     0
 92
       -2
340
0
 93
        0
 40
0.045
309
GRIDFORMAT_END
 95
        4
302
GRIDFORMAT
  1
GRIDFORMAT_BEGIN
 90
        0
 91
        1
 62
     0
 92
       -2
340
0
 93
        0
 40
0.045
309
GRIDFORMAT_END
 95
        8
302
GRIDFORMAT
  1
GRIDFORMAT_BEGIN
 90
        0
 91
        1
 62
     0
 92
       -2
340
0
 93
        0
 40
0.045
309
GRIDFORMAT_END
 95
       16
302
GRIDFORMAT
  1
GRIDFORMAT_BEGIN
 90
        0
 91
        1
 62
     0
 92
       -2
340
0
 93
        0
 40
0.045
309
GRIDFORMAT_END
 95
       32
302
GRIDFORMAT
  1
GRIDFORMAT_BEGIN
 90
        0
 91
        1
 62
     0
 92
       -2
340
0
 93
        0
 40
0.045
309
GRIDFORMAT_END
309
TABLEFORMAT_END
  1
CELLSTYLE_BEGIN
 90
        3
 91
        2
300
_DATA
309
CELLSTYLE_END
  0
XRECORD
  5
2F23
102
{ACAD_REACTORS
330
29DE
102
}
330
29DE
100
AcDbXrecord
280
     1
102
ACAD_ROUNDTRIP_PRE2007_TABLESTYLE
 90
      512
 91
        0
  1

 92
      512
 93
        0
  2

 94
      512
 95
        0
  3

  0
ENDSEC
  0
EOF
