  0
SECTION
  2
HEADER
  9
$ACADVER
  1
AC1015
  9
$ACADMAINTVER
 70
    20
  9
$DWGCODEPAGE
  3
ANSI_932
  9
$INSBASE
 10
0.0
 20
0.0
 30
0.0
  9
$EXTMIN
 10
-958.7093999922544
 20
-883.4116713904327
 30
0.0
  9
$EXTMAX
 10
1201.849591127442
 20
517.991519587941
 30
50.0
  9
$LIMMIN
 10
-2970.0
 20
-2100.0
  9
$LIMMAX
 10
2970.0
 20
2100.0
  9
$ORTHOMODE
 70
     1
  9
$REGENMODE
 70
     0
  9
$FILLMODE
 70
     1
  9
$QTEXTMODE
 70
     0
  9
$MIRRTEXT
 70
     0
  9
$LTSCALE
 40
20.0
  9
$ATTMODE
 70
     1
  9
$TEXTSIZE
 40
64.0
  9
$TRACEWID
 40
0.05
  9
$TEXTSTYLE
  7
STANDARD
  9
$CLAYER
  8
0
  9
$CELTYPE
  6
ByLayer
  9
$CECOLOR
 62
   256
  9
$CELTSCALE
 40
1.0
  9
$DISPSILH
 70
     0
  9
$DIMSCALE
 40
1.0
  9
$DIMASZ
 40
0.12
  9
$DIMEXO
 40
0.05
  9
$DIMDLI
 40
0.5
  9
$DIMRND
 40
0.0
  9
$DIMDLE
 40
0.0
  9
$DIMEXE
 40
0.1
  9
$DIMTP
 40
0.1
  9
$DIMTM
 40
0.1
  9
$DIMTXT
 40
0.12
  9
$DIMCEN
 40
0.0
  9
$DIMTSZ
 40
0.0
  9
$DIMTOL
 70
     0
  9
$DIMLIM
 70
     0
  9
$DIMTIH
 70
     1
  9
$DIMTOH
 70
     1
  9
$DIMSE1
 70
     0
  9
$DIMSE2
 70
     0
  9
$DIMTAD
 70
     0
  9
$DIMZIN
 70
     7
  9
$DIMBLK
  1

  9
$DIMASO
 70
     1
  9
$DIMSHO
 70
     0
  9
$DIMPOST
  1

  9
$DIMAPOST
  1
mm
  9
$DIMALT
 70
     0
  9
$DIMALTD
 70
     2
  9
$DIMALTF
 40
25.4
  9
$DIMLFAC
 40
1.0
  9
$DIMTOFL
 70
     0
  9
$DIMTVP
 40
0.0
  9
$DIMTIX
 70
     0
  9
$DIMSOXD
 70
     0
  9
$DIMSAH
 70
     0
  9
$DIMBLK1
  1

  9
$DIMBLK2
  1

  9
$DIMSTYLE
  2
AM_ANSI
  9
$DIMCLRD
 70
   256
  9
$DIMCLRE
 70
   256
  9
$DIMCLRT
 70
     2
  9
$DIMTFAC
 40
0.71
  9
$DIMGAP
 40
0.06
  9
$DIMJUST
 70
     0
  9
$DIMSD1
 70
     0
  9
$DIMSD2
 70
     0
  9
$DIMTOLJ
 70
     1
  9
$DIMTZIN
 70
     7
  9
$DIMALTZ
 70
     0
  9
$DIMALTTZ
 70
     0
  9
$DIMUPT
 70
     0
  9
$DIMDEC
 70
     4
  9
$DIMTDEC
 70
     4
  9
$DIMALTU
 70
     2
  9
$DIMALTTD
 70
     4
  9
$DIMTXSTY
  7
STANDARD
  9
$DIMAUNIT
 70
     0
  9
$DIMADEC
 70
     0
  9
$DIMALTRND
 40
0.0
  9
$DIMAZIN
 70
     2
  9
$DIMDSEP
 70
    46
  9
$DIMATFIT
 70
     3
  9
$DIMFRAC
 70
     0
  9
$DIMLDRBLK
  1

  9
$DIMLUNIT
 70
     2
  9
$DIMLWD
 70
    -1
  9
$DIMLWE
 70
    -1
  9
$DIMTMOVE
 70
     0
  9
$LUNITS
 70
     2
  9
$LUPREC
 70
     4
  9
$SKETCHINC
 40
0.1
  9
$FILLETRAD
 40
4.0
  9
$AUNITS
 70
     1
  9
$AUPREC
 70
     3
  9
$MENU
  1
ACAD
  9
$ELEVATION
 40
0.0
  9
$PELEVATION
 40
0.0
  9
$THICKNESS
 40
50.0
  9
$LIMCHECK
 70
     0
  9
$CHAMFERA
 40
0.0
  9
$CHAMFERB
 40
0.0
  9
$CHAMFERC
 40
0.0
  9
$CHAMFERD
 40
0.0
  9
$SKPOLY
 70
     0
  9
$TDCREATE
 40
2452321.396199653
  9
$TDUCREATE
 40
2452321.021199653
  9
$TDUPDATE
 40
2456212.848111782
  9
$TDUUPDATE
 40
2456212.473111782
  9
$TDINDWG
 40
1.0408640046
  9
$TDUSRTIMER
 40
1.0408582407
  9
$USRTIMER
 70
     1
  9
$ANGBASE
 50
0.0
  9
$ANGDIR
 70
     0
  9
$PDMODE
 70
     3
  9
$PDSIZE
 40
-2.0
  9
$PLINEWID
 40
0.0
  9
$SPLFRAME
 70
     0
  9
$SPLINETYPE
 70
     6
  9
$SPLINESEGS
 70
     8
  9
$HANDSEED
  5
29F8
  9
$SURFTAB1
 70
     6
  9
$SURFTAB2
 70
     6
  9
$SURFTYPE
 70
     6
  9
$SURFU
 70
     6
  9
$SURFV
 70
     6
  9
$UCSBASE
  2

  9
$UCSNAME
  2

  9
$UCSORG
 10
0.0
 20
0.0
 30
0.0
  9
$UCSXDIR
 10
1.0
 20
0.0
 30
0.0
  9
$UCSYDIR
 10
0.0
 20
1.0
 30
0.0
  9
$UCSORTHOREF
  2

  9
$UCSORTHOVIEW
 70
     0
  9
$UCSORGTOP
 10
0.0
 20
0.0
 30
0.0
  9
$UCSORGBOTTOM
 10
0.0
 20
0.0
 30
0.0
  9
$UCSORGLEFT
 10
0.0
 20
0.0
 30
0.0
  9
$UCSORGRIGHT
 10
0.0
 20
0.0
 30
0.0
  9
$UCSORGFRONT
 10
0.0
 20
0.0
 30
0.0
  9
$UCSORGBACK
 10
0.0
 20
0.0
 30
0.0
  9
$PUCSBASE
  2

  9
$PUCSNAME
  2

  9
$PUCSORG
 10
0.0
 20
0.0
 30
0.0
  9
$PUCSXDIR
 10
1.0
 20
0.0
 30
0.0
  9
$PUCSYDIR
 10
0.0
 20
1.0
 30
0.0
  9
$PUCSORTHOREF
  2

  9
$PUCSORTHOVIEW
 70
     0
  9
$PUCSORGTOP
 10
0.0
 20
0.0
 30
0.0
  9
$PUCSORGBOTTOM
 10
0.0
 20
0.0
 30
0.0
  9
$PUCSORGLEFT
 10
0.0
 20
0.0
 30
0.0
  9
$PUCSORGRIGHT
 10
0.0
 20
0.0
 30
0.0
  9
$PUCSORGFRONT
 10
0.0
 20
0.0
 30
0.0
  9
$PUCSORGBACK
 10
0.0
 20
0.0
 30
0.0
  9
$USERI1
 70
     0
  9
$USERI2
 70
     0
  9
$USERI3
 70
     0
  9
$USERI4
 70
     0
  9
$USERI5
 70
     0
  9
$USERR1
 40
20.0
  9
$USERR2
 40
0.0
  9
$USERR3
 40
0.0
  9
$USERR4
 40
0.0
  9
$USERR5
 40
0.0
  9
$WORLDVIEW
 70
     1
  9
$SHADEDGE
 70
     3
  9
$SHADEDIF
 70
    70
  9
$TILEMODE
 70
     1
  9
$MAXACTVP
 70
    64
  9
$PINSBASE
 10
0.0
 20
0.0
 30
0.0
  9
$PLIMCHECK
 70
     0
  9
$PEXTMIN
 10
1.000000000000000E+20
 20
1.000000000000000E+20
 30
1.000000000000000E+20
  9
$PEXTMAX
 10
-1.000000000000000E+20
 20
-1.000000000000000E+20
 30
-1.000000000000000E+20
  9
$PLIMMIN
 10
0.0
 20
0.0
  9
$PLIMMAX
 10
12.0
 20
9.0
  9
$UNITMODE
 70
     0
  9
$VISRETAIN
 70
     1
  9
$PLINEGEN
 70
     0
  9
$PSLTSCALE
 70
     1
  9
$TREEDEPTH
 70
  3020
  9
$CMLSTYLE
  2
Standard
  9
$CMLJUST
 70
     0
  9
$CMLSCALE
 40
1.0
  9
$PROXYGRAPHICS
 70
     1
  9
$MEASUREMENT
 70
     0
  9
$CELWEIGHT
370
    -1
  9
$ENDCAPS
280
     0
  9
$JOINSTYLE
280
     0
  9
$LWDISPLAY
290
     0
  9
$INSUNITS
 70
     0
  9
$HYPERLINKBASE
  1

  9
$STYLESHEET
  1

  9
$XEDIT
290
     1
  9
$CEPSNTYPE
380
     0
  9
$PSTYLEMODE
290
     1
  9
$FINGERPRINTGUID
  2
{9BC38517-0EFA-4961-8222-62B4589A2512}
  9
$VERSIONGUID
  2
{B08A7B33-B9C9-4AA7-808E-81DC5BF1408C}
  9
$EXTNAMES
290
     1
  9
$PSVPSCALE
 40
0.0
  9
$OLESTARTUP
290
     0
  0
ENDSEC
  0
SECTION
  2
CLASSES
  0
CLASS
  1
ACDBDICTIONARYWDFLT
  2
AcDbDictionaryWithDefault
  3
ObjectDBX Classes
 90
        0
280
     0
281
     0
  0
CLASS
  1
MATERIAL
  2
AcDbMaterial
  3
ObjectDBX Classes
 90
     1153
280
     0
281
     0
  0
CLASS
  1
VISUALSTYLE
  2
AcDbVisualStyle
  3
ObjectDBX Classes
 90
     4095
280
     0
281
     0
  0
CLASS
  1
SCALE
  2
AcDbScale
  3
ObjectDBX Classes
 90
     1153
280
     0
281
     0
  0
CLASS
  1
TABLESTYLE
  2
AcDbTableStyle
  3
ObjectDBX Classes
 90
     4095
280
     0
281
     0
  0
CLASS
  1
MLEADERSTYLE
  2
AcDbMLeaderStyle
  3
ACDB_MLEADERSTYLE_CLASS
 90
     4095
280
     0
281
     0
  0
CLASS
  1
AMGSETTINGSOBJ
  2
AmgSettingsObj
  3
"AcadM|Product Description: AutoCAD Mechanical|Company: Autodesk, Inc."
 90
     1024
280
     0
281
     0
  0
CLASS
  1
ACME_DOCUMENT
  2
AcMeDbDoc
  3
AcMeServices
 90
     1024
280
     0
281
     0
  0
CLASS
  1
ACMESCOPE
  2
AcMeScope
  3
AcMeServices
 90
     1024
280
     0
281
     0
  0
CLASS
  1
ACMECOMMANDHISTORY
  2
AcMeCommandHistory
  3
AcMeServices
 90
     1024
280
     0
281
     0
  0
CLASS
  1
ACIMSYSVARMAN
  2
AcImSysVarManager
  3
AcMeServices
 90
     1024
280
     0
281
     0
  0
CLASS
  1
ACIMREALSYSVAR
  2
AcImRealSysVar
  3
AcMeServices
 90
     1024
280
     0
281
     0
  0
CLASS
  1
ACIMINTSYSVAR
  2
AcImIntSysVar
  3
AcMeServices
 90
     1024
280
     0
281
     0
  0
CLASS
  1
ACMEDRAWINGMAN
  2
AcMeDrawingMan
  3
AcMeServices
 90
     1024
280
     0
281
     0
  0
CLASS
  1
ACMEVIEW
  2
AcMeView
  3
AcMeServices
 90
     1024
280
     0
281
     0
  0
CLASS
  1
ACDBENTITYCACHE
  2
AcMeEntityCache
  3
AcMeServices
 90
     1024
280
     0
281
     0
  0
CLASS
  1
GSMANAGER
  2
AcMeGSManager
  3
AcMeServices
 90
     1024
280
     0
281
     0
  0
CLASS
  1
AMDTINTERNALREACTOR
  2
AmdtInternalReactor
  3
AcMeServices
 90
     1024
280
     0
281
     0
  0
CLASS
  1
ACMESTATEMGR
  2
AcMeStateMgr
  3
AcMeServices
 90
     1024
280
     0
281
     0
  0
CLASS
  1
ACGREFMASTER
  2
AcGrefMaster
  3
AcAttribServices
 90
     1024
280
     0
281
     0
  0
CLASS
  1
AM_DRAWING_MGR
  2
AcDmDwgMgr
  3
AcMechDwgViewMgmt
 90
     1024
280
     0
281
     0
  0
CLASS
  1
AM_DWG_DOCUMENT
  2
AcDmDwgDocument
  3
AcMechDwgViewMgmt
 90
     1024
280
     0
281
     0
  0
CLASS
  1
AM_DWG_SHEET
  2
AcDmSheet
  3
AcMechDwgViewMgmt
 90
     1024
280
     0
281
     0
  0
CLASS
  1
AM_VIEWDIMPARMAP
  2
AcDmViewDimParMap
  3
AcMechDwgViewMgmt
 90
     1024
280
     0
281
     0
  0
CLASS
  1
AM_DWGMGR_NAME
  2
AcDmDwgMgrName
  3
AcMechDwgViewMgmt
 90
     1024
280
     0
281
     0
  0
CLASS
  1
ACME_DATABASE
  2
AcMeDbDatabase
  3
AcMeServices
 90
     1024
280
     0
281
     0
  0
CLASS
  1
ACRFINSADJUSTERMGR
  2
AcRfInsAdjusterMgr
  3
AcMeServices
 90
     1024
280
     0
281
     0
  0
CLASS
  1
ACGREFACADMASTER
  2
AcGrefacadMaster
  3
AcGrefServices
 90
     1024
280
     0
281
     0
  0
CLASS
  1
AMDTMENUSTATEMGR
  2
AmdtMenuStateMgr
  3
McadcomServices
 90
     1024
280
     0
281
     0
  0
CLASS
  1
AMDTMCOMMENUSTATE
  2
AmdtMcomMenuState
  3
McadcomServices
 90
     1024
280
     0
281
     0
  0
CLASS
  1
AMIMASTER
  2
AmiMaster
  3
AmiServices
 90
     1024
280
     0
281
     0
  0
CLASS
  1
ASAPP
  2
AcAsAppObject
  3
AutoSurfServices
 90
     1024
280
     0
281
     0
  0
CLASS
  1
IM_STATIC_MAN
  2
AcImStaticVarManager
  3
AcMeServices
 90
     1024
280
     0
281
     0
  0
CLASS
  1
ACIMSTRSYSVAR
  2
AcImStrSysVar
  3
AcMeServices
 90
     1024
280
     0
281
     0
  0
CLASS
  1
ACIMDBLSTATICVAR
  2
AcImDblStaticVar
  3
AcMeServices
 90
     1024
280
     0
281
     0
  0
CLASS
  1
ACIMSTRSTATICVAR
  2
AcImStrStaticVar
  3
AcMeServices
 90
     1024
280
     0
281
     0
  0
CLASS
  1
ACIMINTSTATICVAR
  2
AcImIntStaticVar
  3
AcMeServices
 90
     1024
280
     0
281
     0
  0
CLASS
  1
ACASGREFMASTER
  2
AcAsGrefMaster
  3
AutoSurfResolverServices
 90
     1024
280
     0
281
     0
  0
CLASS
  1
ACADGREFMODULE
  2
AcAdGrefModule
  3
AdGrefServices
 90
     1024
280
     0
281
     0
  0
CLASS
  1
AMDTMAPISURFMOUDULE
  2
AmdtMApiSurfModule
  3
MApiSurfServices
 90
     1024
280
     0
281
     0
  0
CLASS
  1
MAPIAMMOUDLE
  2
MApiAmModule
  3
MApiAmServices
 90
     1024
280
     0
281
     0
  0
CLASS
  1
AMDTADMENUSTATE
  2
AmdtAdMenuState
  3
DesignerServices
 90
     1024
280
     0
281
     0
  0
CLASS
  1
ADAPPL
  2
AcAdAppl
  3
DesignerServices
 90
     1024
280
     0
281
     0
  0
CLASS
  1
DEPMGR
  2
AcAdDepMgr
  3
DesignerServices
 90
     1024
280
     0
281
     0
  0
CLASS
  1
PARAMMGR
  2
AcAdParamMgr
  3
DesignerServices
 90
     1024
280
     0
281
     0
  0
CLASS
  1
PARAMSCOPE
  2
AcAdParamScope
  3
DesignerServices
 90
     1024
280
     0
281
     0
  0
CLASS
  1
NAMEDAPPL
  2
AcAdNamedAppl
  3
DesignerServices
 90
     1024
280
     0
281
     0
  0
CLASS
  1
AMDTDMMENUSTATE
  2
AmdtDmMenuState
  3
AcMechDwgViewMgmt
 90
     1024
280
     0
281
     0
  0
CLASS
  1
MAPIADMODULE
  2
MApiAdModule
  3
MApiAdServices
 90
     1024
280
     0
281
     0
  0
CLASS
  1
AMDTAMMENUSTATE
  2
AmdtAmMenuState
  3
DesignerAssemblies
 90
     1024
280
     0
281
     0
  0
CLASS
  1
ACAMPROJECT
  2
AcAmProject
  3
DesignerAssemblies
 90
     1024
280
     0
281
     0
  0
CLASS
  1
ACAMGRCOMPDEF
  2
AcAmGrCompDef
  3
DesignerAssemblies
 90
     1024
280
     0
281
     0
  0
CLASS
  1
ACCMCONTEXT
  2
AcCmContext
  3
DesignerAssemblies
 90
     1024
280
     0
281
     0
  0
CLASS
  1
ACAMCOMPDEF
  2
AcAmCompDef
  3
DesignerAssemblies
 90
     1024
280
     0
281
     0
  0
CLASS
  1
ACAMCOMPDEFMGR
  2
AcAmCompDefMgr
  3
DesignerAssemblies
 90
     1024
280
     0
281
     0
  0
CLASS
  1
AMCONTEXTMGR
  2
AcAmContextMgr
  3
DesignerAssemblies
 90
     1024
280
     0
281
     0
  0
CLASS
  1
ACAMCONTEXTMODELER
  2
AcAmContextModeler
  3
DesignerAssemblies
 90
     1024
280
     0
281
     0
  0
CLASS
  1
ACMDATADICTIONARY
  2
AcmDataDictionary
  3
"AcmSymBB|Product Description: AutoCAD Mechanical|Company: Autodesk, Inc."
 90
     1024
280
     0
281
     0
  0
CLASS
  1
ACMDATAENTRYBLOCK
  2
AcmDataEntryBlock
  3
AcmSymBB|Product Description: AutoCAD Mechanical|Company: Autodesk, Inc.
 90
     1024
280
     0
281
     0
  0
CLASS
  1
ACRFATTGENMGR
  2
AcRfAttGeneralMgr
  3
AcAttribServices
 90
     1024
280
     0
281
     0
  0
CLASS
  1
ACRFOBJATTMGR
  2
AcRfObjAttGroupMgr
  3
AcAttribServices
 90
     1024
280
     0
281
     0
  0
CLASS
  1
ACRFMCADAPIATTHOLDER
  2
AcRfMCADAPIAttHolder
  3
AcAttribServices
 90
     1024
280
     0
281
     0
  0
CLASS
  1
AMDTSYSATTR
  2
AmdtSystemAttribute
  3
AcAttribServices
 90
     1024
280
     0
281
     0
  0
CLASS
  1
CATALOGSTATE
  2
AcAmCatalogState
  3
DesignerAssemblies
 90
     1024
280
     0
281
     0
  0
CLASS
  1
ACAMGRCOMPDEFSET
  2
AcAmGrCompDefSet
  3
DesignerAssemblies
 90
     1024
280
     0
281
     0
  0
CLASS
  1
AMDTBROWSERDBTAB
  2
AmdtBrowserDbTab
  3
McadcomServices
 90
     1024
280
     0
281
     0
  0
CLASS
  1
CBROWSERAPPOBJECT
  2
CBrowserAppObject
  3
McadcomServices
 90
     1024
280
     0
281
     0
  0
CLASS
  1
DM_PLACEHOLDER
  2
AcDmSelsetPlaceholder
  3
AcMechDwgViewMgmt
 90
     1024
280
     0
281
     0
  0
CLASS
  1
ACMSTANDARDANSI
  2
AcmStandardANSI
  3
"Amdt_StdImp|Product Description: AutoCAD Mechanical|Company: Autodesk, Inc."
 90
     1024
280
     0
281
     0
  0
CLASS
  1
ACMSURFSTANDARDANSI
  2
AcmSurfTextStdANSI
  3
"Amdt_StdImp|Product Description: AutoCAD Mechanical|Company: Autodesk, Inc."
 90
     1024
280
     0
281
     0
  0
CLASS
  1
ACMFCFSTANDARDANSI
  2
AcmFCFStdANSI
  3
"Amdt_StdImp|Product Description: AutoCAD Mechanical|Company: Autodesk, Inc."
 90
     1024
280
     0
281
     0
  0
CLASS
  1
ACMWELDSTANDARDANSI
  2
AcmWeldingStdANSI
  3
"Amdt_StdImp|Product Description: AutoCAD Mechanical|Company: Autodesk, Inc."
 90
     1024
280
     0
281
     0
  0
CLASS
  1
ACMIDSTANDARDANSI
  2
AcmIdStdANSI
  3
"Amdt_StdImp|Product Description: AutoCAD Mechanical|Company: Autodesk, Inc."
 90
     1024
280
     0
281
     0
  0
CLASS
  1
ACMDATUMSTANDARDANSI
  2
AcmDatumStdANSI
  3
"Amdt_StdImp|Product Description: AutoCAD Mechanical|Company: Autodesk, Inc."
 90
     1024
280
     0
281
     0
  0
CLASS
  1
ACMBOMSTANDARDANSI
  2
AcmBOMStdANSI
  3
"Amdt_StdImp|Product Description: AutoCAD Mechanical|Company: Autodesk, Inc."
 90
     1024
280
     0
281
     0
  0
CLASS
  1
ACMDETAILSTANDARDANSI
  2
AmdtDetailSymStdANSI
  3
"Amdt_StdImp|Product Description: AutoCAD Mechanical|Company: Autodesk, Inc."
 90
     1024
280
     0
281
     0
  0
CLASS
  1
ACMSECTIONSTANDARDANSI
  2
AmdtSectionSymStdANSI
  3
"Amdt_StdImp|Product Description: AutoCAD Mechanical|Company: Autodesk, Inc."
 90
     1024
280
     0
281
     0
  0
CLASS
  1
ACMCENTERLINESTANDARDANSI
  2
AmdtCenterLineStdANSI
  3
"Amdt_StdImp|Product Description: AutoCAD Mechanical|Company: Autodesk, Inc."
 90
     1024
280
     0
281
     0
  0
CLASS
  1
ACMTHREADLINESTANDARDANSI
  2
AmdtThreadLineStdANSI
  3
"Amdt_StdImp|Product Description: AutoCAD Mechanical|Company: Autodesk, Inc."
 90
     1024
280
     0
281
     0
  0
CLASS
  1
ACMNOTESTANDARDANSI
  2
AmdtNoteStdANSI
  3
"Amdt_StdImp|Product Description: AutoCAD Mechanical|Company: Autodesk, Inc."
 90
     1024
280
     0
281
     0
  0
CLASS
  1
ACMTAPERSTANDARDANSI
  2
AcmTaperStdANSI
  3
"Amdt_StdImp|Product Description: AutoCAD Mechanical|Company: Autodesk, Inc."
 90
     1024
280
     0
281
     0
  0
CLASS
  1
ACMANOOTATIONVIEWSTANDARDANSI
  2
AmdtAnViewStdANSI
  3
"Amdt_StdImp|Product Description: AutoCAD Mechanical|Company: Autodesk, Inc."
 90
     1024
280
     0
281
     0
  0
CLASS
  1
ACAMGLAYSTD
  2
AcAmgLayStd
  3
"AmgLay|Product Description: AutoCAD Mechanical|Company: Autodesk, Inc."
 90
     1024
280
     0
281
     0
  0
CLASS
  1
ACAMGDIMSTD
  2
AcAmgDimStd
  3
"AmgDim|Product Description: AutoCAD Mechanical|Company: Autodesk, Inc."
 90
     1024
280
     0
281
     0
  0
CLASS
  1
ACAMGHOLECHARTSTDANSI
  2
AcAmgHoleChartStdANSI
  3
AmgDim|Product Description: AutoCAD Mechanical|Company: Autodesk, Inc.
 90
     1024
280
     0
281
     0
  0
CLASS
  1
AMGOBJPROPCFG
  2
AmgObjPropCfg
  3
"AmgLay|Product Description: AutoCAD Mechanical|Company: Autodesk, Inc."
 90
     1025
280
     0
281
     0
  0
CLASS
  1
ACAMGTITLESTD
  2
AcAmgTitleStd
  3
"AmgTitle|Product Description: AutoCAD Mechanical|Company: Autodesk, Inc."
 90
     4095
280
     0
281
     0
  0
CLASS
  1
AMDTNOTETEMPLATEDB
  2
AmdtNoteTemplateDB
  3
AcmSymBB|Product Description: AutoCAD Mechanical|Company: Autodesk, Inc.
 90
     1024
280
     0
281
     0
  0
CLASS
  1
LAYER_INDEX
  2
AcDbLayerIndex
  3
ObjectDBX Classes
 90
        0
280
     0
281
     0
  0
CLASS
  1
IDBUFFER
  2
AcDbIdBuffer
  3
ObjectDBX Classes
 90
        0
280
     0
281
     0
  0
CLASS
  1
DICTIONARYVAR
  2
AcDbDictionaryVar
  3
ObjectDBX Classes
 90
        0
280
     0
281
     0
  0
CLASS
  1
CELLSTYLEMAP
  2
AcDbCellStyleMap
  3
ObjectDBX Classes
 90
     1152
280
     0
281
     0
  0
CLASS
  1
ACDBPLACEHOLDER
  2
AcDbPlaceHolder
  3
ObjectDBX Classes
 90
        0
280
     0
281
     0
  0
CLASS
  1
LAYOUT
  2
AcDbLayout
  3
ObjectDBX Classes
 90
        0
280
     0
281
     0
  0
ENDSEC
  0
SECTION
  2
TABLES
  0
TABLE
  2
VPORT
  5
278D
330
0
100
AcDbSymbolTable
 70
     1
  0
VPORT
  5
27FD
330
278D
100
AcDbSymbolTableRecord
100
AcDbViewportTableRecord
  2
*ACTIVE
 70
     0
 10
0.0
 20
0.0
 11
1.0
 21
1.0
 12
0.0
 22
0.0
 13
0.0
 23
0.0
 14
1.0
 24
1.0
 15
0.0
 25
0.0
 16
0.0
 26
0.0
 36
1.0
 17
121.6804644112473
 27
-167.7099577928793
 37
0.0
 40
1441.551702707539
 41
1.712555066079295
 42
50.0
 43
0.0
 44
0.0
 50
0.0
 51
0.0
 71
     0
 72
   100
 73
     1
 74
     0
 75
     0
 76
     0
 77
     0
 78
     0
281
     0
 65
     0
110
0.0
120
0.0
130
0.0
111
1.0
121
0.0
131
0.0
112
0.0
122
1.0
132
0.0
 79
     0
146
0.0
  0
ENDTAB
  0
TABLE
  2
LTYPE
  5
278A
330
0
100
AcDbSymbolTable
 70
    19
  0
LTYPE
  5
27E7
330
278A
100
AcDbSymbolTableRecord
100
AcDbLinetypeTableRecord
  2
ByBlock
 70
     0
  3

 72
    65
 73
     0
 40
0.0
  0
LTYPE
  5
27E8
330
278A
100
AcDbSymbolTableRecord
100
AcDbLinetypeTableRecord
  2
ByLayer
 70
     0
  3

 72
    65
 73
     0
 40
0.0
  0
LTYPE
  5
27E9
330
278A
100
AcDbSymbolTableRecord
100
AcDbLinetypeTableRecord
  2
CONTINUOUS
 70
     0
  3
実線
 72
    65
 73
     0
 40
0.0
  0
LTYPE
  5
27FE
330
278A
100
AcDbSymbolTableRecord
100
AcDbLinetypeTableRecord
  2
DASHDOT
 70
     0
  3
____ _ ____ _ ____ _ ____ _ ____ _ ____ _ ____
 72
    65
 73
     4
 40
5.5
 49
4.0
 74
     0
 49
-0.6
 74
     0
 49
0.3
 74
     0
 49
-0.6
 74
     0
  0
LTYPE
  5
27FF
330
278A
100
AcDbSymbolTableRecord
100
AcDbLinetypeTableRecord
  2
HIDDEN
 70
     0
  3
Hidden __ __ __ __ __ __ __ __ __ __ __ __ __ _
 72
    65
 73
     2
 40
0.375
 49
0.25
 74
     0
 49
-0.125
 74
     0
  0
LTYPE
  5
2800
330
278A
100
AcDbSymbolTableRecord
100
AcDbLinetypeTableRecord
  2
PHANTOM2
 70
     0
  3
Phantom (.5x) ___ _ _ ___ _ _ ___ _ _ ___ _ _
 72
    65
 73
     6
 40
1.25
 49
0.625
 74
     0
 49
-0.125
 74
     0
 49
0.125
 74
     0
 49
-0.125
 74
     0
 49
0.125
 74
     0
 49
-0.125
 74
     0
  0
LTYPE
  5
2801
330
278A
100
AcDbSymbolTableRecord
100
AcDbLinetypeTableRecord
  2
CENTER
 70
     0
  3
Center ____ _ ____ _ ____ _ ____ _ ____ _ ____
 72
    65
 73
     4
 40
2.0
 49
1.25
 74
     0
 49
-0.25
 74
     0
 49
0.25
 74
     0
 49
-0.25
 74
     0
  0
LTYPE
  5
2802
330
278A
100
AcDbSymbolTableRecord
100
AcDbLinetypeTableRecord
  2
ASULTYPE
 70
     0
  3
実線
 72
    65
 73
     2
 40
3.0
 49
2.5
 74
     0
 49
0.5
 74
     0
  0
LTYPE
  5
2803
330
278A
100
AcDbSymbolTableRecord
100
AcDbLinetypeTableRecord
  2
ASVLTYPE
 70
     0
  3
__ __ __ __ __ __ __ __ __ __ __ __ __ __ __ __ __ __ __ __ __
 72
    65
 73
     2
 40
0.75
 49
0.5
 74
     0
 49
-0.25
 74
     0
  0
LTYPE
  5
2804
330
278A
100
AcDbSymbolTableRecord
100
AcDbLinetypeTableRecord
  2
AM_ISO02W050
 70
     0
  3
__ __ __ __ __ __ __ __ __ __ __ __ __ __ __
 72
    65
 73
     2
 40
7.5
 49
6.0
 74
     0
 49
-1.5
 74
     0
  0
LTYPE
  5
2805
330
278A
100
AcDbSymbolTableRecord
100
AcDbLinetypeTableRecord
  2
AM_ISO08W050
 70
     0
  3
____ . ____ . ____ . ____ . ____ . ____ . ____
 72
    65
 73
     4
 40
18.0
 49
12.0
 74
     0
 49
-1.5
 74
     0
 49
3.0
 74
     0
 49
-1.5
 74
     0
  0
LTYPE
  5
2806
330
278A
100
AcDbSymbolTableRecord
100
AcDbLinetypeTableRecord
  2
AM_ISO09W050
 70
     0
  3
_____ . . _____ . . _____ . . ____ .. ____
 72
    65
 73
     6
 40
22.5
 49
12.0
 74
     0
 49
-1.5
 74
     0
 49
3.0
 74
     0
 49
-1.5
 74
     0
 49
3.0
 74
     0
 49
-1.5
 74
     0
  0
LTYPE
  5
2807
330
278A
100
AcDbSymbolTableRecord
100
AcDbLinetypeTableRecord
  2
AMCONSTR
 70
     0
  3
_______________________
 72
    65
 73
     2
 40
9999.0
 49
9999.0
 74
     0
 49
0.0
 74
     0
  0
LTYPE
  5
2808
330
278A
100
AcDbSymbolTableRecord
100
AcDbLinetypeTableRecord
  2
AM_ISO08W050X2
 70
     0
  3
__ . __ . __ . __ . __ . __
 72
    65
 73
     4
 40
9.0
 49
6.0
 74
     0
 49
-0.75
 74
     0
 49
1.5
 74
     0
 49
-0.75
 74
     0
  0
LTYPE
  5
2809
330
278A
100
AcDbSymbolTableRecord
100
AcDbLinetypeTableRecord
  2
AM_ISO02W050X2
 70
     0
  3
 _ _ _ _ _ _ _ _ _ _ _ _
 72
    65
 73
     2
 40
3.75
 49
3.0
 74
     0
 49
-0.75
 74
     0
  0
LTYPE
  5
280A
330
278A
100
AcDbSymbolTableRecord
100
AcDbLinetypeTableRecord
  2
AMZIGZAG
 70
     0
  3
/\/-/\/-/\/-/\/-/\/-/\/
 72
    65
 73
     2
 40
11.0001
 49
0.0001
 74
     0
 49
-11.0
 74
     0
  0
LTYPE
  5
280B
330
278A
100
AcDbSymbolTableRecord
100
AcDbLinetypeTableRecord
  2
CENTER2
 70
     0
  3
Center (.5x) ___ _ ___ _ ___ _ ___ _ ___ _ ___
 72
    65
 73
     4
 40
1.125
 49
0.75
 74
     0
 49
-0.125
 74
     0
 49
0.125
 74
     0
 49
-0.125
 74
     0
  0
LTYPE
  5
280C
330
278A
100
AcDbSymbolTableRecord
100
AcDbLinetypeTableRecord
  2
HIDDEN2
 70
     0
  3
Hidden (.5x) _ _ _ _ _ _ _ _ _ _ _ _ _ _ _ _ _
 72
    65
 73
     2
 40
0.1875
 49
0.125
 74
     0
 49
-0.0625
 74
     0
  0
LTYPE
  5
280D
330
278A
100
AcDbSymbolTableRecord
100
AcDbLinetypeTableRecord
  2
AMZIGZAG2
 70
     0
  3
/\/-/\/-/\/-/\/-/\/-/\/
 72
    65
 73
     2
 40
0.4401
 49
0.0001
 74
     0
 49
-0.4400000000000003
 74
     0
  0
LTYPE
  5
280E
330
278A
100
AcDbSymbolTableRecord
100
AcDbLinetypeTableRecord
  2
ACANSTGB
 70
     0
  3
__ . . __ . .
 72
    65
 73
     6
 40
0.35433070866
 49
0.15748031496
 74
     0
 49
-0.03937007874
 74
     0
 49
0.03937007874
 74
     0
 49
-0.03937007874
 74
     0
 49
0.03937007874
 74
     0
 49
-0.03937007874
 74
     0
  0
LTYPE
  5
280F
330
278A
100
AcDbSymbolTableRecord
100
AcDbLinetypeTableRecord
  2
ACANSTGL
 70
     0
  3
_ _ _ _ _
 72
    65
 73
     2
 40
0.11811023622
 49
0.07874015748
 74
     0
 49
-0.03937007874
 74
     0
  0
ENDTAB
  0
TABLE
  2
LAYER
  5
2787
330
0
100
AcDbSymbolTable
 70
    12
  0
LAYER
  5
27E1
102
{ACAD_XDICTIONARY
360
29B7
102
}
330
2787
100
AcDbSymbolTableRecord
100
AcDbLayerTableRecord
  2
0
 70
     0
 62
     7
  6
CONTINUOUS
370
    -3
390
2794
  0
LAYER
  5
2810
102
{ACAD_XDICTIONARY
360
29B9
102
}
330
2787
100
AcDbSymbolTableRecord
100
AcDbLayerTableRecord
  2
OUTLINE
 70
     0
 62
     3
  6
CONTINUOUS
370
    -3
390
2794
  0
LAYER
  5
2811
102
{ACAD_XDICTIONARY
360
29BB
102
}
330
2787
100
AcDbSymbolTableRecord
100
AcDbLayerTableRecord
  2
SIZE
 70
     0
 62
    30
  6
CONTINUOUS
370
    -3
390
2794
  0
LAYER
  5
2812
102
{ACAD_XDICTIONARY
360
29BD
102
}
330
2787
100
AcDbSymbolTableRecord
100
AcDbLayerTableRecord
  2
BASIS
 70
     0
 62
     6
  6
DASHDOT
370
    -3
390
2794
  0
LAYER
  5
2813
102
{ACAD_XDICTIONARY
360
29BF
102
}
330
2787
100
AcDbSymbolTableRecord
100
AcDbLayerTableRecord
  2
DETAIL
 70
     0
 62
     5
  6
CONTINUOUS
370
    -3
390
2794
  0
LAYER
  5
2814
102
{ACAD_XDICTIONARY
360
29C1
102
}
330
2787
100
AcDbSymbolTableRecord
100
AcDbLayerTableRecord
  2
ARRANGE
 70
     0
 62
     1
  6
CONTINUOUS
370
    -3
390
2794
  0
LAYER
  5
2815
330
2787
100
AcDbSymbolTableRecord
100
AcDbLayerTableRecord
  2
DEFPOINTS
 70
     0
 62
     7
  6
CONTINUOUS
290
     0
370
    -3
390
2794
  0
LAYER
  5
2816
102
{ACAD_XDICTIONARY
360
29C3
102
}
330
2787
100
AcDbSymbolTableRecord
100
AcDbLayerTableRecord
  2
ETC
 70
     0
 62
    61
  6
CONTINUOUS
370
    -3
390
2794
  0
LAYER
  5
2817
102
{ACAD_XDICTIONARY
360
29C5
102
}
330
2787
100
AcDbSymbolTableRecord
100
AcDbLayerTableRecord
  2
FIX
 70
     0
 62
    11
  6
CONTINUOUS
370
    -3
390
2794
  0
LAYER
  5
2818
102
{ACAD_XDICTIONARY
360
29C7
102
}
330
2787
100
AcDbSymbolTableRecord
100
AcDbLayerTableRecord
  2
NOTE
 70
     0
 62
     4
  6
CONTINUOUS
370
    -3
390
2794
  0
LAYER
  5
2819
102
{ACAD_XDICTIONARY
360
29C9
102
}
330
2787
100
AcDbSymbolTableRecord
100
AcDbLayerTableRecord
  2
SERVICESPACE
 70
     0
 62
     2
  6
DASHDOT
370
    -3
390
2794
  0
LAYER
  5
281A
102
{ACAD_XDICTIONARY
360
29CB
102
}
330
2787
100
AcDbSymbolTableRecord
100
AcDbLayerTableRecord
  2
SYMBOLLINE
 70
     0
 62
    15
  6
CONTINUOUS
370
    -3
390
2794
  0
ENDTAB
  0
TABLE
  2
STYLE
  5
2788
330
0
100
AcDbSymbolTable
 70
     5
  0
STYLE
  5
27E2
330
2788
100
AcDbSymbolTableRecord
100
AcDbTextStyleTableRecord
  2
STANDARD
 70
     0
 40
64.0
 41
0.9
 50
0.0
 71
     0
 42
64.0
  3
SIMPLEX.shx
  4
BIGFONT.shx
  0
STYLE
  5
27E6
330
2788
100
AcDbSymbolTableRecord
100
AcDbTextStyleTableRecord
  2
ANNOTATIVE
 70
     0
 40
0.0
 41
1.0
 50
0.0
 71
     0
 42
0.2
  3
txt
  4

1001
ACADANNOTATIVE
1000
AnnotativeData
1002
{
1070
     1
1070
     1
1002
}
  0
STYLE
  5
281B
330
2788
100
AcDbSymbolTableRecord
100
AcDbTextStyleTableRecord
  2

 70
     1
 40
0.0
 41
1.0
 50
0.0
 71
     0
 42
64.0
  3
genltshp.shx
  4

  0
STYLE
  5
281C
330
2788
100
AcDbSymbolTableRecord
100
AcDbTextStyleTableRecord
  2
ACANSTS
 70
     0
 40
1.0
 41
1.0
 50
0.0
 71
     0
 42
64.0
  3
romans.shx
  4
extfont.shx
  0
STYLE
  5
281D
330
2788
100
AcDbSymbolTableRecord
100
AcDbTextStyleTableRecord
  2
ACANSGDT
 70
     0
 40
0.0
 41
1.0
 50
0.0
 71
     0
 42
64.0
  3
amgdt.shx
  4

  0
ENDTAB
  0
TABLE
  2
VIEW
  5
278B
330
0
100
AcDbSymbolTable
 70
     1
  0
VIEW
  5
281E
330
278B
100
AcDbSymbolTableRecord
100
AcDbViewTableRecord
  2
ALL
 70
     0
 40
4282.619807999997
 10
0.0
 20
41.30990399999999
 41
5940.0
 11
0.0
 21
0.0
 31
1.0
 12
0.0
 22
0.0
 32
0.0
 42
50.0
 43
0.0
 44
0.0
 50
0.0
 71
     0
281
     0
 72
     1
110
0.0
120
0.0
130
0.0
111
1.0
121
0.0
131
0.0
112
0.0
122
1.0
132
0.0
 79
     0
146
0.0
  0
ENDTAB
  0
TABLE
  2
UCS
  5
278C
330
0
100
AcDbSymbolTable
 70
     0
  0
ENDTAB
  0
TABLE
  2
APPID
  5
278E
330
0
100
AcDbSymbolTable
 70
    26
  0
APPID
  5
27E3
330
278E
100
AcDbSymbolTableRecord
100
AcDbRegAppTableRecord
  2
ACAD
 70
     0
  0
APPID
  5
27EA
330
278E
100
AcDbSymbolTableRecord
100
AcDbRegAppTableRecord
  2
ACADANNOTATIVE
 70
     0
  0
APPID
  5
27F4
330
278E
100
AcDbSymbolTableRecord
100
AcDbRegAppTableRecord
  2
ACAD_MLEADERVER
 70
     0
  0
APPID
  5
281F
330
278E
100
AcDbSymbolTableRecord
100
AcDbRegAppTableRecord
  2
GENIUS_GENDIM_13
 70
     0
  0
APPID
  5
2820
330
278E
100
AcDbSymbolTableRecord
100
AcDbRegAppTableRecord
  2
GENIUS_GENDTOL_13
 70
     0
  0
APPID
  5
2821
330
278E
100
AcDbSymbolTableRecord
100
AcDbRegAppTableRecord
  2
GENIUS_GE3DTOL_13
 70
     0
  0
APPID
  5
2822
330
278E
100
AcDbSymbolTableRecord
100
AcDbRegAppTableRecord
  2
MCAD_NO_VIS
 70
     0
  0
APPID
  5
2823
330
278E
100
AcDbSymbolTableRecord
100
AcDbRegAppTableRecord
  2
ACAD_TEMP_GRAPHIC
 70
     0
  0
APPID
  5
2824
330
278E
100
AcDbSymbolTableRecord
100
AcDbRegAppTableRecord
  2
AD_DRAW
 70
     0
  0
APPID
  5
2825
330
278E
100
AcDbSymbolTableRecord
100
AcDbRegAppTableRecord
  2
ACATTRIBSERVICES
 70
     0
  0
APPID
  5
2826
330
278E
100
AcDbSymbolTableRecord
100
AcDbRegAppTableRecord
  2
ASURF_PCURVE_APPNAME
 70
     0
  0
APPID
  5
2827
330
278E
100
AcDbSymbolTableRecord
100
AcDbRegAppTableRecord
  2
AMG_3D2D_5_0
 70
     0
  0
APPID
  5
2828
330
278E
100
AcDbSymbolTableRecord
100
AcDbRegAppTableRecord
  2
DESIGNERASSEMBLIES
 70
     0
  0
APPID
  5
2829
330
278E
100
AcDbSymbolTableRecord
100
AcDbRegAppTableRecord
  2
ACADM_DIM_EDIT
 70
     0
  0
APPID
  5
282A
330
278E
100
AcDbSymbolTableRecord
100
AcDbRegAppTableRecord
  2
AMDT_DM_ADJ
 70
     0
  0
APPID
  5
282B
330
278E
100
AcDbSymbolTableRecord
100
AcDbRegAppTableRecord
  2
ACAD_DSTYLE_DIMARC_LENGTH_
 70
     0
  0
APPID
  5
282C
330
278E
100
AcDbSymbolTableRecord
100
AcDbRegAppTableRecord
  2
ACAD_DSTYLE_DIMJOGGED_JOGA
 70
     0
  0
APPID
  5
282D
330
278E
100
AcDbSymbolTableRecord
100
AcDbRegAppTableRecord
  2
ACAD_PSEXT
 70
     0
  0
APPID
  5
282E
330
278E
100
AcDbSymbolTableRecord
100
AcDbRegAppTableRecord
  2
ACAD_EXEMPT_FROM_CAD_STANDARDS
 70
     0
  0
APPID
  5
282F
330
278E
100
AcDbSymbolTableRecord
100
AcDbRegAppTableRecord
  2
ACAD_DSTYLE_DIMJAG
 70
     0
  0
APPID
  5
2830
330
278E
100
AcDbSymbolTableRecord
100
AcDbRegAppTableRecord
  2
ACAD_DSTYLE_DIMTALN
 70
     0
  0
APPID
  5
295E
330
278E
100
AcDbSymbolTableRecord
100
AcDbRegAppTableRecord
  2
AMG_3D2D_5.0
 70
     0
  0
APPID
  5
29F4
330
278E
100
AcDbSymbolTableRecord
100
AcDbRegAppTableRecord
  2
ACAD_DSTYLE_DIMARC_LENGTH_SYMBOL
 70
     0
  0
APPID
  5
29F5
330
278E
100
AcDbSymbolTableRecord
100
AcDbRegAppTableRecord
  2
ACAD_DSTYLE_DIM_LINETYPE
 70
     0
  0
APPID
  5
29F6
330
278E
100
AcDbSymbolTableRecord
100
AcDbRegAppTableRecord
  2
ACAD_DSTYLE_DIM_EXT1_LINETYPE
 70
     0
  0
APPID
  5
29F7
330
278E
100
AcDbSymbolTableRecord
100
AcDbRegAppTableRecord
  2
ACAD_DSTYLE_DIM_EXT2_LINETYPE
 70
     0
  0
ENDTAB
  0
TABLE
  2
DIMSTYLE
  5
278F
330
0
100
AcDbSymbolTable
 70
    10
100
AcDbDimStyleTable
 71
     1
340
2831
  0
DIMSTYLE
105
27E4
330
278F
100
AcDbSymbolTableRecord
100
AcDbDimStyleTableRecord
  2
STANDARD
 70
     0
 41
12.0
 42
20.0
 44
20.0
 77
     1
 78
     8
140
64.0
141
0.0
147
10.0
275
     1
279
     2
284
     7
285
     7
286
     7
340
27E2
  0
DIMSTYLE
105
27E5
330
278F
100
AcDbSymbolTableRecord
100
AcDbDimStyleTableRecord
  2
ANNOTATIVE
 70
     0
275
     1
279
     2
284
     7
285
     7
286
     7
340
27E2
1001
ACADANNOTATIVE
1000
AnnotativeData
1002
{
1070
     1
1070
     1
1002
}
  0
DIMSTYLE
105
2831
330
278F
100
AcDbSymbolTableRecord
100
AcDbDimStyleTableRecord
  2
AM_ANSI
 70
     0
  4
mm
 41
0.12
 42
0.05
 43
0.5
 44
0.1
 47
0.1
 48
0.1
 78
     7
 79
     2
140
0.12
141
0.0
146
0.71
147
0.06
176
   256
177
   256
178
     2
274
     4
284
     7
340
27E2
371
    -1
372
    -1
1001
ACAD_DSTYLE_DIMARC_LENGTH_SYMBOL
1070
   379
1070
     1
1001
ACAD_DSTYLE_DIM_LINETYPE
1070
   380
1005
27E7
1001
ACAD_DSTYLE_DIM_EXT1_LINETYPE
1070
   381
1005
27E7
1001
ACAD_DSTYLE_DIM_EXT2_LINETYPE
1070
   382
1005
27E7
  0
DIMSTYLE
105
2832
330
278F
100
AcDbSymbolTableRecord
100
AcDbDimStyleTableRecord
  2
AM_ANSI$3
 70
     0
  4
mm
 41
0.12
 42
0.05
 43
0.5
 44
0.1
 47
0.1
 48
0.1
 78
     7
 79
     2
140
0.12
141
0.0
146
0.71
147
0.06
176
   256
177
   256
178
     2
274
     4
284
     7
288
     1
289
     0
340
27E2
371
    -1
372
    -1
1001
ACAD_DSTYLE_DIMARC_LENGTH_SYMBOL
1070
   379
1070
     1
1001
ACAD_DSTYLE_DIM_LINETYPE
1070
   380
1005
27E7
1001
ACAD_DSTYLE_DIM_EXT1_LINETYPE
1070
   381
1005
27E7
1001
ACAD_DSTYLE_DIM_EXT2_LINETYPE
1070
   382
1005
27E7
  0
DIMSTYLE
105
2833
330
278F
100
AcDbSymbolTableRecord
100
AcDbDimStyleTableRecord
  2
AM_ANSI$4
 70
     0
  4
mm
 41
0.12
 42
0.05
 43
0.5
 44
0.1
 47
0.1
 48
0.1
 78
     7
 79
     2
140
0.12
141
0.0
146
0.71
147
0.06
176
   256
177
   256
178
     2
274
     4
284
     7
340
27E2
371
    -1
372
    -1
1001
ACAD_DSTYLE_DIMARC_LENGTH_SYMBOL
1070
   379
1070
     1
1001
ACAD_DSTYLE_DIM_LINETYPE
1070
   380
1005
27E7
1001
ACAD_DSTYLE_DIM_EXT1_LINETYPE
1070
   381
1005
27E7
1001
ACAD_DSTYLE_DIM_EXT2_LINETYPE
1070
   382
1005
27E7
  0
DIMSTYLE
105
2834
330
278F
100
AcDbSymbolTableRecord
100
AcDbDimStyleTableRecord
  2
AM_ANSI$7
 70
     0
  4
mm
 41
0.12
 42
0.05
 43
0.5
 44
0.1
 47
0.1
 48
0.1
 78
     7
 79
     2
140
0.12
141
0.0
146
0.71
147
0.06
176
   256
177
   256
178
     2
274
     4
284
     7
340
27E2
371
    -1
372
    -1
1001
ACAD_DSTYLE_DIMARC_LENGTH_SYMBOL
1070
   379
1070
     1
1001
ACAD_DSTYLE_DIM_LINETYPE
1070
   380
1005
27E7
1001
ACAD_DSTYLE_DIM_EXT1_LINETYPE
1070
   381
1005
27E7
1001
ACAD_DSTYLE_DIM_EXT2_LINETYPE
1070
   382
1005
27E7
  0
DIMSTYLE
105
2835
330
278F
100
AcDbSymbolTableRecord
100
AcDbDimStyleTableRecord
  2
AM_ANSI$SF
 70
     0
  4
mm
 41
0.12
 42
0.05
 43
0.5
 44
0.1
 47
0.1
 48
0.1
 75
     1
 76
     1
 78
     7
 79
     2
140
0.12
141
0.0
146
0.71
147
0.06
176
   256
177
   256
178
     2
274
     4
284
     7
340
27E2
371
    -1
372
    -1
1001
ACAD_DSTYLE_DIMARC_LENGTH_SYMBOL
1070
   379
1070
     1
1001
ACAD_DSTYLE_DIM_LINETYPE
1070
   380
1005
27E7
1001
ACAD_DSTYLE_DIM_EXT1_LINETYPE
1070
   381
1005
27E7
1001
ACAD_DSTYLE_DIM_EXT2_LINETYPE
1070
   382
1005
27E7
  0
DIMSTYLE
105
2836
330
278F
100
AcDbSymbolTableRecord
100
AcDbDimStyleTableRecord
  2
AM_ANSI$SH
 70
     0
  4
mm
 41
0.12
 42
0.05
 43
0.5
 44
0.1
 47
0.1
 48
0.1
 75
     1
 76
     1
 78
     7
 79
     2
140
0.12
141
0.0
146
0.71
147
0.06
173
     1
176
   256
177
   256
178
     2
274
     4
284
     7
340
27E2
343
2856
371
    -1
372
    -1
1001
ACAD_DSTYLE_DIMARC_LENGTH_SYMBOL
1070
   379
1070
     1
1001
ACAD_DSTYLE_DIM_LINETYPE
1070
   380
1005
27E7
1001
ACAD_DSTYLE_DIM_EXT1_LINETYPE
1070
   381
1005
27E7
1001
ACAD_DSTYLE_DIM_EXT2_LINETYPE
1070
   382
1005
27E7
  0
DIMSTYLE
105
2837
330
278F
100
AcDbSymbolTableRecord
100
AcDbDimStyleTableRecord
  2
STANDARD1
 70
     0
 40
6.0
 41
2.5
 42
0.625
 43
6.0
 44
1.25
 47
1.0
 48
0.5
 77
     1
 78
     8
140
2.5
141
0.0
146
0.6
147
1.0
173
     1
275
     1
279
     2
284
     7
285
     7
286
     7
340
27E2
  0
DIMSTYLE
105
2838
330
278F
100
AcDbSymbolTableRecord
100
AcDbDimStyleTableRecord
  2
STANDARD$0
 70
     0
 41
12.0
 42
20.0
 44
20.0
 73
     0
 74
     0
 77
     1
 78
     8
140
64.0
141
0.0
147
10.0
275
     1
279
     2
284
     7
285
     7
286
     7
340
27E2
  0
ENDTAB
  0
TABLE
  2
BLOCK_RECORD
  5
2786
330
0
100
AcDbSymbolTable
 70
    79
  0
BLOCK_RECORD
  5
27F9
102
{ACAD_XDICTIONARY
360
29CD
102
}
330
2786
100
AcDbSymbolTableRecord
100
AcDbBlockTableRecord
  2
*Model_Space
340
27FC
  0
BLOCK_RECORD
  5
27F5
330
2786
100
AcDbSymbolTableRecord
100
AcDbBlockTableRecord
  2
*Paper_Space
340
27F8
  0
BLOCK_RECORD
  5
2840
330
2786
100
AcDbSymbolTableRecord
100
AcDbBlockTableRecord
  2
$MODEL_SPACE
340
0
  0
BLOCK_RECORD
  5
2842
330
2786
100
AcDbSymbolTableRecord
100
AcDbBlockTableRecord
  2
$PAPER_SPACE
340
0
  0
BLOCK_RECORD
  5
2844
330
2786
100
AcDbSymbolTableRecord
100
AcDbBlockTableRecord
  2
_ORIGIN
340
0
  0
BLOCK_RECORD
  5
2846
330
2786
100
AcDbSymbolTableRecord
100
AcDbBlockTableRecord
  2
_DOTBLANK
340
0
102
{BLKREFS
331
1299
331
129A
331
11AA
331
11AB
331
E80
331
E81
331
1123
331
1124
331
11C2
331
11C3
331
11EC
331
11ED
331
11F9
331
11FA
331
1287
331
1288
331
1417
331
1418
331
1423
331
1424
331
142F
331
1430
331
143B
331
143C
331
166E
331
166F
331
1677
331
1678
331
1680
331
1681
331
1689
331
168A
331
1696
331
1697
331
16A3
331
16A4
331
16AF
331
16B0
331
16BB
331
16BC
331
16C7
331
16C8
331
16D3
331
16D4
331
1D86
331
1D87
331
1D8F
331
1D90
331
1D98
331
1D99
331
1DA1
331
1DA2
331
1DAB
331
1DAC
331
1DB5
331
1DB6
331
2727
331
2728
331
272C
331
272D
331
2732
331
2733
331
2737
331
2738
331
273C
331
273D
331
2742
331
2743
102
}
  0
BLOCK_RECORD
  5
2848
330
2786
100
AcDbSymbolTableRecord
100
AcDbBlockTableRecord
  2
_OPEN30
340
0
102
{BLKREFS
331
2087
331
216D
331
2244
331
2337
331
2464
331
2595
102
}
  0
BLOCK_RECORD
  5
284A
330
2786
100
AcDbSymbolTableRecord
100
AcDbBlockTableRecord
  2
*D5
340
0
  0
BLOCK_RECORD
  5
284C
330
2786
100
AcDbSymbolTableRecord
100
AcDbBlockTableRecord
  2
*U6
340
0
102
{BLKREFS
331
129B
102
}
  0
BLOCK_RECORD
  5
284E
330
2786
100
AcDbSymbolTableRecord
100
AcDbBlockTableRecord
  2
*D7
340
0
  0
BLOCK_RECORD
  5
2850
330
2786
100
AcDbSymbolTableRecord
100
AcDbBlockTableRecord
  2
*U8
340
0
102
{BLKREFS
331
11AC
102
}
  0
BLOCK_RECORD
  5
2852
330
2786
100
AcDbSymbolTableRecord
100
AcDbBlockTableRecord
  2
*D9
340
0
  0
BLOCK_RECORD
  5
2854
330
2786
100
AcDbSymbolTableRecord
100
AcDbBlockTableRecord
  2
*U10
340
0
102
{BLKREFS
331
E82
102
}
  0
BLOCK_RECORD
  5
2856
330
2786
100
AcDbSymbolTableRecord
100
AcDbBlockTableRecord
  2
GENAXEH
340
0
  0
BLOCK_RECORD
  5
2858
330
2786
100
AcDbSymbolTableRecord
100
AcDbBlockTableRecord
  2
*D12
340
0
  0
BLOCK_RECORD
  5
285A
330
2786
100
AcDbSymbolTableRecord
100
AcDbBlockTableRecord
  2
*U13
340
0
102
{BLKREFS
331
1125
102
}
  0
BLOCK_RECORD
  5
285C
330
2786
100
AcDbSymbolTableRecord
100
AcDbBlockTableRecord
  2
*D14
340
0
  0
BLOCK_RECORD
  5
285E
330
2786
100
AcDbSymbolTableRecord
100
AcDbBlockTableRecord
  2
*U15
340
0
102
{BLKREFS
331
11C4
102
}
  0
BLOCK_RECORD
  5
2860
330
2786
100
AcDbSymbolTableRecord
100
AcDbBlockTableRecord
  2
*D16
340
0
  0
BLOCK_RECORD
  5
2862
330
2786
100
AcDbSymbolTableRecord
100
AcDbBlockTableRecord
  2
*U17
340
0
102
{BLKREFS
331
11EE
102
}
  0
BLOCK_RECORD
  5
2864
330
2786
100
AcDbSymbolTableRecord
100
AcDbBlockTableRecord
  2
*D18
340
0
  0
BLOCK_RECORD
  5
2866
330
2786
100
AcDbSymbolTableRecord
100
AcDbBlockTableRecord
  2
*U19
340
0
102
{BLKREFS
331
11FB
102
}
  0
BLOCK_RECORD
  5
2868
330
2786
100
AcDbSymbolTableRecord
100
AcDbBlockTableRecord
  2
*D20
340
0
  0
BLOCK_RECORD
  5
286A
330
2786
100
AcDbSymbolTableRecord
100
AcDbBlockTableRecord
  2
*U21
340
0
102
{BLKREFS
331
1289
102
}
  0
BLOCK_RECORD
  5
286C
330
2786
100
AcDbSymbolTableRecord
100
AcDbBlockTableRecord
  2
*D22
340
0
  0
BLOCK_RECORD
  5
286E
330
2786
100
AcDbSymbolTableRecord
100
AcDbBlockTableRecord
  2
*U23
340
0
102
{BLKREFS
331
1419
102
}
  0
BLOCK_RECORD
  5
2870
330
2786
100
AcDbSymbolTableRecord
100
AcDbBlockTableRecord
  2
*D24
340
0
  0
BLOCK_RECORD
  5
2872
330
2786
100
AcDbSymbolTableRecord
100
AcDbBlockTableRecord
  2
*U25
340
0
102
{BLKREFS
331
1425
102
}
  0
BLOCK_RECORD
  5
2874
330
2786
100
AcDbSymbolTableRecord
100
AcDbBlockTableRecord
  2
*D26
340
0
  0
BLOCK_RECORD
  5
2876
330
2786
100
AcDbSymbolTableRecord
100
AcDbBlockTableRecord
  2
*U27
340
0
102
{BLKREFS
331
1431
102
}
  0
BLOCK_RECORD
  5
2878
330
2786
100
AcDbSymbolTableRecord
100
AcDbBlockTableRecord
  2
*D28
340
0
  0
BLOCK_RECORD
  5
287A
330
2786
100
AcDbSymbolTableRecord
100
AcDbBlockTableRecord
  2
*U29
340
0
102
{BLKREFS
331
143D
102
}
  0
BLOCK_RECORD
  5
287C
330
2786
100
AcDbSymbolTableRecord
100
AcDbBlockTableRecord
  2
*D30
340
0
  0
BLOCK_RECORD
  5
287E
330
2786
100
AcDbSymbolTableRecord
100
AcDbBlockTableRecord
  2
*U31
340
0
102
{BLKREFS
331
1670
102
}
  0
BLOCK_RECORD
  5
2880
330
2786
100
AcDbSymbolTableRecord
100
AcDbBlockTableRecord
  2
*D32
340
0
  0
BLOCK_RECORD
  5
2882
330
2786
100
AcDbSymbolTableRecord
100
AcDbBlockTableRecord
  2
*U33
340
0
102
{BLKREFS
331
1679
102
}
  0
BLOCK_RECORD
  5
2884
330
2786
100
AcDbSymbolTableRecord
100
AcDbBlockTableRecord
  2
*D34
340
0
  0
BLOCK_RECORD
  5
2886
330
2786
100
AcDbSymbolTableRecord
100
AcDbBlockTableRecord
  2
*U35
340
0
102
{BLKREFS
331
1682
102
}
  0
BLOCK_RECORD
  5
2888
330
2786
100
AcDbSymbolTableRecord
100
AcDbBlockTableRecord
  2
*D36
340
0
  0
BLOCK_RECORD
  5
288A
330
2786
100
AcDbSymbolTableRecord
100
AcDbBlockTableRecord
  2
*U37
340
0
102
{BLKREFS
331
168B
102
}
  0
BLOCK_RECORD
  5
288C
330
2786
100
AcDbSymbolTableRecord
100
AcDbBlockTableRecord
  2
*U38
340
0
  0
BLOCK_RECORD
  5
288E
330
2786
100
AcDbSymbolTableRecord
100
AcDbBlockTableRecord
  2
*D39
340
0
  0
BLOCK_RECORD
  5
2890
330
2786
100
AcDbSymbolTableRecord
100
AcDbBlockTableRecord
  2
*U40
340
0
102
{BLKREFS
331
1698
102
}
  0
BLOCK_RECORD
  5
2892
330
2786
100
AcDbSymbolTableRecord
100
AcDbBlockTableRecord
  2
*D41
340
0
  0
BLOCK_RECORD
  5
2894
330
2786
100
AcDbSymbolTableRecord
100
AcDbBlockTableRecord
  2
*U42
340
0
102
{BLKREFS
331
16A5
102
}
  0
BLOCK_RECORD
  5
2896
330
2786
100
AcDbSymbolTableRecord
100
AcDbBlockTableRecord
  2
*D43
340
0
  0
BLOCK_RECORD
  5
2898
330
2786
100
AcDbSymbolTableRecord
100
AcDbBlockTableRecord
  2
*U44
340
0
102
{BLKREFS
331
16B1
102
}
  0
BLOCK_RECORD
  5
289A
330
2786
100
AcDbSymbolTableRecord
100
AcDbBlockTableRecord
  2
*D45
340
0
  0
BLOCK_RECORD
  5
289C
330
2786
100
AcDbSymbolTableRecord
100
AcDbBlockTableRecord
  2
*U46
340
0
102
{BLKREFS
331
16BD
102
}
  0
BLOCK_RECORD
  5
289E
330
2786
100
AcDbSymbolTableRecord
100
AcDbBlockTableRecord
  2
*D47
340
0
  0
BLOCK_RECORD
  5
28A0
330
2786
100
AcDbSymbolTableRecord
100
AcDbBlockTableRecord
  2
*U48
340
0
102
{BLKREFS
331
16C9
102
}
  0
BLOCK_RECORD
  5
28A2
330
2786
100
AcDbSymbolTableRecord
100
AcDbBlockTableRecord
  2
*D49
340
0
  0
BLOCK_RECORD
  5
28A4
330
2786
100
AcDbSymbolTableRecord
100
AcDbBlockTableRecord
  2
*U50
340
0
102
{BLKREFS
331
16D5
102
}
  0
BLOCK_RECORD
  5
28A6
330
2786
100
AcDbSymbolTableRecord
100
AcDbBlockTableRecord
  2
*D51
340
0
  0
BLOCK_RECORD
  5
28A8
330
2786
100
AcDbSymbolTableRecord
100
AcDbBlockTableRecord
  2
*U52
340
0
102
{BLKREFS
331
1D88
102
}
  0
BLOCK_RECORD
  5
28AA
330
2786
100
AcDbSymbolTableRecord
100
AcDbBlockTableRecord
  2
*D53
340
0
  0
BLOCK_RECORD
  5
28AC
330
2786
100
AcDbSymbolTableRecord
100
AcDbBlockTableRecord
  2
*U54
340
0
102
{BLKREFS
331
1D91
102
}
  0
BLOCK_RECORD
  5
28AE
330
2786
100
AcDbSymbolTableRecord
100
AcDbBlockTableRecord
  2
*D55
340
0
  0
BLOCK_RECORD
  5
28B0
330
2786
100
AcDbSymbolTableRecord
100
AcDbBlockTableRecord
  2
*U56
340
0
102
{BLKREFS
331
1D9A
102
}
  0
BLOCK_RECORD
  5
28B2
330
2786
100
AcDbSymbolTableRecord
100
AcDbBlockTableRecord
  2
*D57
340
0
  0
BLOCK_RECORD
  5
28B4
330
2786
100
AcDbSymbolTableRecord
100
AcDbBlockTableRecord
  2
*U58
340
0
102
{BLKREFS
331
1DA3
102
}
  0
BLOCK_RECORD
  5
28B6
330
2786
100
AcDbSymbolTableRecord
100
AcDbBlockTableRecord
  2
*D59
340
0
  0
BLOCK_RECORD
  5
28B8
330
2786
100
AcDbSymbolTableRecord
100
AcDbBlockTableRecord
  2
*U60
340
0
102
{BLKREFS
331
1DAD
102
}
  0
BLOCK_RECORD
  5
28BA
330
2786
100
AcDbSymbolTableRecord
100
AcDbBlockTableRecord
  2
*D61
340
0
  0
BLOCK_RECORD
  5
28BC
330
2786
100
AcDbSymbolTableRecord
100
AcDbBlockTableRecord
  2
*U62
340
0
102
{BLKREFS
331
1DB7
102
}
  0
BLOCK_RECORD
  5
28BE
330
2786
100
AcDbSymbolTableRecord
100
AcDbBlockTableRecord
  2
*U63
340
0
  0
BLOCK_RECORD
  5
28C0
330
2786
100
AcDbSymbolTableRecord
100
AcDbBlockTableRecord
  2
*U64
340
0
  0
BLOCK_RECORD
  5
28C2
330
2786
100
AcDbSymbolTableRecord
100
AcDbBlockTableRecord
  2
*U65
340
0
  0
BLOCK_RECORD
  5
28C4
330
2786
100
AcDbSymbolTableRecord
100
AcDbBlockTableRecord
  2
*U66
340
0
  0
BLOCK_RECORD
  5
28C6
330
2786
100
AcDbSymbolTableRecord
100
AcDbBlockTableRecord
  2
*U67
340
0
  0
BLOCK_RECORD
  5
28C8
330
2786
100
AcDbSymbolTableRecord
100
AcDbBlockTableRecord
  2
*U68
340
0
  0
BLOCK_RECORD
  5
28CA
330
2786
100
AcDbSymbolTableRecord
100
AcDbBlockTableRecord
  2
*U69
340
0
  0
BLOCK_RECORD
  5
28CC
330
2786
100
AcDbSymbolTableRecord
100
AcDbBlockTableRecord
  2
*U70
340
0
  0
BLOCK_RECORD
  5
28CE
330
2786
100
AcDbSymbolTableRecord
100
AcDbBlockTableRecord
  2
*U71
340
0
  0
BLOCK_RECORD
  5
28D0
330
2786
100
AcDbSymbolTableRecord
100
AcDbBlockTableRecord
  2
*U72
340
0
  0
BLOCK_RECORD
  5
28D2
330
2786
100
AcDbSymbolTableRecord
100
AcDbBlockTableRecord
  2
*U73
340
0
  0
BLOCK_RECORD
  5
28D4
330
2786
100
AcDbSymbolTableRecord
100
AcDbBlockTableRecord
  2
*U74
340
0
102
{BLKREFS
331
26F2
102
}
  0
BLOCK_RECORD
  5
28D6
330
2786
100
AcDbSymbolTableRecord
100
AcDbBlockTableRecord
  2
*U75
340
0
102
{BLKREFS
331
26F3
102
}
  0
BLOCK_RECORD
  5
28D8
330
2786
100
AcDbSymbolTableRecord
100
AcDbBlockTableRecord
  2
*X76
340
0
102
{BLKREFS
331
271E
102
}
  0
BLOCK_RECORD
  5
28DA
330
2786
100
AcDbSymbolTableRecord
100
AcDbBlockTableRecord
  2
*X77
340
0
102
{BLKREFS
331
271F
102
}
  0
ENDTAB
  0
ENDSEC
  0
SECTION
  2
BLOCKS
  0
BLOCK
  5
27FA
330
27F9
100
AcDbEntity
  8
0
100
AcDbBlockBegin
  2
*Model_Space
 70
     0
 10
0.0
 20
0.0
 30
0.0
  3
*Model_Space
  1

  0
ENDBLK
  5
27FB
330
27F9
100
AcDbEntity
  8
0
100
AcDbBlockEnd
  0
BLOCK
  5
27F6
330
27F5
100
AcDbEntity
 67
     1
  8
0
100
AcDbBlockBegin
  2
*Paper_Space
 70
     0
 10
0.0
 20
0.0
 30
0.0
  3
*Paper_Space
  1

  0
ENDBLK
  5
27F7
330
27F5
100
AcDbEntity
 67
     1
  8
0
100
AcDbBlockEnd
  0
BLOCK
  5
2841
330
2840
100
AcDbEntity
  8
0
100
AcDbBlockBegin
  2
$MODEL_SPACE
 70
     0
 10
0.0
 20
0.0
 30
0.0
  3
$MODEL_SPACE
  1

  0
ENDBLK
  5
1FC1
330
2840
100
AcDbEntity
  8
0
100
AcDbBlockEnd
  0
BLOCK
  5
2843
330
2842
100
AcDbEntity
  8
0
100
AcDbBlockBegin
  2
$PAPER_SPACE
 70
     0
 10
0.0
 20
0.0
 30
0.0
  3
$PAPER_SPACE
  1

  0
ENDBLK
  5
1FBD
330
2842
100
AcDbEntity
  8
0
100
AcDbBlockEnd
  0
BLOCK
  5
2845
330
2844
100
AcDbEntity
  8
0
100
AcDbBlockBegin
  2
_ORIGIN
 70
     0
 10
0.0
 20
0.0
 30
0.0
  3
_ORIGIN
  1

  0
CIRCLE
  5
880
330
2844
100
AcDbEntity
  8
0
  6
Continuous
 62
     7
100
AcDbCircle
 10
0.0
 20
0.0
 30
0.0
 40
0.5
  0
LINE
  5
881
330
2844
100
AcDbEntity
  8
0
  6
Continuous
 62
     7
100
AcDbLine
 10
0.0
 20
0.0
 30
0.0
 11
-1.0
 21
0.0
 31
0.0
  0
ENDBLK
  5
882
330
2844
100
AcDbEntity
  8
0
100
AcDbBlockEnd
  0
BLOCK
  5
2847
330
2846
100
AcDbEntity
  8
0
 62
     1
100
AcDbBlockBegin
  2
_DOTBLANK
 70
     0
 10
0.0
 20
0.0
 30
0.0
  3
_DOTBLANK
  1

  0
CIRCLE
  5
AB3
330
2846
100
AcDbEntity
  8
0
  6
ByBlock
 62
     0
100
AcDbCircle
 10
0.0
 20
0.0
 30
0.0
 40
0.5
  0
LINE
  5
AB4
330
2846
100
AcDbEntity
  8
0
  6
ByBlock
 62
     0
100
AcDbLine
 10
-0.5
 20
0.0
 30
0.0
 11
-1.0
 21
0.0
 31
0.0
  0
ENDBLK
  5
AB6
330
2846
100
AcDbEntity
  8
0
 62
     1
100
AcDbBlockEnd
  0
BLOCK
  5
2849
330
2848
100
AcDbEntity
  8
0
 62
     1
100
AcDbBlockBegin
  2
_OPEN30
 70
     0
 10
0.0
 20
0.0
 30
0.0
  3
_OPEN30
  1

  0
LINE
  5
AB8
330
2848
100
AcDbEntity
  8
0
  6
ByBlock
 62
     0
100
AcDbLine
 10
-1.0
 20
0.26794919
 30
0.0
 11
0.0
 21
0.0
 31
0.0
  0
LINE
  5
AB9
330
2848
100
AcDbEntity
  8
0
  6
ByBlock
 62
     0
100
AcDbLine
 10
0.0
 20
0.0
 30
0.0
 11
-1.0
 21
-0.26794919
 31
0.0
  0
LINE
  5
ABA
330
2848
100
AcDbEntity
  8
0
  6
ByBlock
 62
     0
100
AcDbLine
 10
0.0
 20
0.0
 30
0.0
 11
-1.0
 21
0.0
 31
0.0
  0
ENDBLK
  5
ABC
330
2848
100
AcDbEntity
  8
0
 62
     1
100
AcDbBlockEnd
  0
BLOCK
  5
284B
330
284A
100
AcDbEntity
  8
0
100
AcDbBlockBegin
  2
*D5
 70
     1
 10
0.0
 20
0.0
 30
0.0
  3
*D5
  1

  0
LINE
  5
1296
330
284A
100
AcDbEntity
  8
SIZE
 62
     0
100
AcDbLine
 10
-134.5
 20
-320.0
 30
0.0
 11
-134.5
 21
-468.0173952306001
 31
0.0
  0
LINE
  5
1297
330
284A
100
AcDbEntity
  8
SIZE
 62
     0
100
AcDbLine
 10
134.5
 20
-320.0
 30
0.0
 11
134.5
 21
-468.0173952306001
 31
0.0
  0
LINE
  5
1298
330
284A
100
AcDbEntity
  8
SIZE
 62
     0
100
AcDbLine
 10
-122.5
 20
-448.0173952306
 30
0.0
 11
122.5
 21
-448.0173952306
 31
0.0
  0
INSERT
  5
1299
330
284A
100
AcDbEntity
  8
SIZE
 62
     0
100
AcDbBlockReference
  2
_DOTBLANK
 10
-134.5
 20
-448.0173952306
 30
0.0
 41
12.0
 42
12.0
 43
12.0
 50
180.0
  0
INSERT
  5
129A
330
284A
100
AcDbEntity
  8
SIZE
 62
     0
100
AcDbBlockReference
  2
_DOTBLANK
 10
134.5
 20
-448.0173952306
 30
0.0
 41
12.0
 42
12.0
 43
12.0
  0
INSERT
  5
129B
330
284A
100
AcDbEntity
  8
0
100
AcDbBlockReference
  2
*U6
 10
0.0
 20
0.0
 30
0.0
  0
POINT
  5
129C
330
284A
100
AcDbEntity
  8
DEFPOINTS
 62
     0
100
AcDbPoint
 10
-134.5
 20
-300.0
 30
0.0
  0
POINT
  5
129D
330
284A
100
AcDbEntity
  8
DEFPOINTS
 62
     0
100
AcDbPoint
 10
134.5
 20
-300.0
 30
0.0
  0
POINT
  5
129E
330
284A
100
AcDbEntity
  8
DEFPOINTS
 62
     0
100
AcDbPoint
 10
134.5
 20
-448.0173952306
 30
0.0
  0
ENDBLK
  5
D72
330
284A
100
AcDbEntity
  8
0
100
AcDbBlockEnd
  0
BLOCK
  5
284D
330
284C
100
AcDbEntity
  8
0
100
AcDbBlockBegin
  2
*U6
 70
     1
 10
0.0
 20
0.0
 30
0.0
  3
*U6
  1

  0
TEXT
  5
1EF5
330
284C
100
AcDbEntity
  8
SIZE
 62
     0
100
AcDbText
 10
-72.68571428571426
 20
-438.0173952305999
 30
0.0
 40
64.0
  1
269
 41
0.9
100
AcDbText
  0
ENDBLK
  5
1EF7
330
284C
100
AcDbEntity
  8
0
100
AcDbBlockEnd
  0
BLOCK
  5
284F
330
284E
100
AcDbEntity
  8
0
100
AcDbBlockBegin
  2
*D7
 70
     1
 10
0.0
 20
0.0
 30
0.0
  3
*D7
  1

  0
LINE
  5
11A7
330
284E
100
AcDbEntity
  8
SIZE
  6
Continuous
 62
     0
100
AcDbLine
 10
143.5
 20
-300.0
 30
0.0
 11
304.6432844803791
 21
-300.0
 31
0.0
  0
LINE
  5
11A8
330
284E
100
AcDbEntity
  8
SIZE
  6
Continuous
 62
     0
100
AcDbLine
 10
177.5
 20
-0.0000000000000057
 30
0.0
 11
304.6432844803792
 21
-0.0000000000000417
 31
0.0
  0
LINE
  5
11A9
330
284E
100
AcDbEntity
  8
SIZE
  6
Continuous
 62
     0
100
AcDbLine
 10
284.6432844803791
 20
-288.0000000000001
 30
0.0
 11
284.6432844803792
 21
-12.00000000000003
 31
0.0
  0
INSERT
  5
11AA
330
284E
100
AcDbEntity
  8
SIZE
  6
Continuous
 62
     0
100
AcDbBlockReference
  2
_DOTBLANK
 10
284.6432844803791
 20
-300.0
 30
0.0
 41
12.0
 42
12.0
 43
12.0
 50
270.0
  0
INSERT
  5
11AB
330
284E
100
AcDbEntity
  8
SIZE
  6
Continuous
 62
     0
100
AcDbBlockReference
  2
_DOTBLANK
 10
284.6432844803792
 20
-0.000000000000036
 30
0.0
 41
12.0
 42
12.0
 43
12.0
 50
90.0
  0
INSERT
  5
11AC
330
284E
100
AcDbEntity
  8
0
100
AcDbBlockReference
  2
*U8
 10
0.0
 20
0.0
 30
0.0
  0
POINT
  5
11AD
330
284E
100
AcDbEntity
  8
DEFPOINTS
  6
Continuous
 62
     0
100
AcDbPoint
 10
123.5
 20
-300.0
 30
0.0
  0
POINT
  5
11AE
330
284E
100
AcDbEntity
  8
DEFPOINTS
  6
Continuous
 62
     0
100
AcDbPoint
 10
157.5
 20
0.0
 30
0.0
  0
POINT
  5
11AF
330
284E
100
AcDbEntity
  8
DEFPOINTS
  6
Continuous
 62
     0
100
AcDbPoint
 10
284.6432844803792
 20
-0.000000000000036
 30
0.0
  0
ENDBLK
  5
E11
330
284E
100
AcDbEntity
  8
0
100
AcDbBlockEnd
  0
BLOCK
  5
2851
330
2850
100
AcDbEntity
  8
0
100
AcDbBlockBegin
  2
*U8
 70
     1
 10
0.0
 20
0.0
 30
0.0
  3
*U8
  1

  0
TEXT
  5
1EE1
330
2850
100
AcDbEntity
  8
SIZE
 62
     0
100
AcDbText
 10
274.6432844803792
 20
-224.0571428571429
 30
0.0
 40
64.0
  1
300
 50
90.0
 41
0.9
100
AcDbText
  0
ENDBLK
  5
1EE3
330
2850
100
AcDbEntity
  8
0
100
AcDbBlockEnd
  0
BLOCK
  5
2853
330
2852
100
AcDbEntity
  8
0
100
AcDbBlockBegin
  2
*D9
 70
     1
 10
0.0
 20
0.0
 30
0.0
  3
*D9
  1

  0
LINE
  5
E7D
330
2852
100
AcDbEntity
  8
SIZE
 62
     0
100
AcDbLine
 10
-139.9999999999998
 20
32.46448280219375
 30
0.0
 11
-139.9999999999998
 21
136.4516878685508
 31
0.0
  0
LINE
  5
E7E
330
2852
100
AcDbEntity
  8
SIZE
 62
     0
100
AcDbLine
 10
140.0
 20
32.46448280219375
 30
0.0
 11
140.0
 21
136.4516878685508
 31
0.0
  0
LINE
  5
E7F
330
2852
100
AcDbEntity
  8
SIZE
 62
     0
100
AcDbLine
 10
-128.0
 20
116.4516878685508
 30
0.0
 11
128.0
 21
116.4516878685508
 31
0.0
  0
INSERT
  5
E80
330
2852
100
AcDbEntity
  8
SIZE
 62
     0
100
AcDbBlockReference
  2
_DOTBLANK
 10
-139.9999999999998
 20
116.4516878685508
 30
0.0
 41
12.0
 42
12.0
 43
12.0
 50
180.0
  0
INSERT
  5
E81
330
2852
100
AcDbEntity
  8
SIZE
 62
     0
100
AcDbBlockReference
  2
_DOTBLANK
 10
140.0
 20
116.4516878685508
 30
0.0
 41
12.0
 42
12.0
 43
12.0
  0
INSERT
  5
E82
330
2852
100
AcDbEntity
  8
0
100
AcDbBlockReference
  2
*U10
 10
0.0
 20
0.0
 30
0.0
  0
POINT
  5
E83
330
2852
100
AcDbEntity
  8
DEFPOINTS
 62
     0
100
AcDbPoint
 10
-139.9999999999998
 20
12.46448280219374
 30
0.0
  0
POINT
  5
E84
330
2852
100
AcDbEntity
  8
DEFPOINTS
 62
     0
100
AcDbPoint
 10
140.0
 20
12.46448280219374
 30
0.0
  0
POINT
  5
E85
330
2852
100
AcDbEntity
  8
DEFPOINTS
 62
     0
100
AcDbPoint
 10
140.0
 20
116.4516878685508
 30
0.0
  0
ENDBLK
  5
E7C
330
2852
100
AcDbEntity
  8
0
100
AcDbBlockEnd
  0
BLOCK
  5
2855
330
2854
100
AcDbEntity
  8
0
100
AcDbBlockBegin
  2
*U10
 70
     1
 10
0.0
 20
0.0
 30
0.0
  3
*U10
  1

  0
TEXT
  5
1ED8
330
2854
100
AcDbEntity
  8
SIZE
 62
     0
100
AcDbText
 10
-74.05714285714281
 20
126.4516878685508
 30
0.0
 40
64.0
  1
280
 41
0.9
100
AcDbText
  0
ENDBLK
  5
1EDA
330
2854
100
AcDbEntity
  8
0
100
AcDbBlockEnd
  0
BLOCK
  5
2857
330
2856
100
AcDbEntity
  8
0
100
AcDbBlockBegin
  2
GENAXEH
 70
     0
 10
0.0
 20
0.0
 30
0.0
  3
GENAXEH
  1

  0
LINE
  5
FDB
330
2856
100
AcDbEntity
  8
0
100
AcDbLine
 10
-1.0
 20
0.0
 30
0.0
 11
1.0
 21
0.0
 31
0.0
  0
ENDBLK
  5
FDD
330
2856
100
AcDbEntity
  8
0
100
AcDbBlockEnd
  0
BLOCK
  5
2859
330
2858
100
AcDbEntity
  8
0
100
AcDbBlockBegin
  2
*D12
 70
     1
 10
0.0
 20
0.0
 30
0.0
  3
*D12
  1

  0
LINE
  5
1120
330
2858
100
AcDbEntity
  8
SIZE
 62
     0
100
AcDbLine
 10
-157.5
 20
20.0
 30
0.0
 11
-157.5
 21
245.5794621189598
 31
0.0
  0
LINE
  5
1121
330
2858
100
AcDbEntity
  8
SIZE
 62
     0
100
AcDbLine
 10
157.5
 20
20.0
 30
0.0
 11
157.5
 21
245.5794621189598
 31
0.0
  0
LINE
  5
1122
330
2858
100
AcDbEntity
  8
SIZE
 62
     0
100
AcDbLine
 10
-145.5
 20
225.5794621189598
 30
0.0
 11
145.5
 21
225.5794621189598
 31
0.0
  0
INSERT
  5
1123
330
2858
100
AcDbEntity
  8
SIZE
 62
     0
100
AcDbBlockReference
  2
_DOTBLANK
 10
-157.5
 20
225.5794621189598
 30
0.0
 41
12.0
 42
12.0
 43
12.0
 50
180.0
  0
INSERT
  5
1124
330
2858
100
AcDbEntity
  8
SIZE
 62
     0
100
AcDbBlockReference
  2
_DOTBLANK
 10
157.5
 20
225.5794621189598
 30
0.0
 41
12.0
 42
12.0
 43
12.0
  0
INSERT
  5
1125
330
2858
100
AcDbEntity
  8
0
100
AcDbBlockReference
  2
*U13
 10
0.0
 20
0.0
 30
0.0
  0
POINT
  5
1126
330
2858
100
AcDbEntity
  8
DEFPOINTS
 62
     0
100
AcDbPoint
 10
-157.5
 20
0.0
 30
0.0
  0
POINT
  5
1127
330
2858
100
AcDbEntity
  8
DEFPOINTS
 62
     0
100
AcDbPoint
 10
157.5
 20
0.0
 30
0.0
  0
POINT
  5
1128
330
2858
100
AcDbEntity
  8
DEFPOINTS
 62
     0
100
AcDbPoint
 10
157.5
 20
225.5794621189598
 30
0.0
  0
ENDBLK
  5
111F
330
2858
100
AcDbEntity
  8
0
100
AcDbBlockEnd
  0
BLOCK
  5
285B
330
285A
100
AcDbEntity
  8
0
100
AcDbBlockBegin
  2
*U13
 70
     1
 10
0.0
 20
0.0
 30
0.0
  3
*U13
  1

  0
TEXT
  5
1EDD
330
285A
100
AcDbEntity
  8
SIZE
 62
     0
100
AcDbText
 10
-68.57142857142857
 20
235.5794621189599
 30
0.0
 40
64.0
  1
315
 41
0.9
100
AcDbText
  0
ENDBLK
  5
1EDF
330
285A
100
AcDbEntity
  8
0
100
AcDbBlockEnd
  0
BLOCK
  5
285D
330
285C
100
AcDbEntity
  8
0
100
AcDbBlockBegin
  2
*D14
 70
     1
 10
0.0
 20
0.0
 30
0.0
  3
*D14
  1

  0
LINE
  5
11BD
330
285C
100
AcDbEntity
  8
NOTE
 62
     0
100
AcDbLine
 10
-123.4999999999999
 20
-320.0
 30
0.0
 11
-123.4999999999999
 21
-354.9529861856111
 31
0.0
  0
LINE
  5
11BE
330
285C
100
AcDbEntity
  8
NOTE
 62
     0
100
AcDbLine
 10
-133.4999999999998
 20
-331.2126909923287
 30
0.0
 11
-133.4999999999998
 21
-354.9529861856111
 31
0.0
  0
LINE
  5
11BF
330
285C
100
AcDbEntity
  8
NOTE
 62
     0
100
AcDbLine
 10
-111.4999999999999
 20
-334.9529861856112
 30
0.0
 11
-99.4999999999999
 21
-334.9529861856112
 31
0.0
  0
LINE
  5
11C0
330
285C
100
AcDbEntity
  8
NOTE
 62
     0
100
AcDbLine
 10
-145.4999999999998
 20
-334.9529861856112
 30
0.0
 11
-157.4999999999998
 21
-334.9529861856112
 31
0.0
  0
LINE
  5
11C1
330
285C
100
AcDbEntity
  8
NOTE
 62
     0
100
AcDbLine
 10
-123.4999999999999
 20
-334.9529861856112
 30
0.0
 11
-133.4999999999998
 21
-334.9529861856112
 31
0.0
  0
INSERT
  5
11C2
330
285C
100
AcDbEntity
  8
NOTE
 62
     0
100
AcDbBlockReference
  2
_DOTBLANK
 10
-123.4999999999999
 20
-334.9529861856112
 30
0.0
 41
12.0
 42
12.0
 43
12.0
 50
180.0
  0
INSERT
  5
11C3
330
285C
100
AcDbEntity
  8
NOTE
 62
     0
100
AcDbBlockReference
  2
_DOTBLANK
 10
-133.4999999999998
 20
-334.9529861856112
 30
0.0
 41
12.0
 42
12.0
 43
12.0
  0
INSERT
  5
11C4
330
285C
100
AcDbEntity
  8
0
100
AcDbBlockReference
  2
*U15
 10
0.0
 20
0.0
 30
0.0
  0
POINT
  5
11C5
330
285C
100
AcDbEntity
  8
DEFPOINTS
 62
     0
100
AcDbPoint
 10
-123.4999999999999
 20
-300.0
 30
0.0
  0
POINT
  5
11C6
330
285C
100
AcDbEntity
  8
DEFPOINTS
 62
     0
100
AcDbPoint
 10
-133.4999999999998
 20
-311.2126909923287
 30
0.0
  0
POINT
  5
11C7
330
285C
100
AcDbEntity
  8
DEFPOINTS
 62
     0
100
AcDbPoint
 10
-133.4999999999998
 20
-334.9529861856112
 30
0.0
  0
ENDBLK
  5
11BC
330
285C
100
AcDbEntity
  8
0
100
AcDbBlockEnd
  0
BLOCK
  5
285F
330
285E
100
AcDbEntity
  8
0
100
AcDbBlockBegin
  2
*U15
 70
     1
 10
0.0
 20
0.0
 30
0.0
  3
*U15
  1

  0
TEXT
  5
1EE5
330
285E
100
AcDbEntity
  8
NOTE
 62
     0
100
AcDbText
 10
-169.642857142857
 20
-324.9529861856112
 30
0.0
 40
64.0
  1
10
 41
0.9
100
AcDbText
  0
ENDBLK
  5
1EE7
330
285E
100
AcDbEntity
  8
0
100
AcDbBlockEnd
  0
BLOCK
  5
2861
330
2860
100
AcDbEntity
  8
0
100
AcDbBlockBegin
  2
*D16
 70
     1
 10
0.0
 20
0.0
 30
0.0
  3
*D16
  1

  0
LINE
  5
11E7
330
2860
100
AcDbEntity
  8
NOTE
 62
     0
100
AcDbLine
 10
-135.5
 20
-333.2126909923287
 30
0.0
 11
-135.5
 21
-386.2569421441843
 31
0.0
  0
LINE
  5
11E8
330
2860
100
AcDbEntity
  8
NOTE
 62
     0
100
AcDbLine
 10
-123.4999999999999
 20
-320.0
 30
0.0
 11
-123.4999999999999
 21
-386.2569421441843
 31
0.0
  0
LINE
  5
11E9
330
2860
100
AcDbEntity
  8
NOTE
 62
     0
100
AcDbLine
 10
-147.5
 20
-366.2569421441844
 30
0.0
 11
-159.5
 21
-366.2569421441844
 31
0.0
  0
LINE
  5
11EA
330
2860
100
AcDbEntity
  8
NOTE
 62
     0
100
AcDbLine
 10
-111.4999999999999
 20
-366.2569421441844
 30
0.0
 11
-99.4999999999999
 21
-366.2569421441844
 31
0.0
  0
LINE
  5
11EB
330
2860
100
AcDbEntity
  8
NOTE
 62
     0
100
AcDbLine
 10
-135.5
 20
-366.2569421441844
 30
0.0
 11
-123.4999999999999
 21
-366.2569421441844
 31
0.0
  0
INSERT
  5
11EC
330
2860
100
AcDbEntity
  8
NOTE
 62
     0
100
AcDbBlockReference
  2
_DOTBLANK
 10
-135.5
 20
-366.2569421441844
 30
0.0
 41
12.0
 42
12.0
 43
12.0
  0
INSERT
  5
11ED
330
2860
100
AcDbEntity
  8
NOTE
 62
     0
100
AcDbBlockReference
  2
_DOTBLANK
 10
-123.4999999999999
 20
-366.2569421441844
 30
0.0
 41
12.0
 42
12.0
 43
12.0
 50
180.0
  0
INSERT
  5
11EE
330
2860
100
AcDbEntity
  8
0
100
AcDbBlockReference
  2
*U17
 10
0.0
 20
0.0
 30
0.0
  0
POINT
  5
11EF
330
2860
100
AcDbEntity
  8
DEFPOINTS
 62
     0
100
AcDbPoint
 10
-135.5
 20
-313.2126909923287
 30
0.0
  0
POINT
  5
11F0
330
2860
100
AcDbEntity
  8
DEFPOINTS
 62
     0
100
AcDbPoint
 10
-123.4999999999999
 20
-300.0
 30
0.0
  0
POINT
  5
11F1
330
2860
100
AcDbEntity
  8
DEFPOINTS
 62
     0
100
AcDbPoint
 10
-123.4999999999999
 20
-366.2569421441844
 30
0.0
  0
ENDBLK
  5
11E6
330
2860
100
AcDbEntity
  8
0
100
AcDbBlockEnd
  0
BLOCK
  5
2863
330
2862
100
AcDbEntity
  8
0
100
AcDbBlockBegin
  2
*U17
 70
     1
 10
0.0
 20
0.0
 30
0.0
  3
*U17
  1

  0
TEXT
  5
1EE9
330
2862
100
AcDbEntity
  8
NOTE
 62
     0
100
AcDbText
 10
-170.642857142857
 20
-356.2569421441843
 30
0.0
 40
64.0
  1
12
 41
0.9
100
AcDbText
  0
ENDBLK
  5
1EEB
330
2862
100
AcDbEntity
  8
0
100
AcDbBlockEnd
  0
BLOCK
  5
2865
330
2864
100
AcDbEntity
  8
0
100
AcDbBlockBegin
  2
*D18
 70
     1
 10
0.0
 20
0.0
 30
0.0
  3
*D18
  1

  0
LINE
  5
11F6
330
2864
100
AcDbEntity
  8
NOTE
 62
     0
100
AcDbLine
 10
-123.4999999999999
 20
-320.0
 30
0.0
 11
-123.4999999999999
 21
-583.8286022818904
 31
0.0
  0
LINE
  5
11F7
330
2864
100
AcDbEntity
  8
NOTE
 62
     0
100
AcDbLine
 10
123.5
 20
-320.0
 30
0.0
 11
123.5
 21
-583.8286022818904
 31
0.0
  0
LINE
  5
11F8
330
2864
100
AcDbEntity
  8
NOTE
 62
     0
100
AcDbLine
 10
-111.4999999999999
 20
-563.8286022818904
 30
0.0
 11
111.5
 21
-563.8286022818904
 31
0.0
  0
INSERT
  5
11F9
330
2864
100
AcDbEntity
  8
NOTE
 62
     0
100
AcDbBlockReference
  2
_DOTBLANK
 10
-123.4999999999999
 20
-563.8286022818904
 30
0.0
 41
12.0
 42
12.0
 43
12.0
 50
180.0
  0
INSERT
  5
11FA
330
2864
100
AcDbEntity
  8
NOTE
 62
     0
100
AcDbBlockReference
  2
_DOTBLANK
 10
123.5
 20
-563.8286022818904
 30
0.0
 41
12.0
 42
12.0
 43
12.0
  0
INSERT
  5
11FB
330
2864
100
AcDbEntity
  8
0
100
AcDbBlockReference
  2
*U19
 10
0.0
 20
0.0
 30
0.0
  0
POINT
  5
11FC
330
2864
100
AcDbEntity
  8
DEFPOINTS
 62
     0
100
AcDbPoint
 10
-123.4999999999999
 20
-300.0
 30
0.0
  0
POINT
  5
11FD
330
2864
100
AcDbEntity
  8
DEFPOINTS
 62
     0
100
AcDbPoint
 10
123.5
 20
-300.0
 30
0.0
  0
POINT
  5
11FE
330
2864
100
AcDbEntity
  8
DEFPOINTS
 62
     0
100
AcDbPoint
 10
123.5
 20
-563.8286022818904
 30
0.0
  0
ENDBLK
  5
11F5
330
2864
100
AcDbEntity
  8
0
100
AcDbBlockEnd
  0
BLOCK
  5
2867
330
2866
100
AcDbEntity
  8
0
100
AcDbBlockBegin
  2
*U19
 70
     1
 10
0.0
 20
0.0
 30
0.0
  3
*U19
  1

  0
TEXT
  5
1EED
330
2866
100
AcDbEntity
  8
NOTE
 62
     0
100
AcDbText
 10
-74.05714285714281
 20
-553.8286022818904
 30
0.0
 40
64.0
  1
247
 41
0.9
100
AcDbText
  0
ENDBLK
  5
1EEF
330
2866
100
AcDbEntity
  8
0
100
AcDbBlockEnd
  0
BLOCK
  5
2869
330
2868
100
AcDbEntity
  8
0
100
AcDbBlockBegin
  2
*D20
 70
     1
 10
0.0
 20
0.0
 30
0.0
  3
*D20
  1

  0
LINE
  5
1284
330
2868
100
AcDbEntity
  8
NOTE
 62
     0
100
AcDbLine
 10
-123.5
 20
12.0
 30
0.0
 11
-123.5
 21
71.83630134534229
 31
0.0
  0
LINE
  5
1285
330
2868
100
AcDbEntity
  8
NOTE
 62
     0
100
AcDbLine
 10
123.5
 20
12.0
 30
0.0
 11
123.5
 21
71.83630134534229
 31
0.0
  0
LINE
  5
1286
330
2868
100
AcDbEntity
  8
NOTE
 62
     0
100
AcDbLine
 10
-111.5
 20
51.83630134534229
 30
0.0
 11
111.5
 21
51.83630134534229
 31
0.0
  0
INSERT
  5
1287
330
2868
100
AcDbEntity
  8
NOTE
 62
     0
100
AcDbBlockReference
  2
_DOTBLANK
 10
-123.5
 20
51.83630134534229
 30
0.0
 41
12.0
 42
12.0
 43
12.0
 50
180.0
  0
INSERT
  5
1288
330
2868
100
AcDbEntity
  8
NOTE
 62
     0
100
AcDbBlockReference
  2
_DOTBLANK
 10
123.5
 20
51.83630134534229
 30
0.0
 41
12.0
 42
12.0
 43
12.0
  0
INSERT
  5
1289
330
2868
100
AcDbEntity
  8
0
100
AcDbBlockReference
  2
*U21
 10
0.0
 20
0.0
 30
0.0
  0
POINT
  5
128A
330
2868
100
AcDbEntity
  8
DEFPOINTS
 62
     0
100
AcDbPoint
 10
-123.5
 20
-8.0
 30
0.0
  0
POINT
  5
128B
330
2868
100
AcDbEntity
  8
DEFPOINTS
 62
     0
100
AcDbPoint
 10
123.5
 20
-8.0
 30
0.0
  0
POINT
  5
128C
330
2868
100
AcDbEntity
  8
DEFPOINTS
 62
     0
100
AcDbPoint
 10
123.5
 20
51.83630134534229
 30
0.0
  0
ENDBLK
  5
1283
330
2868
100
AcDbEntity
  8
0
100
AcDbBlockEnd
  0
BLOCK
  5
286B
330
286A
100
AcDbEntity
  8
0
100
AcDbBlockBegin
  2
*U21
 70
     1
 10
0.0
 20
0.0
 30
0.0
  3
*U21
  1

  0
TEXT
  5
1EF1
330
286A
100
AcDbEntity
  8
NOTE
 62
     0
100
AcDbText
 10
-74.05714285714283
 20
61.83630134534229
 30
0.0
 40
64.0
  1
247
 41
0.9
100
AcDbText
  0
ENDBLK
  5
1EF3
330
286A
100
AcDbEntity
  8
0
100
AcDbBlockEnd
  0
BLOCK
  5
286D
330
286C
100
AcDbEntity
  8
0
100
AcDbBlockBegin
  2
*D22
 70
     1
 10
0.0
 20
0.0
 30
0.0
  3
*D22
  1

  0
LINE
  5
1414
330
286C
100
AcDbEntity
  8
SIZE
 62
     0
100
AcDbLine
 10
-22313.11521613997
 20
7365.702971374808
 30
0.0
 11
-22313.11521613997
 21
7217.685576144207
 31
0.0
  0
LINE
  5
1415
330
286C
100
AcDbEntity
  8
SIZE
 62
     0
100
AcDbLine
 10
-22044.11521613997
 20
7365.702971374808
 30
0.0
 11
-22044.11521613997
 21
7217.685576144207
 31
0.0
  0
LINE
  5
1416
330
286C
100
AcDbEntity
  8
SIZE
 62
     0
100
AcDbLine
 10
-22301.11521613997
 20
7237.685576144207
 30
0.0
 11
-22056.11521613997
 21
7237.685576144207
 31
0.0
  0
INSERT
  5
1417
330
286C
100
AcDbEntity
  8
SIZE
 62
     0
100
AcDbBlockReference
  2
_DOTBLANK
 10
-22313.11521613997
 20
7237.685576144207
 30
0.0
 41
12.0
 42
12.0
 43
12.0
 50
180.0
  0
INSERT
  5
1418
330
286C
100
AcDbEntity
  8
SIZE
 62
     0
100
AcDbBlockReference
  2
_DOTBLANK
 10
-22044.11521613997
 20
7237.685576144207
 30
0.0
 41
12.0
 42
12.0
 43
12.0
  0
INSERT
  5
1419
330
286C
100
AcDbEntity
  8
0
100
AcDbBlockReference
  2
*U23
 10
0.0
 20
0.0
 30
0.0
  0
POINT
  5
141A
330
286C
100
AcDbEntity
  8
DEFPOINTS
 62
     0
100
AcDbPoint
 10
-22313.11521613997
 20
7385.702971374808
 30
0.0
  0
POINT
  5
141B
330
286C
100
AcDbEntity
  8
DEFPOINTS
 62
     0
100
AcDbPoint
 10
-22044.11521613997
 20
7385.702971374808
 30
0.0
  0
POINT
  5
141C
330
286C
100
AcDbEntity
  8
DEFPOINTS
 62
     0
100
AcDbPoint
 10
-22044.11521613997
 20
7237.685576144207
 30
0.0
  0
ENDBLK
  5
141D
330
286C
100
AcDbEntity
  8
0
100
AcDbBlockEnd
  0
BLOCK
  5
286F
330
286E
100
AcDbEntity
  8
0
100
AcDbBlockBegin
  2
*U23
 70
     1
 10
0.0
 20
0.0
 30
0.0
  3
*U23
  1

  0
TEXT
  5
1EF9
330
286E
100
AcDbEntity
  8
SIZE
 62
     0
100
AcDbText
 10
-22251.30093042568
 20
7247.685576144205
 30
0.0
 40
64.0
  1
269
 41
0.9
100
AcDbText
  0
ENDBLK
  5
1EFB
330
286E
100
AcDbEntity
  8
0
100
AcDbBlockEnd
  0
BLOCK
  5
2871
330
2870
100
AcDbEntity
  8
0
100
AcDbBlockBegin
  2
*D24
 70
     1
 10
0.0
 20
0.0
 30
0.0
  3
*D24
  1

  0
LINE
  5
1420
330
2870
100
AcDbEntity
  8
SIZE
  6
Continuous
 62
     0
100
AcDbLine
 10
-22035.11521613997
 20
7385.702971374808
 30
0.0
 11
-21873.97193165959
 21
7385.702971374808
 31
0.0
  0
LINE
  5
1421
330
2870
100
AcDbEntity
  8
SIZE
  6
Continuous
 62
     0
100
AcDbLine
 10
-22001.11521613997
 20
7685.702971374808
 30
0.0
 11
-21873.97193165959
 21
7685.702971374808
 31
0.0
  0
LINE
  5
1422
330
2870
100
AcDbEntity
  8
SIZE
  6
Continuous
 62
     0
100
AcDbLine
 10
-21893.97193165959
 20
7397.702971374808
 30
0.0
 11
-21893.97193165959
 21
7673.702971374808
 31
0.0
  0
INSERT
  5
1423
330
2870
100
AcDbEntity
  8
SIZE
  6
Continuous
 62
     0
100
AcDbBlockReference
  2
_DOTBLANK
 10
-21893.97193165959
 20
7385.702971374808
 30
0.0
 41
12.0
 42
12.0
 43
12.0
 50
270.0
  0
INSERT
  5
1424
330
2870
100
AcDbEntity
  8
SIZE
  6
Continuous
 62
     0
100
AcDbBlockReference
  2
_DOTBLANK
 10
-21893.97193165959
 20
7685.702971374808
 30
0.0
 41
12.0
 42
12.0
 43
12.0
 50
90.0
  0
INSERT
  5
1425
330
2870
100
AcDbEntity
  8
0
100
AcDbBlockReference
  2
*U25
 10
0.0
 20
0.0
 30
0.0
  0
POINT
  5
1426
330
2870
100
AcDbEntity
  8
DEFPOINTS
  6
Continuous
 62
     0
100
AcDbPoint
 10
-22055.11521613997
 20
7385.702971374808
 30
0.0
  0
POINT
  5
1427
330
2870
100
AcDbEntity
  8
DEFPOINTS
  6
Continuous
 62
     0
100
AcDbPoint
 10
-22021.11521613997
 20
7685.702971374808
 30
0.0
  0
POINT
  5
1428
330
2870
100
AcDbEntity
  8
DEFPOINTS
  6
Continuous
 62
     0
100
AcDbPoint
 10
-21893.97193165959
 20
7685.702971374808
 30
0.0
  0
ENDBLK
  5
1429
330
2870
100
AcDbEntity
  8
0
100
AcDbBlockEnd
  0
BLOCK
  5
2873
330
2872
100
AcDbEntity
  8
0
100
AcDbBlockBegin
  2
*U25
 70
     1
 10
0.0
 20
0.0
 30
0.0
  3
*U25
  1

  0
TEXT
  5
1EFD
330
2872
100
AcDbEntity
  8
SIZE
 62
     0
100
AcDbText
 10
-21903.97193165959
 20
7461.645828517662
 30
0.0
 40
64.0
  1
300
 50
90.0
 41
0.9
100
AcDbText
  0
ENDBLK
  5
1EFF
330
2872
100
AcDbEntity
  8
0
100
AcDbBlockEnd
  0
BLOCK
  5
2875
330
2874
100
AcDbEntity
  8
0
100
AcDbBlockBegin
  2
*D26
 70
     1
 10
0.0
 20
0.0
 30
0.0
  3
*D26
  1

  0
LINE
  5
142C
330
2874
100
AcDbEntity
  8
SIZE
 62
     0
100
AcDbLine
 10
-22318.61521613997
 20
7718.167454177002
 30
0.0
 11
-22318.61521613997
 21
7822.154659243358
 31
0.0
  0
LINE
  5
142D
330
2874
100
AcDbEntity
  8
SIZE
 62
     0
100
AcDbLine
 10
-22038.61521613997
 20
7718.167454177002
 30
0.0
 11
-22038.61521613997
 21
7822.154659243358
 31
0.0
  0
LINE
  5
142E
330
2874
100
AcDbEntity
  8
SIZE
 62
     0
100
AcDbLine
 10
-22306.61521613997
 20
7802.154659243358
 30
0.0
 11
-22050.61521613997
 21
7802.154659243358
 31
0.0
  0
INSERT
  5
142F
330
2874
100
AcDbEntity
  8
SIZE
 62
     0
100
AcDbBlockReference
  2
_DOTBLANK
 10
-22318.61521613997
 20
7802.154659243358
 30
0.0
 41
12.0
 42
12.0
 43
12.0
 50
180.0
  0
INSERT
  5
1430
330
2874
100
AcDbEntity
  8
SIZE
 62
     0
100
AcDbBlockReference
  2
_DOTBLANK
 10
-22038.61521613997
 20
7802.154659243358
 30
0.0
 41
12.0
 42
12.0
 43
12.0
  0
INSERT
  5
1431
330
2874
100
AcDbEntity
  8
0
100
AcDbBlockReference
  2
*U27
 10
0.0
 20
0.0
 30
0.0
  0
POINT
  5
1432
330
2874
100
AcDbEntity
  8
DEFPOINTS
 62
     0
100
AcDbPoint
 10
-22318.61521613997
 20
7698.167454177002
 30
0.0
  0
POINT
  5
1433
330
2874
100
AcDbEntity
  8
DEFPOINTS
 62
     0
100
AcDbPoint
 10
-22038.61521613997
 20
7698.167454177002
 30
0.0
  0
POINT
  5
1434
330
2874
100
AcDbEntity
  8
DEFPOINTS
 62
     0
100
AcDbPoint
 10
-22038.61521613997
 20
7802.154659243358
 30
0.0
  0
ENDBLK
  5
1435
330
2874
100
AcDbEntity
  8
0
100
AcDbBlockEnd
  0
BLOCK
  5
2877
330
2876
100
AcDbEntity
  8
0
100
AcDbBlockBegin
  2
*U27
 70
     1
 10
0.0
 20
0.0
 30
0.0
  3
*U27
  1

  0
TEXT
  5
1F01
330
2876
100
AcDbEntity
  8
SIZE
 62
     0
100
AcDbText
 10
-22252.6723589971
 20
7812.154659243358
 30
0.0
 40
64.0
  1
280
 41
0.9
100
AcDbText
  0
ENDBLK
  5
1F03
330
2876
100
AcDbEntity
  8
0
100
AcDbBlockEnd
  0
BLOCK
  5
2879
330
2878
100
AcDbEntity
  8
0
100
AcDbBlockBegin
  2
*D28
 70
     1
 10
0.0
 20
0.0
 30
0.0
  3
*D28
  1

  0
LINE
  5
1438
330
2878
100
AcDbEntity
  8
SIZE
 62
     0
100
AcDbLine
 10
-22336.11521613997
 20
7705.702971374808
 30
0.0
 11
-22336.11521613997
 21
7931.282433493766
 31
0.0
  0
LINE
  5
1439
330
2878
100
AcDbEntity
  8
SIZE
 62
     0
100
AcDbLine
 10
-22021.11521613997
 20
7705.702971374808
 30
0.0
 11
-22021.11521613997
 21
7931.282433493766
 31
0.0
  0
LINE
  5
143A
330
2878
100
AcDbEntity
  8
SIZE
 62
     0
100
AcDbLine
 10
-22324.11521613997
 20
7911.282433493766
 30
0.0
 11
-22033.11521613997
 21
7911.282433493766
 31
0.0
  0
INSERT
  5
143B
330
2878
100
AcDbEntity
  8
SIZE
 62
     0
100
AcDbBlockReference
  2
_DOTBLANK
 10
-22336.11521613997
 20
7911.282433493766
 30
0.0
 41
12.0
 42
12.0
 43
12.0
 50
180.0
  0
INSERT
  5
143C
330
2878
100
AcDbEntity
  8
SIZE
 62
     0
100
AcDbBlockReference
  2
_DOTBLANK
 10
-22021.11521613997
 20
7911.282433493766
 30
0.0
 41
12.0
 42
12.0
 43
12.0
  0
INSERT
  5
143D
330
2878
100
AcDbEntity
  8
0
100
AcDbBlockReference
  2
*U29
 10
0.0
 20
0.0
 30
0.0
  0
POINT
  5
143E
330
2878
100
AcDbEntity
  8
DEFPOINTS
 62
     0
100
AcDbPoint
 10
-22336.11521613997
 20
7685.702971374808
 30
0.0
  0
POINT
  5
143F
330
2878
100
AcDbEntity
  8
DEFPOINTS
 62
     0
100
AcDbPoint
 10
-22021.11521613997
 20
7685.702971374808
 30
0.0
  0
POINT
  5
1440
330
2878
100
AcDbEntity
  8
DEFPOINTS
 62
     0
100
AcDbPoint
 10
-22021.11521613997
 20
7911.282433493766
 30
0.0
  0
ENDBLK
  5
1441
330
2878
100
AcDbEntity
  8
0
100
AcDbBlockEnd
  0
BLOCK
  5
287B
330
287A
100
AcDbEntity
  8
0
100
AcDbBlockBegin
  2
*U29
 70
     1
 10
0.0
 20
0.0
 30
0.0
  3
*U29
  1

  0
TEXT
  5
1F05
330
287A
100
AcDbEntity
  8
SIZE
 62
     0
100
AcDbText
 10
-22247.18664471139
 20
7921.282433493766
 30
0.0
 40
64.0
  1
315
 41
0.9
100
AcDbText
  0
ENDBLK
  5
1F07
330
287A
100
AcDbEntity
  8
0
100
AcDbBlockEnd
  0
BLOCK
  5
287D
330
287C
100
AcDbEntity
  8
0
100
AcDbBlockBegin
  2
*D30
 70
     1
 10
0.0
 20
0.0
 30
0.0
  3
*D30
  1

  0
LINE
  5
166B
330
287C
100
AcDbEntity
  8
SIZE
 62
     0
100
AcDbLine
 10
-134.5
 20
-320.0
 30
0.0
 11
-134.5
 21
-468.0173952306001
 31
0.0
  0
LINE
  5
166C
330
287C
100
AcDbEntity
  8
SIZE
 62
     0
100
AcDbLine
 10
134.5
 20
-320.0
 30
0.0
 11
134.5
 21
-468.0173952306001
 31
0.0
  0
LINE
  5
166D
330
287C
100
AcDbEntity
  8
SIZE
 62
     0
100
AcDbLine
 10
-122.5
 20
-448.0173952306
 30
0.0
 11
122.5
 21
-448.0173952306
 31
0.0
  0
INSERT
  5
166E
330
287C
100
AcDbEntity
  8
SIZE
 62
     0
100
AcDbBlockReference
  2
_DOTBLANK
 10
-134.5
 20
-448.0173952306
 30
0.0
 41
12.0
 42
12.0
 43
12.0
 50
180.0
  0
INSERT
  5
166F
330
287C
100
AcDbEntity
  8
SIZE
 62
     0
100
AcDbBlockReference
  2
_DOTBLANK
 10
134.5
 20
-448.0173952306
 30
0.0
 41
12.0
 42
12.0
 43
12.0
  0
INSERT
  5
1670
330
287C
100
AcDbEntity
  8
0
100
AcDbBlockReference
  2
*U31
 10
0.0
 20
0.0
 30
0.0
  0
POINT
  5
1671
330
287C
100
AcDbEntity
  8
DEFPOINTS
 62
     0
100
AcDbPoint
 10
-134.5
 20
-300.0
 30
0.0
  0
POINT
  5
1672
330
287C
100
AcDbEntity
  8
DEFPOINTS
 62
     0
100
AcDbPoint
 10
134.5
 20
-300.0
 30
0.0
  0
POINT
  5
1673
330
287C
100
AcDbEntity
  8
DEFPOINTS
 62
     0
100
AcDbPoint
 10
134.5
 20
-448.0173952306
 30
0.0
  0
ENDBLK
  5
14A7
330
287C
100
AcDbEntity
  8
0
100
AcDbBlockEnd
  0
BLOCK
  5
287F
330
287E
100
AcDbEntity
  8
0
100
AcDbBlockBegin
  2
*U31
 70
     1
 10
0.0
 20
0.0
 30
0.0
  3
*U31
  1

  0
TEXT
  5
1F09
330
287E
100
AcDbEntity
  8
SIZE
 62
     0
100
AcDbText
 10
-72.68571428571426
 20
-438.0173952306002
 30
0.0
 40
64.0
  1
269
 41
0.9
100
AcDbText
  0
ENDBLK
  5
1F0B
330
287E
100
AcDbEntity
  8
0
100
AcDbBlockEnd
  0
BLOCK
  5
2881
330
2880
100
AcDbEntity
  8
0
100
AcDbBlockBegin
  2
*D32
 70
     1
 10
0.0
 20
0.0
 30
0.0
  3
*D32
  1

  0
LINE
  5
1674
330
2880
100
AcDbEntity
  8
SIZE
  6
Continuous
 62
     0
100
AcDbLine
 10
143.5
 20
-300.0
 30
0.0
 11
304.6432844803784
 21
-300.0
 31
0.0
  0
LINE
  5
1675
330
2880
100
AcDbEntity
  8
SIZE
  6
Continuous
 62
     0
100
AcDbLine
 10
177.5
 20
-0.0000000000000057
 30
0.0
 11
304.6432844803785
 21
-0.0000000000000417
 31
0.0
  0
LINE
  5
1676
330
2880
100
AcDbEntity
  8
SIZE
  6
Continuous
 62
     0
100
AcDbLine
 10
284.6432844803784
 20
-288.0000000000001
 30
0.0
 11
284.6432844803785
 21
-12.00000000000003
 31
0.0
  0
INSERT
  5
1677
330
2880
100
AcDbEntity
  8
SIZE
  6
Continuous
 62
     0
100
AcDbBlockReference
  2
_DOTBLANK
 10
284.6432844803784
 20
-300.0
 30
0.0
 41
12.0
 42
12.0
 43
12.0
 50
270.0
  0
INSERT
  5
1678
330
2880
100
AcDbEntity
  8
SIZE
  6
Continuous
 62
     0
100
AcDbBlockReference
  2
_DOTBLANK
 10
284.6432844803785
 20
-0.000000000000036
 30
0.0
 41
12.0
 42
12.0
 43
12.0
 50
90.0
  0
INSERT
  5
1679
330
2880
100
AcDbEntity
  8
0
100
AcDbBlockReference
  2
*U33
 10
0.0
 20
0.0
 30
0.0
  0
POINT
  5
167A
330
2880
100
AcDbEntity
  8
DEFPOINTS
  6
Continuous
 62
     0
100
AcDbPoint
 10
123.5
 20
-300.0
 30
0.0
  0
POINT
  5
167B
330
2880
100
AcDbEntity
  8
DEFPOINTS
  6
Continuous
 62
     0
100
AcDbPoint
 10
157.5
 20
0.0
 30
0.0
  0
POINT
  5
167C
330
2880
100
AcDbEntity
  8
DEFPOINTS
  6
Continuous
 62
     0
100
AcDbPoint
 10
284.6432844803785
 20
-0.000000000000036
 30
0.0
  0
ENDBLK
  5
14B3
330
2880
100
AcDbEntity
  8
0
100
AcDbBlockEnd
  0
BLOCK
  5
2883
330
2882
100
AcDbEntity
  8
0
100
AcDbBlockBegin
  2
*U33
 70
     1
 10
0.0
 20
0.0
 30
0.0
  3
*U33
  1

  0
TEXT
  5
1F0D
330
2882
100
AcDbEntity
  8
SIZE
 62
     0
100
AcDbText
 10
274.6432844803785
 20
-224.0571428571429
 30
0.0
 40
64.0
  1
300
 50
90.0
 41
0.9
100
AcDbText
  0
ENDBLK
  5
1F0F
330
2882
100
AcDbEntity
  8
0
100
AcDbBlockEnd
  0
BLOCK
  5
2885
330
2884
100
AcDbEntity
  8
0
100
AcDbBlockBegin
  2
*D34
 70
     1
 10
0.0
 20
0.0
 30
0.0
  3
*D34
  1

  0
LINE
  5
167D
330
2884
100
AcDbEntity
  8
SIZE
 62
     0
100
AcDbLine
 10
-140.0
 20
32.46448280219375
 30
0.0
 11
-140.0
 21
136.4516878685507
 31
0.0
  0
LINE
  5
167E
330
2884
100
AcDbEntity
  8
SIZE
 62
     0
100
AcDbLine
 10
140.0
 20
32.46448280219375
 30
0.0
 11
140.0
 21
136.4516878685507
 31
0.0
  0
LINE
  5
167F
330
2884
100
AcDbEntity
  8
SIZE
 62
     0
100
AcDbLine
 10
-128.0
 20
116.4516878685508
 30
0.0
 11
128.0
 21
116.4516878685508
 31
0.0
  0
INSERT
  5
1680
330
2884
100
AcDbEntity
  8
SIZE
 62
     0
100
AcDbBlockReference
  2
_DOTBLANK
 10
-140.0
 20
116.4516878685508
 30
0.0
 41
12.0
 42
12.0
 43
12.0
 50
180.0
  0
INSERT
  5
1681
330
2884
100
AcDbEntity
  8
SIZE
 62
     0
100
AcDbBlockReference
  2
_DOTBLANK
 10
140.0
 20
116.4516878685508
 30
0.0
 41
12.0
 42
12.0
 43
12.0
  0
INSERT
  5
1682
330
2884
100
AcDbEntity
  8
0
100
AcDbBlockReference
  2
*U35
 10
0.0
 20
0.0
 30
0.0
  0
POINT
  5
1683
330
2884
100
AcDbEntity
  8
DEFPOINTS
 62
     0
100
AcDbPoint
 10
-140.0
 20
12.46448280219374
 30
0.0
  0
POINT
  5
1684
330
2884
100
AcDbEntity
  8
DEFPOINTS
 62
     0
100
AcDbPoint
 10
140.0
 20
12.46448280219374
 30
0.0
  0
POINT
  5
1685
330
2884
100
AcDbEntity
  8
DEFPOINTS
 62
     0
100
AcDbPoint
 10
140.0
 20
116.4516878685508
 30
0.0
  0
ENDBLK
  5
14BF
330
2884
100
AcDbEntity
  8
0
100
AcDbBlockEnd
  0
BLOCK
  5
2887
330
2886
100
AcDbEntity
  8
0
100
AcDbBlockBegin
  2
*U35
 70
     1
 10
0.0
 20
0.0
 30
0.0
  3
*U35
  1

  0
TEXT
  5
1F11
330
2886
100
AcDbEntity
  8
SIZE
 62
     0
100
AcDbText
 10
-74.05714285714283
 20
126.4516878685507
 30
0.0
 40
64.0
  1
280
 41
0.9
100
AcDbText
  0
ENDBLK
  5
1F13
330
2886
100
AcDbEntity
  8
0
100
AcDbBlockEnd
  0
BLOCK
  5
2889
330
2888
100
AcDbEntity
  8
0
100
AcDbBlockBegin
  2
*D36
 70
     1
 10
0.0
 20
0.0
 30
0.0
  3
*D36
  1

  0
LINE
  5
1686
330
2888
100
AcDbEntity
  8
SIZE
 62
     0
100
AcDbLine
 10
-157.5
 20
20.0
 30
0.0
 11
-157.5
 21
245.5794621189598
 31
0.0
  0
LINE
  5
1687
330
2888
100
AcDbEntity
  8
SIZE
 62
     0
100
AcDbLine
 10
157.5
 20
20.0
 30
0.0
 11
157.5
 21
245.5794621189598
 31
0.0
  0
LINE
  5
1688
330
2888
100
AcDbEntity
  8
SIZE
 62
     0
100
AcDbLine
 10
-145.5
 20
225.5794621189598
 30
0.0
 11
145.5
 21
225.5794621189598
 31
0.0
  0
INSERT
  5
1689
330
2888
100
AcDbEntity
  8
SIZE
 62
     0
100
AcDbBlockReference
  2
_DOTBLANK
 10
-157.5
 20
225.5794621189598
 30
0.0
 41
12.0
 42
12.0
 43
12.0
 50
180.0
  0
INSERT
  5
168A
330
2888
100
AcDbEntity
  8
SIZE
 62
     0
100
AcDbBlockReference
  2
_DOTBLANK
 10
157.5
 20
225.5794621189598
 30
0.0
 41
12.0
 42
12.0
 43
12.0
  0
INSERT
  5
168B
330
2888
100
AcDbEntity
  8
0
100
AcDbBlockReference
  2
*U37
 10
0.0
 20
0.0
 30
0.0
  0
POINT
  5
168C
330
2888
100
AcDbEntity
  8
DEFPOINTS
 62
     0
100
AcDbPoint
 10
-157.5
 20
0.0
 30
0.0
  0
POINT
  5
168D
330
2888
100
AcDbEntity
  8
DEFPOINTS
 62
     0
100
AcDbPoint
 10
157.5
 20
0.0
 30
0.0
  0
POINT
  5
168E
330
2888
100
AcDbEntity
  8
DEFPOINTS
 62
     0
100
AcDbPoint
 10
157.5
 20
225.5794621189598
 30
0.0
  0
ENDBLK
  5
14CB
330
2888
100
AcDbEntity
  8
0
100
AcDbBlockEnd
  0
BLOCK
  5
288B
330
288A
100
AcDbEntity
  8
0
100
AcDbBlockBegin
  2
*U37
 70
     1
 10
0.0
 20
0.0
 30
0.0
  3
*U37
  1

  0
TEXT
  5
1F15
330
288A
100
AcDbEntity
  8
SIZE
 62
     0
100
AcDbText
 10
-68.57142857142857
 20
235.5794621189598
 30
0.0
 40
64.0
  1
315
 41
0.9
100
AcDbText
  0
ENDBLK
  5
1F17
330
288A
100
AcDbEntity
  8
0
100
AcDbBlockEnd
  0
BLOCK
  5
288D
330
288C
100
AcDbEntity
  8
0
100
AcDbBlockBegin
  2
*U38
 70
     1
 10
0.0
 20
0.0
 30
0.0
  3
*U38
  1

  0
ENDBLK
  5
15CF
330
288C
100
AcDbEntity
  8
0
100
AcDbBlockEnd
  0
BLOCK
  5
288F
330
288E
100
AcDbEntity
  8
0
100
AcDbBlockBegin
  2
*D39
 70
     1
 10
0.0
 20
0.0
 30
0.0
  3
*D39
  1

  0
LINE
  5
1692
330
288E
100
AcDbEntity
  8
SIZE
 62
     0
100
AcDbLine
 10
-25844.51823276502
 20
7685.702971374808
 30
0.0
 11
-25981.04465488371
 21
7685.702971374808
 31
0.0
  0
LINE
  5
1693
330
288E
100
AcDbEntity
  8
SIZE
 62
     0
100
AcDbLine
 10
-25844.51823276502
 20
7677.702971374808
 30
0.0
 11
-25981.04465488371
 21
7677.702971374808
 31
0.0
  0
LINE
  5
1694
330
288E
100
AcDbEntity
  8
SIZE
 62
     0
100
AcDbLine
 10
-25961.04465488371
 20
7697.702971374808
 30
0.0
 11
-25961.04465488371
 21
7709.702971374809
 31
0.0
  0
LINE
  5
1695
330
288E
100
AcDbEntity
  8
SIZE
 62
     0
100
AcDbLine
 10
-25961.04465488371
 20
7665.70297137481
 30
0.0
 11
-25961.04465488371
 21
7595.302971374808
 31
0.0
  0
INSERT
  5
1696
330
288E
100
AcDbEntity
  8
SIZE
 62
     0
100
AcDbBlockReference
  2
_DOTBLANK
 10
-25961.04465488371
 20
7685.702971374808
 30
0.0
 41
12.0
 42
12.0
 43
12.0
 50
270.0
  0
INSERT
  5
1697
330
288E
100
AcDbEntity
  8
SIZE
 62
     0
100
AcDbBlockReference
  2
_DOTBLANK
 10
-25961.04465488371
 20
7677.702971374808
 30
0.0
 41
12.0
 42
12.0
 43
12.0
 50
90.0
  0
INSERT
  5
1698
330
288E
100
AcDbEntity
  8
0
100
AcDbBlockReference
  2
*U40
 10
0.0
 20
0.0
 30
0.0
  0
POINT
  5
1699
330
288E
100
AcDbEntity
  8
DEFPOINTS
 62
     0
100
AcDbPoint
 10
-25824.51823276501
 20
7685.702971374808
 30
0.0
  0
POINT
  5
169A
330
288E
100
AcDbEntity
  8
DEFPOINTS
 62
     0
100
AcDbPoint
 10
-25824.51823276501
 20
7677.702971374808
 30
0.0
  0
POINT
  5
169B
330
288E
100
AcDbEntity
  8
DEFPOINTS
 62
     0
100
AcDbPoint
 10
-25961.04465488371
 20
7677.702971374808
 30
0.0
  0
ENDBLK
  5
169C
330
288E
100
AcDbEntity
  8
0
100
AcDbBlockEnd
  0
BLOCK
  5
2891
330
2890
100
AcDbEntity
  8
0
100
AcDbBlockBegin
  2
*U40
 70
     1
 10
0.0
 20
0.0
 30
0.0
  3
*U40
  1

  0
TEXT
  5
1F19
330
2890
100
AcDbEntity
  8
SIZE
 62
     0
100
AcDbText
 10
-25971.04465488371
 20
7605.302971374804
 30
0.0
 40
64.0
  1
8
 50
90.0
 41
0.9
100
AcDbText
  0
ENDBLK
  5
1F1B
330
2890
100
AcDbEntity
  8
0
100
AcDbBlockEnd
  0
BLOCK
  5
2893
330
2892
100
AcDbEntity
  8
0
100
AcDbBlockBegin
  2
*D41
 70
     1
 10
0.0
 20
0.0
 30
0.0
  3
*D41
  1

  0
LINE
  5
169F
330
2892
100
AcDbEntity
  8
SIZE
 62
     0
100
AcDbLine
 10
-25512.51823276502
 20
7385.702971374808
 30
0.0
 11
-25362.37494828464
 21
7385.702971374808
 31
0.0
  0
LINE
  5
16A0
330
2892
100
AcDbEntity
  8
SIZE
 62
     0
100
AcDbLine
 10
-25523.51823276501
 20
7373.702971374808
 30
0.0
 11
-25362.37494828464
 21
7373.702971374808
 31
0.0
  0
LINE
  5
16A1
330
2892
100
AcDbEntity
  8
SIZE
 62
     0
100
AcDbLine
 10
-25382.37494828464
 20
7397.702971374808
 30
0.0
 11
-25382.37494828464
 21
7409.70297137481
 31
0.0
  0
LINE
  5
16A2
330
2892
100
AcDbEntity
  8
SIZE
 62
     0
100
AcDbLine
 10
-25382.37494828464
 20
7361.702971374808
 30
0.0
 11
-25382.37494828464
 21
7244.674399946237
 31
0.0
  0
INSERT
  5
16A3
330
2892
100
AcDbEntity
  8
SIZE
 62
     0
100
AcDbBlockReference
  2
_DOTBLANK
 10
-25382.37494828464
 20
7385.702971374808
 30
0.0
 41
12.0
 42
12.0
 43
12.0
 50
270.0
  0
INSERT
  5
16A4
330
2892
100
AcDbEntity
  8
SIZE
 62
     0
100
AcDbBlockReference
  2
_DOTBLANK
 10
-25382.37494828464
 20
7373.702971374808
 30
0.0
 41
12.0
 42
12.0
 43
12.0
 50
90.0
  0
INSERT
  5
16A5
330
2892
100
AcDbEntity
  8
0
100
AcDbBlockReference
  2
*U42
 10
0.0
 20
0.0
 30
0.0
  0
POINT
  5
16A6
330
2892
100
AcDbEntity
  8
DEFPOINTS
 62
     0
100
AcDbPoint
 10
-25532.51823276502
 20
7385.702971374808
 30
0.0
  0
POINT
  5
16A7
330
2892
100
AcDbEntity
  8
DEFPOINTS
 62
     0
100
AcDbPoint
 10
-25543.51823276502
 20
7373.702971374808
 30
0.0
  0
POINT
  5
16A8
330
2892
100
AcDbEntity
  8
DEFPOINTS
 62
     0
100
AcDbPoint
 10
-25382.37494828464
 20
7373.702971374808
 30
0.0
  0
ENDBLK
  5
16A9
330
2892
100
AcDbEntity
  8
0
100
AcDbBlockEnd
  0
BLOCK
  5
2895
330
2894
100
AcDbEntity
  8
0
100
AcDbBlockBegin
  2
*U42
 70
     1
 10
0.0
 20
0.0
 30
0.0
  3
*U42
  1

  0
TEXT
  5
1F1D
330
2894
100
AcDbEntity
  8
SIZE
 62
     0
100
AcDbText
 10
-25392.37494828464
 20
7256.045828517662
 30
0.0
 40
64.0
  1
12
 50
90.0
 41
0.9
100
AcDbText
  0
ENDBLK
  5
1F1F
330
2894
100
AcDbEntity
  8
0
100
AcDbBlockEnd
  0
BLOCK
  5
2897
330
2896
100
AcDbEntity
  8
0
100
AcDbBlockBegin
  2
*D43
 70
     1
 10
0.0
 20
0.0
 30
0.0
  3
*D43
  1

  0
LINE
  5
16AC
330
2896
100
AcDbEntity
  8
SIZE
 62
     0
100
AcDbLine
 10
-25801.51823276501
 20
7365.702971374808
 30
0.0
 11
-25801.51823276501
 21
7217.685576144207
 31
0.0
  0
LINE
  5
16AD
330
2896
100
AcDbEntity
  8
SIZE
 62
     0
100
AcDbLine
 10
-25532.51823276502
 20
7365.702971374808
 30
0.0
 11
-25532.51823276502
 21
7217.685576144207
 31
0.0
  0
LINE
  5
16AE
330
2896
100
AcDbEntity
  8
SIZE
 62
     0
100
AcDbLine
 10
-25789.51823276502
 20
7237.685576144207
 30
0.0
 11
-25544.51823276501
 21
7237.685576144207
 31
0.0
  0
INSERT
  5
16AF
330
2896
100
AcDbEntity
  8
SIZE
 62
     0
100
AcDbBlockReference
  2
_DOTBLANK
 10
-25801.51823276501
 20
7237.685576144207
 30
0.0
 41
12.0
 42
12.0
 43
12.0
 50
180.0
  0
INSERT
  5
16B0
330
2896
100
AcDbEntity
  8
SIZE
 62
     0
100
AcDbBlockReference
  2
_DOTBLANK
 10
-25532.51823276502
 20
7237.685576144207
 30
0.0
 41
12.0
 42
12.0
 43
12.0
  0
INSERT
  5
16B1
330
2896
100
AcDbEntity
  8
0
100
AcDbBlockReference
  2
*U44
 10
0.0
 20
0.0
 30
0.0
  0
POINT
  5
16B2
330
2896
100
AcDbEntity
  8
DEFPOINTS
 62
     0
100
AcDbPoint
 10
-25801.51823276501
 20
7385.702971374808
 30
0.0
  0
POINT
  5
16B3
330
2896
100
AcDbEntity
  8
DEFPOINTS
 62
     0
100
AcDbPoint
 10
-25532.51823276502
 20
7385.702971374808
 30
0.0
  0
POINT
  5
16B4
330
2896
100
AcDbEntity
  8
DEFPOINTS
 62
     0
100
AcDbPoint
 10
-25532.51823276502
 20
7237.685576144207
 30
0.0
  0
ENDBLK
  5
16B5
330
2896
100
AcDbEntity
  8
0
100
AcDbBlockEnd
  0
BLOCK
  5
2899
330
2898
100
AcDbEntity
  8
0
100
AcDbBlockBegin
  2
*U44
 70
     1
 10
0.0
 20
0.0
 30
0.0
  3
*U44
  1

  0
TEXT
  5
1F21
330
2898
100
AcDbEntity
  8
SIZE
 62
     0
100
AcDbText
 10
-25739.70394705074
 20
7247.685576144205
 30
0.0
 40
64.0
  1
269
 41
0.9
100
AcDbText
  0
ENDBLK
  5
1F23
330
2898
100
AcDbEntity
  8
0
100
AcDbBlockEnd
  0
BLOCK
  5
289B
330
289A
100
AcDbEntity
  8
0
100
AcDbBlockBegin
  2
*D45
 70
     1
 10
0.0
 20
0.0
 30
0.0
  3
*D45
  1

  0
LINE
  5
16B8
330
289A
100
AcDbEntity
  8
SIZE
 62
     0
100
AcDbLine
 10
-25512.51823276502
 20
7385.702971374808
 30
0.0
 11
-25362.37494828464
 21
7385.702971374808
 31
0.0
  0
LINE
  5
16B9
330
289A
100
AcDbEntity
  8
SIZE
 62
     0
100
AcDbLine
 10
-25489.51823276501
 20
7685.702971374808
 30
0.0
 11
-25362.37494828464
 21
7685.702971374808
 31
0.0
  0
LINE
  5
16BA
330
289A
100
AcDbEntity
  8
SIZE
 62
     0
100
AcDbLine
 10
-25382.37494828464
 20
7397.702971374808
 30
0.0
 11
-25382.37494828464
 21
7673.702971374808
 31
0.0
  0
INSERT
  5
16BB
330
289A
100
AcDbEntity
  8
SIZE
 62
     0
100
AcDbBlockReference
  2
_DOTBLANK
 10
-25382.37494828464
 20
7385.702971374808
 30
0.0
 41
12.0
 42
12.0
 43
12.0
 50
270.0
  0
INSERT
  5
16BC
330
289A
100
AcDbEntity
  8
SIZE
 62
     0
100
AcDbBlockReference
  2
_DOTBLANK
 10
-25382.37494828464
 20
7685.702971374808
 30
0.0
 41
12.0
 42
12.0
 43
12.0
 50
90.0
  0
INSERT
  5
16BD
330
289A
100
AcDbEntity
  8
0
100
AcDbBlockReference
  2
*U46
 10
0.0
 20
0.0
 30
0.0
  0
POINT
  5
16BE
330
289A
100
AcDbEntity
  8
DEFPOINTS
 62
     0
100
AcDbPoint
 10
-25532.51823276502
 20
7385.702971374808
 30
0.0
  0
POINT
  5
16BF
330
289A
100
AcDbEntity
  8
DEFPOINTS
 62
     0
100
AcDbPoint
 10
-25509.51823276502
 20
7685.702971374808
 30
0.0
  0
POINT
  5
16C0
330
289A
100
AcDbEntity
  8
DEFPOINTS
 62
     0
100
AcDbPoint
 10
-25382.37494828464
 20
7685.702971374808
 30
0.0
  0
ENDBLK
  5
16C1
330
289A
100
AcDbEntity
  8
0
100
AcDbBlockEnd
  0
BLOCK
  5
289D
330
289C
100
AcDbEntity
  8
0
100
AcDbBlockBegin
  2
*U46
 70
     1
 10
0.0
 20
0.0
 30
0.0
  3
*U46
  1

  0
TEXT
  5
1F25
330
289C
100
AcDbEntity
  8
SIZE
 62
     0
100
AcDbText
 10
-25392.37494828464
 20
7461.645828517662
 30
0.0
 40
64.0
  1
300
 50
90.0
 41
0.9
100
AcDbText
  0
ENDBLK
  5
1F27
330
289C
100
AcDbEntity
  8
0
100
AcDbBlockEnd
  0
BLOCK
  5
289F
330
289E
100
AcDbEntity
  8
0
100
AcDbBlockBegin
  2
*D47
 70
     1
 10
0.0
 20
0.0
 30
0.0
  3
*D47
  1

  0
LINE
  5
16C4
330
289E
100
AcDbEntity
  8
SIZE
 62
     0
100
AcDbLine
 10
-25807.01823276501
 20
7718.167454177002
 30
0.0
 11
-25807.01823276501
 21
7822.154659243358
 31
0.0
  0
LINE
  5
16C5
330
289E
100
AcDbEntity
  8
SIZE
 62
     0
100
AcDbLine
 10
-25527.01823276501
 20
7718.167454177002
 30
0.0
 11
-25527.01823276501
 21
7822.154659243358
 31
0.0
  0
LINE
  5
16C6
330
289E
100
AcDbEntity
  8
SIZE
 62
     0
100
AcDbLine
 10
-25795.01823276502
 20
7802.154659243358
 30
0.0
 11
-25539.01823276501
 21
7802.154659243358
 31
0.0
  0
INSERT
  5
16C7
330
289E
100
AcDbEntity
  8
SIZE
 62
     0
100
AcDbBlockReference
  2
_DOTBLANK
 10
-25807.01823276501
 20
7802.154659243358
 30
0.0
 41
12.0
 42
12.0
 43
12.0
 50
180.0
  0
INSERT
  5
16C8
330
289E
100
AcDbEntity
  8
SIZE
 62
     0
100
AcDbBlockReference
  2
_DOTBLANK
 10
-25527.01823276501
 20
7802.154659243358
 30
0.0
 41
12.0
 42
12.0
 43
12.0
  0
INSERT
  5
16C9
330
289E
100
AcDbEntity
  8
0
100
AcDbBlockReference
  2
*U48
 10
0.0
 20
0.0
 30
0.0
  0
POINT
  5
16CA
330
289E
100
AcDbEntity
  8
DEFPOINTS
 62
     0
100
AcDbPoint
 10
-25807.01823276501
 20
7698.167454177002
 30
0.0
  0
POINT
  5
16CB
330
289E
100
AcDbEntity
  8
DEFPOINTS
 62
     0
100
AcDbPoint
 10
-25527.01823276501
 20
7698.167454177002
 30
0.0
  0
POINT
  5
16CC
330
289E
100
AcDbEntity
  8
DEFPOINTS
 62
     0
100
AcDbPoint
 10
-25527.01823276501
 20
7802.154659243358
 30
0.0
  0
ENDBLK
  5
16CD
330
289E
100
AcDbEntity
  8
0
100
AcDbBlockEnd
  0
BLOCK
  5
28A1
330
28A0
100
AcDbEntity
  8
0
100
AcDbBlockBegin
  2
*U48
 70
     1
 10
0.0
 20
0.0
 30
0.0
  3
*U48
  1

  0
TEXT
  5
1F29
330
28A0
100
AcDbEntity
  8
SIZE
 62
     0
100
AcDbText
 10
-25741.07537562216
 20
7812.154659243358
 30
0.0
 40
64.0
  1
280
 41
0.9
100
AcDbText
  0
ENDBLK
  5
1F2B
330
28A0
100
AcDbEntity
  8
0
100
AcDbBlockEnd
  0
BLOCK
  5
28A3
330
28A2
100
AcDbEntity
  8
0
100
AcDbBlockBegin
  2
*D49
 70
     1
 10
0.0
 20
0.0
 30
0.0
  3
*D49
  1

  0
LINE
  5
16D0
330
28A2
100
AcDbEntity
  8
SIZE
 62
     0
100
AcDbLine
 10
-25824.51823276501
 20
7705.702971374808
 30
0.0
 11
-25824.51823276501
 21
7931.282433493766
 31
0.0
  0
LINE
  5
16D1
330
28A2
100
AcDbEntity
  8
SIZE
 62
     0
100
AcDbLine
 10
-25509.51823276502
 20
7705.702971374808
 30
0.0
 11
-25509.51823276502
 21
7931.282433493766
 31
0.0
  0
LINE
  5
16D2
330
28A2
100
AcDbEntity
  8
SIZE
 62
     0
100
AcDbLine
 10
-25812.51823276502
 20
7911.282433493766
 30
0.0
 11
-25521.51823276501
 21
7911.282433493766
 31
0.0
  0
INSERT
  5
16D3
330
28A2
100
AcDbEntity
  8
SIZE
 62
     0
100
AcDbBlockReference
  2
_DOTBLANK
 10
-25824.51823276501
 20
7911.282433493766
 30
0.0
 41
12.0
 42
12.0
 43
12.0
 50
180.0
  0
INSERT
  5
16D4
330
28A2
100
AcDbEntity
  8
SIZE
 62
     0
100
AcDbBlockReference
  2
_DOTBLANK
 10
-25509.51823276502
 20
7911.282433493766
 30
0.0
 41
12.0
 42
12.0
 43
12.0
  0
INSERT
  5
16D5
330
28A2
100
AcDbEntity
  8
0
100
AcDbBlockReference
  2
*U50
 10
0.0
 20
0.0
 30
0.0
  0
POINT
  5
16D6
330
28A2
100
AcDbEntity
  8
DEFPOINTS
 62
     0
100
AcDbPoint
 10
-25824.51823276501
 20
7685.702971374808
 30
0.0
  0
POINT
  5
16D7
330
28A2
100
AcDbEntity
  8
DEFPOINTS
 62
     0
100
AcDbPoint
 10
-25509.51823276502
 20
7685.702971374808
 30
0.0
  0
POINT
  5
16D8
330
28A2
100
AcDbEntity
  8
DEFPOINTS
 62
     0
100
AcDbPoint
 10
-25509.51823276502
 20
7911.282433493766
 30
0.0
  0
ENDBLK
  5
16D9
330
28A2
100
AcDbEntity
  8
0
100
AcDbBlockEnd
  0
BLOCK
  5
28A5
330
28A4
100
AcDbEntity
  8
0
100
AcDbBlockBegin
  2
*U50
 70
     1
 10
0.0
 20
0.0
 30
0.0
  3
*U50
  1

  0
TEXT
  5
1F2D
330
28A4
100
AcDbEntity
  8
SIZE
 62
     0
100
AcDbText
 10
-25735.58966133645
 20
7921.282433493766
 30
0.0
 40
64.0
  1
315
 41
0.9
100
AcDbText
  0
ENDBLK
  5
1F2F
330
28A4
100
AcDbEntity
  8
0
100
AcDbBlockEnd
  0
BLOCK
  5
28A7
330
28A6
100
AcDbEntity
  8
0
100
AcDbBlockBegin
  2
*D51
 70
     1
 10
0.0
 20
0.0
 30
0.0
  3
*D51
  1

  0
LINE
  5
1D83
330
28A6
100
AcDbEntity
  8
SIZE
 62
     0
100
AcDbLine
 10
-134.5
 20
-320.0
 30
0.0
 11
-134.5
 21
-468.0173952306001
 31
0.0
  0
LINE
  5
1D84
330
28A6
100
AcDbEntity
  8
SIZE
 62
     0
100
AcDbLine
 10
134.5
 20
-320.0
 30
0.0
 11
134.5
 21
-468.0173952306001
 31
0.0
  0
LINE
  5
1D85
330
28A6
100
AcDbEntity
  8
SIZE
 62
     0
100
AcDbLine
 10
-122.5
 20
-448.0173952306
 30
0.0
 11
122.5
 21
-448.0173952306
 31
0.0
  0
INSERT
  5
1D86
330
28A6
100
AcDbEntity
  8
SIZE
 62
     0
100
AcDbBlockReference
  2
_DOTBLANK
 10
-134.5
 20
-448.0173952306
 30
0.0
 41
12.0
 42
12.0
 43
12.0
 50
180.0
  0
INSERT
  5
1D87
330
28A6
100
AcDbEntity
  8
SIZE
 62
     0
100
AcDbBlockReference
  2
_DOTBLANK
 10
134.5
 20
-448.0173952306
 30
0.0
 41
12.0
 42
12.0
 43
12.0
  0
INSERT
  5
1D88
330
28A6
100
AcDbEntity
  8
0
100
AcDbBlockReference
  2
*U52
 10
0.0
 20
0.0
 30
0.0
  0
POINT
  5
1D89
330
28A6
100
AcDbEntity
  8
DEFPOINTS
 62
     0
100
AcDbPoint
 10
-134.5
 20
-300.0
 30
0.0
  0
POINT
  5
1D8A
330
28A6
100
AcDbEntity
  8
DEFPOINTS
 62
     0
100
AcDbPoint
 10
134.5
 20
-300.0
 30
0.0
  0
POINT
  5
1D8B
330
28A6
100
AcDbEntity
  8
DEFPOINTS
 62
     0
100
AcDbPoint
 10
134.5
 20
-448.0173952306
 30
0.0
  0
ENDBLK
  5
173D
330
28A6
100
AcDbEntity
  8
0
100
AcDbBlockEnd
  0
BLOCK
  5
28A9
330
28A8
100
AcDbEntity
  8
0
100
AcDbBlockBegin
  2
*U52
 70
     1
 10
0.0
 20
0.0
 30
0.0
  3
*U52
  1

  0
TEXT
  5
1F31
330
28A8
100
AcDbEntity
  8
SIZE
 62
     0
100
AcDbText
 10
-72.68571428571426
 20
-438.0173952306003
 30
0.0
 40
64.0
  1
269
 41
0.9
100
AcDbText
  0
ENDBLK
  5
1F33
330
28A8
100
AcDbEntity
  8
0
100
AcDbBlockEnd
  0
BLOCK
  5
28AB
330
28AA
100
AcDbEntity
  8
0
100
AcDbBlockBegin
  2
*D53
 70
     1
 10
0.0
 20
0.0
 30
0.0
  3
*D53
  1

  0
LINE
  5
1D8C
330
28AA
100
AcDbEntity
  8
SIZE
 62
     0
100
AcDbLine
 10
154.5
 20
-300.0
 30
0.0
 11
304.6432844803784
 21
-300.0
 31
0.0
  0
LINE
  5
1D8D
330
28AA
100
AcDbEntity
  8
SIZE
 62
     0
100
AcDbLine
 10
177.5
 20
-0.0000000000000057
 30
0.0
 11
304.6432844803785
 21
-0.0000000000000417
 31
0.0
  0
LINE
  5
1D8E
330
28AA
100
AcDbEntity
  8
SIZE
 62
     0
100
AcDbLine
 10
284.6432844803784
 20
-288.0
 30
0.0
 11
284.6432844803785
 21
-12.00000000000003
 31
0.0
  0
INSERT
  5
1D8F
330
28AA
100
AcDbEntity
  8
SIZE
 62
     0
100
AcDbBlockReference
  2
_DOTBLANK
 10
284.6432844803784
 20
-300.0
 30
0.0
 41
12.0
 42
12.0
 43
12.0
 50
270.0
  0
INSERT
  5
1D90
330
28AA
100
AcDbEntity
  8
SIZE
 62
     0
100
AcDbBlockReference
  2
_DOTBLANK
 10
284.6432844803785
 20
-0.000000000000036
 30
0.0
 41
12.0
 42
12.0
 43
12.0
 50
90.0
  0
INSERT
  5
1D91
330
28AA
100
AcDbEntity
  8
0
100
AcDbBlockReference
  2
*U54
 10
0.0
 20
0.0
 30
0.0
  0
POINT
  5
1D92
330
28AA
100
AcDbEntity
  8
DEFPOINTS
 62
     0
100
AcDbPoint
 10
134.5
 20
-300.0
 30
0.0
  0
POINT
  5
1D93
330
28AA
100
AcDbEntity
  8
DEFPOINTS
 62
     0
100
AcDbPoint
 10
157.5
 20
0.0
 30
0.0
  0
POINT
  5
1D94
330
28AA
100
AcDbEntity
  8
DEFPOINTS
 62
     0
100
AcDbPoint
 10
284.6432844803785
 20
-0.000000000000036
 30
0.0
  0
ENDBLK
  5
1749
330
28AA
100
AcDbEntity
  8
0
100
AcDbBlockEnd
  0
BLOCK
  5
28AD
330
28AC
100
AcDbEntity
  8
0
100
AcDbBlockBegin
  2
*U54
 70
     1
 10
0.0
 20
0.0
 30
0.0
  3
*U54
  1

  0
TEXT
  5
1F35
330
28AC
100
AcDbEntity
  8
SIZE
 62
     0
100
AcDbText
 10
274.6432844803785
 20
-224.0571428571429
 30
0.0
 40
64.0
  1
300
 50
90.0
 41
0.9
100
AcDbText
  0
ENDBLK
  5
1F37
330
28AC
100
AcDbEntity
  8
0
100
AcDbBlockEnd
  0
BLOCK
  5
28AF
330
28AE
100
AcDbEntity
  8
0
100
AcDbBlockBegin
  2
*D55
 70
     1
 10
0.0
 20
0.0
 30
0.0
  3
*D55
  1

  0
LINE
  5
1D95
330
28AE
100
AcDbEntity
  8
SIZE
 62
     0
100
AcDbLine
 10
-140.0
 20
32.46448280219375
 30
0.0
 11
-140.0
 21
136.4516878685508
 31
0.0
  0
LINE
  5
1D96
330
28AE
100
AcDbEntity
  8
SIZE
 62
     0
100
AcDbLine
 10
140.0
 20
32.46448280219375
 30
0.0
 11
140.0
 21
136.4516878685508
 31
0.0
  0
LINE
  5
1D97
330
28AE
100
AcDbEntity
  8
SIZE
 62
     0
100
AcDbLine
 10
-128.0
 20
116.4516878685508
 30
0.0
 11
128.0
 21
116.4516878685508
 31
0.0
  0
INSERT
  5
1D98
330
28AE
100
AcDbEntity
  8
SIZE
 62
     0
100
AcDbBlockReference
  2
_DOTBLANK
 10
-140.0
 20
116.4516878685508
 30
0.0
 41
12.0
 42
12.0
 43
12.0
 50
180.0
  0
INSERT
  5
1D99
330
28AE
100
AcDbEntity
  8
SIZE
 62
     0
100
AcDbBlockReference
  2
_DOTBLANK
 10
140.0
 20
116.4516878685508
 30
0.0
 41
12.0
 42
12.0
 43
12.0
  0
INSERT
  5
1D9A
330
28AE
100
AcDbEntity
  8
0
100
AcDbBlockReference
  2
*U56
 10
0.0
 20
0.0
 30
0.0
  0
POINT
  5
1D9B
330
28AE
100
AcDbEntity
  8
DEFPOINTS
 62
     0
100
AcDbPoint
 10
-140.0
 20
12.46448280219374
 30
0.0
  0
POINT
  5
1D9C
330
28AE
100
AcDbEntity
  8
DEFPOINTS
 62
     0
100
AcDbPoint
 10
140.0
 20
12.46448280219374
 30
0.0
  0
POINT
  5
1D9D
330
28AE
100
AcDbEntity
  8
DEFPOINTS
 62
     0
100
AcDbPoint
 10
140.0
 20
116.4516878685508
 30
0.0
  0
ENDBLK
  5
1755
330
28AE
100
AcDbEntity
  8
0
100
AcDbBlockEnd
  0
BLOCK
  5
28B1
330
28B0
100
AcDbEntity
  8
0
100
AcDbBlockBegin
  2
*U56
 70
     1
 10
0.0
 20
0.0
 30
0.0
  3
*U56
  1

  0
TEXT
  5
1F39
330
28B0
100
AcDbEntity
  8
SIZE
 62
     0
100
AcDbText
 10
-74.05714285714283
 20
126.4516878685508
 30
0.0
 40
64.0
  1
280
 41
0.9
100
AcDbText
  0
ENDBLK
  5
1F3B
330
28B0
100
AcDbEntity
  8
0
100
AcDbBlockEnd
  0
BLOCK
  5
28B3
330
28B2
100
AcDbEntity
  8
0
100
AcDbBlockBegin
  2
*D57
 70
     1
 10
0.0
 20
0.0
 30
0.0
  3
*D57
  1

  0
LINE
  5
1D9E
330
28B2
100
AcDbEntity
  8
SIZE
 62
     0
100
AcDbLine
 10
-157.5
 20
20.0
 30
0.0
 11
-157.5
 21
245.5794621189598
 31
0.0
  0
LINE
  5
1D9F
330
28B2
100
AcDbEntity
  8
SIZE
 62
     0
100
AcDbLine
 10
157.5
 20
20.0
 30
0.0
 11
157.5
 21
245.5794621189598
 31
0.0
  0
LINE
  5
1DA0
330
28B2
100
AcDbEntity
  8
SIZE
 62
     0
100
AcDbLine
 10
-145.5
 20
225.5794621189598
 30
0.0
 11
145.5
 21
225.5794621189598
 31
0.0
  0
INSERT
  5
1DA1
330
28B2
100
AcDbEntity
  8
SIZE
 62
     0
100
AcDbBlockReference
  2
_DOTBLANK
 10
-157.5
 20
225.5794621189598
 30
0.0
 41
12.0
 42
12.0
 43
12.0
 50
180.0
  0
INSERT
  5
1DA2
330
28B2
100
AcDbEntity
  8
SIZE
 62
     0
100
AcDbBlockReference
  2
_DOTBLANK
 10
157.5
 20
225.5794621189598
 30
0.0
 41
12.0
 42
12.0
 43
12.0
  0
INSERT
  5
1DA3
330
28B2
100
AcDbEntity
  8
0
100
AcDbBlockReference
  2
*U58
 10
0.0
 20
0.0
 30
0.0
  0
POINT
  5
1DA4
330
28B2
100
AcDbEntity
  8
DEFPOINTS
 62
     0
100
AcDbPoint
 10
-157.5
 20
0.0
 30
0.0
  0
POINT
  5
1DA5
330
28B2
100
AcDbEntity
  8
DEFPOINTS
 62
     0
100
AcDbPoint
 10
157.5
 20
0.0
 30
0.0
  0
POINT
  5
1DA6
330
28B2
100
AcDbEntity
  8
DEFPOINTS
 62
     0
100
AcDbPoint
 10
157.5
 20
225.5794621189598
 30
0.0
  0
ENDBLK
  5
1761
330
28B2
100
AcDbEntity
  8
0
100
AcDbBlockEnd
  0
BLOCK
  5
28B5
330
28B4
100
AcDbEntity
  8
0
100
AcDbBlockBegin
  2
*U58
 70
     1
 10
0.0
 20
0.0
 30
0.0
  3
*U58
  1

  0
TEXT
  5
1F3D
330
28B4
100
AcDbEntity
  8
SIZE
 62
     0
100
AcDbText
 10
-68.57142857142857
 20
235.5794621189599
 30
0.0
 40
64.0
  1
315
 41
0.9
100
AcDbText
  0
ENDBLK
  5
1F3F
330
28B4
100
AcDbEntity
  8
0
100
AcDbBlockEnd
  0
BLOCK
  5
28B7
330
28B6
100
AcDbEntity
  8
0
100
AcDbBlockBegin
  2
*D59
 70
     1
 10
0.0
 20
0.0
 30
0.0
  3
*D59
  1

  0
LINE
  5
1DA7
330
28B6
100
AcDbEntity
  8
SIZE
 62
     0
100
AcDbLine
 10
-177.5
 20
0.0000000000000057
 30
0.0
 11
-314.0264221186908
 21
0.0000000000000443
 31
0.0
  0
LINE
  5
1DA8
330
28B6
100
AcDbEntity
  8
SIZE
 62
     0
100
AcDbLine
 10
-177.5
 20
-7.999999999999995
 30
0.0
 11
-314.0264221186908
 21
-7.999999999999958
 31
0.0
  0
LINE
  5
1DA9
330
28B6
100
AcDbEntity
  8
SIZE
 62
     0
100
AcDbLine
 10
-294.0264221186908
 20
12.00000000000003
 30
0.0
 11
-294.0264221186908
 21
24.00000000000004
 31
0.0
  0
LINE
  5
1DAA
330
28B6
100
AcDbEntity
  8
SIZE
 62
     0
100
AcDbLine
 10
-294.0264221186908
 20
-19.99999999999996
 30
0.0
 11
-294.0264221186908
 21
-90.39999999999997
 31
0.0
  0
INSERT
  5
1DAB
330
28B6
100
AcDbEntity
  8
SIZE
 62
     0
100
AcDbBlockReference
  2
_DOTBLANK
 10
-294.0264221186908
 20
0.0000000000000387
 30
0.0
 41
12.0
 42
12.0
 43
12.0
 50
270.0
  0
INSERT
  5
1DAC
330
28B6
100
AcDbEntity
  8
SIZE
 62
     0
100
AcDbBlockReference
  2
_DOTBLANK
 10
-294.0264221186908
 20
-7.999999999999961
 30
0.0
 41
12.0
 42
12.0
 43
12.0
 50
90.0
  0
INSERT
  5
1DAD
330
28B6
100
AcDbEntity
  8
0
100
AcDbBlockReference
  2
*U60
 10
0.0
 20
0.0
 30
0.0
  0
POINT
  5
1DAE
330
28B6
100
AcDbEntity
  8
DEFPOINTS
 62
     0
100
AcDbPoint
 10
-157.5
 20
0.0
 30
0.0
  0
POINT
  5
1DAF
330
28B6
100
AcDbEntity
  8
DEFPOINTS
 62
     0
100
AcDbPoint
 10
-157.5
 20
-8.000000000000003
 30
0.0
  0
POINT
  5
1DB0
330
28B6
100
AcDbEntity
  8
DEFPOINTS
 62
     0
100
AcDbPoint
 10
-294.0264221186908
 20
-7.999999999999961
 30
0.0
  0
ENDBLK
  5
176D
330
28B6
100
AcDbEntity
  8
0
100
AcDbBlockEnd
  0
BLOCK
  5
28B9
330
28B8
100
AcDbEntity
  8
0
100
AcDbBlockBegin
  2
*U60
 70
     1
 10
0.0
 20
0.0
 30
0.0
  3
*U60
  1

  0
TEXT
  5
1F41
330
28B8
100
AcDbEntity
  8
SIZE
 62
     0
100
AcDbText
 10
-304.0264221186908
 20
-80.4
 30
0.0
 40
64.0
  1
8
 50
90.0
 41
0.9
100
AcDbText
  0
ENDBLK
  5
1F43
330
28B8
100
AcDbEntity
  8
0
100
AcDbBlockEnd
  0
BLOCK
  5
28BB
330
28BA
100
AcDbEntity
  8
0
100
AcDbBlockBegin
  2
*D61
 70
     1
 10
0.0
 20
0.0
 30
0.0
  3
*D61
  1

  0
LINE
  5
1DB1
330
28BA
100
AcDbEntity
  8
SIZE
 62
     0
100
AcDbLine
 10
154.5
 20
-300.0
 30
0.0
 11
304.6432844803785
 21
-300.0
 31
0.0
  0
LINE
  5
1DB2
330
28BA
100
AcDbEntity
  8
SIZE
 62
     0
100
AcDbLine
 10
143.5
 20
-312.0
 30
0.0
 11
304.6432844803785
 21
-312.0
 31
0.0
  0
LINE
  5
1DB3
330
28BA
100
AcDbEntity
  8
SIZE
 62
     0
100
AcDbLine
 10
284.6432844803785
 20
-288.0
 30
0.0
 11
284.6432844803785
 21
-276.0
 31
0.0
  0
LINE
  5
1DB4
330
28BA
100
AcDbEntity
  8
SIZE
 62
     0
100
AcDbLine
 10
284.6432844803785
 20
-324.0000000000001
 30
0.0
 11
284.6432844803784
 21
-438.2857142857143
 31
0.0
  0
INSERT
  5
1DB5
330
28BA
100
AcDbEntity
  8
SIZE
 62
     0
100
AcDbBlockReference
  2
_DOTBLANK
 10
284.6432844803785
 20
-300.0
 30
0.0
 41
12.0
 42
12.0
 43
12.0
 50
270.0
  0
INSERT
  5
1DB6
330
28BA
100
AcDbEntity
  8
SIZE
 62
     0
100
AcDbBlockReference
  2
_DOTBLANK
 10
284.6432844803785
 20
-312.0
 30
0.0
 41
12.0
 42
12.0
 43
12.0
 50
90.0
  0
INSERT
  5
1DB7
330
28BA
100
AcDbEntity
  8
0
100
AcDbBlockReference
  2
*U62
 10
0.0
 20
0.0
 30
0.0
  0
POINT
  5
1DB8
330
28BA
100
AcDbEntity
  8
DEFPOINTS
 62
     0
100
AcDbPoint
 10
134.5
 20
-300.0
 30
0.0
  0
POINT
  5
1DB9
330
28BA
100
AcDbEntity
  8
DEFPOINTS
 62
     0
100
AcDbPoint
 10
123.5
 20
-312.0
 30
0.0
  0
POINT
  5
1DBA
330
28BA
100
AcDbEntity
  8
DEFPOINTS
 62
     0
100
AcDbPoint
 10
284.6432844803785
 20
-312.0
 30
0.0
  0
ENDBLK
  5
177B
330
28BA
100
AcDbEntity
  8
0
100
AcDbBlockEnd
  0
BLOCK
  5
28BD
330
28BC
100
AcDbEntity
  8
0
100
AcDbBlockBegin
  2
*U62
 70
     1
 10
0.0
 20
0.0
 30
0.0
  3
*U62
  1

  0
TEXT
  5
1F45
330
28BC
100
AcDbEntity
  8
SIZE
 62
     0
100
AcDbText
 10
274.6432844803785
 20
-428.2857142857142
 30
0.0
 40
64.0
  1
12
 50
90.0
 41
0.9
100
AcDbText
  0
ENDBLK
  5
1F47
330
28BC
100
AcDbEntity
  8
0
100
AcDbBlockEnd
  0
BLOCK
  5
28BF
330
28BE
100
AcDbEntity
  8
0
100
AcDbBlockBegin
  2
*U63
 70
     1
 10
0.0
 20
0.0
 30
0.0
  3
*U63
  1

  0
ENDBLK
  5
1D57
330
28BE
100
AcDbEntity
  8
0
100
AcDbBlockEnd
  0
BLOCK
  5
28C1
330
28C0
100
AcDbEntity
  8
0
100
AcDbBlockBegin
  2
*U64
 70
     1
 10
0.0
 20
0.0
 30
0.0
  3
*U64
  1

  0
INSERT
  5
2087
330
28C0
100
AcDbEntity
  8
NOTE
100
AcDbBlockReference
  2
_OPEN30
 10
-325.0
 20
0.0
 30
0.0
 41
12.0
 42
12.0
 43
12.0
 50
312.6090116116894
  0
POLYLINE
  5
2088
330
28C0
100
AcDbEntity
  8
NOTE
100
AcDb2dPolyline
 66
     1
 10
0.0
 20
0.0
 30
0.0
  0
VERTEX
  5
275A
330
2088
100
AcDbEntity
  8
NOTE
100
AcDbVertex
100
AcDb2dVertex
 10
-333.1239008361895
 20
8.831887408915472
 30
0.0
  0
VERTEX
  5
275B
330
2088
100
AcDbEntity
  8
NOTE
100
AcDbVertex
100
AcDb2dVertex
 10
-412.8693999922543
 20
95.52709505801338
 30
0.0
  0
VERTEX
  5
275C
330
2088
100
AcDbEntity
  8
NOTE
100
AcDbVertex
100
AcDb2dVertex
 10
-958.7093999922544
 20
95.52709505801338
 30
0.0
  0
SEQEND
  5
275D
330
2088
100
AcDbEntity
  8
NOTE
  0
ENDBLK
  5
2089
330
28C0
100
AcDbEntity
  8
0
100
AcDbBlockEnd
  0
BLOCK
  5
28C3
330
28C2
100
AcDbEntity
  8
0
100
AcDbBlockBegin
  2
*U65
 70
     1
 10
0.0
 20
0.0
 30
0.0
  3
*U65
  1

  0
TEXT
  5
208C
330
28C2
100
AcDbEntity
  8
NOTE
100
AcDbText
 10
-958.7093999922544
 20
113.5270950580134
 30
0.0
 40
64.0
  1
4×φ15取付穴
 41
0.9
100
AcDbText
  0
ENDBLK
  5
208D
330
28C2
100
AcDbEntity
  8
0
100
AcDbBlockEnd
  0
BLOCK
  5
28C5
330
28C4
100
AcDbEntity
  8
0
100
AcDbBlockBegin
  2
*U66
 70
     1
 10
0.0
 20
0.0
 30
0.0
  3
*U66
  1

  0
INSERT
  5
216D
330
28C4
100
AcDbEntity
  8
NOTE
100
AcDbBlockReference
  2
_OPEN30
 10
325.0000000000036
 20
325.0000000000046
 30
0.0
 41
12.0
 42
12.0
 43
12.0
 50
230.7091310502217
  0
POLYLINE
  5
216E
330
28C4
100
AcDbEntity
  8
NOTE
100
AcDb2dPolyline
 66
     1
 10
0.0
 20
0.0
 30
0.0
  0
VERTEX
  5
275E
330
216E
100
AcDbEntity
  8
NOTE
100
AcDbVertex
100
AcDb2dVertex
 10
332.5990904809257
 20
334.2872936780768
 30
0.0
  0
VERTEX
  5
275F
330
216E
100
AcDbEntity
  8
NOTE
100
AcDbVertex
100
AcDb2dVertex
 10
388.4345623698645
 20
402.5270950580177
 30
0.0
  0
VERTEX
  5
2760
330
216E
100
AcDbEntity
  8
NOTE
100
AcDbVertex
100
AcDb2dVertex
 10
934.2745623698649
 20
402.5270950580177
 30
0.0
  0
SEQEND
  5
2761
330
216E
100
AcDbEntity
  8
NOTE
  0
ENDBLK
  5
216F
330
28C4
100
AcDbEntity
  8
0
100
AcDbBlockEnd
  0
BLOCK
  5
28C7
330
28C6
100
AcDbEntity
  8
0
100
AcDbBlockBegin
  2
*U67
 70
     1
 10
0.0
 20
0.0
 30
0.0
  3
*U67
  1

  0
TEXT
  5
2172
330
28C6
100
AcDbEntity
  8
NOTE
100
AcDbText
 10
450.4345623698646
 20
420.5270950580176
 30
0.0
 40
64.0
  1
4×φ15取付穴
 41
0.9
100
AcDbText
  0
ENDBLK
  5
2173
330
28C6
100
AcDbEntity
  8
0
100
AcDbBlockEnd
  0
BLOCK
  5
28C9
330
28C8
100
AcDbEntity
  8
0
100
AcDbBlockBegin
  2
*U68
 70
     1
 10
0.0
 20
0.0
 30
0.0
  3
*U68
  1

  0
INSERT
  5
2244
330
28C8
100
AcDbEntity
  8
NOTE
100
AcDbBlockReference
  2
_OPEN30
 10
325.0
 20
325.0000000000018
 30
0.0
 41
12.0
 42
12.0
 43
12.0
 50
232.3258907693334
  0
POLYLINE
  5
2245
330
28C8
100
AcDbEntity
  8
NOTE
100
AcDb2dPolyline
 66
     1
 10
0.0
 20
0.0
 30
0.0
  0
VERTEX
  5
2762
330
2245
100
AcDbEntity
  8
NOTE
100
AcDbVertex
100
AcDb2dVertex
 10
332.3340332839448
 20
334.4979974620982
 30
0.0
  0
VERTEX
  5
2763
330
2245
100
AcDbEntity
  8
NOTE
100
AcDbVertex
100
AcDb2dVertex
 10
398.7628007872081
 20
420.5270950580143
 30
0.0
  0
VERTEX
  5
2764
330
2245
100
AcDbEntity
  8
NOTE
100
AcDbVertex
100
AcDb2dVertex
 10
944.6028007872079
 20
420.5270950580143
 30
0.0
  0
SEQEND
  5
2765
330
2245
100
AcDbEntity
  8
NOTE
  0
ENDBLK
  5
2246
330
28C8
100
AcDbEntity
  8
0
100
AcDbBlockEnd
  0
BLOCK
  5
28CB
330
28CA
100
AcDbEntity
  8
0
100
AcDbBlockBegin
  2
*U69
 70
     1
 10
0.0
 20
0.0
 30
0.0
  3
*U69
  1

  0
TEXT
  5
2249
330
28CA
100
AcDbEntity
  8
NOTE
100
AcDbText
 10
460.762800787208
 20
438.5270950580141
 30
0.0
 40
64.0
  1
4×φ15取付穴
 41
0.9
100
AcDbText
  0
ENDBLK
  5
224A
330
28CA
100
AcDbEntity
  8
0
100
AcDbBlockEnd
  0
BLOCK
  5
28CD
330
28CC
100
AcDbEntity
  8
0
100
AcDbBlockBegin
  2
*U70
 70
     1
 10
0.0
 20
0.0
 30
0.0
  3
*U70
  1

  0
INSERT
  5
2337
330
28CC
100
AcDbEntity
  8
NOTE
100
AcDbBlockReference
  2
_OPEN30
 10
0.0
 20
325.0
 30
0.0
 41
12.0
 42
12.0
 43
12.0
 50
312.6090116116897
  0
POLYLINE
  5
2338
330
28CC
100
AcDbEntity
  8
NOTE
100
AcDb2dPolyline
 66
     1
 10
0.0
 20
0.0
 30
0.0
  0
VERTEX
  5
277A
330
2338
100
AcDbEntity
  8
NOTE
100
AcDbVertex
100
AcDb2dVertex
 10
-8.12390083618952
 20
333.8318874089154
 30
0.0
  0
VERTEX
  5
277B
330
2338
100
AcDbEntity
  8
NOTE
100
AcDbVertex
100
AcDb2dVertex
 10
-87.86939999225436
 20
420.5270950580128
 30
0.0
  0
VERTEX
  5
277C
330
2338
100
AcDbEntity
  8
NOTE
100
AcDbVertex
100
AcDb2dVertex
 10
-633.7093999922545
 20
420.5270950580128
 30
0.0
  0
SEQEND
  5
277D
330
2338
100
AcDbEntity
  8
NOTE
  0
ENDBLK
  5
2339
330
28CC
100
AcDbEntity
  8
0
100
AcDbBlockEnd
  0
BLOCK
  5
28CF
330
28CE
100
AcDbEntity
  8
0
100
AcDbBlockBegin
  2
*U71
 70
     1
 10
0.0
 20
0.0
 30
0.0
  3
*U71
  1

  0
TEXT
  5
233C
330
28CE
100
AcDbEntity
  8
NOTE
100
AcDbText
 10
-633.7093999922545
 20
438.5270950580128
 30
0.0
 40
64.0
  1
4×φ15取付穴
 41
0.9
100
AcDbText
  0
ENDBLK
  5
233D
330
28CE
100
AcDbEntity
  8
0
100
AcDbBlockEnd
  0
BLOCK
  5
28D1
330
28D0
100
AcDbEntity
  8
0
100
AcDbBlockBegin
  2
*U72
 70
     1
 10
0.0
 20
0.0
 30
0.0
  3
*U72
  1

  0
INSERT
  5
2464
330
28D0
100
AcDbEntity
  8
NOTE
100
AcDbBlockReference
  2
_OPEN30
 10
0.0
 20
325.0
 30
0.0
 41
12.0
 42
12.0
 43
12.0
 50
227.3909883883104
  0
POLYLINE
  5
2465
330
28D0
100
AcDbEntity
  8
NOTE
100
AcDb2dPolyline
 66
     1
 10
0.0
 20
0.0
 30
0.0
  0
VERTEX
  5
277E
330
2465
100
AcDbEntity
  8
NOTE
100
AcDbVertex
100
AcDb2dVertex
 10
8.12390083618952
 20
333.8318874089154
 30
0.0
  0
VERTEX
  5
277F
330
2465
100
AcDbEntity
  8
NOTE
100
AcDbVertex
100
AcDb2dVertex
 10
87.86939999225436
 20
420.5270950580128
 30
0.0
  0
VERTEX
  5
2780
330
2465
100
AcDbEntity
  8
NOTE
100
AcDbVertex
100
AcDb2dVertex
 10
633.7093999922545
 20
420.5270950580128
 30
0.0
  0
SEQEND
  5
2781
330
2465
100
AcDbEntity
  8
NOTE
  0
ENDBLK
  5
2466
330
28D0
100
AcDbEntity
  8
0
100
AcDbBlockEnd
  0
BLOCK
  5
28D3
330
28D2
100
AcDbEntity
  8
0
100
AcDbBlockBegin
  2
*U73
 70
     1
 10
0.0
 20
0.0
 30
0.0
  3
*U73
  1

  0
TEXT
  5
2469
330
28D2
100
AcDbEntity
  8
NOTE
100
AcDbText
 10
149.8693999922543
 20
438.5270950580128
 30
0.0
 40
64.0
  1
4×φ15取付穴
 41
0.9
100
AcDbText
  0
ENDBLK
  5
246A
330
28D2
100
AcDbEntity
  8
0
100
AcDbBlockEnd
  0
BLOCK
  5
28D5
330
28D4
100
AcDbEntity
  8
0
100
AcDbBlockBegin
  2
*U74
 70
     1
 10
0.0
 20
0.0
 30
0.0
  3
*U74
  1

  0
INSERT
  5
2595
330
28D4
100
AcDbEntity
  8
NOTE
100
AcDbBlockReference
  2
_OPEN30
 10
-325.0
 20
0.0
 30
0.0
 41
12.0
 42
12.0
 43
12.0
 50
312.6090116116894
  0
POLYLINE
  5
2596
330
28D4
100
AcDbEntity
  8
NOTE
100
AcDb2dPolyline
 66
     1
 10
0.0
 20
0.0
 30
0.0
  0
VERTEX
  5
2782
330
2596
100
AcDbEntity
  8
NOTE
100
AcDbVertex
100
AcDb2dVertex
 10
-333.1239008361895
 20
8.831887408915472
 30
0.0
  0
VERTEX
  5
2783
330
2596
100
AcDbEntity
  8
NOTE
100
AcDbVertex
100
AcDb2dVertex
 10
-412.8693999922543
 20
95.52709505801338
 30
0.0
  0
VERTEX
  5
2784
330
2596
100
AcDbEntity
  8
NOTE
100
AcDbVertex
100
AcDb2dVertex
 10
-958.7093999922544
 20
95.52709505801338
 30
0.0
  0
SEQEND
  5
2785
330
2596
100
AcDbEntity
  8
NOTE
  0
ENDBLK
  5
2597
330
28D4
100
AcDbEntity
  8
0
100
AcDbBlockEnd
  0
BLOCK
  5
28D7
330
28D6
100
AcDbEntity
  8
0
100
AcDbBlockBegin
  2
*U75
 70
     1
 10
0.0
 20
0.0
 30
0.0
  3
*U75
  1

  0
TEXT
  5
259A
330
28D6
100
AcDbEntity
  8
NOTE
100
AcDbText
 10
-958.7093999922544
 20
113.5270950580134
 30
0.0
 40
64.0
  1
4×φ15取付穴
 41
0.9
100
AcDbText
  0
ENDBLK
  5
259B
330
28D6
100
AcDbEntity
  8
0
100
AcDbBlockEnd
  0
BLOCK
  5
28D9
330
28D8
100
AcDbEntity
  8
0
100
AcDbBlockBegin
  2
*X76
 70
     1
 10
0.0
 20
0.0
 30
0.0
  3
*X76
  1

  0
LINE
  5
259E
330
28D8
100
AcDbEntity
  8
0
 62
     0
100
AcDbLine
 10
-295.7000000000062
 20
-644.3126998560857
 30
0.0
 11
-291.7366676077254
 21
-646.199999999998
 31
0.0
  0
LINE
  5
259F
330
28D8
100
AcDbEntity
  8
0
 62
     0
100
AcDbLine
 10
-295.7000000000062
 20
-634.3127481119509
 30
0.0
 11
-270.7367578707362
 21
-646.199999999998
 31
0.0
  0
LINE
  5
25A0
330
28D8
100
AcDbEntity
  8
0
 62
     0
100
AcDbLine
 10
-295.700000000008
 20
-624.312796367818
 30
0.0
 11
-249.7368481337435
 21
-646.1999999999997
 31
0.0
  0
LINE
  5
25A1
330
28D8
100
AcDbEntity
  8
0
 62
     0
100
AcDbLine
 10
-295.7000000000044
 20
-614.3128446236842
 30
0.0
 11
-228.7369383967525
 21
-646.1999999999997
 31
0.0
  0
LINE
  5
25A2
330
28D8
100
AcDbEntity
  8
0
 62
     0
100
AcDbLine
 10
-295.700000000008
 20
-604.3128928795486
 30
0.0
 11
-207.7370286597616
 21
-646.1999999999997
 31
0.0
  0
LINE
  5
25A3
330
28D8
100
AcDbEntity
  8
0
 62
     0
100
AcDbLine
 10
-295.7000000000062
 20
-594.3129411354147
 30
0.0
 11
-186.7371189227706
 21
-646.1999999999989
 31
0.0
  0
LINE
  5
25A4
330
28D8
100
AcDbEntity
  8
0
 62
     0
100
AcDbLine
 10
-295.7000000000062
 20
-584.3129893912792
 30
0.0
 11
-165.7372091857796
 21
-646.1999999999989
 31
0.0
  0
LINE
  5
25A5
330
28D8
100
AcDbEntity
  8
0
 62
     0
100
AcDbLine
 10
-295.7000000000098
 20
-574.3130376471436
 30
0.0
 11
-144.7372994487887
 21
-646.1999999999989
 31
0.0
  0
LINE
  5
25A6
330
28D8
100
AcDbEntity
  8
0
 62
     0
100
AcDbLine
 10
-295.7000000000062
 20
-564.3130859030113
 30
0.0
 11
-123.7373897117995
 21
-646.1999999999989
 31
0.0
  0
LINE
  5
25A7
330
28D8
100
AcDbEntity
  8
0
 62
     0
100
AcDbLine
 10
-295.700000000008
 20
-554.3131341588759
 30
0.0
 11
-102.7374799748086
 21
-646.1999999999989
 31
0.0
  0
LINE
  5
25A8
330
28D8
100
AcDbEntity
  8
0
 62
     0
100
AcDbLine
 10
-295.7000000000062
 20
-544.3131824147418
 30
0.0
 11
-81.73757023781945
 21
-646.1999999999989
 31
0.0
  0
LINE
  5
25A9
330
28D8
100
AcDbEntity
  8
0
 62
     0
100
AcDbLine
 10
-295.7000000000062
 20
-534.3132306706065
 30
0.0
 11
-60.73766050082486
 21
-646.1999999999989
 31
0.0
  0
LINE
  5
25AA
330
28D8
100
AcDbEntity
  8
0
 62
     0
100
AcDbLine
 10
-295.7000000000062
 20
-524.3132789264727
 30
0.0
 11
-39.73775076383572
 21
-646.1999999999989
 31
0.0
  0
LINE
  5
25AB
330
28D8
100
AcDbEntity
  8
0
 62
     0
100
AcDbLine
 10
-295.700000000008
 20
-514.313327182339
 30
0.0
 11
-18.7378410268484
 21
-646.1999999999989
 31
0.0
  0
LINE
  5
25AC
330
28D8
100
AcDbEntity
  8
0
 62
     0
100
AcDbLine
 10
-295.7000000000044
 20
-504.3133754382052
 30
0.0
 11
2.262068710144375
 21
-646.1999999999989
 31
0.0
  0
LINE
  5
25AD
330
28D8
100
AcDbEntity
  8
0
 62
     0
100
AcDbLine
 10
-295.7000000000062
 20
-494.3134236940696
 30
0.0
 11
23.26197844713533
 21
-646.1999999999989
 31
0.0
  0
LINE
  5
25AE
330
28D8
100
AcDbEntity
  8
0
 62
     0
100
AcDbLine
 10
-295.700000000008
 20
-484.3134719499338
 30
0.0
 11
44.26188818412629
 21
-646.1999999999989
 31
0.0
  0
LINE
  5
25AF
330
28D8
100
AcDbEntity
  8
0
 62
     0
100
AcDbLine
 10
-295.7000000000062
 20
-474.3135202058001
 30
0.0
 11
65.26179792111725
 21
-646.1999999999989
 31
0.0
  0
LINE
  5
25B0
330
28D8
100
AcDbEntity
  8
0
 62
     0
100
AcDbLine
 10
-295.700000000008
 20
-464.3135684616663
 30
0.0
 11
86.26170765810819
 21
-646.1999999999997
 31
0.0
  0
LINE
  5
25B1
330
28D8
100
AcDbEntity
  8
0
 62
     0
100
AcDbLine
 10
-295.7000000000062
 20
-454.3136167175325
 30
0.0
 11
107.261617395099
 21
-646.1999999999997
 31
0.0
  0
LINE
  5
25B2
330
28D8
100
AcDbEntity
  8
0
 62
     0
100
AcDbLine
 10
-295.7000000000062
 20
-444.3136649733968
 30
0.0
 11
128.2615271320919
 21
-646.1999999999997
 31
0.0
  0
LINE
  5
25B3
330
28D8
100
AcDbEntity
  8
0
 62
     0
100
AcDbLine
 10
-295.7000000000062
 20
-434.3137132292631
 30
0.0
 11
149.2614368690811
 21
-646.1999999999997
 31
0.0
  0
LINE
  5
25B4
330
28D8
100
AcDbEntity
  8
0
 62
     0
100
AcDbLine
 10
-295.700000000008
 20
-424.3137614851281
 30
0.0
 11
170.2613466060702
 21
-646.199999999998
 31
0.0
  0
LINE
  5
25B5
330
28D8
100
AcDbEntity
  8
0
 62
     0
100
AcDbLine
 10
-295.7000000000044
 20
-414.3138097409936
 30
0.0
 11
191.2612563430611
 21
-646.199999999998
 31
0.0
  0
LINE
  5
25B6
330
28D8
100
AcDbEntity
  8
0
 62
     0
100
AcDbLine
 10
-295.700000000008
 20
-404.3138579968609
 30
0.0
 11
212.2611660800521
 21
-646.1999999999997
 31
0.0
  0
LINE
  5
25B7
330
28D8
100
AcDbEntity
  8
0
 62
     0
100
AcDbLine
 10
-295.700000000008
 20
-394.3139062527253
 30
0.0
 11
233.2610758170431
 21
-646.1999999999997
 31
0.0
  0
LINE
  5
25B8
330
28D8
100
AcDbEntity
  8
0
 62
     0
100
AcDbLine
 10
-295.7000000000062
 20
-384.3139545085914
 30
0.0
 11
254.2609855540322
 21
-646.199999999998
 31
0.0
  0
LINE
  5
25B9
330
28D8
100
AcDbEntity
  8
0
 62
     0
100
AcDbLine
 10
-295.700000000008
 20
-374.3140027644557
 30
0.0
 11
275.2608952910214
 21
-646.199999999998
 31
0.0
  0
LINE
  5
25BA
330
28D8
100
AcDbEntity
  8
0
 62
     0
100
AcDbLine
 10
-295.7000000000044
 20
-364.314051020322
 30
0.0
 11
295.6999999999971
 21
-645.9329501274841
 31
0.0
  0
LINE
  5
25BB
330
28D8
100
AcDbEntity
  8
0
 62
     0
100
AcDbLine
 10
-295.700000000008
 20
-354.3140992761883
 30
0.0
 11
295.6999999999935
 21
-635.9329983833504
 31
0.0
  0
LINE
  5
25BC
330
28D8
100
AcDbEntity
  8
0
 62
     0
100
AcDbLine
 10
-295.7000000000044
 20
-344.3141475320544
 30
0.0
 11
295.6999999999953
 21
-625.9330466392166
 31
0.0
  0
LINE
  5
25BD
330
28D8
100
AcDbEntity
  8
0
 62
     0
100
AcDbLine
 10
-295.7000000000062
 20
-334.3141957879188
 30
0.0
 11
295.6999999999953
 21
-615.933094895081
 31
0.0
  0
LINE
  5
25BE
330
28D8
100
AcDbEntity
  8
0
 62
     0
100
AcDbLine
 10
-295.7000000000062
 20
-324.3142440437849
 30
0.0
 11
295.6999999999953
 21
-605.9331431509471
 31
0.0
  0
LINE
  5
25BF
330
28D8
100
AcDbEntity
  8
0
 62
     0
100
AcDbLine
 10
-295.7000000000062
 20
-314.3142922996494
 30
0.0
 11
295.6999999999953
 21
-595.9331914068116
 31
0.0
  0
LINE
  5
25C0
330
28D8
100
AcDbEntity
  8
0
 62
     0
100
AcDbLine
 10
-295.7000000000044
 20
-304.3143405555156
 30
0.0
 11
295.6999999999935
 21
-585.9332396626768
 31
0.0
  0
LINE
  5
25C1
330
28D8
100
AcDbEntity
  8
0
 62
     0
100
AcDbLine
 10
-295.7000000000062
 20
-294.3143888113818
 30
0.0
 11
295.6999999999935
 21
-575.933287918544
 31
0.0
  0
LINE
  5
25C2
330
28D8
100
AcDbEntity
  8
0
 62
     0
100
AcDbLine
 10
-295.700000000008
 20
-284.3144370672463
 30
0.0
 11
295.6999999999935
 21
-565.9333361744093
 31
0.0
  0
LINE
  5
25C3
330
28D8
100
AcDbEntity
  8
0
 62
     0
100
AcDbLine
 10
-295.7000000000044
 20
-274.3144853231124
 30
0.0
 11
295.6999999999953
 21
-555.9333844302755
 31
0.0
  0
LINE
  5
25C4
330
28D8
100
AcDbEntity
  8
0
 62
     0
100
AcDbLine
 10
-295.700000000008
 20
-264.3145335789768
 30
0.0
 11
295.6999999999935
 21
-545.9334326861399
 31
0.0
  0
LINE
  5
25C5
330
28D8
100
AcDbEntity
  8
0
 62
     0
100
AcDbLine
 10
-295.7000000000062
 20
-254.314581834843
 30
0.0
 11
295.6999999999953
 21
-535.9334809420061
 31
0.0
  0
LINE
  5
25C6
330
28D8
100
AcDbEntity
  8
0
 62
     0
100
AcDbLine
 10
-295.7000000000062
 20
-244.3146300907092
 30
0.0
 11
295.6999999999935
 21
-525.9335291978723
 31
0.0
  0
LINE
  5
25C7
330
28D8
100
AcDbEntity
  8
0
 62
     0
100
AcDbLine
 10
-295.7000000000062
 20
-234.3146783465754
 30
0.0
 11
295.6999999999953
 21
-515.9335774537384
 31
0.0
  0
LINE
  5
25C8
330
28D8
100
AcDbEntity
  8
0
 62
     0
100
AcDbLine
 10
-295.7000000000062
 20
-224.3147266024398
 30
0.0
 11
295.6999999999935
 21
-505.9336257096028
 31
0.0
  0
LINE
  5
25C9
330
28D8
100
AcDbEntity
  8
0
 62
     0
100
AcDbLine
 10
-295.7000000000044
 20
-214.314774858306
 30
0.0
 11
295.6999999999935
 21
-495.9336739654672
 31
0.0
  0
LINE
  5
25CA
330
28D8
100
AcDbEntity
  8
0
 62
     0
100
AcDbLine
 10
-295.700000000008
 20
-204.3148231141713
 30
0.0
 11
295.6999999999935
 21
-485.9337222213334
 31
0.0
  0
LINE
  5
25CB
330
28D8
100
AcDbEntity
  8
0
 62
     0
100
AcDbLine
 10
-295.7000000000062
 20
-194.3148713700375
 30
0.0
 11
295.6999999999916
 21
-475.9337704771977
 31
0.0
  0
LINE
  5
25CC
330
28D8
100
AcDbEntity
  8
0
 62
     0
100
AcDbLine
 10
-295.7000000000062
 20
-184.3149196259037
 30
0.0
 11
295.6999999999916
 21
-465.9338187330637
 31
0.0
  0
LINE
  5
25CD
330
28D8
100
AcDbEntity
  8
0
 62
     0
100
AcDbLine
 10
-295.7000000000062
 20
-174.3149678817681
 30
0.0
 11
295.6999999999898
 21
-455.9338669889282
 31
0.0
  0
LINE
  5
25CE
330
28D8
100
AcDbEntity
  8
0
 62
     0
100
AcDbLine
 10
-295.7000000000044
 20
-164.3150161376343
 30
0.0
 11
295.6999999999935
 21
-445.9339152447943
 31
0.0
  0
LINE
  5
25CF
330
28D8
100
AcDbEntity
  8
0
 62
     0
100
AcDbLine
 10
-295.700000000008
 20
-154.3150643934987
 30
0.0
 11
295.6999999999898
 21
-435.9339635006588
 31
0.0
  0
LINE
  5
25D0
330
28D8
100
AcDbEntity
  8
0
 62
     0
100
AcDbLine
 10
-295.7000000000044
 20
-144.3151126493648
 30
0.0
 11
295.6999999999935
 21
-425.9340117565248
 31
0.0
  0
LINE
  5
25D1
330
28D8
100
AcDbEntity
  8
0
 62
     0
100
AcDbLine
 10
-295.7000000000062
 20
-134.3151609052311
 30
0.0
 11
295.6999999999916
 21
-415.9340600123924
 31
0.0
  0
LINE
  5
25D2
330
28D8
100
AcDbEntity
  8
0
 62
     0
100
AcDbLine
 10
79.89999999999056
 20
-303.1722576978727
 30
0.0
 11
97.59826816764144
 21
-311.5999999999985
 31
0.0
  0
LINE
  5
25D3
330
28D8
100
AcDbEntity
  8
0
 62
     0
100
AcDbLine
 10
97.59826816764144
 20
-311.5999999999985
 30
0.0
 11
295.6999999999898
 21
-405.9341082682567
 31
0.0
  0
LINE
  5
25D4
330
28D8
100
AcDbEntity
  8
0
 62
     0
100
AcDbLine
 10
-295.7000000000044
 20
-124.3152091610973
 30
0.0
 11
79.89999999999056
 21
-303.1722576978727
 31
0.0
  0
LINE
  5
25D5
330
28D8
100
AcDbEntity
  8
0
 62
     0
100
AcDbLine
 10
79.89999999999419
 20
-293.1723059537389
 30
0.0
 11
118.5981779046342
 21
-311.5999999999985
 31
0.0
  0
LINE
  5
25D6
330
28D8
100
AcDbEntity
  8
0
 62
     0
100
AcDbLine
 10
118.5981779046342
 20
-311.5999999999985
 30
0.0
 11
295.6999999999916
 21
-395.9341565241232
 31
0.0
  0
LINE
  5
25D7
330
28D8
100
AcDbEntity
  8
0
 62
     0
100
AcDbLine
 10
-288.3820367164973
 20
-117.7999999999993
 30
0.0
 11
79.89999999999419
 21
-293.1723059537389
 31
0.0
  0
LINE
  5
25D8
330
28D8
100
AcDbEntity
  8
0
 62
     0
100
AcDbLine
 10
79.89999999999236
 20
-283.1723542096033
 30
0.0
 11
139.5980876416252
 21
-311.5999999999985
 31
0.0
  0
LINE
  5
25D9
330
28D8
100
AcDbEntity
  8
0
 62
     0
100
AcDbLine
 10
139.5980876416252
 20
-311.5999999999985
 30
0.0
 11
295.6999999999898
 21
-385.9342047799874
 31
0.0
  0
LINE
  5
25DA
330
28D8
100
AcDbEntity
  8
0
 62
     0
100
AcDbLine
 10
-267.3821269795062
 20
-117.7999999999993
 30
0.0
 11
79.89999999999236
 21
-283.1723542096033
 31
0.0
  0
LINE
  5
25DB
330
28D8
100
AcDbEntity
  8
0
 62
     0
100
AcDbLine
 10
79.89999999999236
 20
-273.1724024654695
 30
0.0
 11
160.597997378616
 21
-311.5999999999985
 31
0.0
  0
LINE
  5
25DC
330
28D8
100
AcDbEntity
  8
0
 62
     0
100
AcDbLine
 10
160.597997378616
 20
-311.5999999999985
 30
0.0
 11
295.6999999999916
 21
-375.9342530358535
 31
0.0
  0
LINE
  5
25DD
330
28D8
100
AcDbEntity
  8
0
 62
     0
100
AcDbLine
 10
-246.3822172425153
 20
-117.7999999999983
 30
0.0
 11
79.89999999999236
 21
-273.1724024654695
 31
0.0
  0
LINE
  5
25DE
330
28D8
100
AcDbEntity
  8
0
 62
     0
100
AcDbLine
 10
79.89999999999236
 20
-263.1724507213357
 30
0.0
 11
181.5979071156071
 21
-311.6000000000004
 31
0.0
  0
LINE
  5
25DF
330
28D8
100
AcDbEntity
  8
0
 62
     0
100
AcDbLine
 10
181.5979071156071
 20
-311.6000000000004
 30
0.0
 11
295.6999999999898
 21
-365.9343012917198
 31
0.0
  0
LINE
  5
25E0
330
28D8
100
AcDbEntity
  8
0
 62
     0
100
AcDbLine
 10
-225.3823075055243
 20
-117.8000000000002
 30
0.0
 11
79.89999999999236
 21
-263.1724507213357
 31
0.0
  0
LINE
  5
25E1
330
28D8
100
AcDbEntity
  8
0
 62
     0
100
AcDbLine
 10
79.89999999999419
 20
-253.1724989772019
 30
0.0
 11
202.5978168525999
 21
-311.5999999999995
 31
0.0
  0
LINE
  5
25E2
330
28D8
100
AcDbEntity
  8
0
 62
     0
100
AcDbLine
 10
202.5978168525999
 20
-311.5999999999995
 30
0.0
 11
295.6999999999916
 21
-355.934349547586
 31
0.0
  0
LINE
  5
25E3
330
28D8
100
AcDbEntity
  8
0
 62
     0
100
AcDbLine
 10
-204.3823977685333
 20
-117.8000000000002
 30
0.0
 11
79.89999999999419
 21
-253.1724989772019
 31
0.0
  0
LINE
  5
25E4
330
28D8
100
AcDbEntity
  8
0
 62
     0
100
AcDbLine
 10
79.89999999999236
 20
-243.1725472330663
 30
0.0
 11
223.5977265895854
 21
-311.5999999999985
 31
0.0
  0
LINE
  5
25E5
330
28D8
100
AcDbEntity
  8
0
 62
     0
100
AcDbLine
 10
223.597726589589
 20
-311.5999999999995
 30
0.0
 11
295.6999999999898
 21
-345.9343978034504
 31
0.0
  0
LINE
  5
25E6
330
28D8
100
AcDbEntity
  8
0
 62
     0
100
AcDbLine
 10
-183.3824880315424
 20
-117.8000000000002
 30
0.0
 11
79.89999999999236
 21
-243.1725472330663
 31
0.0
  0
LINE
  5
25E7
330
28D8
100
AcDbEntity
  8
0
 62
     0
100
AcDbLine
 10
79.899999999996
 20
-233.1725954889325
 30
0.0
 11
244.59763632658
 21
-311.5999999999977
 31
0.0
  0
LINE
  5
25E8
330
28D8
100
AcDbEntity
  8
0
 62
     0
100
AcDbLine
 10
244.5976363265818
 20
-311.5999999999995
 30
0.0
 11
295.6999999999935
 21
-335.9344460593165
 31
0.0
  0
LINE
  5
25E9
330
28D8
100
AcDbEntity
  8
0
 62
     0
100
AcDbLine
 10
-162.3825782945496
 20
-117.8000000000002
 30
0.0
 11
79.89999999999236
 21
-233.1725954889307
 31
0.0
  0
LINE
  5
25EA
330
28D8
100
AcDbEntity
  8
0
 62
     0
100
AcDbLine
 10
79.89999999999236
 20
-223.1726437447969
 30
0.0
 11
265.5975460635691
 21
-311.5999999999977
 31
0.0
  0
LINE
  5
25EB
330
28D8
100
AcDbEntity
  8
0
 62
     0
100
AcDbLine
 10
265.5975460635727
 20
-311.5999999999995
 30
0.0
 11
295.6999999999916
 21
-325.934494315181
 31
0.0
  0
LINE
  5
25EC
330
28D8
100
AcDbEntity
  8
0
 62
     0
100
AcDbLine
 10
-141.3826685575623
 20
-117.7999999999983
 30
0.0
 11
79.89999999999236
 21
-223.1726437447969
 31
0.0
  0
LINE
  5
25ED
330
28D8
100
AcDbEntity
  8
0
 62
     0
100
AcDbLine
 10
79.89999999999056
 20
-213.1726920006631
 30
0.0
 11
286.5974558005582
 21
-311.5999999999995
 31
0.0
  0
LINE
  5
25EE
330
28D8
100
AcDbEntity
  8
0
 62
     0
100
AcDbLine
 10
286.5974558005582
 20
-311.5999999999995
 30
0.0
 11
295.699999999988
 21
-315.9345425710471
 31
0.0
  0
LINE
  5
25EF
330
28D8
100
AcDbEntity
  8
0
 62
     0
100
AcDbLine
 10
-120.3827588205731
 20
-117.8000000000002
 30
0.0
 11
79.89999999999056
 21
-213.1726920006631
 31
0.0
  0
LINE
  5
25F0
330
28D8
100
AcDbEntity
  8
0
 62
     0
100
AcDbLine
 10
79.89999999999419
 20
-203.1727402565293
 30
0.0
 11
295.6999999999953
 21
-305.9345908269151
 31
0.0
  0
LINE
  5
25F1
330
28D8
100
AcDbEntity
  8
0
 62
     0
100
AcDbLine
 10
-99.38284908357857
 20
-117.8000000000002
 30
0.0
 11
79.89999999999419
 21
-203.1727402565293
 31
0.0
  0
LINE
  5
25F2
330
28D8
100
AcDbEntity
  8
0
 62
     0
100
AcDbLine
 10
79.89999999999236
 20
-193.1727885123937
 30
0.0
 11
295.6999999999935
 21
-295.9346390827795
 31
0.0
  0
LINE
  5
25F3
330
28D8
100
AcDbEntity
  8
0
 62
     0
100
AcDbLine
 10
-78.38293934659302
 20
-117.7999999999983
 30
0.0
 11
79.89999999999236
 21
-193.1727885123937
 31
0.0
  0
LINE
  5
25F4
330
28D8
100
AcDbEntity
  8
0
 62
     0
100
AcDbLine
 10
79.89999999999419
 20
-183.1728367682599
 30
0.0
 11
295.6999999999953
 21
-285.9346873386457
 31
0.0
  0
LINE
  5
25F5
330
28D8
100
AcDbEntity
  8
0
 62
     0
100
AcDbLine
 10
-57.38302960960028
 20
-117.7999999999983
 30
0.0
 11
79.89999999999419
 21
-183.1728367682599
 31
0.0
  0
LINE
  5
25F6
330
28D8
100
AcDbEntity
  8
0
 62
     0
100
AcDbLine
 10
79.89999999999419
 20
-173.1728850241243
 30
0.0
 11
295.6999999999953
 21
-275.9347355945101
 31
0.0
  0
LINE
  5
25F7
330
28D8
100
AcDbEntity
  8
0
 62
     0
100
AcDbLine
 10
-36.38311987260931
 20
-117.7999999999983
 30
0.0
 11
79.89999999999419
 21
-173.1728850241243
 31
0.0
  0
LINE
  5
25F8
330
28D8
100
AcDbEntity
  8
0
 62
     0
100
AcDbLine
 10
79.89999999999419
 20
-163.1729332799905
 30
0.0
 11
295.6999999999953
 21
-265.9347838503763
 31
0.0
  0
LINE
  5
25F9
330
28D8
100
AcDbEntity
  8
0
 62
     0
100
AcDbLine
 10
-15.38321013561835
 20
-117.7999999999983
 30
0.0
 11
79.89999999999056
 21
-163.1729332799896
 31
0.0
  0
LINE
  5
25FA
330
28D8
100
AcDbEntity
  8
0
 62
     0
100
AcDbLine
 10
79.89999999999236
 20
-153.1729815358567
 30
0.0
 11
295.6999999999935
 21
-255.9348321062425
 31
0.0
  0
LINE
  5
25FB
330
28D8
100
AcDbEntity
  8
0
 62
     0
100
AcDbLine
 10
5.616699601372602
 20
-117.8000000000002
 30
0.0
 11
79.89999999999236
 21
-153.1729815358567
 31
0.0
  0
LINE
  5
25FC
330
28D8
100
AcDbEntity
  8
0
 62
     0
100
AcDbLine
 10
79.899999999996
 20
-143.1730297917229
 30
0.0
 11
295.6999999999935
 21
-245.9348803621069
 31
0.0
  0
LINE
  5
25FD
330
28D8
100
AcDbEntity
  8
0
 62
     0
100
AcDbLine
 10
26.61660933836356
 20
-117.7999999999993
 30
0.0
 11
79.89999999999236
 21
-143.173029791722
 31
0.0
  0
LINE
  5
25FE
330
28D8
100
AcDbEntity
  8
0
 62
     0
100
AcDbLine
 10
79.89999999999236
 20
-133.1730780475882
 30
0.0
 11
295.6999999999935
 21
-235.9349286179731
 31
0.0
  0
LINE
  5
25FF
330
28D8
100
AcDbEntity
  8
0
 62
     0
100
AcDbLine
 10
47.6165190753545
 20
-117.7999999999993
 30
0.0
 11
79.89999999999236
 21
-133.1730780475882
 31
0.0
  0
LINE
  5
2600
330
28D8
100
AcDbEntity
  8
0
 62
     0
100
AcDbLine
 10
79.89999999999236
 20
-123.1731263034526
 30
0.0
 11
295.6999999999935
 21
-225.9349768738375
 31
0.0
  0
LINE
  5
2601
330
28D8
100
AcDbEntity
  8
0
 62
     0
100
AcDbLine
 10
68.61642881234548
 20
-117.7999999999993
 30
0.0
 11
79.89999999999236
 21
-123.1731263034526
 31
0.0
  0
LINE
  5
2602
330
28D8
100
AcDbEntity
  8
0
 62
     0
100
AcDbLine
 10
89.61633854933827
 20
-117.7999999999993
 30
0.0
 11
295.6999999999953
 21
-215.9350251297037
 31
0.0
  0
LINE
  5
2603
330
28D8
100
AcDbEntity
  8
0
 62
     0
100
AcDbLine
 10
110.6162482863274
 20
-117.8000000000011
 30
0.0
 11
295.6999999999916
 21
-205.9350733855699
 31
0.0
  0
LINE
  5
2604
330
28D8
100
AcDbEntity
  8
0
 62
     0
100
AcDbLine
 10
131.6161580233165
 20
-117.7999999999993
 30
0.0
 11
295.6999999999953
 21
-195.935121641436
 31
0.0
  0
LINE
  5
2605
330
28D8
100
AcDbEntity
  8
0
 62
     0
100
AcDbLine
 10
152.6160677603074
 20
-117.7999999999993
 30
0.0
 11
295.6999999999935
 21
-185.9351698973004
 31
0.0
  0
LINE
  5
2606
330
28D8
100
AcDbEntity
  8
0
 62
     0
100
AcDbLine
 10
173.6159774972984
 20
-117.7999999999993
 30
0.0
 11
295.6999999999953
 21
-175.9352181531667
 31
0.0
  0
LINE
  5
2607
330
28D8
100
AcDbEntity
  8
0
 62
     0
100
AcDbLine
 10
194.6158872342912
 20
-117.7999999999993
 30
0.0
 11
295.6999999999953
 21
-165.935266409031
 31
0.0
  0
LINE
  5
2608
330
28D8
100
AcDbEntity
  8
0
 62
     0
100
AcDbLine
 10
215.6157969712804
 20
-117.7999999999993
 30
0.0
 11
295.6999999999935
 21
-155.9353146648964
 31
0.0
  0
LINE
  5
2609
330
28D8
100
AcDbEntity
  8
0
 62
     0
100
AcDbLine
 10
236.6157067082713
 20
-117.8000000000011
 30
0.0
 11
295.6999999999935
 21
-145.9353629207644
 31
0.0
  0
LINE
  5
260A
330
28D8
100
AcDbEntity
  8
0
 62
     0
100
AcDbLine
 10
257.6156164452641
 20
-117.8000000000002
 30
0.0
 11
295.6999999999935
 21
-135.9354111766288
 31
0.0
  0
LINE
  5
260B
330
28D8
100
AcDbEntity
  8
0
 62
     0
100
AcDbLine
 10
278.6155261822551
 20
-117.8000000000002
 30
0.0
 11
295.6999999999953
 21
-125.935459432495
 31
0.0
  0
ENDBLK
  5
260C
330
28D8
100
AcDbEntity
  8
0
100
AcDbBlockEnd
  0
BLOCK
  5
28DB
330
28DA
100
AcDbEntity
  8
0
100
AcDbBlockBegin
  2
*X77
 70
     1
 10
0.0
 20
0.0
 30
0.0
  3
*X77
  1

  0
LINE
  5
260F
330
28DA
100
AcDbEntity
  8
0
 62
     0
100
AcDbLine
 10
292.2675752934811
 20
-646.1999999999989
 30
0.0
 11
295.7000000000008
 21
-644.5655129064607
 31
0.0
  0
LINE
  5
2610
330
28DA
100
AcDbEntity
  8
0
 62
     0
100
AcDbLine
 10
271.2676655564901
 20
-646.1999999999989
 30
0.0
 11
295.7000000000008
 21
-634.565561162327
 31
0.0
  0
LINE
  5
2611
330
28DA
100
AcDbEntity
  8
0
 62
     0
100
AcDbLine
 10
250.2677558195064
 20
-646.199999999998
 30
0.0
 11
295.7000000000044
 21
-624.5656094181923
 31
0.0
  0
LINE
  5
2612
330
28DA
100
AcDbEntity
  8
0
 62
     0
100
AcDbLine
 10
229.2678460825118
 20
-646.199999999998
 30
0.0
 11
295.7000000000008
 21
-614.5656576740576
 31
0.0
  0
LINE
  5
2613
330
28DA
100
AcDbEntity
  8
0
 62
     0
100
AcDbLine
 10
208.2679363455209
 20
-646.199999999998
 30
0.0
 11
295.7000000000008
 21
-604.5657059299228
 31
0.0
  0
LINE
  5
2614
330
28DA
100
AcDbEntity
  8
0
 62
     0
100
AcDbLine
 10
187.2680266085297
 20
-646.1999999999989
 30
0.0
 11
295.7000000000008
 21
-594.565754185789
 31
0.0
  0
LINE
  5
2615
330
28DA
100
AcDbEntity
  8
0
 62
     0
100
AcDbLine
 10
166.2681168715388
 20
-646.199999999998
 30
0.0
 11
295.7000000000008
 21
-584.5658024416552
 31
0.0
  0
LINE
  5
2616
330
28DA
100
AcDbEntity
  8
0
 62
     0
100
AcDbLine
 10
145.268207134548
 20
-646.1999999999989
 30
0.0
 11
295.7000000000044
 21
-574.5658506975205
 31
0.0
  0
LINE
  5
2617
330
28DA
100
AcDbEntity
  8
0
 62
     0
100
AcDbLine
 10
124.268297397557
 20
-646.1999999999989
 30
0.0
 11
295.7000000000044
 21
-564.5658989533867
 31
0.0
  0
LINE
  5
2618
330
28DA
100
AcDbEntity
  8
0
 62
     0
100
AcDbLine
 10
103.268387660566
 20
-646.1999999999989
 30
0.0
 11
295.7000000000008
 21
-554.5659472092511
 31
0.0
  0
LINE
  5
2619
330
28DA
100
AcDbEntity
  8
0
 62
     0
100
AcDbLine
 10
82.26847792357512
 20
-646.1999999999997
 30
0.0
 11
295.7000000000008
 21
-544.5659954651183
 31
0.0
  0
LINE
  5
261A
330
28DA
100
AcDbEntity
  8
0
 62
     0
100
AcDbLine
 10
61.26856818658052
 20
-646.1999999999997
 30
0.0
 11
295.7000000000008
 21
-534.5660437209826
 31
0.0
  0
LINE
  5
261B
330
28DA
100
AcDbEntity
  8
0
 62
     0
100
AcDbLine
 10
40.2686584495932
 20
-646.1999999999997
 30
0.0
 11
295.7000000000008
 21
-524.5660919768488
 31
0.0
  0
LINE
  5
261C
330
28DA
100
AcDbEntity
  8
0
 62
     0
100
AcDbLine
 10
19.26874871260588
 20
-646.1999999999989
 30
0.0
 11
295.7000000000008
 21
-514.5661402327141
 31
0.0
  0
LINE
  5
261D
330
28DA
100
AcDbEntity
  8
0
 62
     0
100
AcDbLine
 10
-1.731161024388709
 20
-646.1999999999989
 30
0.0
 11
295.7000000000008
 21
-504.5661884885785
 31
0.0
  0
LINE
  5
261E
330
28DA
100
AcDbEntity
  8
0
 62
     0
100
AcDbLine
 10
-22.73107076137967
 20
-646.1999999999997
 30
0.0
 11
295.7000000000008
 21
-494.5662367444456
 31
0.0
  0
LINE
  5
261F
330
28DA
100
AcDbEntity
  8
0
 62
     0
100
AcDbLine
 10
-43.73098049836335
 20
-646.199999999998
 30
0.0
 11
295.7000000000044
 21
-484.5662850003097
 31
0.0
  0
LINE
  5
2620
330
28DA
100
AcDbEntity
  8
0
 62
     0
100
AcDbLine
 10
-64.73089023535793
 20
-646.199999999998
 30
0.0
 11
295.6999999999971
 21
-474.566333256178
 31
0.0
  0
LINE
  5
2621
330
28DA
100
AcDbEntity
  8
0
 62
     0
100
AcDbLine
 10
-85.7307999723489
 20
-646.1999999999989
 30
0.0
 11
295.7000000000008
 21
-464.5663815120431
 31
0.0
  0
LINE
  5
2622
330
28DA
100
AcDbEntity
  8
0
 62
     0
100
AcDbLine
 10
-106.7307097093398
 20
-646.1999999999989
 30
0.0
 11
295.6999999999971
 21
-454.5664297679095
 31
0.0
  0
LINE
  5
2623
330
28DA
100
AcDbEntity
  8
0
 62
     0
100
AcDbLine
 10
-127.7306194463308
 20
-646.1999999999989
 30
0.0
 11
295.6999999999971
 21
-444.566478023774
 31
0.0
  0
LINE
  5
2624
330
28DA
100
AcDbEntity
  8
0
 62
     0
100
AcDbLine
 10
-148.7305291833218
 20
-646.1999999999997
 30
0.0
 11
295.6999999999971
 21
-434.5665262796408
 31
0.0
  0
LINE
  5
2625
330
28DA
100
AcDbEntity
  8
0
 62
     0
100
AcDbLine
 10
-169.7304389203164
 20
-646.1999999999997
 30
0.0
 11
295.6999999999971
 21
-424.5665745355052
 31
0.0
  0
LINE
  5
2626
330
28DA
100
AcDbEntity
  8
0
 62
     0
100
AcDbLine
 10
-190.7303486573037
 20
-646.2000000000007
 30
0.0
 11
295.6999999999971
 21
-414.5666227913705
 31
0.0
  0
LINE
  5
2627
330
28DA
100
AcDbEntity
  8
0
 62
     0
100
AcDbLine
 10
-211.7302583942946
 20
-646.1999999999989
 30
0.0
 11
295.6999999999971
 21
-404.5666710472366
 31
0.0
  0
LINE
  5
2628
330
28DA
100
AcDbEntity
  8
0
 62
     0
100
AcDbLine
 10
-232.7301681312856
 20
-646.1999999999989
 30
0.0
 11
295.7000000000008
 21
-394.5667193031013
 31
0.0
  0
LINE
  5
2629
330
28DA
100
AcDbEntity
  8
0
 62
     0
100
AcDbLine
 10
-253.7300778682766
 20
-646.199999999998
 30
0.0
 11
295.6999999999971
 21
-384.5667675589684
 31
0.0
  0
LINE
  5
262A
330
28DA
100
AcDbEntity
  8
0
 62
     0
100
AcDbLine
 10
-274.7299876052639
 20
-646.199999999998
 30
0.0
 11
295.7000000000008
 21
-374.5668158148329
 31
0.0
  0
LINE
  5
262B
330
28DA
100
AcDbEntity
  8
0
 62
     0
100
AcDbLine
 10
-295.7000000000044
 20
-646.185763177861
 30
0.0
 11
295.6999999999971
 21
-364.5668640706992
 31
0.0
  0
LINE
  5
262C
330
28DA
100
AcDbEntity
  8
0
 62
     0
100
AcDbLine
 10
-295.7000000000008
 20
-636.1858114337263
 30
0.0
 11
295.6999999999971
 21
-354.5669123265643
 31
0.0
  0
LINE
  5
262D
330
28DA
100
AcDbEntity
  8
0
 62
     0
100
AcDbLine
 10
-295.7000000000008
 20
-626.1858596895923
 30
0.0
 11
295.6999999999971
 21
-344.5669605824305
 31
0.0
  0
LINE
  5
262E
330
28DA
100
AcDbEntity
  8
0
 62
     0
100
AcDbLine
 10
-295.7000000000044
 20
-616.1859079454598
 30
0.0
 11
295.6999999999971
 21
-334.5670088382958
 31
0.0
  0
LINE
  5
262F
330
28DA
100
AcDbEntity
  8
0
 62
     0
100
AcDbLine
 10
-295.7000000000008
 20
-606.1859562013242
 30
0.0
 11
295.7000000000008
 21
-324.5670570941611
 31
0.0
  0
LINE
  5
2630
330
28DA
100
AcDbEntity
  8
0
 62
     0
100
AcDbLine
 10
-295.7000000000008
 20
-596.1860044571904
 30
0.0
 11
295.7000000000008
 21
-314.5671053500262
 31
0.0
  0
LINE
  5
2631
330
28DA
100
AcDbEntity
  8
0
 62
     0
100
AcDbLine
 10
280.9310147839424
 20
-311.5999999999995
 30
0.0
 11
295.7000000000008
 21
-304.5671536058908
 31
0.0
  0
LINE
  5
2632
330
28DA
100
AcDbEntity
  8
0
 62
     0
100
AcDbLine
 10
-295.7000000000008
 20
-586.1860527130557
 30
0.0
 11
280.9310147839424
 21
-311.5999999999995
 31
0.0
  0
LINE
  5
2633
330
28DA
100
AcDbEntity
  8
0
 62
     0
100
AcDbLine
 10
259.931105046955
 20
-311.5999999999995
 30
0.0
 11
295.7000000000008
 21
-294.5672018617569
 31
0.0
  0
LINE
  5
2634
330
28DA
100
AcDbEntity
  8
0
 62
     0
100
AcDbLine
 10
-295.7000000000044
 20
-576.1861009689217
 30
0.0
 11
259.931105046955
 21
-311.5999999999995
 31
0.0
  0
LINE
  5
2635
330
28DA
100
AcDbEntity
  8
0
 62
     0
100
AcDbLine
 10
238.9311953099678
 20
-311.5999999999977
 30
0.0
 11
295.7000000000044
 21
-284.5672501176214
 31
0.0
  0
LINE
  5
2636
330
28DA
100
AcDbEntity
  8
0
 62
     0
100
AcDbLine
 10
-295.7000000000008
 20
-566.1861492247862
 30
0.0
 11
238.9311953099678
 21
-311.5999999999977
 31
0.0
  0
LINE
  5
2637
330
28DA
100
AcDbEntity
  8
0
 62
     0
100
AcDbLine
 10
217.9312855729731
 20
-311.5999999999985
 30
0.0
 11
295.7000000000008
 21
-274.5672983734885
 31
0.0
  0
LINE
  5
2638
330
28DA
100
AcDbEntity
  8
0
 62
     0
100
AcDbLine
 10
-295.7000000000044
 20
-556.186197480653
 30
0.0
 11
217.9312855729731
 21
-311.5999999999985
 31
0.0
  0
LINE
  5
2639
330
28DA
100
AcDbEntity
  8
0
 62
     0
100
AcDbLine
 10
196.9313758359857
 20
-311.5999999999985
 30
0.0
 11
295.7000000000008
 21
-264.5673466293529
 31
0.0
  0
LINE
  5
263A
330
28DA
100
AcDbEntity
  8
0
 62
     0
100
AcDbLine
 10
-295.7000000000008
 20
-546.1862457365176
 30
0.0
 11
196.9313758359857
 21
-311.5999999999985
 31
0.0
  0
LINE
  5
263B
330
28DA
100
AcDbEntity
  8
0
 62
     0
100
AcDbLine
 10
175.9314660989912
 20
-311.5999999999995
 30
0.0
 11
295.7000000000008
 21
-254.5673948852182
 31
0.0
  0
LINE
  5
263C
330
28DA
100
AcDbEntity
  8
0
 62
     0
100
AcDbLine
 10
-295.7000000000044
 20
-536.1862939923828
 30
0.0
 11
175.9314660989912
 21
-311.5999999999995
 31
0.0
  0
LINE
  5
263D
330
28DA
100
AcDbEntity
  8
0
 62
     0
100
AcDbLine
 10
154.9315563620002
 20
-311.5999999999995
 30
0.0
 11
295.7000000000008
 21
-244.5674431410844
 31
0.0
  0
LINE
  5
263E
330
28DA
100
AcDbEntity
  8
0
 62
     0
100
AcDbLine
 10
-295.7000000000044
 20
-526.186342248249
 30
0.0
 11
154.9315563620002
 21
-311.5999999999995
 31
0.0
  0
LINE
  5
263F
330
28DA
100
AcDbEntity
  8
0
 62
     0
100
AcDbLine
 10
133.9316466250129
 20
-311.5999999999977
 30
0.0
 11
295.7000000000044
 21
-234.5674913969487
 31
0.0
  0
LINE
  5
2640
330
28DA
100
AcDbEntity
  8
0
 62
     0
100
AcDbLine
 10
-295.7000000000008
 20
-516.1863905041136
 30
0.0
 11
133.9316466250093
 21
-311.5999999999995
 31
0.0
  0
LINE
  5
2641
330
28DA
100
AcDbEntity
  8
0
 62
     0
100
AcDbLine
 10
112.931736888022
 20
-311.5999999999985
 30
0.0
 11
295.7000000000008
 21
-224.5675396528159
 31
0.0
  0
LINE
  5
2642
330
28DA
100
AcDbEntity
  8
0
 62
     0
100
AcDbLine
 10
-295.7000000000044
 20
-506.1864387599808
 30
0.0
 11
112.9317368880183
 21
-311.5999999999995
 31
0.0
  0
LINE
  5
2643
330
28DA
100
AcDbEntity
  8
0
 62
     0
100
AcDbLine
 10
91.93182715103105
 20
-311.5999999999985
 30
0.0
 11
295.7000000000008
 21
-214.5675879086803
 31
0.0
  0
LINE
  5
2644
330
28DA
100
AcDbEntity
  8
0
 62
     0
100
AcDbLine
 10
-295.7000000000008
 20
-496.1864870158451
 30
0.0
 11
91.93182715102741
 21
-311.5999999999995
 31
0.0
  0
LINE
  5
2645
330
28DA
100
AcDbEntity
  8
0
 62
     0
100
AcDbLine
 10
79.90000000000145
 20
-307.3294867349332
 30
0.0
 11
295.7000000000008
 21
-204.5676361645474
 31
0.0
  0
LINE
  5
2646
330
28DA
100
AcDbEntity
  8
0
 62
     0
100
AcDbLine
 10
-295.7000000000008
 20
-486.1865352717122
 30
0.0
 11
79.90000000000145
 21
-307.3294867349332
 31
0.0
  0
LINE
  5
2647
330
28DA
100
AcDbEntity
  8
0
 62
     0
100
AcDbLine
 10
79.8999999999978
 20
-297.3295349907976
 30
0.0
 11
295.7000000000008
 21
-194.5676844204117
 31
0.0
  0
LINE
  5
2648
330
28DA
100
AcDbEntity
  8
0
 62
     0
100
AcDbLine
 10
-295.7000000000044
 20
-476.1865835275767
 30
0.0
 11
79.8999999999978
 21
-297.3295349907976
 31
0.0
  0
LINE
  5
2649
330
28DA
100
AcDbEntity
  8
0
 62
     0
100
AcDbLine
 10
79.8999999999978
 20
-287.3295832466638
 30
0.0
 11
295.7000000000044
 21
-184.5677326762769
 31
0.0
  0
LINE
  5
264A
330
28DA
100
AcDbEntity
  8
0
 62
     0
100
AcDbLine
 10
-295.7000000000044
 20
-466.1866317834428
 30
0.0
 11
79.8999999999978
 21
-287.3295832466638
 31
0.0
  0
LINE
  5
264B
330
28DA
100
AcDbEntity
  8
0
 62
     0
100
AcDbLine
 10
79.90000000000145
 20
-277.3296315025291
 30
0.0
 11
295.7000000000044
 21
-174.5677809321431
 31
0.0
  0
LINE
  5
264C
330
28DA
100
AcDbEntity
  8
0
 62
     0
100
AcDbLine
 10
-295.7000000000008
 20
-456.186680039308
 30
0.0
 11
79.90000000000145
 21
-277.3296315025291
 31
0.0
  0
LINE
  5
264D
330
28DA
100
AcDbEntity
  8
0
 62
     0
100
AcDbLine
 10
79.8999999999978
 20
-267.3296797583953
 30
0.0
 11
295.7000000000008
 21
-164.5678291880084
 31
0.0
  0
LINE
  5
264E
330
28DA
100
AcDbEntity
  8
0
 62
     0
100
AcDbLine
 10
-295.7000000000008
 20
-446.1867282951724
 30
0.0
 11
79.8999999999978
 21
-267.3296797583953
 31
0.0
  0
LINE
  5
264F
330
28DA
100
AcDbEntity
  8
0
 62
     0
100
AcDbLine
 10
79.90000000000145
 20
-257.3297280142597
 30
0.0
 11
295.7000000000008
 21
-154.5678774438747
 31
0.0
  0
LINE
  5
2650
330
28DA
100
AcDbEntity
  8
0
 62
     0
100
AcDbLine
 10
-295.7000000000044
 20
-436.1867765510385
 30
0.0
 11
79.90000000000145
 21
-257.3297280142597
 31
0.0
  0
LINE
  5
2651
330
28DA
100
AcDbEntity
  8
0
 62
     0
100
AcDbLine
 10
79.90000000000145
 20
-247.329776270125
 30
0.0
 11
295.7000000000044
 21
-144.56792569974
 31
0.0
  0
LINE
  5
2652
330
28DA
100
AcDbEntity
  8
0
 62
     0
100
AcDbLine
 10
-295.7000000000008
 20
-426.1868248069039
 30
0.0
 11
79.90000000000145
 21
-247.329776270125
 31
0.0
  0
LINE
  5
2653
330
28DA
100
AcDbEntity
  8
0
 62
     0
100
AcDbLine
 10
79.8999999999978
 20
-237.3298245259912
 30
0.0
 11
295.7000000000008
 21
-134.5679739556062
 31
0.0
  0
LINE
  5
2654
330
28DA
100
AcDbEntity
  8
0
 62
     0
100
AcDbLine
 10
-295.7000000000044
 20
-416.18687306277
 30
0.0
 11
79.8999999999978
 21
-237.3298245259912
 31
0.0
  0
LINE
  5
2655
330
28DA
100
AcDbEntity
  8
0
 62
     0
100
AcDbLine
 10
79.90000000000145
 20
-227.3298727818565
 30
0.0
 11
295.7000000000044
 21
-124.5680222114715
 31
0.0
  0
LINE
  5
2656
330
28DA
100
AcDbEntity
  8
0
 62
     0
100
AcDbLine
 10
-295.7000000000008
 20
-406.1869213186354
 30
0.0
 11
79.90000000000145
 21
-227.3298727818565
 31
0.0
  0
LINE
  5
2657
330
28DA
100
AcDbEntity
  8
0
 62
     0
100
AcDbLine
 10
79.90000000000145
 20
-217.3299210377227
 30
0.0
 11
288.9129444022548
 21
-117.7999999999993
 31
0.0
  0
LINE
  5
2658
330
28DA
100
AcDbEntity
  8
0
 62
     0
100
AcDbLine
 10
-295.7000000000008
 20
-396.1869695745018
 30
0.0
 11
79.90000000000145
 21
-217.3299210377227
 31
0.0
  0
LINE
  5
2659
330
28DA
100
AcDbEntity
  8
0
 62
     0
100
AcDbLine
 10
79.90000000000145
 20
-207.329969293587
 30
0.0
 11
267.9130346652637
 21
-117.7999999999993
 31
0.0
  0
LINE
  5
265A
330
28DA
100
AcDbEntity
  8
0
 62
     0
100
AcDbLine
 10
-295.7000000000044
 20
-386.1870178303661
 30
0.0
 11
79.8999999999978
 21
-207.3299692935889
 31
0.0
  0
LINE
  5
265B
330
28DA
100
AcDbEntity
  8
0
 62
     0
100
AcDbLine
 10
79.8999999999978
 20
-197.3300175494541
 30
0.0
 11
246.9131249282727
 21
-117.8000000000002
 31
0.0
  0
LINE
  5
265C
330
28DA
100
AcDbEntity
  8
0
 62
     0
100
AcDbLine
 10
-295.7000000000044
 20
-376.1870660862332
 30
0.0
 11
79.8999999999978
 21
-197.330017549456
 31
0.0
  0
LINE
  5
265D
330
28DA
100
AcDbEntity
  8
0
 62
     0
100
AcDbLine
 10
79.8999999999978
 20
-187.3300658053185
 30
0.0
 11
225.9132151912782
 21
-117.8000000000002
 31
0.0
  0
LINE
  5
265E
330
28DA
100
AcDbEntity
  8
0
 62
     0
100
AcDbLine
 10
-295.7000000000044
 20
-366.1871143420976
 30
0.0
 11
79.89999999999419
 21
-187.3300658053203
 31
0.0
  0
LINE
  5
265F
330
28DA
100
AcDbEntity
  8
0
 62
     0
100
AcDbLine
 10
79.8999999999978
 20
-177.3301140611847
 30
0.0
 11
204.9133054542872
 21
-117.8000000000002
 31
0.0
  0
LINE
  5
2660
330
28DA
100
AcDbEntity
  8
0
 62
     0
100
AcDbLine
 10
-295.7000000000008
 20
-356.187162597962
 30
0.0
 11
79.89999999999419
 21
-177.3301140611865
 31
0.0
  0
LINE
  5
2661
330
28DA
100
AcDbEntity
  8
0
 62
     0
100
AcDbLine
 10
79.90000000000145
 20
-167.3301623170509
 30
0.0
 11
183.9133957172998
 21
-117.8000000000011
 31
0.0
  0
LINE
  5
2662
330
28DA
100
AcDbEntity
  8
0
 62
     0
100
AcDbLine
 10
-295.7000000000008
 20
-346.1872108538289
 30
0.0
 11
79.8999999999978
 21
-167.3301623170518
 31
0.0
  0
LINE
  5
2663
330
28DA
100
AcDbEntity
  8
0
 62
     0
100
AcDbLine
 10
79.90000000000145
 20
-157.3302105729153
 30
0.0
 11
162.9134859803052
 21
-117.8000000000011
 31
0.0
  0
LINE
  5
2664
330
28DA
100
AcDbEntity
  8
0
 62
     0
100
AcDbLine
 10
-295.7000000000044
 20
-336.1872591096935
 30
0.0
 11
79.8999999999978
 21
-157.3302105729162
 31
0.0
  0
LINE
  5
2665
330
28DA
100
AcDbEntity
  8
0
 62
     0
100
AcDbLine
 10
79.8999999999978
 20
-147.3302588287824
 30
0.0
 11
141.9135762433178
 21
-117.8000000000002
 31
0.0
  0
LINE
  5
2666
330
28DA
100
AcDbEntity
  8
0
 62
     0
100
AcDbLine
 10
-295.7000000000044
 20
-326.1873073655606
 30
0.0
 11
79.8999999999978
 21
-147.3302588287833
 31
0.0
  0
LINE
  5
2667
330
28DA
100
AcDbEntity
  8
0
 62
     0
100
AcDbLine
 10
79.90000000000145
 20
-137.3303070846468
 30
0.0
 11
120.913666506327
 21
-117.8000000000002
 31
0.0
  0
LINE
  5
2668
330
28DA
100
AcDbEntity
  8
0
 62
     0
100
AcDbLine
 10
-295.7000000000008
 20
-316.187355621425
 30
0.0
 11
79.8999999999978
 21
-137.3303070846477
 31
0.0
  0
LINE
  5
2669
330
28DA
100
AcDbEntity
  8
0
 62
     0
100
AcDbLine
 10
79.8999999999978
 20
-127.330355340513
 30
0.0
 11
99.91375676933605
 21
-117.8000000000002
 31
0.0
  0
LINE
  5
266A
330
28DA
100
AcDbEntity
  8
0
 62
     0
100
AcDbLine
 10
-295.7000000000044
 20
-306.1874038772911
 30
0.0
 11
79.89999999999419
 21
-127.3303553405139
 31
0.0
  0
LINE
  5
266B
330
28DA
100
AcDbEntity
  8
0
 62
     0
100
AcDbLine
 10
-295.7000000000008
 20
-296.1874521331565
 30
0.0
 11
78.91384703234867
 21
-117.7999999999993
 31
0.0
  0
LINE
  5
266C
330
28DA
100
AcDbEntity
  8
0
 62
     0
100
AcDbLine
 10
-295.7000000000008
 20
-286.1875003890209
 30
0.0
 11
57.91393729535776
 21
-117.7999999999993
 31
0.0
  0
LINE
  5
266D
330
28DA
100
AcDbEntity
  8
0
 62
     0
100
AcDbLine
 10
-295.7000000000044
 20
-276.1875486448871
 30
0.0
 11
36.9140275583668
 21
-117.7999999999993
 31
0.0
  0
LINE
  5
266E
330
28DA
100
AcDbEntity
  8
0
 62
     0
100
AcDbLine
 10
-295.7000000000008
 20
-266.1875969007524
 30
0.0
 11
15.91411782137584
 21
-117.8000000000002
 31
0.0
  0
LINE
  5
266F
330
28DA
100
AcDbEntity
  8
0
 62
     0
100
AcDbLine
 10
-295.7000000000008
 20
-256.1876451566195
 30
0.0
 11
-5.085791915615118
 21
-117.7999999999993
 31
0.0
  0
LINE
  5
2670
330
28DA
100
AcDbEntity
  8
0
 62
     0
100
AcDbLine
 10
-295.7000000000008
 20
-246.1876934124848
 30
0.0
 11
-26.08570165260971
 21
-117.8000000000002
 31
0.0
  0
LINE
  5
2671
330
28DA
100
AcDbEntity
  8
0
 62
     0
100
AcDbLine
 10
-295.7000000000044
 20
-236.187741668351
 30
0.0
 11
-47.08561138959703
 21
-117.8000000000002
 31
0.0
  0
LINE
  5
2672
330
28DA
100
AcDbEntity
  8
0
 62
     0
100
AcDbLine
 10
-295.7000000000008
 20
-226.1877899242154
 30
0.0
 11
-68.08552112658799
 21
-117.8000000000002
 31
0.0
  0
LINE
  5
2673
330
28DA
100
AcDbEntity
  8
0
 62
     0
100
AcDbLine
 10
-295.7000000000044
 20
-216.1878381800825
 30
0.0
 11
-89.08543086358257
 21
-117.8000000000011
 31
0.0
  0
LINE
  5
2674
330
28DA
100
AcDbEntity
  8
0
 62
     0
100
AcDbLine
 10
-295.7000000000008
 20
-206.1878864359469
 30
0.0
 11
-110.0853406005699
 21
-117.8000000000011
 31
0.0
  0
LINE
  5
2675
330
28DA
100
AcDbEntity
  8
0
 62
     0
100
AcDbLine
 10
-295.7000000000008
 20
-196.1879346918113
 30
0.0
 11
-131.0852503375608
 21
-117.7999999999993
 31
0.0
  0
LINE
  5
2676
330
28DA
100
AcDbEntity
  8
0
 62
     0
100
AcDbLine
 10
-295.7000000000044
 20
-186.1879829476784
 30
0.0
 11
-152.0851600745518
 21
-117.8000000000002
 31
0.0
  0
LINE
  5
2677
330
28DA
100
AcDbEntity
  8
0
 62
     0
100
AcDbLine
 10
-295.7000000000008
 20
-176.1880312035428
 30
0.0
 11
-173.0850698115391
 21
-117.7999999999983
 31
0.0
  0
LINE
  5
2678
330
28DA
100
AcDbEntity
  8
0
 62
     0
100
AcDbLine
 10
-295.7000000000044
 20
-166.1880794594098
 30
0.0
 11
-194.08497954853
 21
-117.7999999999993
 31
0.0
  0
LINE
  5
2679
330
28DA
100
AcDbEntity
  8
0
 62
     0
100
AcDbLine
 10
-295.7000000000008
 20
-156.1881277152743
 30
0.0
 11
-215.084889285521
 21
-117.7999999999993
 31
0.0
  0
LINE
  5
267A
330
28DA
100
AcDbEntity
  8
0
 62
     0
100
AcDbLine
 10
-295.7000000000008
 20
-146.1881759711405
 30
0.0
 11
-236.084799022512
 21
-117.7999999999993
 31
0.0
  0
LINE
  5
267B
330
28DA
100
AcDbEntity
  8
0
 62
     0
100
AcDbLine
 10
-295.7000000000044
 20
-136.1882242270058
 30
0.0
 11
-257.0847087595066
 21
-117.8000000000002
 31
0.0
  0
LINE
  5
267C
330
28DA
100
AcDbEntity
  8
0
 62
     0
100
AcDbLine
 10
-295.7000000000044
 20
-126.188272482872
 30
0.0
 11
-278.0846184964939
 21
-117.7999999999993
 31
0.0
  0
ENDBLK
  5
267D
330
28DA
100
AcDbEntity
  8
0
100
AcDbBlockEnd
  0
ENDSEC
  0
SECTION
  2
ENTITIES
  0
TEXT
  5
953
330
27F9
100
AcDbEntity
  8
OUTLINE
  6
Continuous
 62
     3
100
AcDbText
 10
-418.231467
 20
13.715189
 30
0.0
 40
64.0
  1
 
 41
0.9
100
AcDbText
  0
TEXT
  5
954
330
27F9
100
AcDbEntity
  8
OUTLINE
  6
Continuous
 62
     3
100
AcDbText
 10
-418.231467
 20
13.715189
 30
0.0
 40
64.0
  1
 
 41
0.9
100
AcDbText
  0
TEXT
  5
955
330
27F9
100
AcDbEntity
  8
OUTLINE
  6
Continuous
 62
     3
100
AcDbText
 10
1341.41903
 20
-706.0588199999997
 30
0.0
 40
64.0
  1
 
 41
0.9
100
AcDbText
  0
TEXT
  5
956
330
27F9
100
AcDbEntity
  8
OUTLINE
  6
Continuous
 62
     3
100
AcDbText
 10
1341.41903
 20
-706.0588199999997
 30
0.0
 40
64.0
  1
 
 41
0.9
100
AcDbText
  0
TEXT
  5
957
330
27F9
100
AcDbEntity
  8
OUTLINE
  6
Continuous
 62
     3
100
AcDbText
 10
1341.41903
 20
-706.0588199999997
 30
0.0
 40
64.0
  1
 
 41
0.9
100
AcDbText
  0
TEXT
  5
958
330
27F9
100
AcDbEntity
  8
OUTLINE
  6
Continuous
 62
     3
100
AcDbText
 10
1341.41903
 20
-706.0588199999997
 30
0.0
 40
64.0
  1
 
 41
0.9
100
AcDbText
  0
TEXT
  5
26E6
330
27F9
100
AcDbEntity
  8
ETC
100
AcDbText
 10
559.2987359845865
 20
353.1081935879406
 30
0.0
 40
64.0
  1
システム部材
 41
0.9
100
AcDbText
  0
TEXT
  5
26E7
330
27F9
100
AcDbEntity
  8
ETC
100
AcDbText
 10
565.5067339845844
 20
453.9915195879407
 30
0.0
 40
64.0
  1
QW-60SDBC_6
 41
0.9
100
AcDbText
  0
TEXT
  5
26E8
330
27F9
100
AcDbEntity
  8
ETC
100
AcDbText
 10
559.2987359845865
 20
253.1081935879406
 30
0.0
 40
64.0
  1
QW-60SDBC
 41
0.9
100
AcDbText
  0
POINT
  5
26E9
330
27F9
100
AcDbEntity
  8
ARRANGE
100
AcDbPoint
 10
0.0
 20
0.0000000986733539
 30
0.0
 39
50.0
  0
LINE
  5
26EA
330
27F9
100
AcDbEntity
  8
DETAIL
100
AcDbLine
 10
-295.6999999999971
 20
-117.7999999013259
 30
0.0
 11
295.7000000000008
 21
-117.7999999013263
 31
0.0
  0
LINE
  5
26EB
330
27F9
100
AcDbEntity
  8
DETAIL
100
AcDbLine
 10
295.7000000000008
 20
-646.1999999013259
 30
0.0
 11
-295.6999999999971
 21
-646.1999999013259
 31
0.0
  0
LINE
  5
26EC
330
27F9
100
AcDbEntity
  8
DETAIL
100
AcDbLine
 10
-295.6999999999971
 20
-646.1999999013259
 30
0.0
 11
-295.6999999999971
 21
-117.7999999013263
 31
0.0
  0
LINE
  5
26ED
330
27F9
100
AcDbEntity
  8
NOTE
100
AcDbLine
 10
-325.0
 20
12.50000009867335
 30
0.0
 11
-325.0
 21
-12.49999990132664
 31
0.0
  0
LINE
  5
26EE
330
27F9
100
AcDbEntity
  8
DETAIL
100
AcDbLine
 10
295.7000000000008
 20
-646.1999999013259
 30
0.0
 11
295.7000000000008
 21
-117.7999999013263
 31
0.0
  0
LINE
  5
26EF
330
27F9
100
AcDbEntity
  8
BASIS
100
AcDbLine
 10
0.0
 20
25.00000009867335
 30
0.0
 11
0.0
 21
-707.9999999013264
 31
0.0
  0
CIRCLE
  5
26F0
330
27F9
100
AcDbEntity
  8
ARRANGE
100
AcDbCircle
 10
0.0
 20
0.0
 30
0.0
 40
40.0
  0
LINE
  5
26F1
330
27F9
100
AcDbEntity
  8
NOTE
100
AcDbLine
 10
325.0
 20
-12.49999990132664
 30
0.0
 11
325.0
 21
12.50000009867335
 31
0.0
  0
INSERT
  5
26F2
330
27F9
100
AcDbEntity
  8
0
100
AcDbBlockReference
  2
*U74
 10
0.0
 20
0.0000000986733539
 30
0.0
1001
ACAD
1000
DSTYLE
1002
{
1070
    41
1040
12.0
1070
    42
1040
20.0
1070
    43
1040
200.0
1070
    44
1040
20.0
1070
    73
1070
     0
1070
    74
1070
     0
1070
    77
1070
     1
1070
    78
1070
     8
1070
   140
1040
64.0
1070
   147
1040
50.0
1070
   172
1070
     1
1070
   174
1070
     1
1070
   275
1070
     0
1070
   284
1070
     0
1070
   285
1070
     0
1070
   286
1070
     0
1070
   341
1005
0
1070
   342
1005
0
1002
}
  0
INSERT
  5
26F3
330
27F9
100
AcDbEntity
  8
0
100
AcDbBlockReference
  2
*U75
 10
0.0
 20
0.0000000986733539
 30
0.0
  0
LINE
  5
26F4
330
27F9
100
AcDbEntity
  8
DETAIL
100
AcDbLine
 10
-325.0
 20
-86.99999990132617
 30
0.0
 11
325.0
 21
-86.99999990132663
 31
0.0
  0
LINE
  5
26F5
330
27F9
100
AcDbEntity
  8
DETAIL
100
AcDbLine
 10
-311.5
 20
-101.9999999013262
 30
0.0
 11
311.5
 21
-101.9999999013262
 31
0.0
  0
LINE
  5
26F6
330
27F9
100
AcDbEntity
  8
DETAIL
100
AcDbLine
 10
-350.0
 20
-9.999999901326646
 30
0.0
 11
350.0
 21
-9.999999901326646
 31
0.0
  0
LINE
  5
26F7
330
27F9
100
AcDbEntity
  8
DETAIL
100
AcDbLine
 10
325.0
 20
-661.9999999013259
 30
0.0
 11
-325.0
 21
-661.9999999013259
 31
0.0
  0
LINE
  5
26F8
330
27F9
100
AcDbEntity
  8
DETAIL
100
AcDbLine
 10
-311.5
 20
-682.9999999013259
 30
0.0
 11
-311.5
 21
-101.9999999013262
 31
0.0
  0
LINE
  5
26F9
330
27F9
100
AcDbEntity
  8
DETAIL
100
AcDbLine
 10
-325.0
 20
-86.99999990132663
 30
0.0
 11
-325.0
 21
-661.9999999013259
 31
0.0
  0
LINE
  5
26FA
330
27F9
100
AcDbEntity
  8
DETAIL
100
AcDbLine
 10
-350.0
 20
-9.999999901326646
 30
0.0
 11
-350.0
 21
0.0000000986733539
 31
0.0
  0
LINE
  5
26FB
330
27F9
100
AcDbEntity
  8
DETAIL
100
AcDbLine
 10
-311.5
 20
-86.99999990132617
 30
0.0
 11
-311.5
 21
-9.999999901326646
 31
0.0
  0
LINE
  5
26FC
330
27F9
100
AcDbEntity
  8
DETAIL
100
AcDbLine
 10
-311.5
 20
-86.99999990132617
 30
0.0
 11
-311.5
 21
-9.999999901326646
 31
0.0
  0
LINE
  5
26FD
330
27F9
100
AcDbEntity
  8
DETAIL
100
AcDbLine
 10
-311.5
 20
-206.9999999013261
 30
0.0
 11
-311.5
 21
-101.9999999013257
 31
0.0
  0
LINE
  5
26FE
330
27F9
100
AcDbEntity
  8
DETAIL
100
AcDbLine
 10
311.5
 20
-682.9999999013259
 30
0.0
 11
311.5
 21
-101.9999999013266
 31
0.0
  0
LINE
  5
26FF
330
27F9
100
AcDbEntity
  8
DETAIL
100
AcDbLine
 10
325.0
 20
-86.99999990132663
 30
0.0
 11
325.0
 21
-661.9999999013259
 31
0.0
  0
LINE
  5
2700
330
27F9
100
AcDbEntity
  8
DETAIL
100
AcDbLine
 10
311.5
 20
-86.9999999013271
 30
0.0
 11
311.5
 21
-9.999999901326646
 31
0.0
  0
LINE
  5
2701
330
27F9
100
AcDbEntity
  8
DETAIL
100
AcDbLine
 10
350.0
 20
-9.999999901326646
 30
0.0
 11
350.0
 21
0.0000000986733539
 31
0.0
  0
LINE
  5
2702
330
27F9
100
AcDbEntity
  8
DETAIL
100
AcDbLine
 10
143.5
 20
-661.9999999013259
 30
0.0
 11
280.0
 21
-661.9999999013259
 31
0.0
  0
LINE
  5
2703
330
27F9
100
AcDbEntity
  8
DETAIL
100
AcDbLine
 10
311.5
 20
-676.9999999013264
 30
0.0
 11
-311.5
 21
-676.9999999013264
 31
0.0
  0
LINE
  5
2704
330
27F9
100
AcDbEntity
  8
DETAIL
100
AcDbLine
 10
311.5
 20
-682.9999999013259
 30
0.0
 11
-311.5
 21
-682.9999999013259
 31
0.0
  0
LINE
  5
2705
330
27F9
100
AcDbEntity
  8
OUTLINE
100
AcDbLine
 10
-325.0
 20
-86.99999990132617
 30
0.0
 11
325.0
 21
-86.99999990132663
 31
0.0
  0
LINE
  5
2706
330
27F9
100
AcDbEntity
  8
OUTLINE
100
AcDbLine
 10
-311.5
 20
-101.9999999013262
 30
0.0
 11
311.5
 21
-101.9999999013262
 31
0.0
  0
LINE
  5
2707
330
27F9
100
AcDbEntity
  8
OUTLINE
100
AcDbLine
 10
-350.0
 20
-9.999999901326646
 30
0.0
 11
350.0
 21
-9.999999901326646
 31
0.0
  0
LINE
  5
2708
330
27F9
100
AcDbEntity
  8
OUTLINE
100
AcDbLine
 10
325.0
 20
-661.9999999013259
 30
0.0
 11
-325.0
 21
-661.9999999013259
 31
0.0
  0
LINE
  5
2709
330
27F9
100
AcDbEntity
  8
OUTLINE
100
AcDbLine
 10
-311.5
 20
-682.9999999013259
 30
0.0
 11
-311.5
 21
-101.9999999013262
 31
0.0
  0
LINE
  5
270A
330
27F9
100
AcDbEntity
  8
OUTLINE
100
AcDbLine
 10
-325.0
 20
-86.99999990132663
 30
0.0
 11
-325.0
 21
-661.9999999013259
 31
0.0
  0
LINE
  5
270B
330
27F9
100
AcDbEntity
  8
OUTLINE
100
AcDbLine
 10
-350.0
 20
-9.999999901326646
 30
0.0
 11
-350.0
 21
0.0000000986733539
 31
0.0
  0
LINE
  5
270C
330
27F9
100
AcDbEntity
  8
OUTLINE
100
AcDbLine
 10
-311.5
 20
-86.99999990132617
 30
0.0
 11
-311.5
 21
-9.999999901326646
 31
0.0
  0
LINE
  5
270D
330
27F9
100
AcDbEntity
  8
OUTLINE
100
AcDbLine
 10
-311.5
 20
-86.99999990132617
 30
0.0
 11
-311.5
 21
-9.999999901326646
 31
0.0
  0
LINE
  5
270E
330
27F9
100
AcDbEntity
  8
OUTLINE
100
AcDbLine
 10
-311.5
 20
-206.9999999013261
 30
0.0
 11
-311.5
 21
-101.9999999013257
 31
0.0
  0
LINE
  5
270F
330
27F9
100
AcDbEntity
  8
OUTLINE
100
AcDbLine
 10
311.5
 20
-682.9999999013259
 30
0.0
 11
311.5
 21
-101.9999999013266
 31
0.0
  0
LINE
  5
2710
330
27F9
100
AcDbEntity
  8
OUTLINE
100
AcDbLine
 10
325.0
 20
-86.99999990132663
 30
0.0
 11
325.0
 21
-661.9999999013259
 31
0.0
  0
LINE
  5
2711
330
27F9
100
AcDbEntity
  8
OUTLINE
100
AcDbLine
 10
311.5
 20
-86.9999999013271
 30
0.0
 11
311.5
 21
-9.999999901326646
 31
0.0
  0
LINE
  5
2712
330
27F9
100
AcDbEntity
  8
OUTLINE
100
AcDbLine
 10
350.0
 20
-9.999999901326646
 30
0.0
 11
350.0
 21
0.0000000986733539
 31
0.0
  0
LINE
  5
2713
330
27F9
100
AcDbEntity
  8
OUTLINE
100
AcDbLine
 10
143.5
 20
-661.9999999013259
 30
0.0
 11
280.0
 21
-661.9999999013259
 31
0.0
  0
LINE
  5
2714
330
27F9
100
AcDbEntity
  8
OUTLINE
100
AcDbLine
 10
311.5
 20
-676.9999999013264
 30
0.0
 11
-311.5
 21
-676.9999999013264
 31
0.0
  0
LINE
  5
2715
330
27F9
100
AcDbEntity
  8
OUTLINE
100
AcDbLine
 10
311.5
 20
-682.9999999013259
 30
0.0
 11
-311.5
 21
-682.9999999013259
 31
0.0
  0
LINE
  5
2716
330
27F9
100
AcDbEntity
  8
DETAIL
100
AcDbLine
 39
50.0
 10
-350.0
 20
0.0000000986733539
 30
0.0
 11
350.0
 21
0.0000000986733539
 31
0.0
  0
LINE
  5
2717
330
27F9
100
AcDbEntity
  8
NOTE
100
AcDbLine
 39
50.0
 10
312.5
 20
0.0000000986733539
 30
0.0
 11
337.5
 21
0.0000000986733539
 31
0.0
  0
LINE
  5
2718
330
27F9
100
AcDbEntity
  8
NOTE
100
AcDbLine
 39
50.0
 10
-337.5
 20
0.0000000986733539
 30
0.0
 11
-312.5
 21
0.0000000986733539
 31
0.0
  0
LINE
  5
2719
330
27F9
100
AcDbEntity
  8
OUTLINE
100
AcDbLine
 39
50.0
 10
-350.0
 20
0.0000000986733539
 30
0.0
 11
350.0
 21
0.0000000986733539
 31
0.0
  0
LINE
  5
271A
330
27F9
100
AcDbEntity
  8
DETAIL
100
AcDbLine
 10
-295.7000000000008
 20
-117.7999999013259
 30
0.0
 11
295.7000000000008
 21
-117.7999999013263
 31
0.0
  0
LINE
  5
271B
330
27F9
100
AcDbEntity
  8
DETAIL
100
AcDbLine
 10
295.7000000000008
 20
-646.1999999013259
 30
0.0
 11
-295.7000000000008
 21
-646.1999999013259
 31
0.0
  0
LINE
  5
271C
330
27F9
100
AcDbEntity
  8
DETAIL
100
AcDbLine
 10
-295.7000000000008
 20
-646.1999999013259
 30
0.0
 11
-295.7000000000008
 21
-117.7999999013263
 31
0.0
  0
LINE
  5
271D
330
27F9
100
AcDbEntity
  8
DETAIL
100
AcDbLine
 10
295.7000000000008
 20
-646.1999999013259
 30
0.0
 11
295.7000000000008
 21
-117.7999999013263
 31
0.0
  0
INSERT
  5
271E
330
27F9
100
AcDbEntity
  8
DETAIL
  6
Continuous
100
AcDbBlockReference
  2
*X76
 10
0.0
 20
0.0000000986733539
 30
0.0
1001
ACADANNOTATIVE
1000
AnnotativeData
1002
{
1070
     1
1070
     0
1002
}
1001
ACAD
1000
HATCH
1002
{
1070
    19
1000
LINE
1040
72.22849999999998
1040
5.838766301980094
1000
R14_HATCH_DATA
1000
5FB2
1011
1.0
1021
0.0000000986733539
1031
0.0
1011
0.0
1021
1.000000098673353
1031
0.0
1011
0.0
1021
0.0000000986733539
1031
1.0
1040
0.0
1010
0.0
1020
0.0
1030
1.0
1000
LINE
1070
     0
1070
     0
1071
        2
1071
        7
1070
     0
1070
     1
1071
        6
1040
79.90000000000145
1040
-117.7999999999997
1040
-295.7000000000008
1040
-117.7999999999993
1040
-295.7000000000008
1040
-646.1999999999989
1040
295.7000000000008
1040
-646.1999999999992
1040
295.6999999999971
1040
-311.5999999999995
1040
79.90000000000145
1040
-311.599999999999
1071
        0
1071
       23
1070
     0
1070
     1
1071
        4
1040
295.7000000000008
1040
-311.5999999999995
1040
295.7000000000008
1040
-117.7999999999997
1040
79.8999999999978
1040
-117.7999999999997
1040
79.90000000000145
1040
-311.5999999999995
1071
        0
1070
     0
1070
     1
1040
5.838766301980094
1040
72.22849999999998
1070
     0
1070
     1
1040
5.838766301980094
1040
19740.18060661414
1040
1984.738077190385
1040
3.881680532789153
1040
8.151533417570705
1070
     0
1040
0.9914607180040142
1071
        2
1040
-24.55209767610359
1040
-221.4084672804215
1040
0.0
1040
194.0751664770978
1040
-234.5013186024035
1040
0.0
1002
}
  0
INSERT
  5
271F
330
27F9
100
AcDbEntity
  8
DETAIL
  6
Continuous
100
AcDbBlockReference
  2
*X77
 10
0.0
 20
0.0000000986733539
 30
0.0
1001
ACADANNOTATIVE
1000
AnnotativeData
1002
{
1070
     1
1070
     0
1002
}
1001
ACAD
1000
HATCH
1002
{
1070
    19
1000
LINE
1040
72.22849999999998
1040
0.4444190051994898
1000
R14_HATCH_DATA
1000
5FB8
1011
1.0
1021
0.0000000986733539
1031
0.0
1011
0.0
1021
1.000000098673353
1031
0.0
1011
0.0
1021
0.0000000986733539
1031
1.0
1040
0.0
1010
0.0
1020
0.0
1030
1.0
1000
LINE
1070
     0
1070
     0
1071
        2
1071
        7
1070
     0
1070
     1
1071
        6
1040
79.90000000000145
1040
-117.7999999999997
1040
-295.7000000000008
1040
-117.7999999999993
1040
-295.7000000000008
1040
-646.1999999999989
1040
295.7000000000008
1040
-646.1999999999992
1040
295.6999999999971
1040
-311.5999999999995
1040
79.90000000000145
1040
-311.599999999999
1071
        0
1071
       23
1070
     0
1070
     1
1071
        4
1040
295.7000000000008
1040
-117.7999999999997
1040
79.8999999999978
1040
-117.7999999999997
1040
79.90000000000145
1040
-311.5999999999995
1040
295.7000000000008
1040
-311.5999999999995
1071
        0
1070
     0
1070
     1
1040
0.4444190051994898
1040
72.22849999999998
1070
     0
1070
     1
1040
0.4444190051994898
1040
19740.18060661414
1040
1984.738077190385
1040
-3.881680532789157
1040
8.151533417570702
1070
     0
1040
1.761085807118713
1071
        2
1040
-105.0562130968537
1040
-271.1427787808366
1040
0.0
1040
219.0675573120716
1040
-234.1238295722169
1040
0.0
1002
}
  0
LINE
  5
2720
330
27F9
100
AcDbEntity
  8
DETAIL
100
AcDbLine
 10
-295.7000000000008
 20
-117.7999999013259
 30
0.0
 11
295.7000000000008
 21
-117.7999999013263
 31
0.0
  0
LINE
  5
2721
330
27F9
100
AcDbEntity
  8
DETAIL
100
AcDbLine
 10
295.7000000000008
 20
-646.1999999013259
 30
0.0
 11
-295.7000000000008
 21
-646.1999999013259
 31
0.0
  0
LINE
  5
2722
330
27F9
100
AcDbEntity
  8
DETAIL
100
AcDbLine
 10
-295.7000000000008
 20
-646.1999999013259
 30
0.0
 11
-295.7000000000008
 21
-117.7999999013263
 31
0.0
  0
LINE
  5
2723
330
27F9
100
AcDbEntity
  8
DETAIL
100
AcDbLine
 10
295.7000000000008
 20
-646.1999999013259
 30
0.0
 11
295.7000000000008
 21
-117.7999999013263
 31
0.0
  0
LINE
  5
2724
330
27F9
100
AcDbEntity
  8
SIZE
100
AcDbLine
 10
325.0
 20
32.50000009867335
 30
0.0
 11
325.0
 21
181.9134197055537
 31
0.0
  0
LINE
  5
2725
330
27F9
100
AcDbEntity
  8
SIZE
100
AcDbLine
 10
-325.0
 20
32.50000009867335
 30
0.0
 11
-325.0
 21
181.9134197055537
 31
0.0
  0
LINE
  5
2726
330
27F9
100
AcDbEntity
  8
SIZE
100
AcDbLine
 10
313.0
 20
161.9134197055537
 30
0.0
 11
-313.0
 21
161.9134197055537
 31
0.0
  0
INSERT
  5
2727
330
27F9
100
AcDbEntity
  8
SIZE
100
AcDbBlockReference
  2
_DOTBLANK
 10
325.0
 20
161.9134197055537
 30
0.0
 41
12.0
 42
12.0
 43
12.0
  0
INSERT
  5
2728
330
27F9
100
AcDbEntity
  8
SIZE
100
AcDbBlockReference
  2
_DOTBLANK
 10
-325.0
 20
161.9134197055537
 30
0.0
 41
12.0
 42
12.0
 43
12.0
 50
180.0
  0
LINE
  5
2729
330
27F9
100
AcDbEntity
  8
SIZE
100
AcDbLine
 10
350.0
 20
20.00000009867335
 30
0.0
 11
350.0
 21
297.6865930351905
 31
0.0
  0
LINE
  5
272A
330
27F9
100
AcDbEntity
  8
SIZE
100
AcDbLine
 10
-350.0
 20
20.00000009867335
 30
0.0
 11
-350.0
 21
297.6865930351905
 31
0.0
  0
LINE
  5
272B
330
27F9
100
AcDbEntity
  8
SIZE
100
AcDbLine
 10
338.0
 20
277.6865930351905
 30
0.0
 11
-338.0
 21
277.6865930351905
 31
0.0
  0
INSERT
  5
272C
330
27F9
100
AcDbEntity
  8
SIZE
100
AcDbBlockReference
  2
_DOTBLANK
 10
350.0
 20
277.6865930351905
 30
0.0
 41
12.0
 42
12.0
 43
12.0
  0
INSERT
  5
272D
330
27F9
100
AcDbEntity
  8
SIZE
100
AcDbBlockReference
  2
_DOTBLANK
 10
-350.0
 20
277.6865930351905
 30
0.0
 41
12.0
 42
12.0
 43
12.0
 50
180.0
  0
LINE
  5
272E
330
27F9
100
AcDbEntity
  8
SIZE
100
AcDbLine
 10
-345.0
 20
-661.9999999013259
 30
0.0
 11
-543.5633253057089
 21
-661.9999999013259
 31
0.0
  0
LINE
  5
272F
330
27F9
100
AcDbEntity
  8
SIZE
100
AcDbLine
 10
-331.5
 20
-682.9999999013259
 30
0.0
 11
-543.5633253057089
 21
-682.9999999013259
 31
0.0
  0
LINE
  5
2730
330
27F9
100
AcDbEntity
  8
SIZE
100
AcDbLine
 10
-523.5633253057089
 20
-649.9999999013262
 30
0.0
 11
-523.5633253057089
 21
-637.9999999013262
 31
0.0
  0
LINE
  5
2731
330
27F9
100
AcDbEntity
  8
SIZE
100
AcDbLine
 10
-523.5633253057089
 20
-694.9999999013264
 30
0.0
 11
-523.5633253057094
 21
-795.5714284727548
 31
0.0
  0
INSERT
  5
2732
330
27F9
100
AcDbEntity
  8
SIZE
100
AcDbBlockReference
  2
_DOTBLANK
 10
-523.5633253057089
 20
-661.9999999013259
 30
0.0
 41
12.0
 42
12.0
 43
12.0
 50
270.0
  0
INSERT
  5
2733
330
27F9
100
AcDbEntity
  8
SIZE
100
AcDbBlockReference
  2
_DOTBLANK
 10
-523.5633253057089
 20
-682.9999999013259
 30
0.0
 41
12.0
 42
12.0
 43
12.0
 50
90.0
  0
LINE
  5
2734
330
27F9
100
AcDbEntity
  8
SIZE
100
AcDbLine
 10
-345.0
 20
-661.9999999013259
 30
0.0
 11
-543.5633253057094
 21
-661.9999999013259
 31
0.0
  0
LINE
  5
2735
330
27F9
100
AcDbEntity
  8
SIZE
100
AcDbLine
 10
-370.0
 20
0.0000000986733539
 30
0.0
 11
-543.5633253057089
 21
0.0000000986733539
 31
0.0
  0
LINE
  5
2736
330
27F9
100
AcDbEntity
  8
SIZE
100
AcDbLine
 10
-523.5633253057094
 20
-649.9999999013262
 30
0.0
 11
-523.5633253057089
 21
-11.99999990132664
 31
0.0
  0
INSERT
  5
2737
330
27F9
100
AcDbEntity
  8
SIZE
100
AcDbBlockReference
  2
_DOTBLANK
 10
-523.5633253057094
 20
-661.9999999013259
 30
0.0
 41
12.0
 42
12.0
 43
12.0
 50
270.0
  0
INSERT
  5
2738
330
27F9
100
AcDbEntity
  8
SIZE
100
AcDbBlockReference
  2
_DOTBLANK
 10
-523.5633253057089
 20
0.0000000986733539
 30
0.0
 41
12.0
 42
12.0
 43
12.0
 50
90.0
  0
LINE
  5
2739
330
27F9
100
AcDbEntity
  8
SIZE
100
AcDbLine
 10
325.0
 20
-681.9999999013259
 30
0.0
 11
325.0
 21
-883.4116713904327
 31
0.0
  0
LINE
  5
273A
330
27F9
100
AcDbEntity
  8
SIZE
100
AcDbLine
 10
-325.0
 20
-681.9999999013259
 30
0.0
 11
-325.0
 21
-883.4116713904327
 31
0.0
  0
LINE
  5
273B
330
27F9
100
AcDbEntity
  8
SIZE
100
AcDbLine
 10
313.0
 20
-863.4116713904328
 30
0.0
 11
-313.0
 21
-863.4116713904328
 31
0.0
  0
INSERT
  5
273C
330
27F9
100
AcDbEntity
  8
SIZE
100
AcDbBlockReference
  2
_DOTBLANK
 10
325.0
 20
-863.4116713904328
 30
0.0
 41
12.0
 42
12.0
 43
12.0
  0
INSERT
  5
273D
330
27F9
100
AcDbEntity
  8
SIZE
100
AcDbBlockReference
  2
_DOTBLANK
 10
-325.0
 20
-863.4116713904328
 30
0.0
 41
12.0
 42
12.0
 43
12.0
 50
180.0
  0
LINE
  5
273E
330
27F9
100
AcDbEntity
  8
SIZE
100
AcDbLine
 10
370.0
 20
0.0000000986733539
 30
0.0
 11
474.9073130872019
 21
0.0000000986733539
 31
0.0
  0
LINE
  5
273F
330
27F9
100
AcDbEntity
  8
SIZE
100
AcDbLine
 10
370.0
 20
-9.999999901326646
 30
0.0
 11
474.9073130872019
 21
-9.999999901326646
 31
0.0
  0
LINE
  5
2740
330
27F9
100
AcDbEntity
  8
SIZE
100
AcDbLine
 10
454.9073130872019
 20
12.00000009867335
 30
0.0
 11
454.9073130872019
 21
24.00000009867336
 31
0.0
  0
LINE
  5
2741
330
27F9
100
AcDbEntity
  8
SIZE
100
AcDbLine
 10
454.9073130872019
 20
-21.99999990132665
 30
0.0
 11
454.9073130872019
 21
-136.285714187041
 31
0.0
  0
INSERT
  5
2742
330
27F9
100
AcDbEntity
  8
SIZE
100
AcDbBlockReference
  2
_DOTBLANK
 10
454.9073130872019
 20
0.0000000986733539
 30
0.0
 41
12.0
 42
12.0
 43
12.0
 50
270.0
  0
INSERT
  5
2743
330
27F9
100
AcDbEntity
  8
SIZE
100
AcDbBlockReference
  2
_DOTBLANK
 10
454.9073130872019
 20
-9.999999901326646
 30
0.0
 41
12.0
 42
12.0
 43
12.0
 50
90.0
  0
TEXT
  5
2744
330
27F9
100
AcDbEntity
  8
SIZE
100
AcDbText
 10
-74.05714285714248
 20
-853.411671390433
 30
0.0
 40
64.0
  1
650
 41
0.9
100
AcDbText
  0
TEXT
  5
2745
330
27F9
100
AcDbEntity
  8
SIZE
100
AcDbText
 10
-533.5633253057088
 20
-785.5714284727541
 30
0.0
 40
64.0
  1
21
 50
90.0
 41
0.9
100
AcDbText
  0
TEXT
  5
2746
330
27F9
100
AcDbEntity
  8
SIZE
100
AcDbText
 10
-533.5633253057088
 20
-406.0571427584688
 30
0.0
 40
64.0
  1
662
 50
90.0
 41
0.9
100
AcDbText
  0
TEXT
  5
2747
330
27F9
100
AcDbEntity
  8
SIZE
100
AcDbText
 10
-74.61302049113554
 20
171.9134197055536
 30
0.0
 40
64.0
  1
650
 41
0.9
100
AcDbText
  0
TEXT
  5
2748
330
27F9
100
AcDbEntity
  8
SIZE
100
AcDbText
 10
-74.05714285714248
 20
287.6865930351905
 30
0.0
 40
64.0
  1
700
 41
0.9
100
AcDbText
  0
TEXT
  5
2749
330
27F9
100
AcDbEntity
  8
SIZE
100
AcDbText
 10
444.9073130872021
 20
-126.2857141870408
 30
0.0
 40
64.0
  1
10
 50
90.0
 41
0.9
100
AcDbText
  0
ENDSEC
  0
SECTION
  2
OBJECTS
  0
DICTIONARY
  5
2791
330
0
100
AcDbDictionary
281
     1
  3
ACAD_2007HEADERVARS_RT
350
29E7
  3
ACAD_COLOR
350
27EF
  3
ACAD_GROUP
350
2792
  3
ACAD_LAYOUT
350
27EE
  3
ACAD_MATERIAL
350
2795
  3
ACAD_MLEADERSTYLE
350
27F2
  3
ACAD_MLINESTYLE
350
27EB
  3
ACAD_PLOTSETTINGS
350
27ED
  3
ACAD_PLOTSTYLENAME
350
2793
  3
ACAD_SCALELIST
350
27BF
  3
ACAD_TABLESTYLE
350
27F0
  3
ACAD_VISUALSTYLE
350
27AE
  3
ACDB_RECOMPOSE_DATA
350
29E5
  3
AcDbVariableDictionary
350
29DC
  3
AcmDictionary
350
298F
  3
AMG
350
28DC
  3
DWGPROPS
350
29E6
  3
MAPISURF_MODULE
350
295C
  0
DICTIONARY
  5
29B7
330
27E1
100
AcDbDictionary
280
     1
281
     1
  3
ADSK_XREC_LAYER_RECONCILED
360
29B8
  0
DICTIONARY
  5
29B9
330
2810
100
AcDbDictionary
280
     1
281
     1
  3
ADSK_XREC_LAYER_RECONCILED
360
29BA
  0
DICTIONARY
  5
29BB
330
2811
100
AcDbDictionary
280
     1
281
     1
  3
ADSK_XREC_LAYER_RECONCILED
360
29BC
  0
DICTIONARY
  5
29BD
330
2812
100
AcDbDictionary
280
     1
281
     1
  3
ADSK_XREC_LAYER_RECONCILED
360
29BE
  0
DICTIONARY
  5
29BF
330
2813
100
AcDbDictionary
280
     1
281
     1
  3
ADSK_XREC_LAYER_RECONCILED
360
29C0
  0
DICTIONARY
  5
29C1
330
2814
100
AcDbDictionary
280
     1
281
     1
  3
ADSK_XREC_LAYER_RECONCILED
360
29C2
  0
DICTIONARY
  5
29C3
330
2816
100
AcDbDictionary
280
     1
281
     1
  3
ADSK_XREC_LAYER_RECONCILED
360
29C4
  0
DICTIONARY
  5
29C5
330
2817
100
AcDbDictionary
280
     1
281
     1
  3
ADSK_XREC_LAYER_RECONCILED
360
29C6
  0
DICTIONARY
  5
29C7
330
2818
100
AcDbDictionary
280
     1
281
     1
  3
ADSK_XREC_LAYER_RECONCILED
360
29C8
  0
DICTIONARY
  5
29C9
330
2819
100
AcDbDictionary
280
     1
281
     1
  3
ADSK_XREC_LAYER_RECONCILED
360
29CA
  0
DICTIONARY
  5
29CB
330
281A
100
AcDbDictionary
280
     1
281
     1
  3
ADSK_XREC_LAYER_RECONCILED
360
29CC
  0
DICTIONARY
  5
29CD
330
27F9
100
AcDbDictionary
280
     1
281
     1
  3
ACAD_INDEX
360
29CE
  0
DICTIONARY
  5
29E7
102
{ACAD_REACTORS
330
2791
102
}
330
2791
100
AcDbDictionary
281
     1
  3
DIMARCSYM
350
29E8
  3
DIMLTEX1
350
29EA
  3
DIMLTEX2
350
29EB
  3
DIMLTYPE
350
29E9
  0
DICTIONARY
  5
27EF
102
{ACAD_REACTORS
330
2791
102
}
330
2791
100
AcDbDictionary
281
     1
  0
DICTIONARY
  5
2792
102
{ACAD_REACTORS
330
2791
102
}
330
2791
100
AcDbDictionary
281
     1
  0
DICTIONARY
  5
27EE
102
{ACAD_REACTORS
330
2791
102
}
330
2791
100
AcDbDictionary
281
     1
  3
Model
350
27FC
  3
レイアウト1
350
27F8
  0
DICTIONARY
  5
2795
102
{ACAD_REACTORS
330
2791
102
}
330
2791
100
AcDbDictionary
281
     1
  3
ByBlock
350
279E
  3
ByLayer
350
2796
  3
Global
350
27A6
  0
DICTIONARY
  5
27F2
102
{ACAD_REACTORS
330
2791
102
}
330
2791
100
AcDbDictionary
281
     1
  3
Standard
350
27F3
  0
DICTIONARY
  5
27EB
102
{ACAD_REACTORS
330
2791
102
}
330
2791
100
AcDbDictionary
281
     1
  3
Standard
350
27EC
  0
DICTIONARY
  5
27ED
102
{ACAD_REACTORS
330
2791
102
}
330
2791
100
AcDbDictionary
281
     1
  0
ACDBDICTIONARYWDFLT
  5
2793
102
{ACAD_REACTORS
330
2791
102
}
330
2791
100
AcDbDictionary
281
     1
  3
Normal
350
2794
100
AcDbDictionaryWithDefault
340
2794
  0
DICTIONARY
  5
27BF
102
{ACAD_REACTORS
330
2791
102
}
330
2791
100
AcDbDictionary
281
     1
  3
A0
350
27C0
  3
A1
350
27C1
  3
A2
350
27C2
  3
A3
350
27C3
  3
A4
350
27C4
  3
A5
350
27C5
  3
A6
350
27C6
  3
A7
350
27C7
  3
A8
350
27C8
  3
A9
350
27C9
  3
B0
350
27CA
  3
B1
350
27CB
  3
B2
350
27CC
  3
B3
350
27CD
  3
B4
350
27CE
  3
B5
350
27CF
  3
B6
350
27D0
  3
B7
350
27D1
  3
B8
350
27D2
  3
B9
350
27D3
  3
C0
350
27D4
  3
C1
350
27D5
  3
C2
350
27D6
  3
C3
350
27D7
  3
C4
350
27D8
  3
C5
350
27D9
  3
C6
350
27DA
  3
C7
350
27DB
  3
C8
350
27DC
  3
C9
350
27DD
  3
D0
350
27DE
  3
D1
350
27DF
  3
D2
350
27E0
  0
DICTIONARY
  5
27F0
102
{ACAD_REACTORS
330
2791
102
}
330
2791
100
AcDbDictionary
281
     1
  3
Standard
350
27F1
  0
DICTIONARY
  5
27AE
102
{ACAD_REACTORS
330
2791
102
}
330
2791
100
AcDbDictionary
281
     1
  3
2dWireframe
350
27B4
  3
3D Hidden
350
27B6
  3
3dWireframe
350
27B5
  3
Basic
350
27B3
  3
Brighten
350
27BA
  3
ColorChange
350
27BE
  3
Conceptual
350
27B7
  3
Dim
350
27B9
  3
Facepattern
350
27BD
  3
Flat
350
27AF
  3
FlatWithEdges
350
27B0
  3
Gouraud
350
27B1
  3
GouraudWithEdges
350
27B2
  3
Linepattern
350
27BC
  3
Realistic
350
27B8
  3
Thicken
350
27BB
  0
XRECORD
  5
29E5
102
{ACAD_REACTORS
330
2791
102
}
330
2791
100
AcDbXrecord
280
     1
 90
        1
330
27F1
  0
DICTIONARY
  5
29DC
102
{ACAD_REACTORS
330
2791
102
}
330
2791
100
AcDbDictionary
281
     1
  3
CANNOSCALE
350
29DF
  3
CMLEADERSTYLE
350
29DE
  3
CTABLESTYLE
350
29DD
  3
DIMASSOC
350
29E2
  3
INDEXCTL
350
29E1
  3
SORTENTS
350
29E0
  0
DICTIONARY
  5
298F
102
{ACAD_REACTORS
330
2791
102
}
330
2791
100
AcDbDictionary
281
     1
  3
AcmStdDictionary
350
299D
  0
DICTIONARY
  5
28DC
102
{ACAD_REACTORS
330
2791
102
}
330
2791
100
AcDbDictionary
281
     1
  3
AcMgSettings
350
28DD
  0
XRECORD
  5
29E6
102
{ACAD_REACTORS
330
2791
102
}
330
2791
100
AcDbXrecord
280
     1
  1
DWGPROPS COOKIE
  2

  3

  4

  6

  7

  8
A090053
  9

300
AmdtFileType=84
301
=
302
=
303
=
304
=
305
=
306
=
307
=
308
=
309
=
 40
1.040863819444444
 41
2452321.396199653
 42
2456212.848111782
  1

 90
        1
  0
XRECORD
  5
29B8
102
{ACAD_REACTORS
330
29B7
102
}
330
29B7
100
AcDbXrecord
280
     1
290
     1
  0
XRECORD
  5
29BA
102
{ACAD_REACTORS
330
29B9
102
}
330
29B9
100
AcDbXrecord
280
     1
290
     1
  0
XRECORD
  5
29BC
102
{ACAD_REACTORS
330
29BB
102
}
330
29BB
100
AcDbXrecord
280
     1
290
     1
  0
XRECORD
  5
29BE
102
{ACAD_REACTORS
330
29BD
102
}
330
29BD
100
AcDbXrecord
280
     1
290
     1
  0
XRECORD
  5
29C0
102
{ACAD_REACTORS
330
29BF
102
}
330
29BF
100
AcDbXrecord
280
     1
290
     1
  0
XRECORD
  5
29C2
102
{ACAD_REACTORS
330
29C1
102
}
330
29C1
100
AcDbXrecord
280
     1
290
     1
  0
XRECORD
  5
29C4
102
{ACAD_REACTORS
330
29C3
102
}
330
29C3
100
AcDbXrecord
280
     1
290
     1
  0
XRECORD
  5
29C6
102
{ACAD_REACTORS
330
29C5
102
}
330
29C5
100
AcDbXrecord
280
     1
290
     1
  0
XRECORD
  5
29C8
102
{ACAD_REACTORS
330
29C7
102
}
330
29C7
100
AcDbXrecord
280
     1
290
     1
  0
XRECORD
  5
29CA
102
{ACAD_REACTORS
330
29C9
102
}
330
29C9
100
AcDbXrecord
280
     1
290
     1
  0
XRECORD
  5
29CC
102
{ACAD_REACTORS
330
29CB
102
}
330
29CB
100
AcDbXrecord
280
     1
290
     1
  0
DICTIONARY
  5
29CE
102
{ACAD_REACTORS
330
29CD
102
}
330
29CD
100
AcDbDictionary
281
     1
  3
*A1
350
29CF
  0
XRECORD
  5
29E8
102
{ACAD_REACTORS
330
29E7
102
}
330
29E7
100
AcDbXrecord
280
     1
 70
     1
  0
XRECORD
  5
29EA
102
{ACAD_REACTORS
330
29E7
102
}
330
29E7
100
AcDbXrecord
280
     1
340
27E7
  0
XRECORD
  5
29EB
102
{ACAD_REACTORS
330
29E7
102
}
330
29E7
100
AcDbXrecord
280
     1
340
27E7
  0
XRECORD
  5
29E9
102
{ACAD_REACTORS
330
29E7
102
}
330
29E7
100
AcDbXrecord
280
     1
340
27E7
  0
LAYOUT
  5
27FC
102
{ACAD_XDICTIONARY
360
29F2
102
}
102
{ACAD_REACTORS
330
27EE
102
}
330
27EE
100
AcDbPlotSettings
  1

  2
自動 EPSON LP-9600S (W2450527 上)
  4

  6

 40
0.0
 41
0.0
 42
0.0
 43
0.0
 44
0.0
 45
0.0
 46
0.0
 47
0.0
 48
0.0
 49
0.0
140
0.0
141
0.0
142
1.0
143
1.0
 70
  1712
 72
     0
 73
     0
 74
     0
  7

 75
     0
147
1.0
148
0.0
149
0.0
100
AcDbLayout
  1
Model
 70
     1
 71
     0
 10
0.0
 20
0.0
 11
12.0
 21
9.0
 12
0.0
 22
0.0
 32
0.0
 14
0.0
 24
0.0
 34
0.0
 15
0.0
 25
0.0
 35
0.0
146
0.0
 13
0.0
 23
0.0
 33
0.0
 16
1.0
 26
0.0
 36
0.0
 17
0.0
 27
1.0
 37
0.0
 76
     0
330
27F9
331
27FD
  0
LAYOUT
  5
27F8
102
{ACAD_XDICTIONARY
360
29F0
102
}
102
{ACAD_REACTORS
330
27EE
102
}
330
27EE
100
AcDbPlotSettings
  1

  2
自動 EPSON LP-9600S (W2450527 上)
  4

  6

 40
0.0
 41
0.0
 42
0.0
 43
0.0
 44
0.0
 45
0.0
 46
0.0
 47
0.0
 48
0.0
 49
0.0
140
0.0
141
0.0
142
1.0
143
1.0
 70
   688
 72
     0
 73
     0
 74
     5
  7

 75
    16
147
1.0
148
0.0
149
0.0
100
AcDbLayout
  1
レイアウト1
 70
     1
 71
     1
 10
0.0
 20
0.0
 11
12.0
 21
9.0
 12
0.0
 22
0.0
 32
0.0
 14
1.000000000000000E+20
 24
1.000000000000000E+20
 34
1.000000000000000E+20
 15
-1.000000000000000E+20
 25
-1.000000000000000E+20
 35
-1.000000000000000E+20
146
0.0
 13
0.0
 23
0.0
 33
0.0
 16
1.0
 26
0.0
 36
0.0
 17
0.0
 27
1.0
 37
0.0
 76
     0
330
27F5
  0
MATERIAL
  5
279E
102
{ACAD_XDICTIONARY
360
279F
102
}
102
{ACAD_REACTORS
330
2795
102
}
330
2795
100
AcDbMaterial
  1
ByBlock
 72
     0
 43
0.0208333333333333
 43
0.0
 43
0.0
 43
0.0
 43
0.0
 43
0.0208333333333333
 43
0.0
 43
0.0
 43
0.0
 43
0.0
 43
1.0
 43
0.0
 43
0.0
 43
0.0
 43
0.0
 43
1.0
 77
     0
 47
0.0208333333333333
 47
0.0
 47
0.0
 47
0.0
 47
0.0
 47
0.0208333333333333
 47
0.0
 47
0.0
 47
0.0
 47
0.0
 47
1.0
 47
0.0
 47
0.0
 47
0.0
 47
0.0
 47
1.0
171
     0
 49
0.0208333333333333
 49
0.0
 49
0.0
 49
0.0
 49
0.0
 49
0.0208333333333333
 49
0.0
 49
0.0
 49
0.0
 49
0.0
 49
1.0
 49
0.0
 49
0.0
 49
0.0
 49
0.0
 49
1.0
175
     0
142
0.0208333333333333
142
0.0
142
0.0
142
0.0
142
0.0
142
0.0208333333333333
142
0.0
142
0.0
142
0.0
142
0.0
142
1.0
142
0.0
142
0.0
142
0.0
142
0.0
142
1.0
179
     0
144
0.0208333333333333
144
0.0
144
0.0
144
0.0
144
0.0
144
0.0208333333333333
144
0.0
144
0.0
144
0.0
144
0.0
144
1.0
144
0.0
144
0.0
144
0.0
144
0.0
144
1.0
147
0.0208333333333333
147
0.0
147
0.0
147
0.0
147
0.0
147
0.0208333333333333
147
0.0
147
0.0
147
0.0
147
0.0
147
1.0
147
0.0
147
0.0
147
0.0
147
0.0
147
1.0
  0
MATERIAL
  5
2796
102
{ACAD_XDICTIONARY
360
2797
102
}
102
{ACAD_REACTORS
330
2795
102
}
330
2795
100
AcDbMaterial
  1
ByLayer
 72
     0
 43
0.0208333333333333
 43
0.0
 43
0.0
 43
0.0
 43
0.0
 43
0.0208333333333333
 43
0.0
 43
0.0
 43
0.0
 43
0.0
 43
1.0
 43
0.0
 43
0.0
 43
0.0
 43
0.0
 43
1.0
 77
     0
 47
0.0208333333333333
 47
0.0
 47
0.0
 47
0.0
 47
0.0
 47
0.0208333333333333
 47
0.0
 47
0.0
 47
0.0
 47
0.0
 47
1.0
 47
0.0
 47
0.0
 47
0.0
 47
0.0
 47
1.0
171
     0
 49
0.0208333333333333
 49
0.0
 49
0.0
 49
0.0
 49
0.0
 49
0.0208333333333333
 49
0.0
 49
0.0
 49
0.0
 49
0.0
 49
1.0
 49
0.0
 49
0.0
 49
0.0
 49
0.0
 49
1.0
175
     0
142
0.0208333333333333
142
0.0
142
0.0
142
0.0
142
0.0
142
0.0208333333333333
142
0.0
142
0.0
142
0.0
142
0.0
142
1.0
142
0.0
142
0.0
142
0.0
142
0.0
142
1.0
179
     0
144
0.0208333333333333
144
0.0
144
0.0
144
0.0
144
0.0
144
0.0208333333333333
144
0.0
144
0.0
144
0.0
144
0.0
144
1.0
144
0.0
144
0.0
144
0.0
144
0.0
144
1.0
147
0.0208333333333333
147
0.0
147
0.0
147
0.0
147
0.0
147
0.0208333333333333
147
0.0
147
0.0
147
0.0
147
0.0
147
1.0
147
0.0
147
0.0
147
0.0
147
0.0
147
1.0
  0
MATERIAL
  5
27A6
102
{ACAD_XDICTIONARY
360
27A7
102
}
102
{ACAD_REACTORS
330
2795
102
}
330
2795
100
AcDbMaterial
  1
Global
 72
     0
 43
0.0208333333333333
 43
0.0
 43
0.0
 43
0.0
 43
0.0
 43
0.0208333333333333
 43
0.0
 43
0.0
 43
0.0
 43
0.0
 43
1.0
 43
0.0
 43
0.0
 43
0.0
 43
0.0
 43
1.0
 77
     0
 47
0.0208333333333333
 47
0.0
 47
0.0
 47
0.0
 47
0.0
 47
0.0208333333333333
 47
0.0
 47
0.0
 47
0.0
 47
0.0
 47
1.0
 47
0.0
 47
0.0
 47
0.0
 47
0.0
 47
1.0
171
     0
 49
0.0208333333333333
 49
0.0
 49
0.0
 49
0.0
 49
0.0
 49
0.0208333333333333
 49
0.0
 49
0.0
 49
0.0
 49
0.0
 49
1.0
 49
0.0
 49
0.0
 49
0.0
 49
0.0
 49
1.0
175
     0
142
0.0208333333333333
142
0.0
142
0.0
142
0.0
142
0.0
142
0.0208333333333333
142
0.0
142
0.0
142
0.0
142
0.0
142
1.0
142
0.0
142
0.0
142
0.0
142
0.0
142
1.0
179
     0
144
0.0208333333333333
144
0.0
144
0.0
144
0.0
144
0.0
144
0.0208333333333333
144
0.0
144
0.0
144
0.0
144
0.0
144
1.0
144
0.0
144
0.0
144
0.0
144
0.0
144
1.0
147
0.0208333333333333
147
0.0
147
0.0
147
0.0
147
0.0
147
0.0208333333333333
147
0.0
147
0.0
147
0.0
147
0.0
147
1.0
147
0.0
147
0.0
147
0.0
147
0.0
147
1.0
  0
MLEADERSTYLE
  5
27F3
102
{ACAD_REACTORS
330
27F2
102
}
330
27F2
100
AcDbMLeaderStyle
170
     2
171
     1
172
     0
 90
        2
 40
0.0
 41
0.0
173
     1
 91
-1056964608
340
27E7
 92
       -2
290
     1
 42
0.09
291
     1
 43
0.36
  3
Standard
 44
0.18
300

342
27E2
174
     1
178
     6
175
     1
176
     0
 93
-1056964608
 45
0.18
292
     0
297
     0
 46
0.18
 94
-1056964608
 47
1.0
 49
1.0
140
1.0
293
     1
141
0.0
294
     1
177
     0
142
1.0
295
     0
296
     0
143
0.125
1001
ACAD_MLEADERVER
1070
     2
  0
MLINESTYLE
  5
27EC
102
{ACAD_REACTORS
330
27EB
102
}
330
27EB
100
AcDbMlineStyle
  2
STANDARD
 70
     0
  3

 62
   256
 51
90.0
 52
90.0
 71
     2
 49
0.5
 62
   256
  6
BYLAYER
 49
-0.5
 62
   256
  6
BYLAYER
  0
ACDBPLACEHOLDER
  5
2794
102
{ACAD_REACTORS
330
2793
102
}
330
2793
  0
SCALE
  5
27C0
102
{ACAD_REACTORS
330
27BF
102
}
330
27BF
100
AcDbScale
 70
     0
300
1:1
140
1.0
141
1.0
290
     1
  0
SCALE
  5
27C1
102
{ACAD_REACTORS
330
27BF
102
}
330
27BF
100
AcDbScale
 70
     0
300
1:2
140
1.0
141
2.0
290
     0
  0
SCALE
  5
27C2
102
{ACAD_REACTORS
330
27BF
102
}
330
27BF
100
AcDbScale
 70
     0
300
1:4
140
1.0
141
4.0
290
     0
  0
SCALE
  5
27C3
102
{ACAD_REACTORS
330
27BF
102
}
330
27BF
100
AcDbScale
 70
     0
300
1:5
140
1.0
141
5.0
290
     0
  0
SCALE
  5
27C4
102
{ACAD_REACTORS
330
27BF
102
}
330
27BF
100
AcDbScale
 70
     0
300
1:8
140
1.0
141
8.0
290
     0
  0
SCALE
  5
27C5
102
{ACAD_REACTORS
330
27BF
102
}
330
27BF
100
AcDbScale
 70
     0
300
1:10
140
1.0
141
10.0
290
     0
  0
SCALE
  5
27C6
102
{ACAD_REACTORS
330
27BF
102
}
330
27BF
100
AcDbScale
 70
     0
300
1:16
140
1.0
141
16.0
290
     0
  0
SCALE
  5
27C7
102
{ACAD_REACTORS
330
27BF
102
}
330
27BF
100
AcDbScale
 70
     0
300
1:20
140
1.0
141
20.0
290
     0
  0
SCALE
  5
27C8
102
{ACAD_REACTORS
330
27BF
102
}
330
27BF
100
AcDbScale
 70
     0
300
1:30
140
1.0
141
30.0
290
     0
  0
SCALE
  5
27C9
102
{ACAD_REACTORS
330
27BF
102
}
330
27BF
100
AcDbScale
 70
     0
300
1:40
140
1.0
141
40.0
290
     0
  0
SCALE
  5
27CA
102
{ACAD_REACTORS
330
27BF
102
}
330
27BF
100
AcDbScale
 70
     0
300
1:50
140
1.0
141
50.0
290
     0
  0
SCALE
  5
27CB
102
{ACAD_REACTORS
330
27BF
102
}
330
27BF
100
AcDbScale
 70
     0
300
1:100
140
1.0
141
100.0
290
     0
  0
SCALE
  5
27CC
102
{ACAD_REACTORS
330
27BF
102
}
330
27BF
100
AcDbScale
 70
     0
300
2:1
140
2.0
141
1.0
290
     0
  0
SCALE
  5
27CD
102
{ACAD_REACTORS
330
27BF
102
}
330
27BF
100
AcDbScale
 70
     0
300
4:1
140
4.0
141
1.0
290
     0
  0
SCALE
  5
27CE
102
{ACAD_REACTORS
330
27BF
102
}
330
27BF
100
AcDbScale
 70
     0
300
8:1
140
8.0
141
1.0
290
     0
  0
SCALE
  5
27CF
102
{ACAD_REACTORS
330
27BF
102
}
330
27BF
100
AcDbScale
 70
     0
300
10:1
140
10.0
141
1.0
290
     0
  0
SCALE
  5
27D0
102
{ACAD_REACTORS
330
27BF
102
}
330
27BF
100
AcDbScale
 70
     0
300
100:1
140
100.0
141
1.0
290
     0
  0
SCALE
  5
27D1
102
{ACAD_REACTORS
330
27BF
102
}
330
27BF
100
AcDbScale
 70
     0
300
1/128" = 1'-0"
140
0.0078125
141
12.0
290
     0
  0
SCALE
  5
27D2
102
{ACAD_REACTORS
330
27BF
102
}
330
27BF
100
AcDbScale
 70
     0
300
1/64" = 1'-0"
140
0.015625
141
12.0
290
     0
  0
SCALE
  5
27D3
102
{ACAD_REACTORS
330
27BF
102
}
330
27BF
100
AcDbScale
 70
     0
300
1/32" = 1'-0"
140
0.03125
141
12.0
290
     0
  0
SCALE
  5
27D4
102
{ACAD_REACTORS
330
27BF
102
}
330
27BF
100
AcDbScale
 70
     0
300
1/16" = 1'-0"
140
0.0625
141
12.0
290
     0
  0
SCALE
  5
27D5
102
{ACAD_REACTORS
330
27BF
102
}
330
27BF
100
AcDbScale
 70
     0
300
3/32" = 1'-0"
140
0.09375
141
12.0
290
     0
  0
SCALE
  5
27D6
102
{ACAD_REACTORS
330
27BF
102
}
330
27BF
100
AcDbScale
 70
     0
300
1/8" = 1'-0"
140
0.125
141
12.0
290
     0
  0
SCALE
  5
27D7
102
{ACAD_REACTORS
330
27BF
102
}
330
27BF
100
AcDbScale
 70
     0
300
3/16" = 1'-0"
140
0.1875
141
12.0
290
     0
  0
SCALE
  5
27D8
102
{ACAD_REACTORS
330
27BF
102
}
330
27BF
100
AcDbScale
 70
     0
300
1/4" = 1'-0"
140
0.25
141
12.0
290
     0
  0
SCALE
  5
27D9
102
{ACAD_REACTORS
330
27BF
102
}
330
27BF
100
AcDbScale
 70
     0
300
3/8" = 1'-0"
140
0.375
141
12.0
290
     0
  0
SCALE
  5
27DA
102
{ACAD_REACTORS
330
27BF
102
}
330
27BF
100
AcDbScale
 70
     0
300
1/2" = 1'-0"
140
0.5
141
12.0
290
     0
  0
SCALE
  5
27DB
102
{ACAD_REACTORS
330
27BF
102
}
330
27BF
100
AcDbScale
 70
     0
300
3/4" = 1'-0"
140
0.75
141
12.0
290
     0
  0
SCALE
  5
27DC
102
{ACAD_REACTORS
330
27BF
102
}
330
27BF
100
AcDbScale
 70
     0
300
1" = 1'-0"
140
1.0
141
12.0
290
     0
  0
SCALE
  5
27DD
102
{ACAD_REACTORS
330
27BF
102
}
330
27BF
100
AcDbScale
 70
     0
300
1-1/2" = 1'-0"
140
1.5
141
12.0
290
     0
  0
SCALE
  5
27DE
102
{ACAD_REACTORS
330
27BF
102
}
330
27BF
100
AcDbScale
 70
     0
300
3" = 1'-0"
140
3.0
141
12.0
290
     0
  0
SCALE
  5
27DF
102
{ACAD_REACTORS
330
27BF
102
}
330
27BF
100
AcDbScale
 70
     0
300
6" = 1'-0"
140
6.0
141
12.0
290
     0
  0
SCALE
  5
27E0
102
{ACAD_REACTORS
330
27BF
102
}
330
27BF
100
AcDbScale
 70
     0
300
1'-0" = 1'-0"
140
12.0
141
12.0
290
     0
  0
TABLESTYLE
  5
27F1
102
{ACAD_XDICTIONARY
360
29E3
102
}
102
{ACAD_REACTORS
330
27F0
102
}
330
27F0
100
AcDbTableStyle
  3
Standard
 70
     0
 71
     0
 40
0.06
 41
0.06
280
     0
281
     0
  7
STANDARD
140
0.18
170
     2
 62
     0
 63
     7
283
     0
274
    -2
284
     1
 64
     0
275
    -2
285
     1
 65
     0
276
    -2
286
     1
 66
     0
277
    -2
287
     1
 67
     0
278
    -2
288
     1
 68
     0
279
    -2
289
     1
 69
     0
  7
STANDARD
140
0.25
170
     5
 62
     0
 63
     7
283
     0
274
    -2
284
     1
 64
     0
275
    -2
285
     1
 65
     0
276
    -2
286
     1
 66
     0
277
    -2
287
     1
 67
     0
278
    -2
288
     1
 68
     0
279
    -2
289
     1
 69
     0
  7
STANDARD
140
0.18
170
     5
 62
     0
 63
     7
283
     0
274
    -2
284
     1
 64
     0
275
    -2
285
     1
 65
     0
276
    -2
286
     1
 66
     0
277
    -2
287
     1
 67
     0
278
    -2
288
     1
 68
     0
279
    -2
289
     1
 69
     0
  0
VISUALSTYLE
  5
27B4
102
{ACAD_REACTORS
330
27AE
102
}
330
27AE
100
AcDbVisualStyle
  2
2dWireframe
 70
     4
 71
     0
 72
     2
 73
     0
 90
        0
 40
-0.6
 41
-30.0
 62
     5
 63
     7
 74
     1
 91
        4
 64
     7
 65
   257
 75
     1
175
     1
 42
1.0
 92
        0
 66
   257
 43
1.0
 76
     1
 77
     6
 78
     2
 67
     7
 79
     5
170
     0
171
     0
290
     0
174
     0
 93
        1
 44
0.0
173
     0
291
     0
 45
0.0
1001
ACAD
1000
AcDbSavedByObjectVersion
1070
     0
  0
VISUALSTYLE
  5
27B6
102
{ACAD_REACTORS
330
27AE
102
}
330
27AE
100
AcDbVisualStyle
  2
3D Hidden
 70
     6
 71
     1
 72
     2
 73
     2
 90
        0
 40
-0.6
 41
-30.0
 62
     5
 63
     7
 74
     2
 91
        2
 64
     7
 65
   257
 75
     2
175
     1
 42
40.0
 92
        0
 66
   257
 43
1.0
 76
     1
 77
     6
 78
     2
 67
     7
 79
     3
170
     0
171
     0
290
     0
174
     0
 93
        1
 44
0.0
173
     0
291
     0
 45
0.0
1001
ACAD
1000
AcDbSavedByObjectVersion
1070
     0
  0
VISUALSTYLE
  5
27B5
102
{ACAD_REACTORS
330
27AE
102
}
330
27AE
100
AcDbVisualStyle
  2
3dWireframe
 70
     5
 71
     0
 72
     2
 73
     0
 90
        0
 40
-0.6
 41
-30.0
 62
     5
 63
     7
 74
     1
 91
        4
 64
     7
 65
   257
 75
     1
175
     1
 42
1.0
 92
        0
 66
   257
 43
1.0
 76
     1
 77
     6
 78
     2
 67
     7
 79
     5
170
     0
171
     0
290
     0
174
     0
 93
        1
 44
0.0
173
     0
291
     0
 45
0.0
1001
ACAD
1000
AcDbSavedByObjectVersion
1070
     0
  0
VISUALSTYLE
  5
27B3
102
{ACAD_REACTORS
330
27AE
102
}
330
27AE
100
AcDbVisualStyle
  2
Basic
 70
     7
 71
     1
 72
     0
 73
     1
 90
        0
 40
-0.6
 41
-30.0
 62
     5
 63
     7
 74
     0
 91
        4
 64
     7
 65
   257
 75
     1
175
     1
 42
1.0
 92
        8
 66
     7
 43
1.0
 76
     1
 77
     6
 78
     2
 67
     7
 79
     5
170
     0
171
     0
290
     0
174
     0
 93
        1
 44
0.0
173
     0
291
     1
 45
0.0
1001
ACAD
1000
AcDbSavedByObjectVersion
1070
     0
  0
VISUALSTYLE
  5
27BA
102
{ACAD_REACTORS
330
27AE
102
}
330
27AE
100
AcDbVisualStyle
  2
Brighten
 70
    12
 71
     2
 72
     2
 73
     0
 90
        0
 40
-0.6
 41
-30.0
 62
     5
 63
     7
 74
     1
 91
        4
 64
     7
 65
   257
 75
     1
175
     1
 42
1.0
 92
        8
 66
     7
 43
1.0
 76
     1
 77
     6
 78
     2
 67
     7
 79
     5
170
     0
171
     0
290
     0
174
     0
 93
        1
 44
50.0
173
     0
291
     1
 45
0.0
1001
ACAD
1000
AcDbSavedByObjectVersion
1070
     0
  0
VISUALSTYLE
  5
27BE
102
{ACAD_REACTORS
330
27AE
102
}
330
27AE
100
AcDbVisualStyle
  2
ColorChange
 70
    16
 71
     2
 72
     2
 73
     3
 90
        0
 40
-0.6
 41
-30.0
 62
     5
 63
     8
 74
     1
 91
        4
 64
     7
 65
   257
 75
     1
175
     1
 42
1.0
 92
        8
 66
     8
 43
1.0
 76
     1
 77
     6
 78
     2
 67
     7
 79
     5
170
     0
171
     0
290
     0
174
     0
 93
        1
 44
0.0
173
     0
291
     1
 45
0.0
1001
ACAD
1000
AcDbSavedByObjectVersion
1070
     0
  0
VISUALSTYLE
  5
27B7
102
{ACAD_REACTORS
330
27AE
102
}
330
27AE
100
AcDbVisualStyle
  2
Conceptual
 70
     9
 71
     3
 72
     2
 73
     0
 90
        0
 40
-0.6
 41
-30.0
 62
     5
 63
     7
 74
     2
 91
        2
 64
     7
 65
   257
 75
     1
175
     1
 42
40.0
 92
        8
 66
     7
 43
1.0
 76
     1
 77
     6
 78
     2
 67
     7
 79
     3
170
     0
171
     0
290
     0
174
     0
 93
        1
 44
0.0
173
     0
291
     0
 45
0.0
1001
ACAD
1000
AcDbSavedByObjectVersion
1070
     0
  0
VISUALSTYLE
  5
27B9
102
{ACAD_REACTORS
330
27AE
102
}
330
27AE
100
AcDbVisualStyle
  2
Dim
 70
    11
 71
     2
 72
     2
 73
     0
 90
        0
 40
-0.6
 41
-30.0
 62
     5
 63
     7
 74
     1
 91
        4
 64
     7
 65
   257
 75
     1
175
     1
 42
1.0
 92
        8
 66
     7
 43
1.0
 76
     1
 77
     6
 78
     2
 67
     7
 79
     5
170
     0
171
     0
290
     0
174
     0
 93
        1
 44
-50.0
173
     0
291
     1
 45
0.0
1001
ACAD
1000
AcDbSavedByObjectVersion
1070
     0
  0
VISUALSTYLE
  5
27BD
102
{ACAD_REACTORS
330
27AE
102
}
330
27AE
100
AcDbVisualStyle
  2
Facepattern
 70
    15
 71
     2
 72
     2
 73
     0
 90
        0
 40
-0.6
 41
-30.0
 62
     5
 63
     7
 74
     1
 91
        4
 64
     7
 65
   257
 75
     1
175
     1
 42
1.0
 92
        8
 66
     7
 43
1.0
 76
     1
 77
     6
 78
     2
 67
     7
 79
     5
170
     0
171
     0
290
     0
174
     0
 93
        1
 44
0.0
173
     0
291
     1
 45
0.0
1001
ACAD
1000
AcDbSavedByObjectVersion
1070
     0
  0
VISUALSTYLE
  5
27AF
102
{ACAD_REACTORS
330
27AE
102
}
330
27AE
100
AcDbVisualStyle
  2
Flat
 70
     0
 71
     2
 72
     1
 73
     1
 90
        2
 40
-0.6
 41
30.0
 62
     5
 63
     7
 74
     0
 91
        4
 64
     7
 65
   257
 75
     1
175
     1
 42
1.0
 92
        8
 66
     7
 43
1.0
 76
     1
 77
     6
 78
     2
 67
     7
 79
     5
170
     0
171
     0
290
     0
174
     0
 93
       13
 44
0.0
173
     0
291
     1
 45
0.0
1001
ACAD
1000
AcDbSavedByObjectVersion
1070
     0
  0
VISUALSTYLE
  5
27B0
102
{ACAD_REACTORS
330
27AE
102
}
330
27AE
100
AcDbVisualStyle
  2
FlatWithEdges
 70
     1
 71
     2
 72
     1
 73
     1
 90
        2
 40
-0.6
 41
30.0
 62
     5
 63
     7
 74
     1
 91
        4
 64
     7
 65
   257
 75
     1
175
     1
 42
1.0
 92
        0
 66
   257
 43
1.0
 76
     1
 77
     6
 78
     2
 67
     7
 79
     5
170
     0
171
     0
290
     0
174
     0
 93
       13
 44
0.0
173
     0
291
     1
 45
0.0
1001
ACAD
1000
AcDbSavedByObjectVersion
1070
     0
  0
VISUALSTYLE
  5
27B1
102
{ACAD_REACTORS
330
27AE
102
}
330
27AE
100
AcDbVisualStyle
  2
Gouraud
 70
     2
 71
     2
 72
     2
 73
     1
 90
        2
 40
-0.6
 41
30.0
 62
     5
 63
     7
 74
     0
 91
        4
 64
     7
 65
   257
 75
     1
175
     1
 42
1.0
 92
        0
 66
     7
 43
1.0
 76
     1
 77
     6
 78
     2
 67
     7
 79
     5
170
     0
171
     0
290
     0
174
     0
 93
       13
 44
0.0
173
     0
291
     1
 45
0.0
1001
ACAD
1000
AcDbSavedByObjectVersion
1070
     0
  0
VISUALSTYLE
  5
27B2
102
{ACAD_REACTORS
330
27AE
102
}
330
27AE
100
AcDbVisualStyle
  2
GouraudWithEdges
 70
     3
 71
     2
 72
     2
 73
     1
 90
        2
 40
-0.6
 41
30.0
 62
     5
 63
     7
 74
     1
 91
        4
 64
     7
 65
   257
 75
     1
175
     1
 42
1.0
 92
        0
 66
   257
 43
1.0
 76
     1
 77
     6
 78
     2
 67
     7
 79
     5
170
     0
171
     0
290
     0
174
     0
 93
       13
 44
0.0
173
     0
291
     1
 45
0.0
1001
ACAD
1000
AcDbSavedByObjectVersion
1070
     0
  0
VISUALSTYLE
  5
27BC
102
{ACAD_REACTORS
330
27AE
102
}
330
27AE
100
AcDbVisualStyle
  2
Linepattern
 70
    14
 71
     2
 72
     2
 73
     0
 90
        0
 40
-0.6
 41
-30.0
 62
     5
 63
     7
 74
     1
 91
        4
 64
     7
 65
   257
 75
     7
175
     7
 42
1.0
 92
        8
 66
     7
 43
1.0
 76
     1
 77
     6
 78
     2
 67
     7
 79
     5
170
     0
171
     0
290
     0
174
     0
 93
        1
 44
0.0
173
     0
291
     1
 45
0.0
1001
ACAD
1000
AcDbSavedByObjectVersion
1070
     0
  0
VISUALSTYLE
  5
27B8
102
{ACAD_REACTORS
330
27AE
102
}
330
27AE
100
AcDbVisualStyle
  2
Realistic
 70
     8
 71
     2
 72
     2
 73
     0
 90
        0
 40
-0.6
 41
-30.0
 62
     5
 63
     7
 74
     1
 91
        0
 64
     7
 65
   257
 75
     1
175
     1
 42
1.0
 92
        8
 66
     8
 43
1.0
 76
     1
 77
     6
 78
     2
 67
     7
 79
     5
170
     0
171
     0
290
     0
174
     0
 93
       13
 44
0.0
173
     0
291
     0
 45
0.0
1001
ACAD
1000
AcDbSavedByObjectVersion
1070
     0
  0
VISUALSTYLE
  5
27BB
102
{ACAD_REACTORS
330
27AE
102
}
330
27AE
100
AcDbVisualStyle
  2
Thicken
 70
    13
 71
     2
 72
     2
 73
     0
 90
        0
 40
-0.6
 41
-30.0
 62
     5
 63
     7
 74
     1
 91
        4
 64
     7
 65
   257
 75
     1
175
     1
 42
1.0
 92
       12
 66
     7
 43
1.0
 76
     1
 77
     6
 78
     2
 67
     7
 79
     5
170
     0
171
     0
290
     0
174
     0
 93
        1
 44
0.0
173
     0
291
     1
 45
0.0
1001
ACAD
1000
AcDbSavedByObjectVersion
1070
     0
  0
DICTIONARYVAR
  5
29DF
102
{ACAD_REACTORS
330
29DC
102
}
330
29DC
100
DictionaryVariables
280
     0
  1
1:1
  0
DICTIONARYVAR
  5
29DE
102
{ACAD_REACTORS
330
29DC
102
}
330
29DC
100
DictionaryVariables
280
     0
  1
STANDARD
  0
DICTIONARYVAR
  5
29DD
102
{ACAD_REACTORS
330
29DC
102
}
330
29DC
100
DictionaryVariables
280
     0
  1
STANDARD
  0
DICTIONARYVAR
  5
29E2
102
{ACAD_REACTORS
330
29DC
102
}
330
29DC
100
DictionaryVariables
280
     0
  1
1
  0
DICTIONARYVAR
  5
29E1
102
{ACAD_REACTORS
330
29DC
102
}
330
29DC
100
DictionaryVariables
280
     0
  1
1
  0
DICTIONARYVAR
  5
29E0
102
{ACAD_REACTORS
330
29DC
102
}
330
29DC
100
DictionaryVariables
280
     0
  1
127
  0
DICTIONARY
  5
299D
102
{ACAD_REACTORS
330
298F
102
}
330
298F
100
AcDbDictionary
281
     1
  0
DICTIONARY
  5
28DD
102
{ACAD_REACTORS
330
28DC
102
}
330
28DC
100
AcDbDictionary
281
     1
  3
DWGSETTINGS
350
28DE
  3
TRANSSETTINGS
350
28DF
  0
LAYER_INDEX
  5
29CF
102
{ACAD_REACTORS
330
29CE
102
}
330
29CE
100
AcDbIndex
 40
2456212.848111782
100
AcDbLayerIndex
  8
0
360
29D0
 90
        2
  8
OUTLINE
360
29D1
 90
       24
  8
SIZE
360
29D2
 90
       38
  8
BASIS
360
29D3
 90
        1
  8
DETAIL
360
29D4
 90
       32
  8
ARRANGE
360
29D5
 90
        2
  8
DEFPOINTS
360
29D6
 90
        0
  8
ETC
360
29D7
 90
        3
  8
FIX
360
29D8
 90
        0
  8
NOTE
360
29D9
 90
        4
  8
SERVICESPACE
360
29DA
 90
        0
  8
SYMBOLLINE
360
29DB
 90
        0
  0
DICTIONARY
  5
29F2
330
27FC
100
AcDbDictionary
280
     1
281
     1
  3
ACAD_XREC_ROUNDTRIP
360
29F3
  0
DICTIONARY
  5
29F0
330
27F8
100
AcDbDictionary
280
     1
281
     1
  3
ACAD_XREC_ROUNDTRIP
360
29F1
  0
DICTIONARY
  5
279F
330
279E
100
AcDbDictionary
280
     1
281
     1
  3
ACAD_XREC_ROUNDTRIP
360
29ED
  3
BUMPTILE
360
27A1
  3
DIFFUSETILE
360
27A0
  3
OPACITYTILE
360
27A4
  3
REFLECTIONTILE
360
27A3
  3
REFRACTIONTILE
360
27A5
  3
SPECULARTILE
360
27A2
  0
DICTIONARY
  5
2797
330
2796
100
AcDbDictionary
280
     1
281
     1
  3
ACAD_XREC_ROUNDTRIP
360
29EC
  3
BUMPTILE
360
2799
  3
DIFFUSETILE
360
2798
  3
OPACITYTILE
360
279C
  3
REFLECTIONTILE
360
279B
  3
REFRACTIONTILE
360
279D
  3
SPECULARTILE
360
279A
  0
DICTIONARY
  5
27A7
330
27A6
100
AcDbDictionary
280
     1
281
     1
  3
ACAD_XREC_ROUNDTRIP
360
29EE
  3
BUMPTILE
360
27A9
  3
DIFFUSETILE
360
27A8
  3
OPACITYTILE
360
27AC
  3
REFLECTIONTILE
360
27AB
  3
REFRACTIONTILE
360
27AD
  3
SPECULARTILE
360
27AA
  0
DICTIONARY
  5
29E3
330
27F1
100
AcDbDictionary
280
     1
281
     1
  3
ACAD_ROUNDTRIP_2008_TABLESTYLE_CELLSTYLEMAP
360
29E4
  3
ACAD_XREC_ROUNDTRIP
360
29EF
  0
IDBUFFER
  5
29D0
330
0
100
AcDbIdBuffer
330
26F2
330
26F3
  0
IDBUFFER
  5
29D1
330
0
100
AcDbIdBuffer
330
270F
330
2710
330
2711
330
2712
330
2713
330
2714
330
2715
330
2719
330
953
330
954
330
955
330
956
330
957
330
958
330
2705
330
2706
330
2707
330
2708
330
2709
330
270A
330
270B
330
270C
330
270D
330
270E
  0
IDBUFFER
  5
29D2
330
0
100
AcDbIdBuffer
330
2734
330
2735
330
2736
330
2737
330
2738
330
2739
330
273A
330
273B
330
273C
330
273D
330
273E
330
273F
330
2740
330
2741
330
2742
330
2743
330
2744
330
2745
330
2746
330
2747
330
2748
330
2749
330
2724
330
2725
330
2726
330
2727
330
2728
330
2729
330
272A
330
272B
330
272C
330
272D
330
272E
330
272F
330
2730
330
2731
330
2732
330
2733
  0
IDBUFFER
  5
29D3
330
0
100
AcDbIdBuffer
330
26EF
  0
IDBUFFER
  5
29D4
330
0
100
AcDbIdBuffer
330
2700
330
2701
330
2702
330
2703
330
2704
330
2716
330
271A
330
271B
330
271C
330
271D
330
271E
330
271F
330
2720
330
2721
330
2722
330
2723
330
26EA
330
26EB
330
26EC
330
26EE
330
26F4
330
26F5
330
26F6
330
26F7
330
26F8
330
26F9
330
26FA
330
26FB
330
26FC
330
26FD
330
26FE
330
26FF
  0
IDBUFFER
  5
29D5
330
0
100
AcDbIdBuffer
330
26E9
330
26F0
  0
IDBUFFER
  5
29D6
330
0
100
AcDbIdBuffer
  0
IDBUFFER
  5
29D7
330
0
100
AcDbIdBuffer
330
26E6
330
26E7
330
26E8
  0
IDBUFFER
  5
29D8
330
0
100
AcDbIdBuffer
  0
IDBUFFER
  5
29D9
330
0
100
AcDbIdBuffer
330
26ED
330
26F1
330
2717
330
2718
  0
IDBUFFER
  5
29DA
330
0
100
AcDbIdBuffer
  0
IDBUFFER
  5
29DB
330
0
100
AcDbIdBuffer
  0
XRECORD
  5
29F3
102
{ACAD_REACTORS
330
29F2
102
}
330
29F2
100
AcDbXrecord
280
     1
102
SHADEPLOT
 70
     0
102
SHADEPLOTRESLEVEL
 70
     2
102
SHADEPLOTCUSTOMDPI
 70
   300
  0
XRECORD
  5
29F1
102
{ACAD_REACTORS
330
29F0
102
}
330
29F0
100
AcDbXrecord
280
     1
102
SHADEPLOT
 70
     0
102
SHADEPLOTRESLEVEL
 70
     2
102
SHADEPLOTCUSTOMDPI
 70
   300
  0
XRECORD
  5
29ED
102
{ACAD_REACTORS
330
279F
102
}
330
279F
100
AcDbXrecord
280
     1
102
MATERIAL
148
0.0
149
0.0
149
0.0
 93
        0
 94
      127
282
     0
 72
     0
 77
     0
171
     0
175
     0
179
     0
273
     0
  0
XRECORD
  5
27A1
102
{ACAD_REACTORS
330
279F
102
}
330
279F
100
AcDbXrecord
280
     1
270
     1
271
     1
  0
XRECORD
  5
27A0
102
{ACAD_REACTORS
330
279F
102
}
330
279F
100
AcDbXrecord
280
     1
270
     1
271
     1
  0
XRECORD
  5
27A4
102
{ACAD_REACTORS
330
279F
102
}
330
279F
100
AcDbXrecord
280
     1
270
     1
271
     1
  0
XRECORD
  5
27A3
102
{ACAD_REACTORS
330
279F
102
}
330
279F
100
AcDbXrecord
280
     1
270
     1
271
     1
  0
XRECORD
  5
27A5
102
{ACAD_REACTORS
330
279F
102
}
330
279F
100
AcDbXrecord
280
     1
270
     1
271
     1
  0
XRECORD
  5
27A2
102
{ACAD_REACTORS
330
279F
102
}
330
279F
100
AcDbXrecord
280
     1
270
     1
271
     1
  0
XRECORD
  5
29EC
102
{ACAD_REACTORS
330
2797
102
}
330
2797
100
AcDbXrecord
280
     1
102
MATERIAL
148
0.0
149
0.0
149
0.0
 93
        0
 94
      127
282
     0
 72
     0
 77
     0
171
     0
175
     0
179
     0
273
     0
  0
XRECORD
  5
2799
102
{ACAD_REACTORS
330
2797
102
}
330
2797
100
AcDbXrecord
280
     1
270
     1
271
     1
  0
XRECORD
  5
2798
102
{ACAD_REACTORS
330
2797
102
}
330
2797
100
AcDbXrecord
280
     1
270
     1
271
     1
  0
XRECORD
  5
279C
102
{ACAD_REACTORS
330
2797
102
}
330
2797
100
AcDbXrecord
280
     1
270
     1
271
     1
  0
XRECORD
  5
279B
102
{ACAD_REACTORS
330
2797
102
}
330
2797
100
AcDbXrecord
280
     1
270
     1
271
     1
  0
XRECORD
  5
279D
102
{ACAD_REACTORS
330
2797
102
}
330
2797
100
AcDbXrecord
280
     1
270
     1
271
     1
  0
XRECORD
  5
279A
102
{ACAD_REACTORS
330
2797
102
}
330
2797
100
AcDbXrecord
280
     1
270
     1
271
     1
  0
XRECORD
  5
29EE
102
{ACAD_REACTORS
330
27A7
102
}
330
27A7
100
AcDbXrecord
280
     1
102
MATERIAL
148
0.0
149
0.0
149
0.0
 93
        0
 94
      127
282
     0
 72
     0
 77
     0
171
     0
175
     0
179
     0
273
     0
  0
XRECORD
  5
27A9
102
{ACAD_REACTORS
330
27A7
102
}
330
27A7
100
AcDbXrecord
280
     1
270
     1
271
     1
  0
XRECORD
  5
27A8
102
{ACAD_REACTORS
330
27A7
102
}
330
27A7
100
AcDbXrecord
280
     1
270
     1
271
     1
  0
XRECORD
  5
27AC
102
{ACAD_REACTORS
330
27A7
102
}
330
27A7
100
AcDbXrecord
280
     1
270
     1
271
     1
  0
XRECORD
  5
27AB
102
{ACAD_REACTORS
330
27A7
102
}
330
27A7
100
AcDbXrecord
280
     1
270
     1
271
     1
  0
XRECORD
  5
27AD
102
{ACAD_REACTORS
330
27A7
102
}
330
27A7
100
AcDbXrecord
280
     1
270
     1
271
     1
  0
XRECORD
  5
27AA
102
{ACAD_REACTORS
330
27A7
102
}
330
27A7
100
AcDbXrecord
280
     1
270
     1
271
     1
  0
CELLSTYLEMAP
  5
29E4
102
{ACAD_REACTORS
330
29E3
102
}
330
29E3
100
AcDbCellStyleMap
 90
        3
300
CELLSTYLE
  1
TABLEFORMAT_BEGIN
 90
        5
170
     1
 91
        0
 92
    32768
 62
   257
 93
        1
300
CONTENTFORMAT
  1
CONTENTFORMAT_BEGIN
 90
        0
 91
        0
 92
      512
 93
        0
300

 40
0.0
140
1.0
 94
        5
 62
     0
340
27E2
144
0.25
309
CONTENTFORMAT_END
171
     0
 94
        0
309
TABLEFORMAT_END
  1
CELLSTYLE_BEGIN
 90
        1
 91
        1
300
_TITLE
309
CELLSTYLE_END
300
CELLSTYLE
  1
TABLEFORMAT_BEGIN
 90
        5
170
     1
 91
        0
 92
        0
 62
   257
 93
        1
300
CONTENTFORMAT
  1
CONTENTFORMAT_BEGIN
 90
        0
 91
        0
 92
      512
 93
        0
300

 40
0.0
140
1.0
 94
        5
 62
     0
340
27E2
144
0.18
309
CONTENTFORMAT_END
171
     0
 94
        0
309
TABLEFORMAT_END
  1
CELLSTYLE_BEGIN
 90
        2
 91
        1
300
_HEADER
309
CELLSTYLE_END
300
CELLSTYLE
  1
TABLEFORMAT_BEGIN
 90
        5
170
     1
 91
        0
 92
        0
 62
   257
 93
        1
300
CONTENTFORMAT
  1
CONTENTFORMAT_BEGIN
 90
        0
 91
        0
 92
      512
 93
        0
300

 40
0.0
140
1.0
 94
        2
 62
     0
340
27E2
144
0.18
309
CONTENTFORMAT_END
171
     0
 94
        0
309
TABLEFORMAT_END
  1
CELLSTYLE_BEGIN
 90
        3
 91
        2
300
_DATA
309
CELLSTYLE_END
  0
XRECORD
  5
29EF
102
{ACAD_REACTORS
330
29E3
102
}
330
29E3
100
AcDbXrecord
280
     1
102
ACAD_ROUNDTRIP_PRE2007_TABLESTYLE
 90
      512
 91
        0
  1

 92
      512
 93
        0
  2

 94
      512
 95
        0
  3

  0
ENDSEC
  0
EOF
