  0
SECTION
  2
HEADER
  9
$ACADVER
  1
AC1015
  9
$ACADMAINTVER
 70
    20
  9
$DWGCODEPAGE
  3
ANSI_932
  9
$INSBASE
 10
0.0
 20
0.0
 30
0.0
  9
$EXTMIN
 10
-958.7093999922547
 20
-883.4116713904331
 30
0.0
  9
$EXTMAX
 10
1267.678162556012
 20
517.9915195879408
 30
50.0
  9
$LIMMIN
 10
-2970.0
 20
-2100.0
  9
$LIMMAX
 10
2970.0
 20
2100.0
  9
$ORTHOMODE
 70
     1
  9
$REGENMODE
 70
     0
  9
$FILLMODE
 70
     1
  9
$QTEXTMODE
 70
     0
  9
$MIRRTEXT
 70
     0
  9
$LTSCALE
 40
20.0
  9
$ATTMODE
 70
     1
  9
$TEXTSIZE
 40
64.0
  9
$TRACEWID
 40
0.05
  9
$TEXTSTYLE
  7
STANDARD
  9
$CLAYER
  8
0
  9
$CELTYPE
  6
ByLayer
  9
$CECOLOR
 62
   256
  9
$CELTSCALE
 40
1.0
  9
$DISPSILH
 70
     0
  9
$DIMSCALE
 40
1.0
  9
$DIMASZ
 40
0.12
  9
$DIMEXO
 40
0.05
  9
$DIMDLI
 40
0.5
  9
$DIMRND
 40
0.0
  9
$DIMDLE
 40
0.0
  9
$DIMEXE
 40
0.1
  9
$DIMTP
 40
0.1
  9
$DIMTM
 40
0.1
  9
$DIMTXT
 40
0.12
  9
$DIMCEN
 40
0.0
  9
$DIMTSZ
 40
0.0
  9
$DIMTOL
 70
     0
  9
$DIMLIM
 70
     0
  9
$DIMTIH
 70
     1
  9
$DIMTOH
 70
     1
  9
$DIMSE1
 70
     0
  9
$DIMSE2
 70
     0
  9
$DIMTAD
 70
     0
  9
$DIMZIN
 70
     7
  9
$DIMBLK
  1

  9
$DIMASO
 70
     1
  9
$DIMSHO
 70
     0
  9
$DIMPOST
  1

  9
$DIMAPOST
  1
mm
  9
$DIMALT
 70
     0
  9
$DIMALTD
 70
     2
  9
$DIMALTF
 40
25.4
  9
$DIMLFAC
 40
1.0
  9
$DIMTOFL
 70
     0
  9
$DIMTVP
 40
0.0
  9
$DIMTIX
 70
     0
  9
$DIMSOXD
 70
     0
  9
$DIMSAH
 70
     0
  9
$DIMBLK1
  1

  9
$DIMBLK2
  1

  9
$DIMSTYLE
  2
AM_ANSI
  9
$DIMCLRD
 70
   256
  9
$DIMCLRE
 70
   256
  9
$DIMCLRT
 70
     2
  9
$DIMTFAC
 40
0.71
  9
$DIMGAP
 40
0.06
  9
$DIMJUST
 70
     0
  9
$DIMSD1
 70
     0
  9
$DIMSD2
 70
     0
  9
$DIMTOLJ
 70
     1
  9
$DIMTZIN
 70
     7
  9
$DIMALTZ
 70
     0
  9
$DIMALTTZ
 70
     0
  9
$DIMUPT
 70
     0
  9
$DIMDEC
 70
     4
  9
$DIMTDEC
 70
     4
  9
$DIMALTU
 70
     2
  9
$DIMALTTD
 70
     4
  9
$DIMTXSTY
  7
STANDARD
  9
$DIMAUNIT
 70
     0
  9
$DIMADEC
 70
     0
  9
$DIMALTRND
 40
0.0
  9
$DIMAZIN
 70
     2
  9
$DIMDSEP
 70
    46
  9
$DIMATFIT
 70
     3
  9
$DIMFRAC
 70
     0
  9
$DIMLDRBLK
  1

  9
$DIMLUNIT
 70
     2
  9
$DIMLWD
 70
    -1
  9
$DIMLWE
 70
    -1
  9
$DIMTMOVE
 70
     0
  9
$LUNITS
 70
     2
  9
$LUPREC
 70
     4
  9
$SKETCHINC
 40
0.1
  9
$FILLETRAD
 40
4.0
  9
$AUNITS
 70
     1
  9
$AUPREC
 70
     3
  9
$MENU
  1
ACAD
  9
$ELEVATION
 40
0.0
  9
$PELEVATION
 40
0.0
  9
$THICKNESS
 40
50.0
  9
$LIMCHECK
 70
     0
  9
$CHAMFERA
 40
0.0
  9
$CHAMFERB
 40
0.0
  9
$CHAMFERC
 40
0.0
  9
$CHAMFERD
 40
0.0
  9
$SKPOLY
 70
     0
  9
$TDCREATE
 40
2452321.396199653
  9
$TDUCREATE
 40
2452321.021199653
  9
$TDUPDATE
 40
2456212.849004363
  9
$TDUUPDATE
 40
2456212.474004364
  9
$TDINDWG
 40
1.0420312269
  9
$TDUSRTIMER
 40
1.0420256366
  9
$USRTIMER
 70
     1
  9
$ANGBASE
 50
0.0
  9
$ANGDIR
 70
     0
  9
$PDMODE
 70
     3
  9
$PDSIZE
 40
-2.0
  9
$PLINEWID
 40
0.0
  9
$SPLFRAME
 70
     0
  9
$SPLINETYPE
 70
     6
  9
$SPLINESEGS
 70
     8
  9
$HANDSEED
  5
2D0D
  9
$SURFTAB1
 70
     6
  9
$SURFTAB2
 70
     6
  9
$SURFTYPE
 70
     6
  9
$SURFU
 70
     6
  9
$SURFV
 70
     6
  9
$UCSBASE
  2

  9
$UCSNAME
  2

  9
$UCSORG
 10
0.0
 20
0.0
 30
0.0
  9
$UCSXDIR
 10
1.0
 20
0.0
 30
0.0
  9
$UCSYDIR
 10
0.0
 20
1.0
 30
0.0
  9
$UCSORTHOREF
  2

  9
$UCSORTHOVIEW
 70
     0
  9
$UCSORGTOP
 10
0.0
 20
0.0
 30
0.0
  9
$UCSORGBOTTOM
 10
0.0
 20
0.0
 30
0.0
  9
$UCSORGLEFT
 10
0.0
 20
0.0
 30
0.0
  9
$UCSORGRIGHT
 10
0.0
 20
0.0
 30
0.0
  9
$UCSORGFRONT
 10
0.0
 20
0.0
 30
0.0
  9
$UCSORGBACK
 10
0.0
 20
0.0
 30
0.0
  9
$PUCSBASE
  2

  9
$PUCSNAME
  2

  9
$PUCSORG
 10
0.0
 20
0.0
 30
0.0
  9
$PUCSXDIR
 10
1.0
 20
0.0
 30
0.0
  9
$PUCSYDIR
 10
0.0
 20
1.0
 30
0.0
  9
$PUCSORTHOREF
  2

  9
$PUCSORTHOVIEW
 70
     0
  9
$PUCSORGTOP
 10
0.0
 20
0.0
 30
0.0
  9
$PUCSORGBOTTOM
 10
0.0
 20
0.0
 30
0.0
  9
$PUCSORGLEFT
 10
0.0
 20
0.0
 30
0.0
  9
$PUCSORGRIGHT
 10
0.0
 20
0.0
 30
0.0
  9
$PUCSORGFRONT
 10
0.0
 20
0.0
 30
0.0
  9
$PUCSORGBACK
 10
0.0
 20
0.0
 30
0.0
  9
$USERI1
 70
     0
  9
$USERI2
 70
     0
  9
$USERI3
 70
     0
  9
$USERI4
 70
     0
  9
$USERI5
 70
     0
  9
$USERR1
 40
20.0
  9
$USERR2
 40
0.0
  9
$USERR3
 40
0.0
  9
$USERR4
 40
0.0
  9
$USERR5
 40
0.0
  9
$WORLDVIEW
 70
     1
  9
$SHADEDGE
 70
     3
  9
$SHADEDIF
 70
    70
  9
$TILEMODE
 70
     1
  9
$MAXACTVP
 70
    64
  9
$PINSBASE
 10
0.0
 20
0.0
 30
0.0
  9
$PLIMCHECK
 70
     0
  9
$PEXTMIN
 10
1.000000000000000E+20
 20
1.000000000000000E+20
 30
1.000000000000000E+20
  9
$PEXTMAX
 10
-1.000000000000000E+20
 20
-1.000000000000000E+20
 30
-1.000000000000000E+20
  9
$PLIMMIN
 10
0.0
 20
0.0
  9
$PLIMMAX
 10
12.0
 20
9.0
  9
$UNITMODE
 70
     0
  9
$VISRETAIN
 70
     1
  9
$PLINEGEN
 70
     0
  9
$PSLTSCALE
 70
     1
  9
$TREEDEPTH
 70
  3020
  9
$CMLSTYLE
  2
Standard
  9
$CMLJUST
 70
     0
  9
$CMLSCALE
 40
1.0
  9
$PROXYGRAPHICS
 70
     1
  9
$MEASUREMENT
 70
     0
  9
$CELWEIGHT
370
    -1
  9
$ENDCAPS
280
     0
  9
$JOINSTYLE
280
     0
  9
$LWDISPLAY
290
     0
  9
$INSUNITS
 70
     0
  9
$HYPERLINKBASE
  1

  9
$STYLESHEET
  1

  9
$XEDIT
290
     1
  9
$CEPSNTYPE
380
     0
  9
$PSTYLEMODE
290
     1
  9
$FINGERPRINTGUID
  2
{E3510552-DC22-40BA-BCFD-60660B057532}
  9
$VERSIONGUID
  2
{DD9153DD-1201-4FE7-A734-A5F43858BD86}
  9
$EXTNAMES
290
     1
  9
$PSVPSCALE
 40
0.0
  9
$OLESTARTUP
290
     0
  0
ENDSEC
  0
SECTION
  2
CLASSES
  0
CLASS
  1
ACDBDICTIONARYWDFLT
  2
AcDbDictionaryWithDefault
  3
ObjectDBX Classes
 90
        0
280
     0
281
     0
  0
CLASS
  1
MATERIAL
  2
AcDbMaterial
  3
ObjectDBX Classes
 90
     1153
280
     0
281
     0
  0
CLASS
  1
VISUALSTYLE
  2
AcDbVisualStyle
  3
ObjectDBX Classes
 90
     4095
280
     0
281
     0
  0
CLASS
  1
SCALE
  2
AcDbScale
  3
ObjectDBX Classes
 90
     1153
280
     0
281
     0
  0
CLASS
  1
TABLESTYLE
  2
AcDbTableStyle
  3
ObjectDBX Classes
 90
     4095
280
     0
281
     0
  0
CLASS
  1
MLEADERSTYLE
  2
AcDbMLeaderStyle
  3
ACDB_MLEADERSTYLE_CLASS
 90
     4095
280
     0
281
     0
  0
CLASS
  1
AMGSETTINGSOBJ
  2
AmgSettingsObj
  3
"AcadM|Product Description: AutoCAD Mechanical|Company: Autodesk, Inc."
 90
     1024
280
     0
281
     0
  0
CLASS
  1
ACME_DOCUMENT
  2
AcMeDbDoc
  3
AcMeServices
 90
     1024
280
     0
281
     0
  0
CLASS
  1
ACMESCOPE
  2
AcMeScope
  3
AcMeServices
 90
     1024
280
     0
281
     0
  0
CLASS
  1
ACMECOMMANDHISTORY
  2
AcMeCommandHistory
  3
AcMeServices
 90
     1024
280
     0
281
     0
  0
CLASS
  1
ACIMSYSVARMAN
  2
AcImSysVarManager
  3
AcMeServices
 90
     1024
280
     0
281
     0
  0
CLASS
  1
ACIMREALSYSVAR
  2
AcImRealSysVar
  3
AcMeServices
 90
     1024
280
     0
281
     0
  0
CLASS
  1
ACIMINTSYSVAR
  2
AcImIntSysVar
  3
AcMeServices
 90
     1024
280
     0
281
     0
  0
CLASS
  1
ACMEDRAWINGMAN
  2
AcMeDrawingMan
  3
AcMeServices
 90
     1024
280
     0
281
     0
  0
CLASS
  1
ACMEVIEW
  2
AcMeView
  3
AcMeServices
 90
     1024
280
     0
281
     0
  0
CLASS
  1
ACDBENTITYCACHE
  2
AcMeEntityCache
  3
AcMeServices
 90
     1024
280
     0
281
     0
  0
CLASS
  1
GSMANAGER
  2
AcMeGSManager
  3
AcMeServices
 90
     1024
280
     0
281
     0
  0
CLASS
  1
AMDTINTERNALREACTOR
  2
AmdtInternalReactor
  3
AcMeServices
 90
     1024
280
     0
281
     0
  0
CLASS
  1
ACMESTATEMGR
  2
AcMeStateMgr
  3
AcMeServices
 90
     1024
280
     0
281
     0
  0
CLASS
  1
ACGREFMASTER
  2
AcGrefMaster
  3
AcAttribServices
 90
     1024
280
     0
281
     0
  0
CLASS
  1
AM_DRAWING_MGR
  2
AcDmDwgMgr
  3
AcMechDwgViewMgmt
 90
     1024
280
     0
281
     0
  0
CLASS
  1
AM_DWG_DOCUMENT
  2
AcDmDwgDocument
  3
AcMechDwgViewMgmt
 90
     1024
280
     0
281
     0
  0
CLASS
  1
AM_DWG_SHEET
  2
AcDmSheet
  3
AcMechDwgViewMgmt
 90
     1024
280
     0
281
     0
  0
CLASS
  1
AM_VIEWDIMPARMAP
  2
AcDmViewDimParMap
  3
AcMechDwgViewMgmt
 90
     1024
280
     0
281
     0
  0
CLASS
  1
AM_DWGMGR_NAME
  2
AcDmDwgMgrName
  3
AcMechDwgViewMgmt
 90
     1024
280
     0
281
     0
  0
CLASS
  1
ACME_DATABASE
  2
AcMeDbDatabase
  3
AcMeServices
 90
     1024
280
     0
281
     0
  0
CLASS
  1
ACRFINSADJUSTERMGR
  2
AcRfInsAdjusterMgr
  3
AcMeServices
 90
     1024
280
     0
281
     0
  0
CLASS
  1
ACGREFACADMASTER
  2
AcGrefacadMaster
  3
AcGrefServices
 90
     1024
280
     0
281
     0
  0
CLASS
  1
AMDTMENUSTATEMGR
  2
AmdtMenuStateMgr
  3
McadcomServices
 90
     1024
280
     0
281
     0
  0
CLASS
  1
AMDTMCOMMENUSTATE
  2
AmdtMcomMenuState
  3
McadcomServices
 90
     1024
280
     0
281
     0
  0
CLASS
  1
AMIMASTER
  2
AmiMaster
  3
AmiServices
 90
     1024
280
     0
281
     0
  0
CLASS
  1
ASAPP
  2
AcAsAppObject
  3
AutoSurfServices
 90
     1024
280
     0
281
     0
  0
CLASS
  1
IM_STATIC_MAN
  2
AcImStaticVarManager
  3
AcMeServices
 90
     1024
280
     0
281
     0
  0
CLASS
  1
ACIMSTRSYSVAR
  2
AcImStrSysVar
  3
AcMeServices
 90
     1024
280
     0
281
     0
  0
CLASS
  1
ACIMDBLSTATICVAR
  2
AcImDblStaticVar
  3
AcMeServices
 90
     1024
280
     0
281
     0
  0
CLASS
  1
ACIMSTRSTATICVAR
  2
AcImStrStaticVar
  3
AcMeServices
 90
     1024
280
     0
281
     0
  0
CLASS
  1
ACIMINTSTATICVAR
  2
AcImIntStaticVar
  3
AcMeServices
 90
     1024
280
     0
281
     0
  0
CLASS
  1
ACASGREFMASTER
  2
AcAsGrefMaster
  3
AutoSurfResolverServices
 90
     1024
280
     0
281
     0
  0
CLASS
  1
ACADGREFMODULE
  2
AcAdGrefModule
  3
AdGrefServices
 90
     1024
280
     0
281
     0
  0
CLASS
  1
AMDTMAPISURFMOUDULE
  2
AmdtMApiSurfModule
  3
MApiSurfServices
 90
     1024
280
     0
281
     0
  0
CLASS
  1
MAPIAMMOUDLE
  2
MApiAmModule
  3
MApiAmServices
 90
     1024
280
     0
281
     0
  0
CLASS
  1
AMDTADMENUSTATE
  2
AmdtAdMenuState
  3
DesignerServices
 90
     1024
280
     0
281
     0
  0
CLASS
  1
ADAPPL
  2
AcAdAppl
  3
DesignerServices
 90
     1024
280
     0
281
     0
  0
CLASS
  1
DEPMGR
  2
AcAdDepMgr
  3
DesignerServices
 90
     1024
280
     0
281
     0
  0
CLASS
  1
PARAMMGR
  2
AcAdParamMgr
  3
DesignerServices
 90
     1024
280
     0
281
     0
  0
CLASS
  1
PARAMSCOPE
  2
AcAdParamScope
  3
DesignerServices
 90
     1024
280
     0
281
     0
  0
CLASS
  1
NAMEDAPPL
  2
AcAdNamedAppl
  3
DesignerServices
 90
     1024
280
     0
281
     0
  0
CLASS
  1
AMDTDMMENUSTATE
  2
AmdtDmMenuState
  3
AcMechDwgViewMgmt
 90
     1024
280
     0
281
     0
  0
CLASS
  1
MAPIADMODULE
  2
MApiAdModule
  3
MApiAdServices
 90
     1024
280
     0
281
     0
  0
CLASS
  1
AMDTAMMENUSTATE
  2
AmdtAmMenuState
  3
DesignerAssemblies
 90
     1024
280
     0
281
     0
  0
CLASS
  1
ACAMPROJECT
  2
AcAmProject
  3
DesignerAssemblies
 90
     1024
280
     0
281
     0
  0
CLASS
  1
ACAMGRCOMPDEF
  2
AcAmGrCompDef
  3
DesignerAssemblies
 90
     1024
280
     0
281
     0
  0
CLASS
  1
ACCMCONTEXT
  2
AcCmContext
  3
DesignerAssemblies
 90
     1024
280
     0
281
     0
  0
CLASS
  1
ACAMCOMPDEF
  2
AcAmCompDef
  3
DesignerAssemblies
 90
     1024
280
     0
281
     0
  0
CLASS
  1
ACAMCOMPDEFMGR
  2
AcAmCompDefMgr
  3
DesignerAssemblies
 90
     1024
280
     0
281
     0
  0
CLASS
  1
AMCONTEXTMGR
  2
AcAmContextMgr
  3
DesignerAssemblies
 90
     1024
280
     0
281
     0
  0
CLASS
  1
ACAMCONTEXTMODELER
  2
AcAmContextModeler
  3
DesignerAssemblies
 90
     1024
280
     0
281
     0
  0
CLASS
  1
ACMDATADICTIONARY
  2
AcmDataDictionary
  3
"AcmSymBB|Product Description: AutoCAD Mechanical|Company: Autodesk, Inc."
 90
     1024
280
     0
281
     0
  0
CLASS
  1
ACMDATAENTRYBLOCK
  2
AcmDataEntryBlock
  3
AcmSymBB|Product Description: AutoCAD Mechanical|Company: Autodesk, Inc.
 90
     1024
280
     0
281
     0
  0
CLASS
  1
ACRFATTGENMGR
  2
AcRfAttGeneralMgr
  3
AcAttribServices
 90
     1024
280
     0
281
     0
  0
CLASS
  1
ACRFOBJATTMGR
  2
AcRfObjAttGroupMgr
  3
AcAttribServices
 90
     1024
280
     0
281
     0
  0
CLASS
  1
ACRFMCADAPIATTHOLDER
  2
AcRfMCADAPIAttHolder
  3
AcAttribServices
 90
     1024
280
     0
281
     0
  0
CLASS
  1
AMDTSYSATTR
  2
AmdtSystemAttribute
  3
AcAttribServices
 90
     1024
280
     0
281
     0
  0
CLASS
  1
CATALOGSTATE
  2
AcAmCatalogState
  3
DesignerAssemblies
 90
     1024
280
     0
281
     0
  0
CLASS
  1
ACAMGRCOMPDEFSET
  2
AcAmGrCompDefSet
  3
DesignerAssemblies
 90
     1024
280
     0
281
     0
  0
CLASS
  1
AMDTBROWSERDBTAB
  2
AmdtBrowserDbTab
  3
McadcomServices
 90
     1024
280
     0
281
     0
  0
CLASS
  1
CBROWSERAPPOBJECT
  2
CBrowserAppObject
  3
McadcomServices
 90
     1024
280
     0
281
     0
  0
CLASS
  1
DM_PLACEHOLDER
  2
AcDmSelsetPlaceholder
  3
AcMechDwgViewMgmt
 90
     1024
280
     0
281
     0
  0
CLASS
  1
ACMSTANDARDANSI
  2
AcmStandardANSI
  3
"Amdt_StdImp|Product Description: AutoCAD Mechanical|Company: Autodesk, Inc."
 90
     1024
280
     0
281
     0
  0
CLASS
  1
ACMSURFSTANDARDANSI
  2
AcmSurfTextStdANSI
  3
"Amdt_StdImp|Product Description: AutoCAD Mechanical|Company: Autodesk, Inc."
 90
     1024
280
     0
281
     0
  0
CLASS
  1
ACMFCFSTANDARDANSI
  2
AcmFCFStdANSI
  3
"Amdt_StdImp|Product Description: AutoCAD Mechanical|Company: Autodesk, Inc."
 90
     1024
280
     0
281
     0
  0
CLASS
  1
ACMWELDSTANDARDANSI
  2
AcmWeldingStdANSI
  3
"Amdt_StdImp|Product Description: AutoCAD Mechanical|Company: Autodesk, Inc."
 90
     1024
280
     0
281
     0
  0
CLASS
  1
ACMIDSTANDARDANSI
  2
AcmIdStdANSI
  3
"Amdt_StdImp|Product Description: AutoCAD Mechanical|Company: Autodesk, Inc."
 90
     1024
280
     0
281
     0
  0
CLASS
  1
ACMDATUMSTANDARDANSI
  2
AcmDatumStdANSI
  3
"Amdt_StdImp|Product Description: AutoCAD Mechanical|Company: Autodesk, Inc."
 90
     1024
280
     0
281
     0
  0
CLASS
  1
ACMBOMSTANDARDANSI
  2
AcmBOMStdANSI
  3
"Amdt_StdImp|Product Description: AutoCAD Mechanical|Company: Autodesk, Inc."
 90
     1024
280
     0
281
     0
  0
CLASS
  1
ACMDETAILSTANDARDANSI
  2
AmdtDetailSymStdANSI
  3
"Amdt_StdImp|Product Description: AutoCAD Mechanical|Company: Autodesk, Inc."
 90
     1024
280
     0
281
     0
  0
CLASS
  1
ACMSECTIONSTANDARDANSI
  2
AmdtSectionSymStdANSI
  3
"Amdt_StdImp|Product Description: AutoCAD Mechanical|Company: Autodesk, Inc."
 90
     1024
280
     0
281
     0
  0
CLASS
  1
ACMCENTERLINESTANDARDANSI
  2
AmdtCenterLineStdANSI
  3
"Amdt_StdImp|Product Description: AutoCAD Mechanical|Company: Autodesk, Inc."
 90
     1024
280
     0
281
     0
  0
CLASS
  1
ACMTHREADLINESTANDARDANSI
  2
AmdtThreadLineStdANSI
  3
"Amdt_StdImp|Product Description: AutoCAD Mechanical|Company: Autodesk, Inc."
 90
     1024
280
     0
281
     0
  0
CLASS
  1
ACMNOTESTANDARDANSI
  2
AmdtNoteStdANSI
  3
"Amdt_StdImp|Product Description: AutoCAD Mechanical|Company: Autodesk, Inc."
 90
     1024
280
     0
281
     0
  0
CLASS
  1
ACMTAPERSTANDARDANSI
  2
AcmTaperStdANSI
  3
"Amdt_StdImp|Product Description: AutoCAD Mechanical|Company: Autodesk, Inc."
 90
     1024
280
     0
281
     0
  0
CLASS
  1
ACMANOOTATIONVIEWSTANDARDANSI
  2
AmdtAnViewStdANSI
  3
"Amdt_StdImp|Product Description: AutoCAD Mechanical|Company: Autodesk, Inc."
 90
     1024
280
     0
281
     0
  0
CLASS
  1
ACAMGLAYSTD
  2
AcAmgLayStd
  3
"AmgLay|Product Description: AutoCAD Mechanical|Company: Autodesk, Inc."
 90
     1024
280
     0
281
     0
  0
CLASS
  1
ACAMGDIMSTD
  2
AcAmgDimStd
  3
"AmgDim|Product Description: AutoCAD Mechanical|Company: Autodesk, Inc."
 90
     1024
280
     0
281
     0
  0
CLASS
  1
ACAMGHOLECHARTSTDANSI
  2
AcAmgHoleChartStdANSI
  3
AmgDim|Product Description: AutoCAD Mechanical|Company: Autodesk, Inc.
 90
     1024
280
     0
281
     0
  0
CLASS
  1
AMGOBJPROPCFG
  2
AmgObjPropCfg
  3
"AmgLay|Product Description: AutoCAD Mechanical|Company: Autodesk, Inc."
 90
     1025
280
     0
281
     0
  0
CLASS
  1
ACAMGTITLESTD
  2
AcAmgTitleStd
  3
"AmgTitle|Product Description: AutoCAD Mechanical|Company: Autodesk, Inc."
 90
     4095
280
     0
281
     0
  0
CLASS
  1
AMDTNOTETEMPLATEDB
  2
AmdtNoteTemplateDB
  3
AcmSymBB|Product Description: AutoCAD Mechanical|Company: Autodesk, Inc.
 90
     1024
280
     0
281
     0
  0
CLASS
  1
LAYER_INDEX
  2
AcDbLayerIndex
  3
ObjectDBX Classes
 90
        0
280
     0
281
     0
  0
CLASS
  1
IDBUFFER
  2
AcDbIdBuffer
  3
ObjectDBX Classes
 90
        0
280
     0
281
     0
  0
CLASS
  1
DICTIONARYVAR
  2
AcDbDictionaryVar
  3
ObjectDBX Classes
 90
        0
280
     0
281
     0
  0
CLASS
  1
CELLSTYLEMAP
  2
AcDbCellStyleMap
  3
ObjectDBX Classes
 90
     1152
280
     0
281
     0
  0
CLASS
  1
ACDBPLACEHOLDER
  2
AcDbPlaceHolder
  3
ObjectDBX Classes
 90
        0
280
     0
281
     0
  0
CLASS
  1
LAYOUT
  2
AcDbLayout
  3
ObjectDBX Classes
 90
        0
280
     0
281
     0
  0
ENDSEC
  0
SECTION
  2
TABLES
  0
TABLE
  2
VPORT
  5
2AA2
330
0
100
AcDbSymbolTable
 70
     1
  0
VPORT
  5
2B12
330
2AA2
100
AcDbSymbolTableRecord
100
AcDbViewportTableRecord
  2
*ACTIVE
 70
     0
 10
0.0
 20
0.0
 11
1.0
 21
1.0
 12
0.0
 22
0.0
 13
0.0
 23
0.0
 14
1.0
 24
1.0
 15
0.0
 25
0.0
 16
0.0
 26
0.0
 36
1.0
 17
154.536451998325
 27
-167.7099577928793
 37
0.0
 40
1441.551702707539
 41
1.712555066079295
 42
50.0
 43
0.0
 44
0.0
 50
0.0
 51
0.0
 71
     0
 72
   100
 73
     1
 74
     0
 75
     0
 76
     0
 77
     0
 78
     0
281
     0
 65
     0
110
0.0
120
0.0
130
0.0
111
1.0
121
0.0
131
0.0
112
0.0
122
1.0
132
0.0
 79
     0
146
0.0
  0
ENDTAB
  0
TABLE
  2
LTYPE
  5
2A9F
330
0
100
AcDbSymbolTable
 70
    19
  0
LTYPE
  5
2AFC
330
2A9F
100
AcDbSymbolTableRecord
100
AcDbLinetypeTableRecord
  2
ByBlock
 70
     0
  3

 72
    65
 73
     0
 40
0.0
  0
LTYPE
  5
2AFD
330
2A9F
100
AcDbSymbolTableRecord
100
AcDbLinetypeTableRecord
  2
ByLayer
 70
     0
  3

 72
    65
 73
     0
 40
0.0
  0
LTYPE
  5
2AFE
330
2A9F
100
AcDbSymbolTableRecord
100
AcDbLinetypeTableRecord
  2
CONTINUOUS
 70
     0
  3
実線
 72
    65
 73
     0
 40
0.0
  0
LTYPE
  5
2B13
330
2A9F
100
AcDbSymbolTableRecord
100
AcDbLinetypeTableRecord
  2
DASHDOT
 70
     0
  3
____ _ ____ _ ____ _ ____ _ ____ _ ____ _ ____
 72
    65
 73
     4
 40
5.5
 49
4.0
 74
     0
 49
-0.6
 74
     0
 49
0.3
 74
     0
 49
-0.6
 74
     0
  0
LTYPE
  5
2B14
330
2A9F
100
AcDbSymbolTableRecord
100
AcDbLinetypeTableRecord
  2
HIDDEN
 70
     0
  3
Hidden __ __ __ __ __ __ __ __ __ __ __ __ __ _
 72
    65
 73
     2
 40
0.375
 49
0.25
 74
     0
 49
-0.125
 74
     0
  0
LTYPE
  5
2B15
330
2A9F
100
AcDbSymbolTableRecord
100
AcDbLinetypeTableRecord
  2
PHANTOM2
 70
     0
  3
Phantom (.5x) ___ _ _ ___ _ _ ___ _ _ ___ _ _
 72
    65
 73
     6
 40
1.25
 49
0.625
 74
     0
 49
-0.125
 74
     0
 49
0.125
 74
     0
 49
-0.125
 74
     0
 49
0.125
 74
     0
 49
-0.125
 74
     0
  0
LTYPE
  5
2B16
330
2A9F
100
AcDbSymbolTableRecord
100
AcDbLinetypeTableRecord
  2
CENTER
 70
     0
  3
Center ____ _ ____ _ ____ _ ____ _ ____ _ ____
 72
    65
 73
     4
 40
2.0
 49
1.25
 74
     0
 49
-0.25
 74
     0
 49
0.25
 74
     0
 49
-0.25
 74
     0
  0
LTYPE
  5
2B17
330
2A9F
100
AcDbSymbolTableRecord
100
AcDbLinetypeTableRecord
  2
ASULTYPE
 70
     0
  3
実線
 72
    65
 73
     2
 40
3.0
 49
2.5
 74
     0
 49
0.5
 74
     0
  0
LTYPE
  5
2B18
330
2A9F
100
AcDbSymbolTableRecord
100
AcDbLinetypeTableRecord
  2
ASVLTYPE
 70
     0
  3
__ __ __ __ __ __ __ __ __ __ __ __ __ __ __ __ __ __ __ __ __
 72
    65
 73
     2
 40
0.75
 49
0.5
 74
     0
 49
-0.25
 74
     0
  0
LTYPE
  5
2B19
330
2A9F
100
AcDbSymbolTableRecord
100
AcDbLinetypeTableRecord
  2
AM_ISO02W050
 70
     0
  3
__ __ __ __ __ __ __ __ __ __ __ __ __ __ __
 72
    65
 73
     2
 40
7.5
 49
6.0
 74
     0
 49
-1.5
 74
     0
  0
LTYPE
  5
2B1A
330
2A9F
100
AcDbSymbolTableRecord
100
AcDbLinetypeTableRecord
  2
AM_ISO08W050
 70
     0
  3
____ . ____ . ____ . ____ . ____ . ____ . ____
 72
    65
 73
     4
 40
18.0
 49
12.0
 74
     0
 49
-1.5
 74
     0
 49
3.0
 74
     0
 49
-1.5
 74
     0
  0
LTYPE
  5
2B1B
330
2A9F
100
AcDbSymbolTableRecord
100
AcDbLinetypeTableRecord
  2
AM_ISO09W050
 70
     0
  3
_____ . . _____ . . _____ . . ____ .. ____
 72
    65
 73
     6
 40
22.5
 49
12.0
 74
     0
 49
-1.5
 74
     0
 49
3.0
 74
     0
 49
-1.5
 74
     0
 49
3.0
 74
     0
 49
-1.5
 74
     0
  0
LTYPE
  5
2B1C
330
2A9F
100
AcDbSymbolTableRecord
100
AcDbLinetypeTableRecord
  2
AMCONSTR
 70
     0
  3
_______________________
 72
    65
 73
     2
 40
9999.0
 49
9999.0
 74
     0
 49
0.0
 74
     0
  0
LTYPE
  5
2B1D
330
2A9F
100
AcDbSymbolTableRecord
100
AcDbLinetypeTableRecord
  2
AM_ISO08W050X2
 70
     0
  3
__ . __ . __ . __ . __ . __
 72
    65
 73
     4
 40
9.0
 49
6.0
 74
     0
 49
-0.75
 74
     0
 49
1.5
 74
     0
 49
-0.75
 74
     0
  0
LTYPE
  5
2B1E
330
2A9F
100
AcDbSymbolTableRecord
100
AcDbLinetypeTableRecord
  2
AM_ISO02W050X2
 70
     0
  3
 _ _ _ _ _ _ _ _ _ _ _ _
 72
    65
 73
     2
 40
3.75
 49
3.0
 74
     0
 49
-0.75
 74
     0
  0
LTYPE
  5
2B1F
330
2A9F
100
AcDbSymbolTableRecord
100
AcDbLinetypeTableRecord
  2
AMZIGZAG
 70
     0
  3
/\/-/\/-/\/-/\/-/\/-/\/
 72
    65
 73
     2
 40
11.0001
 49
0.0001
 74
     0
 49
-11.0
 74
     0
  0
LTYPE
  5
2B20
330
2A9F
100
AcDbSymbolTableRecord
100
AcDbLinetypeTableRecord
  2
CENTER2
 70
     0
  3
Center (.5x) ___ _ ___ _ ___ _ ___ _ ___ _ ___
 72
    65
 73
     4
 40
1.125
 49
0.75
 74
     0
 49
-0.125
 74
     0
 49
0.125
 74
     0
 49
-0.125
 74
     0
  0
LTYPE
  5
2B21
330
2A9F
100
AcDbSymbolTableRecord
100
AcDbLinetypeTableRecord
  2
HIDDEN2
 70
     0
  3
Hidden (.5x) _ _ _ _ _ _ _ _ _ _ _ _ _ _ _ _ _
 72
    65
 73
     2
 40
0.1875
 49
0.125
 74
     0
 49
-0.0625
 74
     0
  0
LTYPE
  5
2B22
330
2A9F
100
AcDbSymbolTableRecord
100
AcDbLinetypeTableRecord
  2
AMZIGZAG2
 70
     0
  3
/\/-/\/-/\/-/\/-/\/-/\/
 72
    65
 73
     2
 40
0.4401
 49
0.0001
 74
     0
 49
-0.4400000000000003
 74
     0
  0
LTYPE
  5
2B23
330
2A9F
100
AcDbSymbolTableRecord
100
AcDbLinetypeTableRecord
  2
ACANSTGB
 70
     0
  3
__ . . __ . .
 72
    65
 73
     6
 40
0.35433070866
 49
0.15748031496
 74
     0
 49
-0.03937007874
 74
     0
 49
0.03937007874
 74
     0
 49
-0.03937007874
 74
     0
 49
0.03937007874
 74
     0
 49
-0.03937007874
 74
     0
  0
LTYPE
  5
2B24
330
2A9F
100
AcDbSymbolTableRecord
100
AcDbLinetypeTableRecord
  2
ACANSTGL
 70
     0
  3
_ _ _ _ _
 72
    65
 73
     2
 40
0.11811023622
 49
0.07874015748
 74
     0
 49
-0.03937007874
 74
     0
  0
ENDTAB
  0
TABLE
  2
LAYER
  5
2A9C
330
0
100
AcDbSymbolTable
 70
    12
  0
LAYER
  5
2AF6
102
{ACAD_XDICTIONARY
360
2CCC
102
}
330
2A9C
100
AcDbSymbolTableRecord
100
AcDbLayerTableRecord
  2
0
 70
     0
 62
     7
  6
CONTINUOUS
370
    -3
390
2AA9
  0
LAYER
  5
2B25
102
{ACAD_XDICTIONARY
360
2CCE
102
}
330
2A9C
100
AcDbSymbolTableRecord
100
AcDbLayerTableRecord
  2
OUTLINE
 70
     0
 62
     3
  6
CONTINUOUS
370
    -3
390
2AA9
  0
LAYER
  5
2B26
102
{ACAD_XDICTIONARY
360
2CD0
102
}
330
2A9C
100
AcDbSymbolTableRecord
100
AcDbLayerTableRecord
  2
SIZE
 70
     0
 62
    30
  6
CONTINUOUS
370
    -3
390
2AA9
  0
LAYER
  5
2B27
102
{ACAD_XDICTIONARY
360
2CD2
102
}
330
2A9C
100
AcDbSymbolTableRecord
100
AcDbLayerTableRecord
  2
BASIS
 70
     0
 62
     6
  6
DASHDOT
370
    -3
390
2AA9
  0
LAYER
  5
2B28
102
{ACAD_XDICTIONARY
360
2CD4
102
}
330
2A9C
100
AcDbSymbolTableRecord
100
AcDbLayerTableRecord
  2
DETAIL
 70
     0
 62
     5
  6
CONTINUOUS
370
    -3
390
2AA9
  0
LAYER
  5
2B29
102
{ACAD_XDICTIONARY
360
2CD6
102
}
330
2A9C
100
AcDbSymbolTableRecord
100
AcDbLayerTableRecord
  2
ARRANGE
 70
     0
 62
     1
  6
CONTINUOUS
370
    -3
390
2AA9
  0
LAYER
  5
2B2A
330
2A9C
100
AcDbSymbolTableRecord
100
AcDbLayerTableRecord
  2
DEFPOINTS
 70
     0
 62
     7
  6
CONTINUOUS
290
     0
370
    -3
390
2AA9
  0
LAYER
  5
2B2B
102
{ACAD_XDICTIONARY
360
2CD8
102
}
330
2A9C
100
AcDbSymbolTableRecord
100
AcDbLayerTableRecord
  2
ETC
 70
     0
 62
    61
  6
CONTINUOUS
370
    -3
390
2AA9
  0
LAYER
  5
2B2C
102
{ACAD_XDICTIONARY
360
2CDA
102
}
330
2A9C
100
AcDbSymbolTableRecord
100
AcDbLayerTableRecord
  2
FIX
 70
     0
 62
    11
  6
CONTINUOUS
370
    -3
390
2AA9
  0
LAYER
  5
2B2D
102
{ACAD_XDICTIONARY
360
2CDC
102
}
330
2A9C
100
AcDbSymbolTableRecord
100
AcDbLayerTableRecord
  2
NOTE
 70
     0
 62
     4
  6
CONTINUOUS
370
    -3
390
2AA9
  0
LAYER
  5
2B2E
102
{ACAD_XDICTIONARY
360
2CDE
102
}
330
2A9C
100
AcDbSymbolTableRecord
100
AcDbLayerTableRecord
  2
SERVICESPACE
 70
     0
 62
     2
  6
DASHDOT
370
    -3
390
2AA9
  0
LAYER
  5
2B2F
102
{ACAD_XDICTIONARY
360
2CE0
102
}
330
2A9C
100
AcDbSymbolTableRecord
100
AcDbLayerTableRecord
  2
SYMBOLLINE
 70
     0
 62
    15
  6
CONTINUOUS
370
    -3
390
2AA9
  0
ENDTAB
  0
TABLE
  2
STYLE
  5
2A9D
330
0
100
AcDbSymbolTable
 70
     5
  0
STYLE
  5
2AF7
330
2A9D
100
AcDbSymbolTableRecord
100
AcDbTextStyleTableRecord
  2
STANDARD
 70
     0
 40
64.0
 41
0.9
 50
0.0
 71
     0
 42
64.0
  3
SIMPLEX.shx
  4
BIGFONT.shx
  0
STYLE
  5
2AFB
330
2A9D
100
AcDbSymbolTableRecord
100
AcDbTextStyleTableRecord
  2
ANNOTATIVE
 70
     0
 40
0.0
 41
1.0
 50
0.0
 71
     0
 42
0.2
  3
txt
  4

1001
ACADANNOTATIVE
1000
AnnotativeData
1002
{
1070
     1
1070
     1
1002
}
  0
STYLE
  5
2B30
330
2A9D
100
AcDbSymbolTableRecord
100
AcDbTextStyleTableRecord
  2

 70
     1
 40
0.0
 41
1.0
 50
0.0
 71
     0
 42
64.0
  3
genltshp.shx
  4

  0
STYLE
  5
2B31
330
2A9D
100
AcDbSymbolTableRecord
100
AcDbTextStyleTableRecord
  2
ACANSTS
 70
     0
 40
1.0
 41
1.0
 50
0.0
 71
     0
 42
64.0
  3
romans.shx
  4
extfont.shx
  0
STYLE
  5
2B32
330
2A9D
100
AcDbSymbolTableRecord
100
AcDbTextStyleTableRecord
  2
ACANSGDT
 70
     0
 40
0.0
 41
1.0
 50
0.0
 71
     0
 42
64.0
  3
amgdt.shx
  4

  0
ENDTAB
  0
TABLE
  2
VIEW
  5
2AA0
330
0
100
AcDbSymbolTable
 70
     1
  0
VIEW
  5
2B33
330
2AA0
100
AcDbSymbolTableRecord
100
AcDbViewTableRecord
  2
ALL
 70
     0
 40
4282.619807999997
 10
0.0
 20
41.30990399999999
 41
5940.0
 11
0.0
 21
0.0
 31
1.0
 12
0.0
 22
0.0
 32
0.0
 42
50.0
 43
0.0
 44
0.0
 50
0.0
 71
     0
281
     0
 72
     1
110
0.0
120
0.0
130
0.0
111
1.0
121
0.0
131
0.0
112
0.0
122
1.0
132
0.0
 79
     0
146
0.0
  0
ENDTAB
  0
TABLE
  2
UCS
  5
2AA1
330
0
100
AcDbSymbolTable
 70
     0
  0
ENDTAB
  0
TABLE
  2
APPID
  5
2AA3
330
0
100
AcDbSymbolTable
 70
    26
  0
APPID
  5
2AF8
330
2AA3
100
AcDbSymbolTableRecord
100
AcDbRegAppTableRecord
  2
ACAD
 70
     0
  0
APPID
  5
2AFF
330
2AA3
100
AcDbSymbolTableRecord
100
AcDbRegAppTableRecord
  2
ACADANNOTATIVE
 70
     0
  0
APPID
  5
2B09
330
2AA3
100
AcDbSymbolTableRecord
100
AcDbRegAppTableRecord
  2
ACAD_MLEADERVER
 70
     0
  0
APPID
  5
2B34
330
2AA3
100
AcDbSymbolTableRecord
100
AcDbRegAppTableRecord
  2
GENIUS_GENDIM_13
 70
     0
  0
APPID
  5
2B35
330
2AA3
100
AcDbSymbolTableRecord
100
AcDbRegAppTableRecord
  2
GENIUS_GENDTOL_13
 70
     0
  0
APPID
  5
2B36
330
2AA3
100
AcDbSymbolTableRecord
100
AcDbRegAppTableRecord
  2
GENIUS_GE3DTOL_13
 70
     0
  0
APPID
  5
2B37
330
2AA3
100
AcDbSymbolTableRecord
100
AcDbRegAppTableRecord
  2
MCAD_NO_VIS
 70
     0
  0
APPID
  5
2B38
330
2AA3
100
AcDbSymbolTableRecord
100
AcDbRegAppTableRecord
  2
ACAD_TEMP_GRAPHIC
 70
     0
  0
APPID
  5
2B39
330
2AA3
100
AcDbSymbolTableRecord
100
AcDbRegAppTableRecord
  2
AD_DRAW
 70
     0
  0
APPID
  5
2B3A
330
2AA3
100
AcDbSymbolTableRecord
100
AcDbRegAppTableRecord
  2
ACATTRIBSERVICES
 70
     0
  0
APPID
  5
2B3B
330
2AA3
100
AcDbSymbolTableRecord
100
AcDbRegAppTableRecord
  2
ASURF_PCURVE_APPNAME
 70
     0
  0
APPID
  5
2B3C
330
2AA3
100
AcDbSymbolTableRecord
100
AcDbRegAppTableRecord
  2
AMG_3D2D_5_0
 70
     0
  0
APPID
  5
2B3D
330
2AA3
100
AcDbSymbolTableRecord
100
AcDbRegAppTableRecord
  2
DESIGNERASSEMBLIES
 70
     0
  0
APPID
  5
2B3E
330
2AA3
100
AcDbSymbolTableRecord
100
AcDbRegAppTableRecord
  2
ACADM_DIM_EDIT
 70
     0
  0
APPID
  5
2B3F
330
2AA3
100
AcDbSymbolTableRecord
100
AcDbRegAppTableRecord
  2
AMDT_DM_ADJ
 70
     0
  0
APPID
  5
2B40
330
2AA3
100
AcDbSymbolTableRecord
100
AcDbRegAppTableRecord
  2
ACAD_DSTYLE_DIMARC_LENGTH_
 70
     0
  0
APPID
  5
2B41
330
2AA3
100
AcDbSymbolTableRecord
100
AcDbRegAppTableRecord
  2
ACAD_DSTYLE_DIMJOGGED_JOGA
 70
     0
  0
APPID
  5
2B42
330
2AA3
100
AcDbSymbolTableRecord
100
AcDbRegAppTableRecord
  2
ACAD_PSEXT
 70
     0
  0
APPID
  5
2B43
330
2AA3
100
AcDbSymbolTableRecord
100
AcDbRegAppTableRecord
  2
ACAD_EXEMPT_FROM_CAD_STANDARDS
 70
     0
  0
APPID
  5
2B44
330
2AA3
100
AcDbSymbolTableRecord
100
AcDbRegAppTableRecord
  2
ACAD_DSTYLE_DIMJAG
 70
     0
  0
APPID
  5
2B45
330
2AA3
100
AcDbSymbolTableRecord
100
AcDbRegAppTableRecord
  2
ACAD_DSTYLE_DIMTALN
 70
     0
  0
APPID
  5
2C73
330
2AA3
100
AcDbSymbolTableRecord
100
AcDbRegAppTableRecord
  2
AMG_3D2D_5.0
 70
     0
  0
APPID
  5
2D09
330
2AA3
100
AcDbSymbolTableRecord
100
AcDbRegAppTableRecord
  2
ACAD_DSTYLE_DIMARC_LENGTH_SYMBOL
 70
     0
  0
APPID
  5
2D0A
330
2AA3
100
AcDbSymbolTableRecord
100
AcDbRegAppTableRecord
  2
ACAD_DSTYLE_DIM_LINETYPE
 70
     0
  0
APPID
  5
2D0B
330
2AA3
100
AcDbSymbolTableRecord
100
AcDbRegAppTableRecord
  2
ACAD_DSTYLE_DIM_EXT1_LINETYPE
 70
     0
  0
APPID
  5
2D0C
330
2AA3
100
AcDbSymbolTableRecord
100
AcDbRegAppTableRecord
  2
ACAD_DSTYLE_DIM_EXT2_LINETYPE
 70
     0
  0
ENDTAB
  0
TABLE
  2
DIMSTYLE
  5
2AA4
330
0
100
AcDbSymbolTable
 70
    10
100
AcDbDimStyleTable
 71
     1
340
2B46
  0
DIMSTYLE
105
2AF9
330
2AA4
100
AcDbSymbolTableRecord
100
AcDbDimStyleTableRecord
  2
STANDARD
 70
     0
 41
12.0
 42
20.0
 44
20.0
 77
     1
 78
     8
140
64.0
141
0.0
147
10.0
275
     1
279
     2
284
     7
285
     7
286
     7
340
2AF7
  0
DIMSTYLE
105
2AFA
330
2AA4
100
AcDbSymbolTableRecord
100
AcDbDimStyleTableRecord
  2
ANNOTATIVE
 70
     0
275
     1
279
     2
284
     7
285
     7
286
     7
340
2AF7
1001
ACADANNOTATIVE
1000
AnnotativeData
1002
{
1070
     1
1070
     1
1002
}
  0
DIMSTYLE
105
2B46
330
2AA4
100
AcDbSymbolTableRecord
100
AcDbDimStyleTableRecord
  2
AM_ANSI
 70
     0
  4
mm
 41
0.12
 42
0.05
 43
0.5
 44
0.1
 47
0.1
 48
0.1
 78
     7
 79
     2
140
0.12
141
0.0
146
0.71
147
0.06
176
   256
177
   256
178
     2
274
     4
284
     7
340
2AF7
371
    -1
372
    -1
1001
ACAD_DSTYLE_DIMARC_LENGTH_SYMBOL
1070
   379
1070
     1
1001
ACAD_DSTYLE_DIM_LINETYPE
1070
   380
1005
2AFC
1001
ACAD_DSTYLE_DIM_EXT1_LINETYPE
1070
   381
1005
2AFC
1001
ACAD_DSTYLE_DIM_EXT2_LINETYPE
1070
   382
1005
2AFC
  0
DIMSTYLE
105
2B47
330
2AA4
100
AcDbSymbolTableRecord
100
AcDbDimStyleTableRecord
  2
AM_ANSI$3
 70
     0
  4
mm
 41
0.12
 42
0.05
 43
0.5
 44
0.1
 47
0.1
 48
0.1
 78
     7
 79
     2
140
0.12
141
0.0
146
0.71
147
0.06
176
   256
177
   256
178
     2
274
     4
284
     7
288
     1
289
     0
340
2AF7
371
    -1
372
    -1
1001
ACAD_DSTYLE_DIMARC_LENGTH_SYMBOL
1070
   379
1070
     1
1001
ACAD_DSTYLE_DIM_LINETYPE
1070
   380
1005
2AFC
1001
ACAD_DSTYLE_DIM_EXT1_LINETYPE
1070
   381
1005
2AFC
1001
ACAD_DSTYLE_DIM_EXT2_LINETYPE
1070
   382
1005
2AFC
  0
DIMSTYLE
105
2B48
330
2AA4
100
AcDbSymbolTableRecord
100
AcDbDimStyleTableRecord
  2
AM_ANSI$4
 70
     0
  4
mm
 41
0.12
 42
0.05
 43
0.5
 44
0.1
 47
0.1
 48
0.1
 78
     7
 79
     2
140
0.12
141
0.0
146
0.71
147
0.06
176
   256
177
   256
178
     2
274
     4
284
     7
340
2AF7
371
    -1
372
    -1
1001
ACAD_DSTYLE_DIMARC_LENGTH_SYMBOL
1070
   379
1070
     1
1001
ACAD_DSTYLE_DIM_LINETYPE
1070
   380
1005
2AFC
1001
ACAD_DSTYLE_DIM_EXT1_LINETYPE
1070
   381
1005
2AFC
1001
ACAD_DSTYLE_DIM_EXT2_LINETYPE
1070
   382
1005
2AFC
  0
DIMSTYLE
105
2B49
330
2AA4
100
AcDbSymbolTableRecord
100
AcDbDimStyleTableRecord
  2
AM_ANSI$7
 70
     0
  4
mm
 41
0.12
 42
0.05
 43
0.5
 44
0.1
 47
0.1
 48
0.1
 78
     7
 79
     2
140
0.12
141
0.0
146
0.71
147
0.06
176
   256
177
   256
178
     2
274
     4
284
     7
340
2AF7
371
    -1
372
    -1
1001
ACAD_DSTYLE_DIMARC_LENGTH_SYMBOL
1070
   379
1070
     1
1001
ACAD_DSTYLE_DIM_LINETYPE
1070
   380
1005
2AFC
1001
ACAD_DSTYLE_DIM_EXT1_LINETYPE
1070
   381
1005
2AFC
1001
ACAD_DSTYLE_DIM_EXT2_LINETYPE
1070
   382
1005
2AFC
  0
DIMSTYLE
105
2B4A
330
2AA4
100
AcDbSymbolTableRecord
100
AcDbDimStyleTableRecord
  2
AM_ANSI$SF
 70
     0
  4
mm
 41
0.12
 42
0.05
 43
0.5
 44
0.1
 47
0.1
 48
0.1
 75
     1
 76
     1
 78
     7
 79
     2
140
0.12
141
0.0
146
0.71
147
0.06
176
   256
177
   256
178
     2
274
     4
284
     7
340
2AF7
371
    -1
372
    -1
1001
ACAD_DSTYLE_DIMARC_LENGTH_SYMBOL
1070
   379
1070
     1
1001
ACAD_DSTYLE_DIM_LINETYPE
1070
   380
1005
2AFC
1001
ACAD_DSTYLE_DIM_EXT1_LINETYPE
1070
   381
1005
2AFC
1001
ACAD_DSTYLE_DIM_EXT2_LINETYPE
1070
   382
1005
2AFC
  0
DIMSTYLE
105
2B4B
330
2AA4
100
AcDbSymbolTableRecord
100
AcDbDimStyleTableRecord
  2
AM_ANSI$SH
 70
     0
  4
mm
 41
0.12
 42
0.05
 43
0.5
 44
0.1
 47
0.1
 48
0.1
 75
     1
 76
     1
 78
     7
 79
     2
140
0.12
141
0.0
146
0.71
147
0.06
173
     1
176
   256
177
   256
178
     2
274
     4
284
     7
340
2AF7
343
2B6B
371
    -1
372
    -1
1001
ACAD_DSTYLE_DIMARC_LENGTH_SYMBOL
1070
   379
1070
     1
1001
ACAD_DSTYLE_DIM_LINETYPE
1070
   380
1005
2AFC
1001
ACAD_DSTYLE_DIM_EXT1_LINETYPE
1070
   381
1005
2AFC
1001
ACAD_DSTYLE_DIM_EXT2_LINETYPE
1070
   382
1005
2AFC
  0
DIMSTYLE
105
2B4C
330
2AA4
100
AcDbSymbolTableRecord
100
AcDbDimStyleTableRecord
  2
STANDARD1
 70
     0
 40
6.0
 41
2.5
 42
0.625
 43
6.0
 44
1.25
 47
1.0
 48
0.5
 77
     1
 78
     8
140
2.5
141
0.0
146
0.6
147
1.0
173
     1
275
     1
279
     2
284
     7
285
     7
286
     7
340
2AF7
  0
DIMSTYLE
105
2B4D
330
2AA4
100
AcDbSymbolTableRecord
100
AcDbDimStyleTableRecord
  2
STANDARD$0
 70
     0
 41
12.0
 42
20.0
 44
20.0
 73
     0
 74
     0
 77
     1
 78
     8
140
64.0
141
0.0
147
10.0
275
     1
279
     2
284
     7
285
     7
286
     7
340
2AF7
  0
ENDTAB
  0
TABLE
  2
BLOCK_RECORD
  5
2A9B
330
0
100
AcDbSymbolTable
 70
    79
  0
BLOCK_RECORD
  5
2B0E
102
{ACAD_XDICTIONARY
360
2CE2
102
}
330
2A9B
100
AcDbSymbolTableRecord
100
AcDbBlockTableRecord
  2
*Model_Space
340
2B11
  0
BLOCK_RECORD
  5
2B0A
330
2A9B
100
AcDbSymbolTableRecord
100
AcDbBlockTableRecord
  2
*Paper_Space
340
2B0D
  0
BLOCK_RECORD
  5
2B55
330
2A9B
100
AcDbSymbolTableRecord
100
AcDbBlockTableRecord
  2
$MODEL_SPACE
340
0
  0
BLOCK_RECORD
  5
2B57
330
2A9B
100
AcDbSymbolTableRecord
100
AcDbBlockTableRecord
  2
$PAPER_SPACE
340
0
  0
BLOCK_RECORD
  5
2B59
330
2A9B
100
AcDbSymbolTableRecord
100
AcDbBlockTableRecord
  2
_ORIGIN
340
0
  0
BLOCK_RECORD
  5
2B5B
330
2A9B
100
AcDbSymbolTableRecord
100
AcDbBlockTableRecord
  2
_DOTBLANK
340
0
102
{BLKREFS
331
1299
331
129A
331
11AA
331
11AB
331
E80
331
E81
331
1123
331
1124
331
11C2
331
11C3
331
11EC
331
11ED
331
11F9
331
11FA
331
1287
331
1288
331
1417
331
1418
331
1423
331
1424
331
142F
331
1430
331
143B
331
143C
331
166E
331
166F
331
1677
331
1678
331
1680
331
1681
331
1689
331
168A
331
1696
331
1697
331
16A3
331
16A4
331
16AF
331
16B0
331
16BB
331
16BC
331
16C7
331
16C8
331
16D3
331
16D4
331
1D86
331
1D87
331
1D8F
331
1D90
331
1D98
331
1D99
331
1DA1
331
1DA2
331
1DAB
331
1DAC
331
1DB5
331
1DB6
331
2A3C
331
2A3D
331
2A41
331
2A42
331
2A47
331
2A48
331
2A4C
331
2A4D
331
2A52
331
2A53
331
2A57
331
2A58
102
}
  0
BLOCK_RECORD
  5
2B5D
330
2A9B
100
AcDbSymbolTableRecord
100
AcDbBlockTableRecord
  2
_OPEN30
340
0
102
{BLKREFS
331
2087
331
216D
331
2244
331
2337
331
2464
331
263D
102
}
  0
BLOCK_RECORD
  5
2B5F
330
2A9B
100
AcDbSymbolTableRecord
100
AcDbBlockTableRecord
  2
*D5
340
0
  0
BLOCK_RECORD
  5
2B61
330
2A9B
100
AcDbSymbolTableRecord
100
AcDbBlockTableRecord
  2
*U6
340
0
102
{BLKREFS
331
129B
102
}
  0
BLOCK_RECORD
  5
2B63
330
2A9B
100
AcDbSymbolTableRecord
100
AcDbBlockTableRecord
  2
*D7
340
0
  0
BLOCK_RECORD
  5
2B65
330
2A9B
100
AcDbSymbolTableRecord
100
AcDbBlockTableRecord
  2
*U8
340
0
102
{BLKREFS
331
11AC
102
}
  0
BLOCK_RECORD
  5
2B67
330
2A9B
100
AcDbSymbolTableRecord
100
AcDbBlockTableRecord
  2
*D9
340
0
  0
BLOCK_RECORD
  5
2B69
330
2A9B
100
AcDbSymbolTableRecord
100
AcDbBlockTableRecord
  2
*U10
340
0
102
{BLKREFS
331
E82
102
}
  0
BLOCK_RECORD
  5
2B6B
330
2A9B
100
AcDbSymbolTableRecord
100
AcDbBlockTableRecord
  2
GENAXEH
340
0
  0
BLOCK_RECORD
  5
2B6D
330
2A9B
100
AcDbSymbolTableRecord
100
AcDbBlockTableRecord
  2
*D12
340
0
  0
BLOCK_RECORD
  5
2B6F
330
2A9B
100
AcDbSymbolTableRecord
100
AcDbBlockTableRecord
  2
*U13
340
0
102
{BLKREFS
331
1125
102
}
  0
BLOCK_RECORD
  5
2B71
330
2A9B
100
AcDbSymbolTableRecord
100
AcDbBlockTableRecord
  2
*D14
340
0
  0
BLOCK_RECORD
  5
2B73
330
2A9B
100
AcDbSymbolTableRecord
100
AcDbBlockTableRecord
  2
*U15
340
0
102
{BLKREFS
331
11C4
102
}
  0
BLOCK_RECORD
  5
2B75
330
2A9B
100
AcDbSymbolTableRecord
100
AcDbBlockTableRecord
  2
*D16
340
0
  0
BLOCK_RECORD
  5
2B77
330
2A9B
100
AcDbSymbolTableRecord
100
AcDbBlockTableRecord
  2
*U17
340
0
102
{BLKREFS
331
11EE
102
}
  0
BLOCK_RECORD
  5
2B79
330
2A9B
100
AcDbSymbolTableRecord
100
AcDbBlockTableRecord
  2
*D18
340
0
  0
BLOCK_RECORD
  5
2B7B
330
2A9B
100
AcDbSymbolTableRecord
100
AcDbBlockTableRecord
  2
*U19
340
0
102
{BLKREFS
331
11FB
102
}
  0
BLOCK_RECORD
  5
2B7D
330
2A9B
100
AcDbSymbolTableRecord
100
AcDbBlockTableRecord
  2
*D20
340
0
  0
BLOCK_RECORD
  5
2B7F
330
2A9B
100
AcDbSymbolTableRecord
100
AcDbBlockTableRecord
  2
*U21
340
0
102
{BLKREFS
331
1289
102
}
  0
BLOCK_RECORD
  5
2B81
330
2A9B
100
AcDbSymbolTableRecord
100
AcDbBlockTableRecord
  2
*D22
340
0
  0
BLOCK_RECORD
  5
2B83
330
2A9B
100
AcDbSymbolTableRecord
100
AcDbBlockTableRecord
  2
*U23
340
0
102
{BLKREFS
331
1419
102
}
  0
BLOCK_RECORD
  5
2B85
330
2A9B
100
AcDbSymbolTableRecord
100
AcDbBlockTableRecord
  2
*D24
340
0
  0
BLOCK_RECORD
  5
2B87
330
2A9B
100
AcDbSymbolTableRecord
100
AcDbBlockTableRecord
  2
*U25
340
0
102
{BLKREFS
331
1425
102
}
  0
BLOCK_RECORD
  5
2B89
330
2A9B
100
AcDbSymbolTableRecord
100
AcDbBlockTableRecord
  2
*D26
340
0
  0
BLOCK_RECORD
  5
2B8B
330
2A9B
100
AcDbSymbolTableRecord
100
AcDbBlockTableRecord
  2
*U27
340
0
102
{BLKREFS
331
1431
102
}
  0
BLOCK_RECORD
  5
2B8D
330
2A9B
100
AcDbSymbolTableRecord
100
AcDbBlockTableRecord
  2
*D28
340
0
  0
BLOCK_RECORD
  5
2B8F
330
2A9B
100
AcDbSymbolTableRecord
100
AcDbBlockTableRecord
  2
*U29
340
0
102
{BLKREFS
331
143D
102
}
  0
BLOCK_RECORD
  5
2B91
330
2A9B
100
AcDbSymbolTableRecord
100
AcDbBlockTableRecord
  2
*D30
340
0
  0
BLOCK_RECORD
  5
2B93
330
2A9B
100
AcDbSymbolTableRecord
100
AcDbBlockTableRecord
  2
*U31
340
0
102
{BLKREFS
331
1670
102
}
  0
BLOCK_RECORD
  5
2B95
330
2A9B
100
AcDbSymbolTableRecord
100
AcDbBlockTableRecord
  2
*D32
340
0
  0
BLOCK_RECORD
  5
2B97
330
2A9B
100
AcDbSymbolTableRecord
100
AcDbBlockTableRecord
  2
*U33
340
0
102
{BLKREFS
331
1679
102
}
  0
BLOCK_RECORD
  5
2B99
330
2A9B
100
AcDbSymbolTableRecord
100
AcDbBlockTableRecord
  2
*D34
340
0
  0
BLOCK_RECORD
  5
2B9B
330
2A9B
100
AcDbSymbolTableRecord
100
AcDbBlockTableRecord
  2
*U35
340
0
102
{BLKREFS
331
1682
102
}
  0
BLOCK_RECORD
  5
2B9D
330
2A9B
100
AcDbSymbolTableRecord
100
AcDbBlockTableRecord
  2
*D36
340
0
  0
BLOCK_RECORD
  5
2B9F
330
2A9B
100
AcDbSymbolTableRecord
100
AcDbBlockTableRecord
  2
*U37
340
0
102
{BLKREFS
331
168B
102
}
  0
BLOCK_RECORD
  5
2BA1
330
2A9B
100
AcDbSymbolTableRecord
100
AcDbBlockTableRecord
  2
*U38
340
0
  0
BLOCK_RECORD
  5
2BA3
330
2A9B
100
AcDbSymbolTableRecord
100
AcDbBlockTableRecord
  2
*D39
340
0
  0
BLOCK_RECORD
  5
2BA5
330
2A9B
100
AcDbSymbolTableRecord
100
AcDbBlockTableRecord
  2
*U40
340
0
102
{BLKREFS
331
1698
102
}
  0
BLOCK_RECORD
  5
2BA7
330
2A9B
100
AcDbSymbolTableRecord
100
AcDbBlockTableRecord
  2
*D41
340
0
  0
BLOCK_RECORD
  5
2BA9
330
2A9B
100
AcDbSymbolTableRecord
100
AcDbBlockTableRecord
  2
*U42
340
0
102
{BLKREFS
331
16A5
102
}
  0
BLOCK_RECORD
  5
2BAB
330
2A9B
100
AcDbSymbolTableRecord
100
AcDbBlockTableRecord
  2
*D43
340
0
  0
BLOCK_RECORD
  5
2BAD
330
2A9B
100
AcDbSymbolTableRecord
100
AcDbBlockTableRecord
  2
*U44
340
0
102
{BLKREFS
331
16B1
102
}
  0
BLOCK_RECORD
  5
2BAF
330
2A9B
100
AcDbSymbolTableRecord
100
AcDbBlockTableRecord
  2
*D45
340
0
  0
BLOCK_RECORD
  5
2BB1
330
2A9B
100
AcDbSymbolTableRecord
100
AcDbBlockTableRecord
  2
*U46
340
0
102
{BLKREFS
331
16BD
102
}
  0
BLOCK_RECORD
  5
2BB3
330
2A9B
100
AcDbSymbolTableRecord
100
AcDbBlockTableRecord
  2
*D47
340
0
  0
BLOCK_RECORD
  5
2BB5
330
2A9B
100
AcDbSymbolTableRecord
100
AcDbBlockTableRecord
  2
*U48
340
0
102
{BLKREFS
331
16C9
102
}
  0
BLOCK_RECORD
  5
2BB7
330
2A9B
100
AcDbSymbolTableRecord
100
AcDbBlockTableRecord
  2
*D49
340
0
  0
BLOCK_RECORD
  5
2BB9
330
2A9B
100
AcDbSymbolTableRecord
100
AcDbBlockTableRecord
  2
*U50
340
0
102
{BLKREFS
331
16D5
102
}
  0
BLOCK_RECORD
  5
2BBB
330
2A9B
100
AcDbSymbolTableRecord
100
AcDbBlockTableRecord
  2
*D51
340
0
  0
BLOCK_RECORD
  5
2BBD
330
2A9B
100
AcDbSymbolTableRecord
100
AcDbBlockTableRecord
  2
*U52
340
0
102
{BLKREFS
331
1D88
102
}
  0
BLOCK_RECORD
  5
2BBF
330
2A9B
100
AcDbSymbolTableRecord
100
AcDbBlockTableRecord
  2
*D53
340
0
  0
BLOCK_RECORD
  5
2BC1
330
2A9B
100
AcDbSymbolTableRecord
100
AcDbBlockTableRecord
  2
*U54
340
0
102
{BLKREFS
331
1D91
102
}
  0
BLOCK_RECORD
  5
2BC3
330
2A9B
100
AcDbSymbolTableRecord
100
AcDbBlockTableRecord
  2
*D55
340
0
  0
BLOCK_RECORD
  5
2BC5
330
2A9B
100
AcDbSymbolTableRecord
100
AcDbBlockTableRecord
  2
*U56
340
0
102
{BLKREFS
331
1D9A
102
}
  0
BLOCK_RECORD
  5
2BC7
330
2A9B
100
AcDbSymbolTableRecord
100
AcDbBlockTableRecord
  2
*D57
340
0
  0
BLOCK_RECORD
  5
2BC9
330
2A9B
100
AcDbSymbolTableRecord
100
AcDbBlockTableRecord
  2
*U58
340
0
102
{BLKREFS
331
1DA3
102
}
  0
BLOCK_RECORD
  5
2BCB
330
2A9B
100
AcDbSymbolTableRecord
100
AcDbBlockTableRecord
  2
*D59
340
0
  0
BLOCK_RECORD
  5
2BCD
330
2A9B
100
AcDbSymbolTableRecord
100
AcDbBlockTableRecord
  2
*U60
340
0
102
{BLKREFS
331
1DAD
102
}
  0
BLOCK_RECORD
  5
2BCF
330
2A9B
100
AcDbSymbolTableRecord
100
AcDbBlockTableRecord
  2
*D61
340
0
  0
BLOCK_RECORD
  5
2BD1
330
2A9B
100
AcDbSymbolTableRecord
100
AcDbBlockTableRecord
  2
*U62
340
0
102
{BLKREFS
331
1DB7
102
}
  0
BLOCK_RECORD
  5
2BD3
330
2A9B
100
AcDbSymbolTableRecord
100
AcDbBlockTableRecord
  2
*U63
340
0
  0
BLOCK_RECORD
  5
2BD5
330
2A9B
100
AcDbSymbolTableRecord
100
AcDbBlockTableRecord
  2
*U64
340
0
  0
BLOCK_RECORD
  5
2BD7
330
2A9B
100
AcDbSymbolTableRecord
100
AcDbBlockTableRecord
  2
*U65
340
0
  0
BLOCK_RECORD
  5
2BD9
330
2A9B
100
AcDbSymbolTableRecord
100
AcDbBlockTableRecord
  2
*U66
340
0
  0
BLOCK_RECORD
  5
2BDB
330
2A9B
100
AcDbSymbolTableRecord
100
AcDbBlockTableRecord
  2
*U67
340
0
  0
BLOCK_RECORD
  5
2BDD
330
2A9B
100
AcDbSymbolTableRecord
100
AcDbBlockTableRecord
  2
*U68
340
0
  0
BLOCK_RECORD
  5
2BDF
330
2A9B
100
AcDbSymbolTableRecord
100
AcDbBlockTableRecord
  2
*U69
340
0
  0
BLOCK_RECORD
  5
2BE1
330
2A9B
100
AcDbSymbolTableRecord
100
AcDbBlockTableRecord
  2
*U70
340
0
  0
BLOCK_RECORD
  5
2BE3
330
2A9B
100
AcDbSymbolTableRecord
100
AcDbBlockTableRecord
  2
*U71
340
0
  0
BLOCK_RECORD
  5
2BE5
330
2A9B
100
AcDbSymbolTableRecord
100
AcDbBlockTableRecord
  2
*U72
340
0
  0
BLOCK_RECORD
  5
2BE7
330
2A9B
100
AcDbSymbolTableRecord
100
AcDbBlockTableRecord
  2
*U73
340
0
  0
BLOCK_RECORD
  5
2BE9
330
2A9B
100
AcDbSymbolTableRecord
100
AcDbBlockTableRecord
  2
*U74
340
0
102
{BLKREFS
331
2A07
102
}
  0
BLOCK_RECORD
  5
2BEB
330
2A9B
100
AcDbSymbolTableRecord
100
AcDbBlockTableRecord
  2
*U75
340
0
102
{BLKREFS
331
2A08
102
}
  0
BLOCK_RECORD
  5
2BED
330
2A9B
100
AcDbSymbolTableRecord
100
AcDbBlockTableRecord
  2
*X76
340
0
102
{BLKREFS
331
2A33
102
}
  0
BLOCK_RECORD
  5
2BEF
330
2A9B
100
AcDbSymbolTableRecord
100
AcDbBlockTableRecord
  2
*X77
340
0
102
{BLKREFS
331
2A34
102
}
  0
ENDTAB
  0
ENDSEC
  0
SECTION
  2
BLOCKS
  0
BLOCK
  5
2B0F
330
2B0E
100
AcDbEntity
  8
0
100
AcDbBlockBegin
  2
*Model_Space
 70
     0
 10
0.0
 20
0.0
 30
0.0
  3
*Model_Space
  1

  0
ENDBLK
  5
2B10
330
2B0E
100
AcDbEntity
  8
0
100
AcDbBlockEnd
  0
BLOCK
  5
2B0B
330
2B0A
100
AcDbEntity
 67
     1
  8
0
100
AcDbBlockBegin
  2
*Paper_Space
 70
     0
 10
0.0
 20
0.0
 30
0.0
  3
*Paper_Space
  1

  0
ENDBLK
  5
2B0C
330
2B0A
100
AcDbEntity
 67
     1
  8
0
100
AcDbBlockEnd
  0
BLOCK
  5
2B56
330
2B55
100
AcDbEntity
  8
0
100
AcDbBlockBegin
  2
$MODEL_SPACE
 70
     0
 10
0.0
 20
0.0
 30
0.0
  3
$MODEL_SPACE
  1

  0
ENDBLK
  5
1FC1
330
2B55
100
AcDbEntity
  8
0
100
AcDbBlockEnd
  0
BLOCK
  5
2B58
330
2B57
100
AcDbEntity
  8
0
100
AcDbBlockBegin
  2
$PAPER_SPACE
 70
     0
 10
0.0
 20
0.0
 30
0.0
  3
$PAPER_SPACE
  1

  0
ENDBLK
  5
1FBD
330
2B57
100
AcDbEntity
  8
0
100
AcDbBlockEnd
  0
BLOCK
  5
2B5A
330
2B59
100
AcDbEntity
  8
0
100
AcDbBlockBegin
  2
_ORIGIN
 70
     0
 10
0.0
 20
0.0
 30
0.0
  3
_ORIGIN
  1

  0
CIRCLE
  5
880
330
2B59
100
AcDbEntity
  8
0
  6
Continuous
 62
     7
100
AcDbCircle
 10
0.0
 20
0.0
 30
0.0
 40
0.5
  0
LINE
  5
881
330
2B59
100
AcDbEntity
  8
0
  6
Continuous
 62
     7
100
AcDbLine
 10
0.0
 20
0.0
 30
0.0
 11
-1.0
 21
0.0
 31
0.0
  0
ENDBLK
  5
882
330
2B59
100
AcDbEntity
  8
0
100
AcDbBlockEnd
  0
BLOCK
  5
2B5C
330
2B5B
100
AcDbEntity
  8
0
 62
     1
100
AcDbBlockBegin
  2
_DOTBLANK
 70
     0
 10
0.0
 20
0.0
 30
0.0
  3
_DOTBLANK
  1

  0
CIRCLE
  5
AB3
330
2B5B
100
AcDbEntity
  8
0
  6
ByBlock
 62
     0
100
AcDbCircle
 10
0.0
 20
0.0
 30
0.0
 40
0.5
  0
LINE
  5
AB4
330
2B5B
100
AcDbEntity
  8
0
  6
ByBlock
 62
     0
100
AcDbLine
 10
-0.5
 20
0.0
 30
0.0
 11
-1.0
 21
0.0
 31
0.0
  0
ENDBLK
  5
AB6
330
2B5B
100
AcDbEntity
  8
0
 62
     1
100
AcDbBlockEnd
  0
BLOCK
  5
2B5E
330
2B5D
100
AcDbEntity
  8
0
 62
     1
100
AcDbBlockBegin
  2
_OPEN30
 70
     0
 10
0.0
 20
0.0
 30
0.0
  3
_OPEN30
  1

  0
LINE
  5
AB8
330
2B5D
100
AcDbEntity
  8
0
  6
ByBlock
 62
     0
100
AcDbLine
 10
-1.0
 20
0.26794919
 30
0.0
 11
0.0
 21
0.0
 31
0.0
  0
LINE
  5
AB9
330
2B5D
100
AcDbEntity
  8
0
  6
ByBlock
 62
     0
100
AcDbLine
 10
0.0
 20
0.0
 30
0.0
 11
-1.0
 21
-0.26794919
 31
0.0
  0
LINE
  5
ABA
330
2B5D
100
AcDbEntity
  8
0
  6
ByBlock
 62
     0
100
AcDbLine
 10
0.0
 20
0.0
 30
0.0
 11
-1.0
 21
0.0
 31
0.0
  0
ENDBLK
  5
ABC
330
2B5D
100
AcDbEntity
  8
0
 62
     1
100
AcDbBlockEnd
  0
BLOCK
  5
2B60
330
2B5F
100
AcDbEntity
  8
0
100
AcDbBlockBegin
  2
*D5
 70
     1
 10
0.0
 20
0.0
 30
0.0
  3
*D5
  1

  0
LINE
  5
1296
330
2B5F
100
AcDbEntity
  8
SIZE
 62
     0
100
AcDbLine
 10
-134.5
 20
-320.0
 30
0.0
 11
-134.5
 21
-468.0173952306001
 31
0.0
  0
LINE
  5
1297
330
2B5F
100
AcDbEntity
  8
SIZE
 62
     0
100
AcDbLine
 10
134.5
 20
-320.0
 30
0.0
 11
134.5
 21
-468.0173952306001
 31
0.0
  0
LINE
  5
1298
330
2B5F
100
AcDbEntity
  8
SIZE
 62
     0
100
AcDbLine
 10
-122.5
 20
-448.0173952306
 30
0.0
 11
122.5
 21
-448.0173952306
 31
0.0
  0
INSERT
  5
1299
330
2B5F
100
AcDbEntity
  8
SIZE
 62
     0
100
AcDbBlockReference
  2
_DOTBLANK
 10
-134.5
 20
-448.0173952306
 30
0.0
 41
12.0
 42
12.0
 43
12.0
 50
180.0
  0
INSERT
  5
129A
330
2B5F
100
AcDbEntity
  8
SIZE
 62
     0
100
AcDbBlockReference
  2
_DOTBLANK
 10
134.5
 20
-448.0173952306
 30
0.0
 41
12.0
 42
12.0
 43
12.0
  0
INSERT
  5
129B
330
2B5F
100
AcDbEntity
  8
0
100
AcDbBlockReference
  2
*U6
 10
0.0
 20
0.0
 30
0.0
  0
POINT
  5
129C
330
2B5F
100
AcDbEntity
  8
DEFPOINTS
 62
     0
100
AcDbPoint
 10
-134.5
 20
-300.0
 30
0.0
  0
POINT
  5
129D
330
2B5F
100
AcDbEntity
  8
DEFPOINTS
 62
     0
100
AcDbPoint
 10
134.5
 20
-300.0
 30
0.0
  0
POINT
  5
129E
330
2B5F
100
AcDbEntity
  8
DEFPOINTS
 62
     0
100
AcDbPoint
 10
134.5
 20
-448.0173952306
 30
0.0
  0
ENDBLK
  5
D72
330
2B5F
100
AcDbEntity
  8
0
100
AcDbBlockEnd
  0
BLOCK
  5
2B62
330
2B61
100
AcDbEntity
  8
0
100
AcDbBlockBegin
  2
*U6
 70
     1
 10
0.0
 20
0.0
 30
0.0
  3
*U6
  1

  0
TEXT
  5
1EF5
330
2B61
100
AcDbEntity
  8
SIZE
 62
     0
100
AcDbText
 10
-72.68571428571426
 20
-438.0173952305999
 30
0.0
 40
64.0
  1
269
 41
0.9
100
AcDbText
  0
ENDBLK
  5
1EF7
330
2B61
100
AcDbEntity
  8
0
100
AcDbBlockEnd
  0
BLOCK
  5
2B64
330
2B63
100
AcDbEntity
  8
0
100
AcDbBlockBegin
  2
*D7
 70
     1
 10
0.0
 20
0.0
 30
0.0
  3
*D7
  1

  0
LINE
  5
11A7
330
2B63
100
AcDbEntity
  8
SIZE
  6
Continuous
 62
     0
100
AcDbLine
 10
143.5
 20
-300.0
 30
0.0
 11
304.6432844803791
 21
-300.0
 31
0.0
  0
LINE
  5
11A8
330
2B63
100
AcDbEntity
  8
SIZE
  6
Continuous
 62
     0
100
AcDbLine
 10
177.5
 20
-0.0000000000000057
 30
0.0
 11
304.6432844803792
 21
-0.0000000000000417
 31
0.0
  0
LINE
  5
11A9
330
2B63
100
AcDbEntity
  8
SIZE
  6
Continuous
 62
     0
100
AcDbLine
 10
284.6432844803791
 20
-288.0000000000001
 30
0.0
 11
284.6432844803792
 21
-12.00000000000003
 31
0.0
  0
INSERT
  5
11AA
330
2B63
100
AcDbEntity
  8
SIZE
  6
Continuous
 62
     0
100
AcDbBlockReference
  2
_DOTBLANK
 10
284.6432844803791
 20
-300.0
 30
0.0
 41
12.0
 42
12.0
 43
12.0
 50
270.0
  0
INSERT
  5
11AB
330
2B63
100
AcDbEntity
  8
SIZE
  6
Continuous
 62
     0
100
AcDbBlockReference
  2
_DOTBLANK
 10
284.6432844803792
 20
-0.000000000000036
 30
0.0
 41
12.0
 42
12.0
 43
12.0
 50
90.0
  0
INSERT
  5
11AC
330
2B63
100
AcDbEntity
  8
0
100
AcDbBlockReference
  2
*U8
 10
0.0
 20
0.0
 30
0.0
  0
POINT
  5
11AD
330
2B63
100
AcDbEntity
  8
DEFPOINTS
  6
Continuous
 62
     0
100
AcDbPoint
 10
123.5
 20
-300.0
 30
0.0
  0
POINT
  5
11AE
330
2B63
100
AcDbEntity
  8
DEFPOINTS
  6
Continuous
 62
     0
100
AcDbPoint
 10
157.5
 20
0.0
 30
0.0
  0
POINT
  5
11AF
330
2B63
100
AcDbEntity
  8
DEFPOINTS
  6
Continuous
 62
     0
100
AcDbPoint
 10
284.6432844803792
 20
-0.000000000000036
 30
0.0
  0
ENDBLK
  5
E11
330
2B63
100
AcDbEntity
  8
0
100
AcDbBlockEnd
  0
BLOCK
  5
2B66
330
2B65
100
AcDbEntity
  8
0
100
AcDbBlockBegin
  2
*U8
 70
     1
 10
0.0
 20
0.0
 30
0.0
  3
*U8
  1

  0
TEXT
  5
1EE1
330
2B65
100
AcDbEntity
  8
SIZE
 62
     0
100
AcDbText
 10
274.6432844803792
 20
-224.0571428571429
 30
0.0
 40
64.0
  1
300
 50
90.0
 41
0.9
100
AcDbText
  0
ENDBLK
  5
1EE3
330
2B65
100
AcDbEntity
  8
0
100
AcDbBlockEnd
  0
BLOCK
  5
2B68
330
2B67
100
AcDbEntity
  8
0
100
AcDbBlockBegin
  2
*D9
 70
     1
 10
0.0
 20
0.0
 30
0.0
  3
*D9
  1

  0
LINE
  5
E7D
330
2B67
100
AcDbEntity
  8
SIZE
 62
     0
100
AcDbLine
 10
-139.9999999999998
 20
32.46448280219375
 30
0.0
 11
-139.9999999999998
 21
136.4516878685508
 31
0.0
  0
LINE
  5
E7E
330
2B67
100
AcDbEntity
  8
SIZE
 62
     0
100
AcDbLine
 10
140.0
 20
32.46448280219375
 30
0.0
 11
140.0
 21
136.4516878685508
 31
0.0
  0
LINE
  5
E7F
330
2B67
100
AcDbEntity
  8
SIZE
 62
     0
100
AcDbLine
 10
-128.0
 20
116.4516878685508
 30
0.0
 11
128.0
 21
116.4516878685508
 31
0.0
  0
INSERT
  5
E80
330
2B67
100
AcDbEntity
  8
SIZE
 62
     0
100
AcDbBlockReference
  2
_DOTBLANK
 10
-139.9999999999998
 20
116.4516878685508
 30
0.0
 41
12.0
 42
12.0
 43
12.0
 50
180.0
  0
INSERT
  5
E81
330
2B67
100
AcDbEntity
  8
SIZE
 62
     0
100
AcDbBlockReference
  2
_DOTBLANK
 10
140.0
 20
116.4516878685508
 30
0.0
 41
12.0
 42
12.0
 43
12.0
  0
INSERT
  5
E82
330
2B67
100
AcDbEntity
  8
0
100
AcDbBlockReference
  2
*U10
 10
0.0
 20
0.0
 30
0.0
  0
POINT
  5
E83
330
2B67
100
AcDbEntity
  8
DEFPOINTS
 62
     0
100
AcDbPoint
 10
-139.9999999999998
 20
12.46448280219374
 30
0.0
  0
POINT
  5
E84
330
2B67
100
AcDbEntity
  8
DEFPOINTS
 62
     0
100
AcDbPoint
 10
140.0
 20
12.46448280219374
 30
0.0
  0
POINT
  5
E85
330
2B67
100
AcDbEntity
  8
DEFPOINTS
 62
     0
100
AcDbPoint
 10
140.0
 20
116.4516878685508
 30
0.0
  0
ENDBLK
  5
E7C
330
2B67
100
AcDbEntity
  8
0
100
AcDbBlockEnd
  0
BLOCK
  5
2B6A
330
2B69
100
AcDbEntity
  8
0
100
AcDbBlockBegin
  2
*U10
 70
     1
 10
0.0
 20
0.0
 30
0.0
  3
*U10
  1

  0
TEXT
  5
1ED8
330
2B69
100
AcDbEntity
  8
SIZE
 62
     0
100
AcDbText
 10
-74.05714285714281
 20
126.4516878685508
 30
0.0
 40
64.0
  1
280
 41
0.9
100
AcDbText
  0
ENDBLK
  5
1EDA
330
2B69
100
AcDbEntity
  8
0
100
AcDbBlockEnd
  0
BLOCK
  5
2B6C
330
2B6B
100
AcDbEntity
  8
0
100
AcDbBlockBegin
  2
GENAXEH
 70
     0
 10
0.0
 20
0.0
 30
0.0
  3
GENAXEH
  1

  0
LINE
  5
FDB
330
2B6B
100
AcDbEntity
  8
0
100
AcDbLine
 10
-1.0
 20
0.0
 30
0.0
 11
1.0
 21
0.0
 31
0.0
  0
ENDBLK
  5
FDD
330
2B6B
100
AcDbEntity
  8
0
100
AcDbBlockEnd
  0
BLOCK
  5
2B6E
330
2B6D
100
AcDbEntity
  8
0
100
AcDbBlockBegin
  2
*D12
 70
     1
 10
0.0
 20
0.0
 30
0.0
  3
*D12
  1

  0
LINE
  5
1120
330
2B6D
100
AcDbEntity
  8
SIZE
 62
     0
100
AcDbLine
 10
-157.5
 20
20.0
 30
0.0
 11
-157.5
 21
245.5794621189598
 31
0.0
  0
LINE
  5
1121
330
2B6D
100
AcDbEntity
  8
SIZE
 62
     0
100
AcDbLine
 10
157.5
 20
20.0
 30
0.0
 11
157.5
 21
245.5794621189598
 31
0.0
  0
LINE
  5
1122
330
2B6D
100
AcDbEntity
  8
SIZE
 62
     0
100
AcDbLine
 10
-145.5
 20
225.5794621189598
 30
0.0
 11
145.5
 21
225.5794621189598
 31
0.0
  0
INSERT
  5
1123
330
2B6D
100
AcDbEntity
  8
SIZE
 62
     0
100
AcDbBlockReference
  2
_DOTBLANK
 10
-157.5
 20
225.5794621189598
 30
0.0
 41
12.0
 42
12.0
 43
12.0
 50
180.0
  0
INSERT
  5
1124
330
2B6D
100
AcDbEntity
  8
SIZE
 62
     0
100
AcDbBlockReference
  2
_DOTBLANK
 10
157.5
 20
225.5794621189598
 30
0.0
 41
12.0
 42
12.0
 43
12.0
  0
INSERT
  5
1125
330
2B6D
100
AcDbEntity
  8
0
100
AcDbBlockReference
  2
*U13
 10
0.0
 20
0.0
 30
0.0
  0
POINT
  5
1126
330
2B6D
100
AcDbEntity
  8
DEFPOINTS
 62
     0
100
AcDbPoint
 10
-157.5
 20
0.0
 30
0.0
  0
POINT
  5
1127
330
2B6D
100
AcDbEntity
  8
DEFPOINTS
 62
     0
100
AcDbPoint
 10
157.5
 20
0.0
 30
0.0
  0
POINT
  5
1128
330
2B6D
100
AcDbEntity
  8
DEFPOINTS
 62
     0
100
AcDbPoint
 10
157.5
 20
225.5794621189598
 30
0.0
  0
ENDBLK
  5
111F
330
2B6D
100
AcDbEntity
  8
0
100
AcDbBlockEnd
  0
BLOCK
  5
2B70
330
2B6F
100
AcDbEntity
  8
0
100
AcDbBlockBegin
  2
*U13
 70
     1
 10
0.0
 20
0.0
 30
0.0
  3
*U13
  1

  0
TEXT
  5
1EDD
330
2B6F
100
AcDbEntity
  8
SIZE
 62
     0
100
AcDbText
 10
-68.57142857142857
 20
235.5794621189599
 30
0.0
 40
64.0
  1
315
 41
0.9
100
AcDbText
  0
ENDBLK
  5
1EDF
330
2B6F
100
AcDbEntity
  8
0
100
AcDbBlockEnd
  0
BLOCK
  5
2B72
330
2B71
100
AcDbEntity
  8
0
100
AcDbBlockBegin
  2
*D14
 70
     1
 10
0.0
 20
0.0
 30
0.0
  3
*D14
  1

  0
LINE
  5
11BD
330
2B71
100
AcDbEntity
  8
NOTE
 62
     0
100
AcDbLine
 10
-123.4999999999999
 20
-320.0
 30
0.0
 11
-123.4999999999999
 21
-354.9529861856111
 31
0.0
  0
LINE
  5
11BE
330
2B71
100
AcDbEntity
  8
NOTE
 62
     0
100
AcDbLine
 10
-133.4999999999998
 20
-331.2126909923287
 30
0.0
 11
-133.4999999999998
 21
-354.9529861856111
 31
0.0
  0
LINE
  5
11BF
330
2B71
100
AcDbEntity
  8
NOTE
 62
     0
100
AcDbLine
 10
-111.4999999999999
 20
-334.9529861856112
 30
0.0
 11
-99.4999999999999
 21
-334.9529861856112
 31
0.0
  0
LINE
  5
11C0
330
2B71
100
AcDbEntity
  8
NOTE
 62
     0
100
AcDbLine
 10
-145.4999999999998
 20
-334.9529861856112
 30
0.0
 11
-157.4999999999998
 21
-334.9529861856112
 31
0.0
  0
LINE
  5
11C1
330
2B71
100
AcDbEntity
  8
NOTE
 62
     0
100
AcDbLine
 10
-123.4999999999999
 20
-334.9529861856112
 30
0.0
 11
-133.4999999999998
 21
-334.9529861856112
 31
0.0
  0
INSERT
  5
11C2
330
2B71
100
AcDbEntity
  8
NOTE
 62
     0
100
AcDbBlockReference
  2
_DOTBLANK
 10
-123.4999999999999
 20
-334.9529861856112
 30
0.0
 41
12.0
 42
12.0
 43
12.0
 50
180.0
  0
INSERT
  5
11C3
330
2B71
100
AcDbEntity
  8
NOTE
 62
     0
100
AcDbBlockReference
  2
_DOTBLANK
 10
-133.4999999999998
 20
-334.9529861856112
 30
0.0
 41
12.0
 42
12.0
 43
12.0
  0
INSERT
  5
11C4
330
2B71
100
AcDbEntity
  8
0
100
AcDbBlockReference
  2
*U15
 10
0.0
 20
0.0
 30
0.0
  0
POINT
  5
11C5
330
2B71
100
AcDbEntity
  8
DEFPOINTS
 62
     0
100
AcDbPoint
 10
-123.4999999999999
 20
-300.0
 30
0.0
  0
POINT
  5
11C6
330
2B71
100
AcDbEntity
  8
DEFPOINTS
 62
     0
100
AcDbPoint
 10
-133.4999999999998
 20
-311.2126909923287
 30
0.0
  0
POINT
  5
11C7
330
2B71
100
AcDbEntity
  8
DEFPOINTS
 62
     0
100
AcDbPoint
 10
-133.4999999999998
 20
-334.9529861856112
 30
0.0
  0
ENDBLK
  5
11BC
330
2B71
100
AcDbEntity
  8
0
100
AcDbBlockEnd
  0
BLOCK
  5
2B74
330
2B73
100
AcDbEntity
  8
0
100
AcDbBlockBegin
  2
*U15
 70
     1
 10
0.0
 20
0.0
 30
0.0
  3
*U15
  1

  0
TEXT
  5
1EE5
330
2B73
100
AcDbEntity
  8
NOTE
 62
     0
100
AcDbText
 10
-169.642857142857
 20
-324.9529861856112
 30
0.0
 40
64.0
  1
10
 41
0.9
100
AcDbText
  0
ENDBLK
  5
1EE7
330
2B73
100
AcDbEntity
  8
0
100
AcDbBlockEnd
  0
BLOCK
  5
2B76
330
2B75
100
AcDbEntity
  8
0
100
AcDbBlockBegin
  2
*D16
 70
     1
 10
0.0
 20
0.0
 30
0.0
  3
*D16
  1

  0
LINE
  5
11E7
330
2B75
100
AcDbEntity
  8
NOTE
 62
     0
100
AcDbLine
 10
-135.5
 20
-333.2126909923287
 30
0.0
 11
-135.5
 21
-386.2569421441843
 31
0.0
  0
LINE
  5
11E8
330
2B75
100
AcDbEntity
  8
NOTE
 62
     0
100
AcDbLine
 10
-123.4999999999999
 20
-320.0
 30
0.0
 11
-123.4999999999999
 21
-386.2569421441843
 31
0.0
  0
LINE
  5
11E9
330
2B75
100
AcDbEntity
  8
NOTE
 62
     0
100
AcDbLine
 10
-147.5
 20
-366.2569421441844
 30
0.0
 11
-159.5
 21
-366.2569421441844
 31
0.0
  0
LINE
  5
11EA
330
2B75
100
AcDbEntity
  8
NOTE
 62
     0
100
AcDbLine
 10
-111.4999999999999
 20
-366.2569421441844
 30
0.0
 11
-99.4999999999999
 21
-366.2569421441844
 31
0.0
  0
LINE
  5
11EB
330
2B75
100
AcDbEntity
  8
NOTE
 62
     0
100
AcDbLine
 10
-135.5
 20
-366.2569421441844
 30
0.0
 11
-123.4999999999999
 21
-366.2569421441844
 31
0.0
  0
INSERT
  5
11EC
330
2B75
100
AcDbEntity
  8
NOTE
 62
     0
100
AcDbBlockReference
  2
_DOTBLANK
 10
-135.5
 20
-366.2569421441844
 30
0.0
 41
12.0
 42
12.0
 43
12.0
  0
INSERT
  5
11ED
330
2B75
100
AcDbEntity
  8
NOTE
 62
     0
100
AcDbBlockReference
  2
_DOTBLANK
 10
-123.4999999999999
 20
-366.2569421441844
 30
0.0
 41
12.0
 42
12.0
 43
12.0
 50
180.0
  0
INSERT
  5
11EE
330
2B75
100
AcDbEntity
  8
0
100
AcDbBlockReference
  2
*U17
 10
0.0
 20
0.0
 30
0.0
  0
POINT
  5
11EF
330
2B75
100
AcDbEntity
  8
DEFPOINTS
 62
     0
100
AcDbPoint
 10
-135.5
 20
-313.2126909923287
 30
0.0
  0
POINT
  5
11F0
330
2B75
100
AcDbEntity
  8
DEFPOINTS
 62
     0
100
AcDbPoint
 10
-123.4999999999999
 20
-300.0
 30
0.0
  0
POINT
  5
11F1
330
2B75
100
AcDbEntity
  8
DEFPOINTS
 62
     0
100
AcDbPoint
 10
-123.4999999999999
 20
-366.2569421441844
 30
0.0
  0
ENDBLK
  5
11E6
330
2B75
100
AcDbEntity
  8
0
100
AcDbBlockEnd
  0
BLOCK
  5
2B78
330
2B77
100
AcDbEntity
  8
0
100
AcDbBlockBegin
  2
*U17
 70
     1
 10
0.0
 20
0.0
 30
0.0
  3
*U17
  1

  0
TEXT
  5
1EE9
330
2B77
100
AcDbEntity
  8
NOTE
 62
     0
100
AcDbText
 10
-170.642857142857
 20
-356.2569421441843
 30
0.0
 40
64.0
  1
12
 41
0.9
100
AcDbText
  0
ENDBLK
  5
1EEB
330
2B77
100
AcDbEntity
  8
0
100
AcDbBlockEnd
  0
BLOCK
  5
2B7A
330
2B79
100
AcDbEntity
  8
0
100
AcDbBlockBegin
  2
*D18
 70
     1
 10
0.0
 20
0.0
 30
0.0
  3
*D18
  1

  0
LINE
  5
11F6
330
2B79
100
AcDbEntity
  8
NOTE
 62
     0
100
AcDbLine
 10
-123.4999999999999
 20
-320.0
 30
0.0
 11
-123.4999999999999
 21
-583.8286022818904
 31
0.0
  0
LINE
  5
11F7
330
2B79
100
AcDbEntity
  8
NOTE
 62
     0
100
AcDbLine
 10
123.5
 20
-320.0
 30
0.0
 11
123.5
 21
-583.8286022818904
 31
0.0
  0
LINE
  5
11F8
330
2B79
100
AcDbEntity
  8
NOTE
 62
     0
100
AcDbLine
 10
-111.4999999999999
 20
-563.8286022818904
 30
0.0
 11
111.5
 21
-563.8286022818904
 31
0.0
  0
INSERT
  5
11F9
330
2B79
100
AcDbEntity
  8
NOTE
 62
     0
100
AcDbBlockReference
  2
_DOTBLANK
 10
-123.4999999999999
 20
-563.8286022818904
 30
0.0
 41
12.0
 42
12.0
 43
12.0
 50
180.0
  0
INSERT
  5
11FA
330
2B79
100
AcDbEntity
  8
NOTE
 62
     0
100
AcDbBlockReference
  2
_DOTBLANK
 10
123.5
 20
-563.8286022818904
 30
0.0
 41
12.0
 42
12.0
 43
12.0
  0
INSERT
  5
11FB
330
2B79
100
AcDbEntity
  8
0
100
AcDbBlockReference
  2
*U19
 10
0.0
 20
0.0
 30
0.0
  0
POINT
  5
11FC
330
2B79
100
AcDbEntity
  8
DEFPOINTS
 62
     0
100
AcDbPoint
 10
-123.4999999999999
 20
-300.0
 30
0.0
  0
POINT
  5
11FD
330
2B79
100
AcDbEntity
  8
DEFPOINTS
 62
     0
100
AcDbPoint
 10
123.5
 20
-300.0
 30
0.0
  0
POINT
  5
11FE
330
2B79
100
AcDbEntity
  8
DEFPOINTS
 62
     0
100
AcDbPoint
 10
123.5
 20
-563.8286022818904
 30
0.0
  0
ENDBLK
  5
11F5
330
2B79
100
AcDbEntity
  8
0
100
AcDbBlockEnd
  0
BLOCK
  5
2B7C
330
2B7B
100
AcDbEntity
  8
0
100
AcDbBlockBegin
  2
*U19
 70
     1
 10
0.0
 20
0.0
 30
0.0
  3
*U19
  1

  0
TEXT
  5
1EED
330
2B7B
100
AcDbEntity
  8
NOTE
 62
     0
100
AcDbText
 10
-74.05714285714281
 20
-553.8286022818904
 30
0.0
 40
64.0
  1
247
 41
0.9
100
AcDbText
  0
ENDBLK
  5
1EEF
330
2B7B
100
AcDbEntity
  8
0
100
AcDbBlockEnd
  0
BLOCK
  5
2B7E
330
2B7D
100
AcDbEntity
  8
0
100
AcDbBlockBegin
  2
*D20
 70
     1
 10
0.0
 20
0.0
 30
0.0
  3
*D20
  1

  0
LINE
  5
1284
330
2B7D
100
AcDbEntity
  8
NOTE
 62
     0
100
AcDbLine
 10
-123.5
 20
12.0
 30
0.0
 11
-123.5
 21
71.83630134534229
 31
0.0
  0
LINE
  5
1285
330
2B7D
100
AcDbEntity
  8
NOTE
 62
     0
100
AcDbLine
 10
123.5
 20
12.0
 30
0.0
 11
123.5
 21
71.83630134534229
 31
0.0
  0
LINE
  5
1286
330
2B7D
100
AcDbEntity
  8
NOTE
 62
     0
100
AcDbLine
 10
-111.5
 20
51.83630134534229
 30
0.0
 11
111.5
 21
51.83630134534229
 31
0.0
  0
INSERT
  5
1287
330
2B7D
100
AcDbEntity
  8
NOTE
 62
     0
100
AcDbBlockReference
  2
_DOTBLANK
 10
-123.5
 20
51.83630134534229
 30
0.0
 41
12.0
 42
12.0
 43
12.0
 50
180.0
  0
INSERT
  5
1288
330
2B7D
100
AcDbEntity
  8
NOTE
 62
     0
100
AcDbBlockReference
  2
_DOTBLANK
 10
123.5
 20
51.83630134534229
 30
0.0
 41
12.0
 42
12.0
 43
12.0
  0
INSERT
  5
1289
330
2B7D
100
AcDbEntity
  8
0
100
AcDbBlockReference
  2
*U21
 10
0.0
 20
0.0
 30
0.0
  0
POINT
  5
128A
330
2B7D
100
AcDbEntity
  8
DEFPOINTS
 62
     0
100
AcDbPoint
 10
-123.5
 20
-8.0
 30
0.0
  0
POINT
  5
128B
330
2B7D
100
AcDbEntity
  8
DEFPOINTS
 62
     0
100
AcDbPoint
 10
123.5
 20
-8.0
 30
0.0
  0
POINT
  5
128C
330
2B7D
100
AcDbEntity
  8
DEFPOINTS
 62
     0
100
AcDbPoint
 10
123.5
 20
51.83630134534229
 30
0.0
  0
ENDBLK
  5
1283
330
2B7D
100
AcDbEntity
  8
0
100
AcDbBlockEnd
  0
BLOCK
  5
2B80
330
2B7F
100
AcDbEntity
  8
0
100
AcDbBlockBegin
  2
*U21
 70
     1
 10
0.0
 20
0.0
 30
0.0
  3
*U21
  1

  0
TEXT
  5
1EF1
330
2B7F
100
AcDbEntity
  8
NOTE
 62
     0
100
AcDbText
 10
-74.05714285714283
 20
61.83630134534229
 30
0.0
 40
64.0
  1
247
 41
0.9
100
AcDbText
  0
ENDBLK
  5
1EF3
330
2B7F
100
AcDbEntity
  8
0
100
AcDbBlockEnd
  0
BLOCK
  5
2B82
330
2B81
100
AcDbEntity
  8
0
100
AcDbBlockBegin
  2
*D22
 70
     1
 10
0.0
 20
0.0
 30
0.0
  3
*D22
  1

  0
LINE
  5
1414
330
2B81
100
AcDbEntity
  8
SIZE
 62
     0
100
AcDbLine
 10
-22313.11521613997
 20
7365.702971374808
 30
0.0
 11
-22313.11521613997
 21
7217.685576144207
 31
0.0
  0
LINE
  5
1415
330
2B81
100
AcDbEntity
  8
SIZE
 62
     0
100
AcDbLine
 10
-22044.11521613997
 20
7365.702971374808
 30
0.0
 11
-22044.11521613997
 21
7217.685576144207
 31
0.0
  0
LINE
  5
1416
330
2B81
100
AcDbEntity
  8
SIZE
 62
     0
100
AcDbLine
 10
-22301.11521613997
 20
7237.685576144207
 30
0.0
 11
-22056.11521613997
 21
7237.685576144207
 31
0.0
  0
INSERT
  5
1417
330
2B81
100
AcDbEntity
  8
SIZE
 62
     0
100
AcDbBlockReference
  2
_DOTBLANK
 10
-22313.11521613997
 20
7237.685576144207
 30
0.0
 41
12.0
 42
12.0
 43
12.0
 50
180.0
  0
INSERT
  5
1418
330
2B81
100
AcDbEntity
  8
SIZE
 62
     0
100
AcDbBlockReference
  2
_DOTBLANK
 10
-22044.11521613997
 20
7237.685576144207
 30
0.0
 41
12.0
 42
12.0
 43
12.0
  0
INSERT
  5
1419
330
2B81
100
AcDbEntity
  8
0
100
AcDbBlockReference
  2
*U23
 10
0.0
 20
0.0
 30
0.0
  0
POINT
  5
141A
330
2B81
100
AcDbEntity
  8
DEFPOINTS
 62
     0
100
AcDbPoint
 10
-22313.11521613997
 20
7385.702971374808
 30
0.0
  0
POINT
  5
141B
330
2B81
100
AcDbEntity
  8
DEFPOINTS
 62
     0
100
AcDbPoint
 10
-22044.11521613997
 20
7385.702971374808
 30
0.0
  0
POINT
  5
141C
330
2B81
100
AcDbEntity
  8
DEFPOINTS
 62
     0
100
AcDbPoint
 10
-22044.11521613997
 20
7237.685576144207
 30
0.0
  0
ENDBLK
  5
141D
330
2B81
100
AcDbEntity
  8
0
100
AcDbBlockEnd
  0
BLOCK
  5
2B84
330
2B83
100
AcDbEntity
  8
0
100
AcDbBlockBegin
  2
*U23
 70
     1
 10
0.0
 20
0.0
 30
0.0
  3
*U23
  1

  0
TEXT
  5
1EF9
330
2B83
100
AcDbEntity
  8
SIZE
 62
     0
100
AcDbText
 10
-22251.30093042568
 20
7247.685576144205
 30
0.0
 40
64.0
  1
269
 41
0.9
100
AcDbText
  0
ENDBLK
  5
1EFB
330
2B83
100
AcDbEntity
  8
0
100
AcDbBlockEnd
  0
BLOCK
  5
2B86
330
2B85
100
AcDbEntity
  8
0
100
AcDbBlockBegin
  2
*D24
 70
     1
 10
0.0
 20
0.0
 30
0.0
  3
*D24
  1

  0
LINE
  5
1420
330
2B85
100
AcDbEntity
  8
SIZE
  6
Continuous
 62
     0
100
AcDbLine
 10
-22035.11521613997
 20
7385.702971374808
 30
0.0
 11
-21873.97193165959
 21
7385.702971374808
 31
0.0
  0
LINE
  5
1421
330
2B85
100
AcDbEntity
  8
SIZE
  6
Continuous
 62
     0
100
AcDbLine
 10
-22001.11521613997
 20
7685.702971374808
 30
0.0
 11
-21873.97193165959
 21
7685.702971374808
 31
0.0
  0
LINE
  5
1422
330
2B85
100
AcDbEntity
  8
SIZE
  6
Continuous
 62
     0
100
AcDbLine
 10
-21893.97193165959
 20
7397.702971374808
 30
0.0
 11
-21893.97193165959
 21
7673.702971374808
 31
0.0
  0
INSERT
  5
1423
330
2B85
100
AcDbEntity
  8
SIZE
  6
Continuous
 62
     0
100
AcDbBlockReference
  2
_DOTBLANK
 10
-21893.97193165959
 20
7385.702971374808
 30
0.0
 41
12.0
 42
12.0
 43
12.0
 50
270.0
  0
INSERT
  5
1424
330
2B85
100
AcDbEntity
  8
SIZE
  6
Continuous
 62
     0
100
AcDbBlockReference
  2
_DOTBLANK
 10
-21893.97193165959
 20
7685.702971374808
 30
0.0
 41
12.0
 42
12.0
 43
12.0
 50
90.0
  0
INSERT
  5
1425
330
2B85
100
AcDbEntity
  8
0
100
AcDbBlockReference
  2
*U25
 10
0.0
 20
0.0
 30
0.0
  0
POINT
  5
1426
330
2B85
100
AcDbEntity
  8
DEFPOINTS
  6
Continuous
 62
     0
100
AcDbPoint
 10
-22055.11521613997
 20
7385.702971374808
 30
0.0
  0
POINT
  5
1427
330
2B85
100
AcDbEntity
  8
DEFPOINTS
  6
Continuous
 62
     0
100
AcDbPoint
 10
-22021.11521613997
 20
7685.702971374808
 30
0.0
  0
POINT
  5
1428
330
2B85
100
AcDbEntity
  8
DEFPOINTS
  6
Continuous
 62
     0
100
AcDbPoint
 10
-21893.97193165959
 20
7685.702971374808
 30
0.0
  0
ENDBLK
  5
1429
330
2B85
100
AcDbEntity
  8
0
100
AcDbBlockEnd
  0
BLOCK
  5
2B88
330
2B87
100
AcDbEntity
  8
0
100
AcDbBlockBegin
  2
*U25
 70
     1
 10
0.0
 20
0.0
 30
0.0
  3
*U25
  1

  0
TEXT
  5
1EFD
330
2B87
100
AcDbEntity
  8
SIZE
 62
     0
100
AcDbText
 10
-21903.97193165959
 20
7461.645828517662
 30
0.0
 40
64.0
  1
300
 50
90.0
 41
0.9
100
AcDbText
  0
ENDBLK
  5
1EFF
330
2B87
100
AcDbEntity
  8
0
100
AcDbBlockEnd
  0
BLOCK
  5
2B8A
330
2B89
100
AcDbEntity
  8
0
100
AcDbBlockBegin
  2
*D26
 70
     1
 10
0.0
 20
0.0
 30
0.0
  3
*D26
  1

  0
LINE
  5
142C
330
2B89
100
AcDbEntity
  8
SIZE
 62
     0
100
AcDbLine
 10
-22318.61521613997
 20
7718.167454177002
 30
0.0
 11
-22318.61521613997
 21
7822.154659243358
 31
0.0
  0
LINE
  5
142D
330
2B89
100
AcDbEntity
  8
SIZE
 62
     0
100
AcDbLine
 10
-22038.61521613997
 20
7718.167454177002
 30
0.0
 11
-22038.61521613997
 21
7822.154659243358
 31
0.0
  0
LINE
  5
142E
330
2B89
100
AcDbEntity
  8
SIZE
 62
     0
100
AcDbLine
 10
-22306.61521613997
 20
7802.154659243358
 30
0.0
 11
-22050.61521613997
 21
7802.154659243358
 31
0.0
  0
INSERT
  5
142F
330
2B89
100
AcDbEntity
  8
SIZE
 62
     0
100
AcDbBlockReference
  2
_DOTBLANK
 10
-22318.61521613997
 20
7802.154659243358
 30
0.0
 41
12.0
 42
12.0
 43
12.0
 50
180.0
  0
INSERT
  5
1430
330
2B89
100
AcDbEntity
  8
SIZE
 62
     0
100
AcDbBlockReference
  2
_DOTBLANK
 10
-22038.61521613997
 20
7802.154659243358
 30
0.0
 41
12.0
 42
12.0
 43
12.0
  0
INSERT
  5
1431
330
2B89
100
AcDbEntity
  8
0
100
AcDbBlockReference
  2
*U27
 10
0.0
 20
0.0
 30
0.0
  0
POINT
  5
1432
330
2B89
100
AcDbEntity
  8
DEFPOINTS
 62
     0
100
AcDbPoint
 10
-22318.61521613997
 20
7698.167454177002
 30
0.0
  0
POINT
  5
1433
330
2B89
100
AcDbEntity
  8
DEFPOINTS
 62
     0
100
AcDbPoint
 10
-22038.61521613997
 20
7698.167454177002
 30
0.0
  0
POINT
  5
1434
330
2B89
100
AcDbEntity
  8
DEFPOINTS
 62
     0
100
AcDbPoint
 10
-22038.61521613997
 20
7802.154659243358
 30
0.0
  0
ENDBLK
  5
1435
330
2B89
100
AcDbEntity
  8
0
100
AcDbBlockEnd
  0
BLOCK
  5
2B8C
330
2B8B
100
AcDbEntity
  8
0
100
AcDbBlockBegin
  2
*U27
 70
     1
 10
0.0
 20
0.0
 30
0.0
  3
*U27
  1

  0
TEXT
  5
1F01
330
2B8B
100
AcDbEntity
  8
SIZE
 62
     0
100
AcDbText
 10
-22252.6723589971
 20
7812.154659243358
 30
0.0
 40
64.0
  1
280
 41
0.9
100
AcDbText
  0
ENDBLK
  5
1F03
330
2B8B
100
AcDbEntity
  8
0
100
AcDbBlockEnd
  0
BLOCK
  5
2B8E
330
2B8D
100
AcDbEntity
  8
0
100
AcDbBlockBegin
  2
*D28
 70
     1
 10
0.0
 20
0.0
 30
0.0
  3
*D28
  1

  0
LINE
  5
1438
330
2B8D
100
AcDbEntity
  8
SIZE
 62
     0
100
AcDbLine
 10
-22336.11521613997
 20
7705.702971374808
 30
0.0
 11
-22336.11521613997
 21
7931.282433493766
 31
0.0
  0
LINE
  5
1439
330
2B8D
100
AcDbEntity
  8
SIZE
 62
     0
100
AcDbLine
 10
-22021.11521613997
 20
7705.702971374808
 30
0.0
 11
-22021.11521613997
 21
7931.282433493766
 31
0.0
  0
LINE
  5
143A
330
2B8D
100
AcDbEntity
  8
SIZE
 62
     0
100
AcDbLine
 10
-22324.11521613997
 20
7911.282433493766
 30
0.0
 11
-22033.11521613997
 21
7911.282433493766
 31
0.0
  0
INSERT
  5
143B
330
2B8D
100
AcDbEntity
  8
SIZE
 62
     0
100
AcDbBlockReference
  2
_DOTBLANK
 10
-22336.11521613997
 20
7911.282433493766
 30
0.0
 41
12.0
 42
12.0
 43
12.0
 50
180.0
  0
INSERT
  5
143C
330
2B8D
100
AcDbEntity
  8
SIZE
 62
     0
100
AcDbBlockReference
  2
_DOTBLANK
 10
-22021.11521613997
 20
7911.282433493766
 30
0.0
 41
12.0
 42
12.0
 43
12.0
  0
INSERT
  5
143D
330
2B8D
100
AcDbEntity
  8
0
100
AcDbBlockReference
  2
*U29
 10
0.0
 20
0.0
 30
0.0
  0
POINT
  5
143E
330
2B8D
100
AcDbEntity
  8
DEFPOINTS
 62
     0
100
AcDbPoint
 10
-22336.11521613997
 20
7685.702971374808
 30
0.0
  0
POINT
  5
143F
330
2B8D
100
AcDbEntity
  8
DEFPOINTS
 62
     0
100
AcDbPoint
 10
-22021.11521613997
 20
7685.702971374808
 30
0.0
  0
POINT
  5
1440
330
2B8D
100
AcDbEntity
  8
DEFPOINTS
 62
     0
100
AcDbPoint
 10
-22021.11521613997
 20
7911.282433493766
 30
0.0
  0
ENDBLK
  5
1441
330
2B8D
100
AcDbEntity
  8
0
100
AcDbBlockEnd
  0
BLOCK
  5
2B90
330
2B8F
100
AcDbEntity
  8
0
100
AcDbBlockBegin
  2
*U29
 70
     1
 10
0.0
 20
0.0
 30
0.0
  3
*U29
  1

  0
TEXT
  5
1F05
330
2B8F
100
AcDbEntity
  8
SIZE
 62
     0
100
AcDbText
 10
-22247.18664471139
 20
7921.282433493766
 30
0.0
 40
64.0
  1
315
 41
0.9
100
AcDbText
  0
ENDBLK
  5
1F07
330
2B8F
100
AcDbEntity
  8
0
100
AcDbBlockEnd
  0
BLOCK
  5
2B92
330
2B91
100
AcDbEntity
  8
0
100
AcDbBlockBegin
  2
*D30
 70
     1
 10
0.0
 20
0.0
 30
0.0
  3
*D30
  1

  0
LINE
  5
166B
330
2B91
100
AcDbEntity
  8
SIZE
 62
     0
100
AcDbLine
 10
-134.5
 20
-320.0
 30
0.0
 11
-134.5
 21
-468.0173952306001
 31
0.0
  0
LINE
  5
166C
330
2B91
100
AcDbEntity
  8
SIZE
 62
     0
100
AcDbLine
 10
134.5
 20
-320.0
 30
0.0
 11
134.5
 21
-468.0173952306001
 31
0.0
  0
LINE
  5
166D
330
2B91
100
AcDbEntity
  8
SIZE
 62
     0
100
AcDbLine
 10
-122.5
 20
-448.0173952306
 30
0.0
 11
122.5
 21
-448.0173952306
 31
0.0
  0
INSERT
  5
166E
330
2B91
100
AcDbEntity
  8
SIZE
 62
     0
100
AcDbBlockReference
  2
_DOTBLANK
 10
-134.5
 20
-448.0173952306
 30
0.0
 41
12.0
 42
12.0
 43
12.0
 50
180.0
  0
INSERT
  5
166F
330
2B91
100
AcDbEntity
  8
SIZE
 62
     0
100
AcDbBlockReference
  2
_DOTBLANK
 10
134.5
 20
-448.0173952306
 30
0.0
 41
12.0
 42
12.0
 43
12.0
  0
INSERT
  5
1670
330
2B91
100
AcDbEntity
  8
0
100
AcDbBlockReference
  2
*U31
 10
0.0
 20
0.0
 30
0.0
  0
POINT
  5
1671
330
2B91
100
AcDbEntity
  8
DEFPOINTS
 62
     0
100
AcDbPoint
 10
-134.5
 20
-300.0
 30
0.0
  0
POINT
  5
1672
330
2B91
100
AcDbEntity
  8
DEFPOINTS
 62
     0
100
AcDbPoint
 10
134.5
 20
-300.0
 30
0.0
  0
POINT
  5
1673
330
2B91
100
AcDbEntity
  8
DEFPOINTS
 62
     0
100
AcDbPoint
 10
134.5
 20
-448.0173952306
 30
0.0
  0
ENDBLK
  5
14A7
330
2B91
100
AcDbEntity
  8
0
100
AcDbBlockEnd
  0
BLOCK
  5
2B94
330
2B93
100
AcDbEntity
  8
0
100
AcDbBlockBegin
  2
*U31
 70
     1
 10
0.0
 20
0.0
 30
0.0
  3
*U31
  1

  0
TEXT
  5
1F09
330
2B93
100
AcDbEntity
  8
SIZE
 62
     0
100
AcDbText
 10
-72.68571428571426
 20
-438.0173952306002
 30
0.0
 40
64.0
  1
269
 41
0.9
100
AcDbText
  0
ENDBLK
  5
1F0B
330
2B93
100
AcDbEntity
  8
0
100
AcDbBlockEnd
  0
BLOCK
  5
2B96
330
2B95
100
AcDbEntity
  8
0
100
AcDbBlockBegin
  2
*D32
 70
     1
 10
0.0
 20
0.0
 30
0.0
  3
*D32
  1

  0
LINE
  5
1674
330
2B95
100
AcDbEntity
  8
SIZE
  6
Continuous
 62
     0
100
AcDbLine
 10
143.5
 20
-300.0
 30
0.0
 11
304.6432844803784
 21
-300.0
 31
0.0
  0
LINE
  5
1675
330
2B95
100
AcDbEntity
  8
SIZE
  6
Continuous
 62
     0
100
AcDbLine
 10
177.5
 20
-0.0000000000000057
 30
0.0
 11
304.6432844803785
 21
-0.0000000000000417
 31
0.0
  0
LINE
  5
1676
330
2B95
100
AcDbEntity
  8
SIZE
  6
Continuous
 62
     0
100
AcDbLine
 10
284.6432844803784
 20
-288.0000000000001
 30
0.0
 11
284.6432844803785
 21
-12.00000000000003
 31
0.0
  0
INSERT
  5
1677
330
2B95
100
AcDbEntity
  8
SIZE
  6
Continuous
 62
     0
100
AcDbBlockReference
  2
_DOTBLANK
 10
284.6432844803784
 20
-300.0
 30
0.0
 41
12.0
 42
12.0
 43
12.0
 50
270.0
  0
INSERT
  5
1678
330
2B95
100
AcDbEntity
  8
SIZE
  6
Continuous
 62
     0
100
AcDbBlockReference
  2
_DOTBLANK
 10
284.6432844803785
 20
-0.000000000000036
 30
0.0
 41
12.0
 42
12.0
 43
12.0
 50
90.0
  0
INSERT
  5
1679
330
2B95
100
AcDbEntity
  8
0
100
AcDbBlockReference
  2
*U33
 10
0.0
 20
0.0
 30
0.0
  0
POINT
  5
167A
330
2B95
100
AcDbEntity
  8
DEFPOINTS
  6
Continuous
 62
     0
100
AcDbPoint
 10
123.5
 20
-300.0
 30
0.0
  0
POINT
  5
167B
330
2B95
100
AcDbEntity
  8
DEFPOINTS
  6
Continuous
 62
     0
100
AcDbPoint
 10
157.5
 20
0.0
 30
0.0
  0
POINT
  5
167C
330
2B95
100
AcDbEntity
  8
DEFPOINTS
  6
Continuous
 62
     0
100
AcDbPoint
 10
284.6432844803785
 20
-0.000000000000036
 30
0.0
  0
ENDBLK
  5
14B3
330
2B95
100
AcDbEntity
  8
0
100
AcDbBlockEnd
  0
BLOCK
  5
2B98
330
2B97
100
AcDbEntity
  8
0
100
AcDbBlockBegin
  2
*U33
 70
     1
 10
0.0
 20
0.0
 30
0.0
  3
*U33
  1

  0
TEXT
  5
1F0D
330
2B97
100
AcDbEntity
  8
SIZE
 62
     0
100
AcDbText
 10
274.6432844803785
 20
-224.0571428571429
 30
0.0
 40
64.0
  1
300
 50
90.0
 41
0.9
100
AcDbText
  0
ENDBLK
  5
1F0F
330
2B97
100
AcDbEntity
  8
0
100
AcDbBlockEnd
  0
BLOCK
  5
2B9A
330
2B99
100
AcDbEntity
  8
0
100
AcDbBlockBegin
  2
*D34
 70
     1
 10
0.0
 20
0.0
 30
0.0
  3
*D34
  1

  0
LINE
  5
167D
330
2B99
100
AcDbEntity
  8
SIZE
 62
     0
100
AcDbLine
 10
-140.0
 20
32.46448280219375
 30
0.0
 11
-140.0
 21
136.4516878685507
 31
0.0
  0
LINE
  5
167E
330
2B99
100
AcDbEntity
  8
SIZE
 62
     0
100
AcDbLine
 10
140.0
 20
32.46448280219375
 30
0.0
 11
140.0
 21
136.4516878685507
 31
0.0
  0
LINE
  5
167F
330
2B99
100
AcDbEntity
  8
SIZE
 62
     0
100
AcDbLine
 10
-128.0
 20
116.4516878685508
 30
0.0
 11
128.0
 21
116.4516878685508
 31
0.0
  0
INSERT
  5
1680
330
2B99
100
AcDbEntity
  8
SIZE
 62
     0
100
AcDbBlockReference
  2
_DOTBLANK
 10
-140.0
 20
116.4516878685508
 30
0.0
 41
12.0
 42
12.0
 43
12.0
 50
180.0
  0
INSERT
  5
1681
330
2B99
100
AcDbEntity
  8
SIZE
 62
     0
100
AcDbBlockReference
  2
_DOTBLANK
 10
140.0
 20
116.4516878685508
 30
0.0
 41
12.0
 42
12.0
 43
12.0
  0
INSERT
  5
1682
330
2B99
100
AcDbEntity
  8
0
100
AcDbBlockReference
  2
*U35
 10
0.0
 20
0.0
 30
0.0
  0
POINT
  5
1683
330
2B99
100
AcDbEntity
  8
DEFPOINTS
 62
     0
100
AcDbPoint
 10
-140.0
 20
12.46448280219374
 30
0.0
  0
POINT
  5
1684
330
2B99
100
AcDbEntity
  8
DEFPOINTS
 62
     0
100
AcDbPoint
 10
140.0
 20
12.46448280219374
 30
0.0
  0
POINT
  5
1685
330
2B99
100
AcDbEntity
  8
DEFPOINTS
 62
     0
100
AcDbPoint
 10
140.0
 20
116.4516878685508
 30
0.0
  0
ENDBLK
  5
14BF
330
2B99
100
AcDbEntity
  8
0
100
AcDbBlockEnd
  0
BLOCK
  5
2B9C
330
2B9B
100
AcDbEntity
  8
0
100
AcDbBlockBegin
  2
*U35
 70
     1
 10
0.0
 20
0.0
 30
0.0
  3
*U35
  1

  0
TEXT
  5
1F11
330
2B9B
100
AcDbEntity
  8
SIZE
 62
     0
100
AcDbText
 10
-74.05714285714283
 20
126.4516878685507
 30
0.0
 40
64.0
  1
280
 41
0.9
100
AcDbText
  0
ENDBLK
  5
1F13
330
2B9B
100
AcDbEntity
  8
0
100
AcDbBlockEnd
  0
BLOCK
  5
2B9E
330
2B9D
100
AcDbEntity
  8
0
100
AcDbBlockBegin
  2
*D36
 70
     1
 10
0.0
 20
0.0
 30
0.0
  3
*D36
  1

  0
LINE
  5
1686
330
2B9D
100
AcDbEntity
  8
SIZE
 62
     0
100
AcDbLine
 10
-157.5
 20
20.0
 30
0.0
 11
-157.5
 21
245.5794621189598
 31
0.0
  0
LINE
  5
1687
330
2B9D
100
AcDbEntity
  8
SIZE
 62
     0
100
AcDbLine
 10
157.5
 20
20.0
 30
0.0
 11
157.5
 21
245.5794621189598
 31
0.0
  0
LINE
  5
1688
330
2B9D
100
AcDbEntity
  8
SIZE
 62
     0
100
AcDbLine
 10
-145.5
 20
225.5794621189598
 30
0.0
 11
145.5
 21
225.5794621189598
 31
0.0
  0
INSERT
  5
1689
330
2B9D
100
AcDbEntity
  8
SIZE
 62
     0
100
AcDbBlockReference
  2
_DOTBLANK
 10
-157.5
 20
225.5794621189598
 30
0.0
 41
12.0
 42
12.0
 43
12.0
 50
180.0
  0
INSERT
  5
168A
330
2B9D
100
AcDbEntity
  8
SIZE
 62
     0
100
AcDbBlockReference
  2
_DOTBLANK
 10
157.5
 20
225.5794621189598
 30
0.0
 41
12.0
 42
12.0
 43
12.0
  0
INSERT
  5
168B
330
2B9D
100
AcDbEntity
  8
0
100
AcDbBlockReference
  2
*U37
 10
0.0
 20
0.0
 30
0.0
  0
POINT
  5
168C
330
2B9D
100
AcDbEntity
  8
DEFPOINTS
 62
     0
100
AcDbPoint
 10
-157.5
 20
0.0
 30
0.0
  0
POINT
  5
168D
330
2B9D
100
AcDbEntity
  8
DEFPOINTS
 62
     0
100
AcDbPoint
 10
157.5
 20
0.0
 30
0.0
  0
POINT
  5
168E
330
2B9D
100
AcDbEntity
  8
DEFPOINTS
 62
     0
100
AcDbPoint
 10
157.5
 20
225.5794621189598
 30
0.0
  0
ENDBLK
  5
14CB
330
2B9D
100
AcDbEntity
  8
0
100
AcDbBlockEnd
  0
BLOCK
  5
2BA0
330
2B9F
100
AcDbEntity
  8
0
100
AcDbBlockBegin
  2
*U37
 70
     1
 10
0.0
 20
0.0
 30
0.0
  3
*U37
  1

  0
TEXT
  5
1F15
330
2B9F
100
AcDbEntity
  8
SIZE
 62
     0
100
AcDbText
 10
-68.57142857142857
 20
235.5794621189598
 30
0.0
 40
64.0
  1
315
 41
0.9
100
AcDbText
  0
ENDBLK
  5
1F17
330
2B9F
100
AcDbEntity
  8
0
100
AcDbBlockEnd
  0
BLOCK
  5
2BA2
330
2BA1
100
AcDbEntity
  8
0
100
AcDbBlockBegin
  2
*U38
 70
     1
 10
0.0
 20
0.0
 30
0.0
  3
*U38
  1

  0
ENDBLK
  5
15CF
330
2BA1
100
AcDbEntity
  8
0
100
AcDbBlockEnd
  0
BLOCK
  5
2BA4
330
2BA3
100
AcDbEntity
  8
0
100
AcDbBlockBegin
  2
*D39
 70
     1
 10
0.0
 20
0.0
 30
0.0
  3
*D39
  1

  0
LINE
  5
1692
330
2BA3
100
AcDbEntity
  8
SIZE
 62
     0
100
AcDbLine
 10
-25844.51823276502
 20
7685.702971374808
 30
0.0
 11
-25981.04465488371
 21
7685.702971374808
 31
0.0
  0
LINE
  5
1693
330
2BA3
100
AcDbEntity
  8
SIZE
 62
     0
100
AcDbLine
 10
-25844.51823276502
 20
7677.702971374808
 30
0.0
 11
-25981.04465488371
 21
7677.702971374808
 31
0.0
  0
LINE
  5
1694
330
2BA3
100
AcDbEntity
  8
SIZE
 62
     0
100
AcDbLine
 10
-25961.04465488371
 20
7697.702971374808
 30
0.0
 11
-25961.04465488371
 21
7709.702971374809
 31
0.0
  0
LINE
  5
1695
330
2BA3
100
AcDbEntity
  8
SIZE
 62
     0
100
AcDbLine
 10
-25961.04465488371
 20
7665.70297137481
 30
0.0
 11
-25961.04465488371
 21
7595.302971374808
 31
0.0
  0
INSERT
  5
1696
330
2BA3
100
AcDbEntity
  8
SIZE
 62
     0
100
AcDbBlockReference
  2
_DOTBLANK
 10
-25961.04465488371
 20
7685.702971374808
 30
0.0
 41
12.0
 42
12.0
 43
12.0
 50
270.0
  0
INSERT
  5
1697
330
2BA3
100
AcDbEntity
  8
SIZE
 62
     0
100
AcDbBlockReference
  2
_DOTBLANK
 10
-25961.04465488371
 20
7677.702971374808
 30
0.0
 41
12.0
 42
12.0
 43
12.0
 50
90.0
  0
INSERT
  5
1698
330
2BA3
100
AcDbEntity
  8
0
100
AcDbBlockReference
  2
*U40
 10
0.0
 20
0.0
 30
0.0
  0
POINT
  5
1699
330
2BA3
100
AcDbEntity
  8
DEFPOINTS
 62
     0
100
AcDbPoint
 10
-25824.51823276501
 20
7685.702971374808
 30
0.0
  0
POINT
  5
169A
330
2BA3
100
AcDbEntity
  8
DEFPOINTS
 62
     0
100
AcDbPoint
 10
-25824.51823276501
 20
7677.702971374808
 30
0.0
  0
POINT
  5
169B
330
2BA3
100
AcDbEntity
  8
DEFPOINTS
 62
     0
100
AcDbPoint
 10
-25961.04465488371
 20
7677.702971374808
 30
0.0
  0
ENDBLK
  5
169C
330
2BA3
100
AcDbEntity
  8
0
100
AcDbBlockEnd
  0
BLOCK
  5
2BA6
330
2BA5
100
AcDbEntity
  8
0
100
AcDbBlockBegin
  2
*U40
 70
     1
 10
0.0
 20
0.0
 30
0.0
  3
*U40
  1

  0
TEXT
  5
1F19
330
2BA5
100
AcDbEntity
  8
SIZE
 62
     0
100
AcDbText
 10
-25971.04465488371
 20
7605.302971374804
 30
0.0
 40
64.0
  1
8
 50
90.0
 41
0.9
100
AcDbText
  0
ENDBLK
  5
1F1B
330
2BA5
100
AcDbEntity
  8
0
100
AcDbBlockEnd
  0
BLOCK
  5
2BA8
330
2BA7
100
AcDbEntity
  8
0
100
AcDbBlockBegin
  2
*D41
 70
     1
 10
0.0
 20
0.0
 30
0.0
  3
*D41
  1

  0
LINE
  5
169F
330
2BA7
100
AcDbEntity
  8
SIZE
 62
     0
100
AcDbLine
 10
-25512.51823276502
 20
7385.702971374808
 30
0.0
 11
-25362.37494828464
 21
7385.702971374808
 31
0.0
  0
LINE
  5
16A0
330
2BA7
100
AcDbEntity
  8
SIZE
 62
     0
100
AcDbLine
 10
-25523.51823276501
 20
7373.702971374808
 30
0.0
 11
-25362.37494828464
 21
7373.702971374808
 31
0.0
  0
LINE
  5
16A1
330
2BA7
100
AcDbEntity
  8
SIZE
 62
     0
100
AcDbLine
 10
-25382.37494828464
 20
7397.702971374808
 30
0.0
 11
-25382.37494828464
 21
7409.70297137481
 31
0.0
  0
LINE
  5
16A2
330
2BA7
100
AcDbEntity
  8
SIZE
 62
     0
100
AcDbLine
 10
-25382.37494828464
 20
7361.702971374808
 30
0.0
 11
-25382.37494828464
 21
7244.674399946237
 31
0.0
  0
INSERT
  5
16A3
330
2BA7
100
AcDbEntity
  8
SIZE
 62
     0
100
AcDbBlockReference
  2
_DOTBLANK
 10
-25382.37494828464
 20
7385.702971374808
 30
0.0
 41
12.0
 42
12.0
 43
12.0
 50
270.0
  0
INSERT
  5
16A4
330
2BA7
100
AcDbEntity
  8
SIZE
 62
     0
100
AcDbBlockReference
  2
_DOTBLANK
 10
-25382.37494828464
 20
7373.702971374808
 30
0.0
 41
12.0
 42
12.0
 43
12.0
 50
90.0
  0
INSERT
  5
16A5
330
2BA7
100
AcDbEntity
  8
0
100
AcDbBlockReference
  2
*U42
 10
0.0
 20
0.0
 30
0.0
  0
POINT
  5
16A6
330
2BA7
100
AcDbEntity
  8
DEFPOINTS
 62
     0
100
AcDbPoint
 10
-25532.51823276502
 20
7385.702971374808
 30
0.0
  0
POINT
  5
16A7
330
2BA7
100
AcDbEntity
  8
DEFPOINTS
 62
     0
100
AcDbPoint
 10
-25543.51823276502
 20
7373.702971374808
 30
0.0
  0
POINT
  5
16A8
330
2BA7
100
AcDbEntity
  8
DEFPOINTS
 62
     0
100
AcDbPoint
 10
-25382.37494828464
 20
7373.702971374808
 30
0.0
  0
ENDBLK
  5
16A9
330
2BA7
100
AcDbEntity
  8
0
100
AcDbBlockEnd
  0
BLOCK
  5
2BAA
330
2BA9
100
AcDbEntity
  8
0
100
AcDbBlockBegin
  2
*U42
 70
     1
 10
0.0
 20
0.0
 30
0.0
  3
*U42
  1

  0
TEXT
  5
1F1D
330
2BA9
100
AcDbEntity
  8
SIZE
 62
     0
100
AcDbText
 10
-25392.37494828464
 20
7256.045828517662
 30
0.0
 40
64.0
  1
12
 50
90.0
 41
0.9
100
AcDbText
  0
ENDBLK
  5
1F1F
330
2BA9
100
AcDbEntity
  8
0
100
AcDbBlockEnd
  0
BLOCK
  5
2BAC
330
2BAB
100
AcDbEntity
  8
0
100
AcDbBlockBegin
  2
*D43
 70
     1
 10
0.0
 20
0.0
 30
0.0
  3
*D43
  1

  0
LINE
  5
16AC
330
2BAB
100
AcDbEntity
  8
SIZE
 62
     0
100
AcDbLine
 10
-25801.51823276501
 20
7365.702971374808
 30
0.0
 11
-25801.51823276501
 21
7217.685576144207
 31
0.0
  0
LINE
  5
16AD
330
2BAB
100
AcDbEntity
  8
SIZE
 62
     0
100
AcDbLine
 10
-25532.51823276502
 20
7365.702971374808
 30
0.0
 11
-25532.51823276502
 21
7217.685576144207
 31
0.0
  0
LINE
  5
16AE
330
2BAB
100
AcDbEntity
  8
SIZE
 62
     0
100
AcDbLine
 10
-25789.51823276502
 20
7237.685576144207
 30
0.0
 11
-25544.51823276501
 21
7237.685576144207
 31
0.0
  0
INSERT
  5
16AF
330
2BAB
100
AcDbEntity
  8
SIZE
 62
     0
100
AcDbBlockReference
  2
_DOTBLANK
 10
-25801.51823276501
 20
7237.685576144207
 30
0.0
 41
12.0
 42
12.0
 43
12.0
 50
180.0
  0
INSERT
  5
16B0
330
2BAB
100
AcDbEntity
  8
SIZE
 62
     0
100
AcDbBlockReference
  2
_DOTBLANK
 10
-25532.51823276502
 20
7237.685576144207
 30
0.0
 41
12.0
 42
12.0
 43
12.0
  0
INSERT
  5
16B1
330
2BAB
100
AcDbEntity
  8
0
100
AcDbBlockReference
  2
*U44
 10
0.0
 20
0.0
 30
0.0
  0
POINT
  5
16B2
330
2BAB
100
AcDbEntity
  8
DEFPOINTS
 62
     0
100
AcDbPoint
 10
-25801.51823276501
 20
7385.702971374808
 30
0.0
  0
POINT
  5
16B3
330
2BAB
100
AcDbEntity
  8
DEFPOINTS
 62
     0
100
AcDbPoint
 10
-25532.51823276502
 20
7385.702971374808
 30
0.0
  0
POINT
  5
16B4
330
2BAB
100
AcDbEntity
  8
DEFPOINTS
 62
     0
100
AcDbPoint
 10
-25532.51823276502
 20
7237.685576144207
 30
0.0
  0
ENDBLK
  5
16B5
330
2BAB
100
AcDbEntity
  8
0
100
AcDbBlockEnd
  0
BLOCK
  5
2BAE
330
2BAD
100
AcDbEntity
  8
0
100
AcDbBlockBegin
  2
*U44
 70
     1
 10
0.0
 20
0.0
 30
0.0
  3
*U44
  1

  0
TEXT
  5
1F21
330
2BAD
100
AcDbEntity
  8
SIZE
 62
     0
100
AcDbText
 10
-25739.70394705074
 20
7247.685576144205
 30
0.0
 40
64.0
  1
269
 41
0.9
100
AcDbText
  0
ENDBLK
  5
1F23
330
2BAD
100
AcDbEntity
  8
0
100
AcDbBlockEnd
  0
BLOCK
  5
2BB0
330
2BAF
100
AcDbEntity
  8
0
100
AcDbBlockBegin
  2
*D45
 70
     1
 10
0.0
 20
0.0
 30
0.0
  3
*D45
  1

  0
LINE
  5
16B8
330
2BAF
100
AcDbEntity
  8
SIZE
 62
     0
100
AcDbLine
 10
-25512.51823276502
 20
7385.702971374808
 30
0.0
 11
-25362.37494828464
 21
7385.702971374808
 31
0.0
  0
LINE
  5
16B9
330
2BAF
100
AcDbEntity
  8
SIZE
 62
     0
100
AcDbLine
 10
-25489.51823276501
 20
7685.702971374808
 30
0.0
 11
-25362.37494828464
 21
7685.702971374808
 31
0.0
  0
LINE
  5
16BA
330
2BAF
100
AcDbEntity
  8
SIZE
 62
     0
100
AcDbLine
 10
-25382.37494828464
 20
7397.702971374808
 30
0.0
 11
-25382.37494828464
 21
7673.702971374808
 31
0.0
  0
INSERT
  5
16BB
330
2BAF
100
AcDbEntity
  8
SIZE
 62
     0
100
AcDbBlockReference
  2
_DOTBLANK
 10
-25382.37494828464
 20
7385.702971374808
 30
0.0
 41
12.0
 42
12.0
 43
12.0
 50
270.0
  0
INSERT
  5
16BC
330
2BAF
100
AcDbEntity
  8
SIZE
 62
     0
100
AcDbBlockReference
  2
_DOTBLANK
 10
-25382.37494828464
 20
7685.702971374808
 30
0.0
 41
12.0
 42
12.0
 43
12.0
 50
90.0
  0
INSERT
  5
16BD
330
2BAF
100
AcDbEntity
  8
0
100
AcDbBlockReference
  2
*U46
 10
0.0
 20
0.0
 30
0.0
  0
POINT
  5
16BE
330
2BAF
100
AcDbEntity
  8
DEFPOINTS
 62
     0
100
AcDbPoint
 10
-25532.51823276502
 20
7385.702971374808
 30
0.0
  0
POINT
  5
16BF
330
2BAF
100
AcDbEntity
  8
DEFPOINTS
 62
     0
100
AcDbPoint
 10
-25509.51823276502
 20
7685.702971374808
 30
0.0
  0
POINT
  5
16C0
330
2BAF
100
AcDbEntity
  8
DEFPOINTS
 62
     0
100
AcDbPoint
 10
-25382.37494828464
 20
7685.702971374808
 30
0.0
  0
ENDBLK
  5
16C1
330
2BAF
100
AcDbEntity
  8
0
100
AcDbBlockEnd
  0
BLOCK
  5
2BB2
330
2BB1
100
AcDbEntity
  8
0
100
AcDbBlockBegin
  2
*U46
 70
     1
 10
0.0
 20
0.0
 30
0.0
  3
*U46
  1

  0
TEXT
  5
1F25
330
2BB1
100
AcDbEntity
  8
SIZE
 62
     0
100
AcDbText
 10
-25392.37494828464
 20
7461.645828517662
 30
0.0
 40
64.0
  1
300
 50
90.0
 41
0.9
100
AcDbText
  0
ENDBLK
  5
1F27
330
2BB1
100
AcDbEntity
  8
0
100
AcDbBlockEnd
  0
BLOCK
  5
2BB4
330
2BB3
100
AcDbEntity
  8
0
100
AcDbBlockBegin
  2
*D47
 70
     1
 10
0.0
 20
0.0
 30
0.0
  3
*D47
  1

  0
LINE
  5
16C4
330
2BB3
100
AcDbEntity
  8
SIZE
 62
     0
100
AcDbLine
 10
-25807.01823276501
 20
7718.167454177002
 30
0.0
 11
-25807.01823276501
 21
7822.154659243358
 31
0.0
  0
LINE
  5
16C5
330
2BB3
100
AcDbEntity
  8
SIZE
 62
     0
100
AcDbLine
 10
-25527.01823276501
 20
7718.167454177002
 30
0.0
 11
-25527.01823276501
 21
7822.154659243358
 31
0.0
  0
LINE
  5
16C6
330
2BB3
100
AcDbEntity
  8
SIZE
 62
     0
100
AcDbLine
 10
-25795.01823276502
 20
7802.154659243358
 30
0.0
 11
-25539.01823276501
 21
7802.154659243358
 31
0.0
  0
INSERT
  5
16C7
330
2BB3
100
AcDbEntity
  8
SIZE
 62
     0
100
AcDbBlockReference
  2
_DOTBLANK
 10
-25807.01823276501
 20
7802.154659243358
 30
0.0
 41
12.0
 42
12.0
 43
12.0
 50
180.0
  0
INSERT
  5
16C8
330
2BB3
100
AcDbEntity
  8
SIZE
 62
     0
100
AcDbBlockReference
  2
_DOTBLANK
 10
-25527.01823276501
 20
7802.154659243358
 30
0.0
 41
12.0
 42
12.0
 43
12.0
  0
INSERT
  5
16C9
330
2BB3
100
AcDbEntity
  8
0
100
AcDbBlockReference
  2
*U48
 10
0.0
 20
0.0
 30
0.0
  0
POINT
  5
16CA
330
2BB3
100
AcDbEntity
  8
DEFPOINTS
 62
     0
100
AcDbPoint
 10
-25807.01823276501
 20
7698.167454177002
 30
0.0
  0
POINT
  5
16CB
330
2BB3
100
AcDbEntity
  8
DEFPOINTS
 62
     0
100
AcDbPoint
 10
-25527.01823276501
 20
7698.167454177002
 30
0.0
  0
POINT
  5
16CC
330
2BB3
100
AcDbEntity
  8
DEFPOINTS
 62
     0
100
AcDbPoint
 10
-25527.01823276501
 20
7802.154659243358
 30
0.0
  0
ENDBLK
  5
16CD
330
2BB3
100
AcDbEntity
  8
0
100
AcDbBlockEnd
  0
BLOCK
  5
2BB6
330
2BB5
100
AcDbEntity
  8
0
100
AcDbBlockBegin
  2
*U48
 70
     1
 10
0.0
 20
0.0
 30
0.0
  3
*U48
  1

  0
TEXT
  5
1F29
330
2BB5
100
AcDbEntity
  8
SIZE
 62
     0
100
AcDbText
 10
-25741.07537562216
 20
7812.154659243358
 30
0.0
 40
64.0
  1
280
 41
0.9
100
AcDbText
  0
ENDBLK
  5
1F2B
330
2BB5
100
AcDbEntity
  8
0
100
AcDbBlockEnd
  0
BLOCK
  5
2BB8
330
2BB7
100
AcDbEntity
  8
0
100
AcDbBlockBegin
  2
*D49
 70
     1
 10
0.0
 20
0.0
 30
0.0
  3
*D49
  1

  0
LINE
  5
16D0
330
2BB7
100
AcDbEntity
  8
SIZE
 62
     0
100
AcDbLine
 10
-25824.51823276501
 20
7705.702971374808
 30
0.0
 11
-25824.51823276501
 21
7931.282433493766
 31
0.0
  0
LINE
  5
16D1
330
2BB7
100
AcDbEntity
  8
SIZE
 62
     0
100
AcDbLine
 10
-25509.51823276502
 20
7705.702971374808
 30
0.0
 11
-25509.51823276502
 21
7931.282433493766
 31
0.0
  0
LINE
  5
16D2
330
2BB7
100
AcDbEntity
  8
SIZE
 62
     0
100
AcDbLine
 10
-25812.51823276502
 20
7911.282433493766
 30
0.0
 11
-25521.51823276501
 21
7911.282433493766
 31
0.0
  0
INSERT
  5
16D3
330
2BB7
100
AcDbEntity
  8
SIZE
 62
     0
100
AcDbBlockReference
  2
_DOTBLANK
 10
-25824.51823276501
 20
7911.282433493766
 30
0.0
 41
12.0
 42
12.0
 43
12.0
 50
180.0
  0
INSERT
  5
16D4
330
2BB7
100
AcDbEntity
  8
SIZE
 62
     0
100
AcDbBlockReference
  2
_DOTBLANK
 10
-25509.51823276502
 20
7911.282433493766
 30
0.0
 41
12.0
 42
12.0
 43
12.0
  0
INSERT
  5
16D5
330
2BB7
100
AcDbEntity
  8
0
100
AcDbBlockReference
  2
*U50
 10
0.0
 20
0.0
 30
0.0
  0
POINT
  5
16D6
330
2BB7
100
AcDbEntity
  8
DEFPOINTS
 62
     0
100
AcDbPoint
 10
-25824.51823276501
 20
7685.702971374808
 30
0.0
  0
POINT
  5
16D7
330
2BB7
100
AcDbEntity
  8
DEFPOINTS
 62
     0
100
AcDbPoint
 10
-25509.51823276502
 20
7685.702971374808
 30
0.0
  0
POINT
  5
16D8
330
2BB7
100
AcDbEntity
  8
DEFPOINTS
 62
     0
100
AcDbPoint
 10
-25509.51823276502
 20
7911.282433493766
 30
0.0
  0
ENDBLK
  5
16D9
330
2BB7
100
AcDbEntity
  8
0
100
AcDbBlockEnd
  0
BLOCK
  5
2BBA
330
2BB9
100
AcDbEntity
  8
0
100
AcDbBlockBegin
  2
*U50
 70
     1
 10
0.0
 20
0.0
 30
0.0
  3
*U50
  1

  0
TEXT
  5
1F2D
330
2BB9
100
AcDbEntity
  8
SIZE
 62
     0
100
AcDbText
 10
-25735.58966133645
 20
7921.282433493766
 30
0.0
 40
64.0
  1
315
 41
0.9
100
AcDbText
  0
ENDBLK
  5
1F2F
330
2BB9
100
AcDbEntity
  8
0
100
AcDbBlockEnd
  0
BLOCK
  5
2BBC
330
2BBB
100
AcDbEntity
  8
0
100
AcDbBlockBegin
  2
*D51
 70
     1
 10
0.0
 20
0.0
 30
0.0
  3
*D51
  1

  0
LINE
  5
1D83
330
2BBB
100
AcDbEntity
  8
SIZE
 62
     0
100
AcDbLine
 10
-134.5
 20
-320.0
 30
0.0
 11
-134.5
 21
-468.0173952306001
 31
0.0
  0
LINE
  5
1D84
330
2BBB
100
AcDbEntity
  8
SIZE
 62
     0
100
AcDbLine
 10
134.5
 20
-320.0
 30
0.0
 11
134.5
 21
-468.0173952306001
 31
0.0
  0
LINE
  5
1D85
330
2BBB
100
AcDbEntity
  8
SIZE
 62
     0
100
AcDbLine
 10
-122.5
 20
-448.0173952306
 30
0.0
 11
122.5
 21
-448.0173952306
 31
0.0
  0
INSERT
  5
1D86
330
2BBB
100
AcDbEntity
  8
SIZE
 62
     0
100
AcDbBlockReference
  2
_DOTBLANK
 10
-134.5
 20
-448.0173952306
 30
0.0
 41
12.0
 42
12.0
 43
12.0
 50
180.0
  0
INSERT
  5
1D87
330
2BBB
100
AcDbEntity
  8
SIZE
 62
     0
100
AcDbBlockReference
  2
_DOTBLANK
 10
134.5
 20
-448.0173952306
 30
0.0
 41
12.0
 42
12.0
 43
12.0
  0
INSERT
  5
1D88
330
2BBB
100
AcDbEntity
  8
0
100
AcDbBlockReference
  2
*U52
 10
0.0
 20
0.0
 30
0.0
  0
POINT
  5
1D89
330
2BBB
100
AcDbEntity
  8
DEFPOINTS
 62
     0
100
AcDbPoint
 10
-134.5
 20
-300.0
 30
0.0
  0
POINT
  5
1D8A
330
2BBB
100
AcDbEntity
  8
DEFPOINTS
 62
     0
100
AcDbPoint
 10
134.5
 20
-300.0
 30
0.0
  0
POINT
  5
1D8B
330
2BBB
100
AcDbEntity
  8
DEFPOINTS
 62
     0
100
AcDbPoint
 10
134.5
 20
-448.0173952306
 30
0.0
  0
ENDBLK
  5
173D
330
2BBB
100
AcDbEntity
  8
0
100
AcDbBlockEnd
  0
BLOCK
  5
2BBE
330
2BBD
100
AcDbEntity
  8
0
100
AcDbBlockBegin
  2
*U52
 70
     1
 10
0.0
 20
0.0
 30
0.0
  3
*U52
  1

  0
TEXT
  5
1F31
330
2BBD
100
AcDbEntity
  8
SIZE
 62
     0
100
AcDbText
 10
-72.68571428571426
 20
-438.0173952306003
 30
0.0
 40
64.0
  1
269
 41
0.9
100
AcDbText
  0
ENDBLK
  5
1F33
330
2BBD
100
AcDbEntity
  8
0
100
AcDbBlockEnd
  0
BLOCK
  5
2BC0
330
2BBF
100
AcDbEntity
  8
0
100
AcDbBlockBegin
  2
*D53
 70
     1
 10
0.0
 20
0.0
 30
0.0
  3
*D53
  1

  0
LINE
  5
1D8C
330
2BBF
100
AcDbEntity
  8
SIZE
 62
     0
100
AcDbLine
 10
154.5
 20
-300.0
 30
0.0
 11
304.6432844803784
 21
-300.0
 31
0.0
  0
LINE
  5
1D8D
330
2BBF
100
AcDbEntity
  8
SIZE
 62
     0
100
AcDbLine
 10
177.5
 20
-0.0000000000000057
 30
0.0
 11
304.6432844803785
 21
-0.0000000000000417
 31
0.0
  0
LINE
  5
1D8E
330
2BBF
100
AcDbEntity
  8
SIZE
 62
     0
100
AcDbLine
 10
284.6432844803784
 20
-288.0
 30
0.0
 11
284.6432844803785
 21
-12.00000000000003
 31
0.0
  0
INSERT
  5
1D8F
330
2BBF
100
AcDbEntity
  8
SIZE
 62
     0
100
AcDbBlockReference
  2
_DOTBLANK
 10
284.6432844803784
 20
-300.0
 30
0.0
 41
12.0
 42
12.0
 43
12.0
 50
270.0
  0
INSERT
  5
1D90
330
2BBF
100
AcDbEntity
  8
SIZE
 62
     0
100
AcDbBlockReference
  2
_DOTBLANK
 10
284.6432844803785
 20
-0.000000000000036
 30
0.0
 41
12.0
 42
12.0
 43
12.0
 50
90.0
  0
INSERT
  5
1D91
330
2BBF
100
AcDbEntity
  8
0
100
AcDbBlockReference
  2
*U54
 10
0.0
 20
0.0
 30
0.0
  0
POINT
  5
1D92
330
2BBF
100
AcDbEntity
  8
DEFPOINTS
 62
     0
100
AcDbPoint
 10
134.5
 20
-300.0
 30
0.0
  0
POINT
  5
1D93
330
2BBF
100
AcDbEntity
  8
DEFPOINTS
 62
     0
100
AcDbPoint
 10
157.5
 20
0.0
 30
0.0
  0
POINT
  5
1D94
330
2BBF
100
AcDbEntity
  8
DEFPOINTS
 62
     0
100
AcDbPoint
 10
284.6432844803785
 20
-0.000000000000036
 30
0.0
  0
ENDBLK
  5
1749
330
2BBF
100
AcDbEntity
  8
0
100
AcDbBlockEnd
  0
BLOCK
  5
2BC2
330
2BC1
100
AcDbEntity
  8
0
100
AcDbBlockBegin
  2
*U54
 70
     1
 10
0.0
 20
0.0
 30
0.0
  3
*U54
  1

  0
TEXT
  5
1F35
330
2BC1
100
AcDbEntity
  8
SIZE
 62
     0
100
AcDbText
 10
274.6432844803785
 20
-224.0571428571429
 30
0.0
 40
64.0
  1
300
 50
90.0
 41
0.9
100
AcDbText
  0
ENDBLK
  5
1F37
330
2BC1
100
AcDbEntity
  8
0
100
AcDbBlockEnd
  0
BLOCK
  5
2BC4
330
2BC3
100
AcDbEntity
  8
0
100
AcDbBlockBegin
  2
*D55
 70
     1
 10
0.0
 20
0.0
 30
0.0
  3
*D55
  1

  0
LINE
  5
1D95
330
2BC3
100
AcDbEntity
  8
SIZE
 62
     0
100
AcDbLine
 10
-140.0
 20
32.46448280219375
 30
0.0
 11
-140.0
 21
136.4516878685508
 31
0.0
  0
LINE
  5
1D96
330
2BC3
100
AcDbEntity
  8
SIZE
 62
     0
100
AcDbLine
 10
140.0
 20
32.46448280219375
 30
0.0
 11
140.0
 21
136.4516878685508
 31
0.0
  0
LINE
  5
1D97
330
2BC3
100
AcDbEntity
  8
SIZE
 62
     0
100
AcDbLine
 10
-128.0
 20
116.4516878685508
 30
0.0
 11
128.0
 21
116.4516878685508
 31
0.0
  0
INSERT
  5
1D98
330
2BC3
100
AcDbEntity
  8
SIZE
 62
     0
100
AcDbBlockReference
  2
_DOTBLANK
 10
-140.0
 20
116.4516878685508
 30
0.0
 41
12.0
 42
12.0
 43
12.0
 50
180.0
  0
INSERT
  5
1D99
330
2BC3
100
AcDbEntity
  8
SIZE
 62
     0
100
AcDbBlockReference
  2
_DOTBLANK
 10
140.0
 20
116.4516878685508
 30
0.0
 41
12.0
 42
12.0
 43
12.0
  0
INSERT
  5
1D9A
330
2BC3
100
AcDbEntity
  8
0
100
AcDbBlockReference
  2
*U56
 10
0.0
 20
0.0
 30
0.0
  0
POINT
  5
1D9B
330
2BC3
100
AcDbEntity
  8
DEFPOINTS
 62
     0
100
AcDbPoint
 10
-140.0
 20
12.46448280219374
 30
0.0
  0
POINT
  5
1D9C
330
2BC3
100
AcDbEntity
  8
DEFPOINTS
 62
     0
100
AcDbPoint
 10
140.0
 20
12.46448280219374
 30
0.0
  0
POINT
  5
1D9D
330
2BC3
100
AcDbEntity
  8
DEFPOINTS
 62
     0
100
AcDbPoint
 10
140.0
 20
116.4516878685508
 30
0.0
  0
ENDBLK
  5
1755
330
2BC3
100
AcDbEntity
  8
0
100
AcDbBlockEnd
  0
BLOCK
  5
2BC6
330
2BC5
100
AcDbEntity
  8
0
100
AcDbBlockBegin
  2
*U56
 70
     1
 10
0.0
 20
0.0
 30
0.0
  3
*U56
  1

  0
TEXT
  5
1F39
330
2BC5
100
AcDbEntity
  8
SIZE
 62
     0
100
AcDbText
 10
-74.05714285714283
 20
126.4516878685508
 30
0.0
 40
64.0
  1
280
 41
0.9
100
AcDbText
  0
ENDBLK
  5
1F3B
330
2BC5
100
AcDbEntity
  8
0
100
AcDbBlockEnd
  0
BLOCK
  5
2BC8
330
2BC7
100
AcDbEntity
  8
0
100
AcDbBlockBegin
  2
*D57
 70
     1
 10
0.0
 20
0.0
 30
0.0
  3
*D57
  1

  0
LINE
  5
1D9E
330
2BC7
100
AcDbEntity
  8
SIZE
 62
     0
100
AcDbLine
 10
-157.5
 20
20.0
 30
0.0
 11
-157.5
 21
245.5794621189598
 31
0.0
  0
LINE
  5
1D9F
330
2BC7
100
AcDbEntity
  8
SIZE
 62
     0
100
AcDbLine
 10
157.5
 20
20.0
 30
0.0
 11
157.5
 21
245.5794621189598
 31
0.0
  0
LINE
  5
1DA0
330
2BC7
100
AcDbEntity
  8
SIZE
 62
     0
100
AcDbLine
 10
-145.5
 20
225.5794621189598
 30
0.0
 11
145.5
 21
225.5794621189598
 31
0.0
  0
INSERT
  5
1DA1
330
2BC7
100
AcDbEntity
  8
SIZE
 62
     0
100
AcDbBlockReference
  2
_DOTBLANK
 10
-157.5
 20
225.5794621189598
 30
0.0
 41
12.0
 42
12.0
 43
12.0
 50
180.0
  0
INSERT
  5
1DA2
330
2BC7
100
AcDbEntity
  8
SIZE
 62
     0
100
AcDbBlockReference
  2
_DOTBLANK
 10
157.5
 20
225.5794621189598
 30
0.0
 41
12.0
 42
12.0
 43
12.0
  0
INSERT
  5
1DA3
330
2BC7
100
AcDbEntity
  8
0
100
AcDbBlockReference
  2
*U58
 10
0.0
 20
0.0
 30
0.0
  0
POINT
  5
1DA4
330
2BC7
100
AcDbEntity
  8
DEFPOINTS
 62
     0
100
AcDbPoint
 10
-157.5
 20
0.0
 30
0.0
  0
POINT
  5
1DA5
330
2BC7
100
AcDbEntity
  8
DEFPOINTS
 62
     0
100
AcDbPoint
 10
157.5
 20
0.0
 30
0.0
  0
POINT
  5
1DA6
330
2BC7
100
AcDbEntity
  8
DEFPOINTS
 62
     0
100
AcDbPoint
 10
157.5
 20
225.5794621189598
 30
0.0
  0
ENDBLK
  5
1761
330
2BC7
100
AcDbEntity
  8
0
100
AcDbBlockEnd
  0
BLOCK
  5
2BCA
330
2BC9
100
AcDbEntity
  8
0
100
AcDbBlockBegin
  2
*U58
 70
     1
 10
0.0
 20
0.0
 30
0.0
  3
*U58
  1

  0
TEXT
  5
1F3D
330
2BC9
100
AcDbEntity
  8
SIZE
 62
     0
100
AcDbText
 10
-68.57142857142857
 20
235.5794621189599
 30
0.0
 40
64.0
  1
315
 41
0.9
100
AcDbText
  0
ENDBLK
  5
1F3F
330
2BC9
100
AcDbEntity
  8
0
100
AcDbBlockEnd
  0
BLOCK
  5
2BCC
330
2BCB
100
AcDbEntity
  8
0
100
AcDbBlockBegin
  2
*D59
 70
     1
 10
0.0
 20
0.0
 30
0.0
  3
*D59
  1

  0
LINE
  5
1DA7
330
2BCB
100
AcDbEntity
  8
SIZE
 62
     0
100
AcDbLine
 10
-177.5
 20
0.0000000000000057
 30
0.0
 11
-314.0264221186908
 21
0.0000000000000443
 31
0.0
  0
LINE
  5
1DA8
330
2BCB
100
AcDbEntity
  8
SIZE
 62
     0
100
AcDbLine
 10
-177.5
 20
-7.999999999999995
 30
0.0
 11
-314.0264221186908
 21
-7.999999999999958
 31
0.0
  0
LINE
  5
1DA9
330
2BCB
100
AcDbEntity
  8
SIZE
 62
     0
100
AcDbLine
 10
-294.0264221186908
 20
12.00000000000003
 30
0.0
 11
-294.0264221186908
 21
24.00000000000004
 31
0.0
  0
LINE
  5
1DAA
330
2BCB
100
AcDbEntity
  8
SIZE
 62
     0
100
AcDbLine
 10
-294.0264221186908
 20
-19.99999999999996
 30
0.0
 11
-294.0264221186908
 21
-90.39999999999997
 31
0.0
  0
INSERT
  5
1DAB
330
2BCB
100
AcDbEntity
  8
SIZE
 62
     0
100
AcDbBlockReference
  2
_DOTBLANK
 10
-294.0264221186908
 20
0.0000000000000387
 30
0.0
 41
12.0
 42
12.0
 43
12.0
 50
270.0
  0
INSERT
  5
1DAC
330
2BCB
100
AcDbEntity
  8
SIZE
 62
     0
100
AcDbBlockReference
  2
_DOTBLANK
 10
-294.0264221186908
 20
-7.999999999999961
 30
0.0
 41
12.0
 42
12.0
 43
12.0
 50
90.0
  0
INSERT
  5
1DAD
330
2BCB
100
AcDbEntity
  8
0
100
AcDbBlockReference
  2
*U60
 10
0.0
 20
0.0
 30
0.0
  0
POINT
  5
1DAE
330
2BCB
100
AcDbEntity
  8
DEFPOINTS
 62
     0
100
AcDbPoint
 10
-157.5
 20
0.0
 30
0.0
  0
POINT
  5
1DAF
330
2BCB
100
AcDbEntity
  8
DEFPOINTS
 62
     0
100
AcDbPoint
 10
-157.5
 20
-8.000000000000003
 30
0.0
  0
POINT
  5
1DB0
330
2BCB
100
AcDbEntity
  8
DEFPOINTS
 62
     0
100
AcDbPoint
 10
-294.0264221186908
 20
-7.999999999999961
 30
0.0
  0
ENDBLK
  5
176D
330
2BCB
100
AcDbEntity
  8
0
100
AcDbBlockEnd
  0
BLOCK
  5
2BCE
330
2BCD
100
AcDbEntity
  8
0
100
AcDbBlockBegin
  2
*U60
 70
     1
 10
0.0
 20
0.0
 30
0.0
  3
*U60
  1

  0
TEXT
  5
1F41
330
2BCD
100
AcDbEntity
  8
SIZE
 62
     0
100
AcDbText
 10
-304.0264221186908
 20
-80.4
 30
0.0
 40
64.0
  1
8
 50
90.0
 41
0.9
100
AcDbText
  0
ENDBLK
  5
1F43
330
2BCD
100
AcDbEntity
  8
0
100
AcDbBlockEnd
  0
BLOCK
  5
2BD0
330
2BCF
100
AcDbEntity
  8
0
100
AcDbBlockBegin
  2
*D61
 70
     1
 10
0.0
 20
0.0
 30
0.0
  3
*D61
  1

  0
LINE
  5
1DB1
330
2BCF
100
AcDbEntity
  8
SIZE
 62
     0
100
AcDbLine
 10
154.5
 20
-300.0
 30
0.0
 11
304.6432844803785
 21
-300.0
 31
0.0
  0
LINE
  5
1DB2
330
2BCF
100
AcDbEntity
  8
SIZE
 62
     0
100
AcDbLine
 10
143.5
 20
-312.0
 30
0.0
 11
304.6432844803785
 21
-312.0
 31
0.0
  0
LINE
  5
1DB3
330
2BCF
100
AcDbEntity
  8
SIZE
 62
     0
100
AcDbLine
 10
284.6432844803785
 20
-288.0
 30
0.0
 11
284.6432844803785
 21
-276.0
 31
0.0
  0
LINE
  5
1DB4
330
2BCF
100
AcDbEntity
  8
SIZE
 62
     0
100
AcDbLine
 10
284.6432844803785
 20
-324.0000000000001
 30
0.0
 11
284.6432844803784
 21
-438.2857142857143
 31
0.0
  0
INSERT
  5
1DB5
330
2BCF
100
AcDbEntity
  8
SIZE
 62
     0
100
AcDbBlockReference
  2
_DOTBLANK
 10
284.6432844803785
 20
-300.0
 30
0.0
 41
12.0
 42
12.0
 43
12.0
 50
270.0
  0
INSERT
  5
1DB6
330
2BCF
100
AcDbEntity
  8
SIZE
 62
     0
100
AcDbBlockReference
  2
_DOTBLANK
 10
284.6432844803785
 20
-312.0
 30
0.0
 41
12.0
 42
12.0
 43
12.0
 50
90.0
  0
INSERT
  5
1DB7
330
2BCF
100
AcDbEntity
  8
0
100
AcDbBlockReference
  2
*U62
 10
0.0
 20
0.0
 30
0.0
  0
POINT
  5
1DB8
330
2BCF
100
AcDbEntity
  8
DEFPOINTS
 62
     0
100
AcDbPoint
 10
134.5
 20
-300.0
 30
0.0
  0
POINT
  5
1DB9
330
2BCF
100
AcDbEntity
  8
DEFPOINTS
 62
     0
100
AcDbPoint
 10
123.5
 20
-312.0
 30
0.0
  0
POINT
  5
1DBA
330
2BCF
100
AcDbEntity
  8
DEFPOINTS
 62
     0
100
AcDbPoint
 10
284.6432844803785
 20
-312.0
 30
0.0
  0
ENDBLK
  5
177B
330
2BCF
100
AcDbEntity
  8
0
100
AcDbBlockEnd
  0
BLOCK
  5
2BD2
330
2BD1
100
AcDbEntity
  8
0
100
AcDbBlockBegin
  2
*U62
 70
     1
 10
0.0
 20
0.0
 30
0.0
  3
*U62
  1

  0
TEXT
  5
1F45
330
2BD1
100
AcDbEntity
  8
SIZE
 62
     0
100
AcDbText
 10
274.6432844803785
 20
-428.2857142857142
 30
0.0
 40
64.0
  1
12
 50
90.0
 41
0.9
100
AcDbText
  0
ENDBLK
  5
1F47
330
2BD1
100
AcDbEntity
  8
0
100
AcDbBlockEnd
  0
BLOCK
  5
2BD4
330
2BD3
100
AcDbEntity
  8
0
100
AcDbBlockBegin
  2
*U63
 70
     1
 10
0.0
 20
0.0
 30
0.0
  3
*U63
  1

  0
ENDBLK
  5
1D57
330
2BD3
100
AcDbEntity
  8
0
100
AcDbBlockEnd
  0
BLOCK
  5
2BD6
330
2BD5
100
AcDbEntity
  8
0
100
AcDbBlockBegin
  2
*U64
 70
     1
 10
0.0
 20
0.0
 30
0.0
  3
*U64
  1

  0
INSERT
  5
2087
330
2BD5
100
AcDbEntity
  8
NOTE
100
AcDbBlockReference
  2
_OPEN30
 10
-325.0
 20
0.0
 30
0.0
 41
12.0
 42
12.0
 43
12.0
 50
312.6090116116894
  0
POLYLINE
  5
2088
330
2BD5
100
AcDbEntity
  8
NOTE
100
AcDb2dPolyline
 66
     1
 10
0.0
 20
0.0
 30
0.0
  0
VERTEX
  5
2A6F
330
2088
100
AcDbEntity
  8
NOTE
100
AcDbVertex
100
AcDb2dVertex
 10
-333.1239008361895
 20
8.831887408915472
 30
0.0
  0
VERTEX
  5
2A70
330
2088
100
AcDbEntity
  8
NOTE
100
AcDbVertex
100
AcDb2dVertex
 10
-412.8693999922543
 20
95.52709505801338
 30
0.0
  0
VERTEX
  5
2A71
330
2088
100
AcDbEntity
  8
NOTE
100
AcDbVertex
100
AcDb2dVertex
 10
-958.7093999922544
 20
95.52709505801338
 30
0.0
  0
SEQEND
  5
2A72
330
2088
100
AcDbEntity
  8
NOTE
  0
ENDBLK
  5
2089
330
2BD5
100
AcDbEntity
  8
0
100
AcDbBlockEnd
  0
BLOCK
  5
2BD8
330
2BD7
100
AcDbEntity
  8
0
100
AcDbBlockBegin
  2
*U65
 70
     1
 10
0.0
 20
0.0
 30
0.0
  3
*U65
  1

  0
TEXT
  5
208C
330
2BD7
100
AcDbEntity
  8
NOTE
100
AcDbText
 10
-958.7093999922544
 20
113.5270950580134
 30
0.0
 40
64.0
  1
4×φ15取付穴
 41
0.9
100
AcDbText
  0
ENDBLK
  5
208D
330
2BD7
100
AcDbEntity
  8
0
100
AcDbBlockEnd
  0
BLOCK
  5
2BDA
330
2BD9
100
AcDbEntity
  8
0
100
AcDbBlockBegin
  2
*U66
 70
     1
 10
0.0
 20
0.0
 30
0.0
  3
*U66
  1

  0
INSERT
  5
216D
330
2BD9
100
AcDbEntity
  8
NOTE
100
AcDbBlockReference
  2
_OPEN30
 10
325.0000000000036
 20
325.0000000000046
 30
0.0
 41
12.0
 42
12.0
 43
12.0
 50
230.7091310502217
  0
POLYLINE
  5
216E
330
2BD9
100
AcDbEntity
  8
NOTE
100
AcDb2dPolyline
 66
     1
 10
0.0
 20
0.0
 30
0.0
  0
VERTEX
  5
2A73
330
216E
100
AcDbEntity
  8
NOTE
100
AcDbVertex
100
AcDb2dVertex
 10
332.5990904809257
 20
334.2872936780768
 30
0.0
  0
VERTEX
  5
2A74
330
216E
100
AcDbEntity
  8
NOTE
100
AcDbVertex
100
AcDb2dVertex
 10
388.4345623698645
 20
402.5270950580177
 30
0.0
  0
VERTEX
  5
2A75
330
216E
100
AcDbEntity
  8
NOTE
100
AcDbVertex
100
AcDb2dVertex
 10
934.2745623698649
 20
402.5270950580177
 30
0.0
  0
SEQEND
  5
2A76
330
216E
100
AcDbEntity
  8
NOTE
  0
ENDBLK
  5
216F
330
2BD9
100
AcDbEntity
  8
0
100
AcDbBlockEnd
  0
BLOCK
  5
2BDC
330
2BDB
100
AcDbEntity
  8
0
100
AcDbBlockBegin
  2
*U67
 70
     1
 10
0.0
 20
0.0
 30
0.0
  3
*U67
  1

  0
TEXT
  5
2172
330
2BDB
100
AcDbEntity
  8
NOTE
100
AcDbText
 10
450.4345623698646
 20
420.5270950580176
 30
0.0
 40
64.0
  1
4×φ15取付穴
 41
0.9
100
AcDbText
  0
ENDBLK
  5
2173
330
2BDB
100
AcDbEntity
  8
0
100
AcDbBlockEnd
  0
BLOCK
  5
2BDE
330
2BDD
100
AcDbEntity
  8
0
100
AcDbBlockBegin
  2
*U68
 70
     1
 10
0.0
 20
0.0
 30
0.0
  3
*U68
  1

  0
INSERT
  5
2244
330
2BDD
100
AcDbEntity
  8
NOTE
100
AcDbBlockReference
  2
_OPEN30
 10
325.0
 20
325.0000000000018
 30
0.0
 41
12.0
 42
12.0
 43
12.0
 50
232.3258907693334
  0
POLYLINE
  5
2245
330
2BDD
100
AcDbEntity
  8
NOTE
100
AcDb2dPolyline
 66
     1
 10
0.0
 20
0.0
 30
0.0
  0
VERTEX
  5
2A77
330
2245
100
AcDbEntity
  8
NOTE
100
AcDbVertex
100
AcDb2dVertex
 10
332.3340332839448
 20
334.4979974620982
 30
0.0
  0
VERTEX
  5
2A78
330
2245
100
AcDbEntity
  8
NOTE
100
AcDbVertex
100
AcDb2dVertex
 10
398.7628007872081
 20
420.5270950580143
 30
0.0
  0
VERTEX
  5
2A79
330
2245
100
AcDbEntity
  8
NOTE
100
AcDbVertex
100
AcDb2dVertex
 10
944.6028007872079
 20
420.5270950580143
 30
0.0
  0
SEQEND
  5
2A7A
330
2245
100
AcDbEntity
  8
NOTE
  0
ENDBLK
  5
2246
330
2BDD
100
AcDbEntity
  8
0
100
AcDbBlockEnd
  0
BLOCK
  5
2BE0
330
2BDF
100
AcDbEntity
  8
0
100
AcDbBlockBegin
  2
*U69
 70
     1
 10
0.0
 20
0.0
 30
0.0
  3
*U69
  1

  0
TEXT
  5
2249
330
2BDF
100
AcDbEntity
  8
NOTE
100
AcDbText
 10
460.762800787208
 20
438.5270950580141
 30
0.0
 40
64.0
  1
4×φ15取付穴
 41
0.9
100
AcDbText
  0
ENDBLK
  5
224A
330
2BDF
100
AcDbEntity
  8
0
100
AcDbBlockEnd
  0
BLOCK
  5
2BE2
330
2BE1
100
AcDbEntity
  8
0
100
AcDbBlockBegin
  2
*U70
 70
     1
 10
0.0
 20
0.0
 30
0.0
  3
*U70
  1

  0
INSERT
  5
2337
330
2BE1
100
AcDbEntity
  8
NOTE
100
AcDbBlockReference
  2
_OPEN30
 10
0.0
 20
325.0
 30
0.0
 41
12.0
 42
12.0
 43
12.0
 50
312.6090116116897
  0
POLYLINE
  5
2338
330
2BE1
100
AcDbEntity
  8
NOTE
100
AcDb2dPolyline
 66
     1
 10
0.0
 20
0.0
 30
0.0
  0
VERTEX
  5
2A8F
330
2338
100
AcDbEntity
  8
NOTE
100
AcDbVertex
100
AcDb2dVertex
 10
-8.12390083618952
 20
333.8318874089154
 30
0.0
  0
VERTEX
  5
2A90
330
2338
100
AcDbEntity
  8
NOTE
100
AcDbVertex
100
AcDb2dVertex
 10
-87.86939999225436
 20
420.5270950580128
 30
0.0
  0
VERTEX
  5
2A91
330
2338
100
AcDbEntity
  8
NOTE
100
AcDbVertex
100
AcDb2dVertex
 10
-633.7093999922545
 20
420.5270950580128
 30
0.0
  0
SEQEND
  5
2A92
330
2338
100
AcDbEntity
  8
NOTE
  0
ENDBLK
  5
2339
330
2BE1
100
AcDbEntity
  8
0
100
AcDbBlockEnd
  0
BLOCK
  5
2BE4
330
2BE3
100
AcDbEntity
  8
0
100
AcDbBlockBegin
  2
*U71
 70
     1
 10
0.0
 20
0.0
 30
0.0
  3
*U71
  1

  0
TEXT
  5
233C
330
2BE3
100
AcDbEntity
  8
NOTE
100
AcDbText
 10
-633.7093999922545
 20
438.5270950580128
 30
0.0
 40
64.0
  1
4×φ15取付穴
 41
0.9
100
AcDbText
  0
ENDBLK
  5
233D
330
2BE3
100
AcDbEntity
  8
0
100
AcDbBlockEnd
  0
BLOCK
  5
2BE6
330
2BE5
100
AcDbEntity
  8
0
100
AcDbBlockBegin
  2
*U72
 70
     1
 10
0.0
 20
0.0
 30
0.0
  3
*U72
  1

  0
INSERT
  5
2464
330
2BE5
100
AcDbEntity
  8
NOTE
100
AcDbBlockReference
  2
_OPEN30
 10
0.0
 20
325.0
 30
0.0
 41
12.0
 42
12.0
 43
12.0
 50
227.3909883883104
  0
POLYLINE
  5
2465
330
2BE5
100
AcDbEntity
  8
NOTE
100
AcDb2dPolyline
 66
     1
 10
0.0
 20
0.0
 30
0.0
  0
VERTEX
  5
2A93
330
2465
100
AcDbEntity
  8
NOTE
100
AcDbVertex
100
AcDb2dVertex
 10
8.12390083618952
 20
333.8318874089154
 30
0.0
  0
VERTEX
  5
2A94
330
2465
100
AcDbEntity
  8
NOTE
100
AcDbVertex
100
AcDb2dVertex
 10
87.86939999225436
 20
420.5270950580128
 30
0.0
  0
VERTEX
  5
2A95
330
2465
100
AcDbEntity
  8
NOTE
100
AcDbVertex
100
AcDb2dVertex
 10
633.7093999922545
 20
420.5270950580128
 30
0.0
  0
SEQEND
  5
2A96
330
2465
100
AcDbEntity
  8
NOTE
  0
ENDBLK
  5
2466
330
2BE5
100
AcDbEntity
  8
0
100
AcDbBlockEnd
  0
BLOCK
  5
2BE8
330
2BE7
100
AcDbEntity
  8
0
100
AcDbBlockBegin
  2
*U73
 70
     1
 10
0.0
 20
0.0
 30
0.0
  3
*U73
  1

  0
TEXT
  5
2469
330
2BE7
100
AcDbEntity
  8
NOTE
100
AcDbText
 10
149.8693999922543
 20
438.5270950580128
 30
0.0
 40
64.0
  1
4×φ15取付穴
 41
0.9
100
AcDbText
  0
ENDBLK
  5
246A
330
2BE7
100
AcDbEntity
  8
0
100
AcDbBlockEnd
  0
BLOCK
  5
2BEA
330
2BE9
100
AcDbEntity
  8
0
100
AcDbBlockBegin
  2
*U74
 70
     1
 10
0.0
 20
0.0
 30
0.0
  3
*U74
  1

  0
INSERT
  5
263D
330
2BE9
100
AcDbEntity
  8
NOTE
100
AcDbBlockReference
  2
_OPEN30
 10
-325.0
 20
0.0
 30
0.0
 41
12.0
 42
12.0
 43
12.0
 50
312.6090116116895
  0
POLYLINE
  5
263E
330
2BE9
100
AcDbEntity
  8
NOTE
100
AcDb2dPolyline
 66
     1
 10
0.0
 20
0.0
 30
0.0
  0
VERTEX
  5
2A97
330
263E
100
AcDbEntity
  8
NOTE
100
AcDbVertex
100
AcDb2dVertex
 10
-333.1239008361895
 20
8.831887408915461
 30
0.0
  0
VERTEX
  5
2A98
330
263E
100
AcDbEntity
  8
NOTE
100
AcDbVertex
100
AcDb2dVertex
 10
-412.8693999922544
 20
95.52709505801338
 30
0.0
  0
VERTEX
  5
2A99
330
263E
100
AcDbEntity
  8
NOTE
100
AcDbVertex
100
AcDb2dVertex
 10
-958.7093999922547
 20
95.52709505801338
 30
0.0
  0
SEQEND
  5
2A9A
330
263E
100
AcDbEntity
  8
NOTE
  0
ENDBLK
  5
263F
330
2BE9
100
AcDbEntity
  8
0
100
AcDbBlockEnd
  0
BLOCK
  5
2BEC
330
2BEB
100
AcDbEntity
  8
0
100
AcDbBlockBegin
  2
*U75
 70
     1
 10
0.0
 20
0.0
 30
0.0
  3
*U75
  1

  0
TEXT
  5
2642
330
2BEB
100
AcDbEntity
  8
NOTE
100
AcDbText
 10
-958.7093999922547
 20
113.5270950580134
 30
0.0
 40
64.0
  1
4×φ15取付穴
 41
0.9
100
AcDbText
  0
ENDBLK
  5
2643
330
2BEB
100
AcDbEntity
  8
0
100
AcDbBlockEnd
  0
BLOCK
  5
2BEE
330
2BED
100
AcDbEntity
  8
0
100
AcDbBlockBegin
  2
*X76
 70
     1
 10
0.0
 20
0.0
 30
0.0
  3
*X76
  1

  0
LINE
  5
2646
330
2BED
100
AcDbEntity
  8
0
 62
     0
100
AcDbLine
 10
293.3388046616856
 20
-646.2000000000025
 30
0.0
 11
295.699999999988
 21
-644.6258737940461
 31
0.0
  0
LINE
  5
2647
330
2BED
100
AcDbEntity
  8
0
 62
     0
100
AcDbLine
 10
288.8388433677956
 20
-646.2000000000044
 30
0.0
 11
295.6999999999916
 21
-641.625907258629
 31
0.0
  0
LINE
  5
2648
330
2BED
100
AcDbEntity
  8
0
 62
     0
100
AcDbLine
 10
284.3388820739128
 20
-646.2000000000025
 30
0.0
 11
295.699999999988
 21
-638.6259407232135
 31
0.0
  0
LINE
  5
2649
330
2BED
100
AcDbEntity
  8
0
 62
     0
100
AcDbLine
 10
279.8389207800247
 20
-646.2000000000044
 30
0.0
 11
295.699999999988
 21
-635.6259741877964
 31
0.0
  0
LINE
  5
264A
330
2BED
100
AcDbEntity
  8
0
 62
     0
100
AcDbLine
 10
275.3389594861437
 20
-646.2000000000007
 30
0.0
 11
295.699999999988
 21
-632.6260076523813
 31
0.0
  0
LINE
  5
264B
330
2BED
100
AcDbEntity
  8
0
 62
     0
100
AcDbLine
 10
270.8389981922537
 20
-646.2000000000044
 30
0.0
 11
295.699999999988
 21
-629.626041116964
 31
0.0
  0
LINE
  5
264C
330
2BED
100
AcDbEntity
  8
0
 62
     0
100
AcDbLine
 10
266.339036898371
 20
-646.2000000000025
 30
0.0
 11
295.699999999988
 21
-626.6260745815489
 31
0.0
  0
LINE
  5
264D
330
2BED
100
AcDbEntity
  8
0
 62
     0
100
AcDbLine
 10
261.8390756044828
 20
-646.2000000000025
 30
0.0
 11
295.699999999988
 21
-623.6261080461318
 31
0.0
  0
LINE
  5
264E
330
2BED
100
AcDbEntity
  8
0
 62
     0
100
AcDbLine
 10
257.3391143106019
 20
-646.2000000000007
 30
0.0
 11
295.699999999988
 21
-620.6261415107165
 31
0.0
  0
LINE
  5
264F
330
2BED
100
AcDbEntity
  8
0
 62
     0
100
AcDbLine
 10
252.8391530167137
 20
-646.2000000000025
 30
0.0
 11
295.699999999988
 21
-617.626174975301
 31
0.0
  0
LINE
  5
2650
330
2BED
100
AcDbEntity
  8
0
 62
     0
100
AcDbLine
 10
248.3391917228273
 20
-646.2000000000025
 30
0.0
 11
295.6999999999898
 21
-614.6262084398824
 31
0.0
  0
LINE
  5
2651
330
2BED
100
AcDbEntity
  8
0
 62
     0
100
AcDbLine
 10
243.8392304289446
 20
-646.2000000000007
 30
0.0
 11
295.699999999988
 21
-611.626241904467
 31
0.0
  0
LINE
  5
2652
330
2BED
100
AcDbEntity
  8
0
 62
     0
100
AcDbLine
 10
239.3392691350545
 20
-646.2000000000044
 30
0.0
 11
295.6999999999898
 21
-608.6262753690515
 31
0.0
  0
LINE
  5
2653
330
2BED
100
AcDbEntity
  8
0
 62
     0
100
AcDbLine
 10
234.83930784117
 20
-646.2000000000044
 30
0.0
 11
295.6999999999862
 21
-605.6263088336361
 31
0.0
  0
LINE
  5
2654
330
2BED
100
AcDbEntity
  8
0
 62
     0
100
AcDbLine
 10
230.3393465472855
 20
-646.2000000000025
 30
0.0
 11
295.6999999999898
 21
-602.6263422982192
 31
0.0
  0
LINE
  5
2655
330
2BED
100
AcDbEntity
  8
0
 62
     0
100
AcDbLine
 10
225.8393852534027
 20
-646.2000000000007
 30
0.0
 11
295.699999999988
 21
-599.6263757628021
 31
0.0
  0
LINE
  5
2656
330
2BED
100
AcDbEntity
  8
0
 62
     0
100
AcDbLine
 10
221.3394239595127
 20
-646.2000000000044
 30
0.0
 11
295.6999999999898
 21
-596.6264092273868
 31
0.0
  0
LINE
  5
2657
330
2BED
100
AcDbEntity
  8
0
 62
     0
100
AcDbLine
 10
216.8394626656282
 20
-646.2000000000025
 30
0.0
 11
295.6999999999898
 21
-593.6264426919696
 31
0.0
  0
LINE
  5
2658
330
2BED
100
AcDbEntity
  8
0
 62
     0
100
AcDbLine
 10
212.3395013717436
 20
-646.2000000000044
 30
0.0
 11
295.6999999999898
 21
-590.6264761565544
 31
0.0
  0
LINE
  5
2659
330
2BED
100
AcDbEntity
  8
0
 62
     0
100
AcDbLine
 10
207.8395400778591
 20
-646.2000000000007
 30
0.0
 11
295.6999999999898
 21
-587.6265096211372
 31
0.0
  0
LINE
  5
265A
330
2BED
100
AcDbEntity
  8
0
 62
     0
100
AcDbLine
 10
203.3395787839727
 20
-646.2000000000007
 30
0.0
 11
295.699999999988
 21
-584.6265430857202
 31
0.0
  0
LINE
  5
265B
330
2BED
100
AcDbEntity
  8
0
 62
     0
100
AcDbLine
 10
198.8396174900863
 20
-646.2000000000025
 30
0.0
 11
295.6999999999898
 21
-581.6265765503044
 31
0.0
  0
LINE
  5
265C
330
2BED
100
AcDbEntity
  8
0
 62
     0
100
AcDbLine
 10
194.3396561962036
 20
-646.2000000000025
 30
0.0
 11
295.699999999988
 21
-578.6266100148914
 31
0.0
  0
LINE
  5
265D
330
2BED
100
AcDbEntity
  8
0
 62
     0
100
AcDbLine
 10
189.8396949023172
 20
-646.2000000000025
 30
0.0
 11
295.6999999999898
 21
-575.6266434794722
 31
0.0
  0
LINE
  5
265E
330
2BED
100
AcDbEntity
  8
0
 62
     0
100
AcDbLine
 10
185.3397336084308
 20
-646.2000000000007
 30
0.0
 11
295.6999999999898
 21
-572.6266769440552
 31
0.0
  0
LINE
  5
265F
330
2BED
100
AcDbEntity
  8
0
 62
     0
100
AcDbLine
 10
180.8397723145444
 20
-646.2000000000025
 30
0.0
 11
295.6999999999898
 21
-569.6267104086399
 31
0.0
  0
LINE
  5
2660
330
2BED
100
AcDbEntity
  8
0
 62
     0
100
AcDbLine
 10
176.3398110206617
 20
-646.2000000000025
 30
0.0
 11
295.6999999999898
 21
-566.6267438732247
 31
0.0
  0
LINE
  5
2661
330
2BED
100
AcDbEntity
  8
0
 62
     0
100
AcDbLine
 10
171.8398497267717
 20
-646.2000000000044
 30
0.0
 11
295.6999999999916
 21
-563.6267773378058
 31
0.0
  0
LINE
  5
2662
330
2BED
100
AcDbEntity
  8
0
 62
     0
100
AcDbLine
 10
167.339888432889
 20
-646.2000000000025
 30
0.0
 11
295.6999999999935
 21
-560.6268108023887
 31
0.0
  0
LINE
  5
2663
330
2BED
100
AcDbEntity
  8
0
 62
     0
100
AcDbLine
 10
162.8399271390008
 20
-646.2000000000025
 30
0.0
 11
295.6999999999916
 21
-557.6268442669751
 31
0.0
  0
LINE
  5
2664
330
2BED
100
AcDbEntity
  8
0
 62
     0
100
AcDbLine
 10
158.3399658451199
 20
-646.2000000000007
 30
0.0
 11
295.6999999999935
 21
-554.6268777315563
 31
0.0
  0
LINE
  5
2665
330
2BED
100
AcDbEntity
  8
0
 62
     0
100
AcDbLine
 10
153.8400045512299
 20
-646.2000000000044
 30
0.0
 11
295.6999999999916
 21
-551.6269111961427
 31
0.0
  0
LINE
  5
2666
330
2BED
100
AcDbEntity
  8
0
 62
     0
100
AcDbLine
 10
149.3400432573471
 20
-646.2000000000025
 30
0.0
 11
295.6999999999935
 21
-548.626944660724
 31
0.0
  0
LINE
  5
2667
330
2BED
100
AcDbEntity
  8
0
 62
     0
100
AcDbLine
 10
144.8400819634607
 20
-646.2000000000025
 30
0.0
 11
295.6999999999935
 21
-545.6269781253068
 31
0.0
  0
LINE
  5
2668
330
2BED
100
AcDbEntity
  8
0
 62
     0
100
AcDbLine
 10
140.3401206695762
 20
-646.2000000000007
 30
0.0
 11
295.6999999999916
 21
-542.6270115898931
 31
0.0
  0
LINE
  5
2669
330
2BED
100
AcDbEntity
  8
0
 62
     0
100
AcDbLine
 10
135.8401593756898
 20
-646.2000000000025
 30
0.0
 11
295.6999999999935
 21
-539.627045054476
 31
0.0
  0
LINE
  5
266A
330
2BED
100
AcDbEntity
  8
0
 62
     0
100
AcDbLine
 10
131.3401980818034
 20
-646.2000000000025
 30
0.0
 11
295.6999999999916
 21
-536.6270785190607
 31
0.0
  0
LINE
  5
266B
330
2BED
100
AcDbEntity
  8
0
 62
     0
100
AcDbLine
 10
126.8402367879189
 20
-646.2000000000007
 30
0.0
 11
295.6999999999916
 21
-533.6271119836419
 31
0.0
  0
LINE
  5
266C
330
2BED
100
AcDbEntity
  8
0
 62
     0
100
AcDbLine
 10
122.3402754940343
 20
-646.2000000000025
 30
0.0
 11
295.6999999999916
 21
-530.6271454482282
 31
0.0
  0
LINE
  5
266D
330
2BED
100
AcDbEntity
  8
0
 62
     0
100
AcDbLine
 10
117.8403142001462
 20
-646.2000000000025
 30
0.0
 11
295.6999999999916
 21
-527.6271789128132
 31
0.0
  0
LINE
  5
266E
330
2BED
100
AcDbEntity
  8
0
 62
     0
100
AcDbLine
 10
113.3403529062616
 20
-646.2000000000025
 30
0.0
 11
295.6999999999953
 21
-524.6272123773942
 31
0.0
  0
LINE
  5
266F
330
2BED
100
AcDbEntity
  8
0
 62
     0
100
AcDbLine
 10
108.840391612377
 20
-646.2000000000007
 30
0.0
 11
295.6999999999916
 21
-521.6272458419789
 31
0.0
  0
LINE
  5
2670
330
2BED
100
AcDbEntity
  8
0
 62
     0
100
AcDbLine
 10
104.3404303184888
 20
-646.2000000000044
 30
0.0
 11
295.6999999999935
 21
-518.6272793065616
 31
0.0
  0
LINE
  5
2671
330
2BED
100
AcDbEntity
  8
0
 62
     0
100
AcDbLine
 10
99.84046902460432
 20
-646.2000000000044
 30
0.0
 11
295.6999999999916
 21
-515.6273127711483
 31
0.0
  0
LINE
  5
2672
330
2BED
100
AcDbEntity
  8
0
 62
     0
100
AcDbLine
 10
95.34050773071795
 20
-646.2000000000025
 30
0.0
 11
295.6999999999916
 21
-512.6273462357294
 31
0.0
  0
LINE
  5
2673
330
2BED
100
AcDbEntity
  8
0
 62
     0
100
AcDbLine
 10
90.8405464368352
 20
-646.2000000000007
 30
0.0
 11
295.6999999999916
 21
-509.6273797003139
 31
0.0
  0
LINE
  5
2674
330
2BED
100
AcDbEntity
  8
0
 62
     0
100
AcDbLine
 10
86.34058514294883
 20
-646.2000000000007
 30
0.0
 11
295.6999999999916
 21
-506.6274131648968
 31
0.0
  0
LINE
  5
2675
330
2BED
100
AcDbEntity
  8
0
 62
     0
100
AcDbLine
 10
81.84062384906429
 20
-646.2000000000025
 30
0.0
 11
295.6999999999916
 21
-503.6274466294816
 31
0.0
  0
LINE
  5
2676
330
2BED
100
AcDbEntity
  8
0
 62
     0
100
AcDbLine
 10
77.34066255517973
 20
-646.2000000000025
 30
0.0
 11
295.6999999999916
 21
-500.6274800940664
 31
0.0
  0
LINE
  5
2677
330
2BED
100
AcDbEntity
  8
0
 62
     0
100
AcDbLine
 10
72.84070126129336
 20
-646.2000000000007
 30
0.0
 11
295.6999999999953
 21
-497.6275135586471
 31
0.0
  0
LINE
  5
2678
330
2BED
100
AcDbEntity
  8
0
 62
     0
100
AcDbLine
 10
68.34073996740698
 20
-646.2000000000007
 30
0.0
 11
295.6999999999916
 21
-494.6275470232318
 31
0.0
  0
LINE
  5
2679
330
2BED
100
AcDbEntity
  8
0
 62
     0
100
AcDbLine
 10
63.84077867352061
 20
-646.2000000000025
 30
0.0
 11
295.6999999999935
 21
-491.6275804878168
 31
0.0
  0
LINE
  5
267A
330
2BED
100
AcDbEntity
  8
0
 62
     0
100
AcDbLine
 10
59.34081737963788
 20
-646.2000000000025
 30
0.0
 11
295.6999999999916
 21
-488.6276139524015
 31
0.0
  0
LINE
  5
267B
330
2BED
100
AcDbEntity
  8
0
 62
     0
100
AcDbLine
 10
54.84085608574787
 20
-646.2000000000044
 30
0.0
 11
295.6999999999935
 21
-485.6276474169844
 31
0.0
  0
LINE
  5
267C
330
2BED
100
AcDbEntity
  8
0
 62
     0
100
AcDbLine
 10
50.34089479186332
 20
-646.2000000000007
 30
0.0
 11
295.6999999999898
 21
-482.6276808815674
 31
0.0
  0
LINE
  5
267D
330
2BED
100
AcDbEntity
  8
0
 62
     0
100
AcDbLine
 10
45.84093349797877
 20
-646.2000000000025
 30
0.0
 11
295.6999999999935
 21
-479.6277143461519
 31
0.0
  0
LINE
  5
267E
330
2BED
100
AcDbEntity
  8
0
 62
     0
100
AcDbLine
 10
41.34097220409603
 20
-646.2000000000025
 30
0.0
 11
295.6999999999916
 21
-476.6277478107385
 31
0.0
  0
LINE
  5
267F
330
2BED
100
AcDbEntity
  8
0
 62
     0
100
AcDbLine
 10
36.84101091020603
 20
-646.2000000000044
 30
0.0
 11
295.6999999999935
 21
-473.6277812753192
 31
0.0
  0
LINE
  5
2680
330
2BED
100
AcDbEntity
  8
0
 62
     0
100
AcDbLine
 10
32.34104961632147
 20
-646.2000000000025
 30
0.0
 11
295.6999999999935
 21
-470.6278147399023
 31
0.0
  0
LINE
  5
2681
330
2BED
100
AcDbEntity
  8
0
 62
     0
100
AcDbLine
 10
27.84108832243692
 20
-646.2000000000007
 30
0.0
 11
295.6999999999935
 21
-467.6278482044854
 31
0.0
  0
LINE
  5
2682
330
2BED
100
AcDbEntity
  8
0
 62
     0
100
AcDbLine
 10
23.34112702855236
 20
-646.2000000000007
 30
0.0
 11
295.6999999999935
 21
-464.6278816690698
 31
0.0
  0
LINE
  5
2683
330
2BED
100
AcDbEntity
  8
0
 62
     0
100
AcDbLine
 10
18.84116573466599
 20
-646.2000000000025
 30
0.0
 11
295.6999999999916
 21
-461.6279151336565
 31
0.0
  0
LINE
  5
2684
330
2BED
100
AcDbEntity
  8
0
 62
     0
100
AcDbLine
 10
14.34120444077962
 20
-646.2000000000025
 30
0.0
 11
295.6999999999935
 21
-458.6279485982377
 31
0.0
  0
LINE
  5
2685
330
2BED
100
AcDbEntity
  8
0
 62
     0
100
AcDbLine
 10
9.841243146895068
 20
-646.2000000000007
 30
0.0
 11
295.6999999999916
 21
-455.6279820628224
 31
0.0
  0
LINE
  5
2686
330
2BED
100
AcDbEntity
  8
0
 62
     0
100
AcDbLine
 10
5.341281853010512
 20
-646.2000000000007
 30
0.0
 11
295.6999999999935
 21
-452.6280155274053
 31
0.0
  0
LINE
  5
2687
330
2BED
100
AcDbEntity
  8
0
 62
     0
100
AcDbLine
 10
0.8413205591241419
 20
-646.2000000000025
 30
0.0
 11
295.6999999999935
 21
-449.6280489919898
 31
0.0
  0
LINE
  5
2688
330
2BED
100
AcDbEntity
  8
0
 62
     0
100
AcDbLine
 10
-3.658640734762228
 20
-646.2000000000025
 30
0.0
 11
295.6999999999935
 21
-446.6280824565747
 31
0.0
  0
LINE
  5
2689
330
2BED
100
AcDbEntity
  8
0
 62
     0
100
AcDbLine
 10
-8.158602028646784
 20
-646.2000000000007
 30
0.0
 11
295.6999999999935
 21
-443.6281159211556
 31
0.0
  0
LINE
  5
268A
330
2BED
100
AcDbEntity
  8
0
 62
     0
100
AcDbLine
 10
-12.65856332253679
 20
-646.2000000000044
 30
0.0
 11
295.6999999999916
 21
-440.6281493857423
 31
0.0
  0
LINE
  5
268B
330
2BED
100
AcDbEntity
  8
0
 62
     0
100
AcDbLine
 10
-17.15852461641771
 20
-646.2000000000025
 30
0.0
 11
295.6999999999935
 21
-437.628182850325
 31
0.0
  0
LINE
  5
268C
330
2BED
100
AcDbEntity
  8
0
 62
     0
100
AcDbLine
 10
-21.6584859103059
 20
-646.2000000000025
 30
0.0
 11
295.6999999999916
 21
-434.6282163149096
 31
0.0
  0
LINE
  5
268D
330
2BED
100
AcDbEntity
  8
0
 62
     0
100
AcDbLine
 10
-26.15844720418863
 20
-646.2000000000007
 30
0.0
 11
295.6999999999935
 21
-431.6282497794928
 31
0.0
  0
LINE
  5
268E
330
2BED
100
AcDbEntity
  8
0
 62
     0
100
AcDbLine
 10
-30.658408498075
 20
-646.2000000000007
 30
0.0
 11
295.6999999999916
 21
-428.6282832440756
 31
0.0
  0
LINE
  5
268F
330
2BED
100
AcDbEntity
  8
0
 62
     0
100
AcDbLine
 10
-35.15836979195956
 20
-646.2000000000025
 30
0.0
 11
295.6999999999935
 21
-425.6283167086603
 31
0.0
  0
LINE
  5
2690
330
2BED
100
AcDbEntity
  8
0
 62
     0
100
AcDbLine
 10
-39.65833108584775
 20
-646.2000000000025
 30
0.0
 11
295.6999999999916
 21
-422.6283501732448
 31
0.0
  0
LINE
  5
2691
330
2BED
100
AcDbEntity
  8
0
 62
     0
100
AcDbLine
 10
-44.1582923797323
 20
-646.2000000000007
 30
0.0
 11
295.6999999999916
 21
-419.6283836378279
 31
0.0
  0
LINE
  5
2692
330
2BED
100
AcDbEntity
  8
0
 62
     0
100
AcDbLine
 10
-48.65825367361686
 20
-646.2000000000007
 30
0.0
 11
295.6999999999953
 21
-416.628417102409
 31
0.0
  0
LINE
  5
2693
330
2BED
100
AcDbEntity
  8
0
 62
     0
100
AcDbLine
 10
-53.15821496750323
 20
-646.2000000000025
 30
0.0
 11
295.6999999999916
 21
-413.6284505669952
 31
0.0
  0
LINE
  5
2694
330
2BED
100
AcDbEntity
  8
0
 62
     0
100
AcDbLine
 10
-57.65817626138778
 20
-646.2000000000025
 30
0.0
 11
295.6999999999935
 21
-410.6284840315802
 31
0.0
  0
LINE
  5
2695
330
2BED
100
AcDbEntity
  8
0
 62
     0
100
AcDbLine
 10
-62.15813755527233
 20
-646.2000000000007
 30
0.0
 11
295.6999999999953
 21
-407.628517496161
 31
0.0
  0
LINE
  5
2696
330
2BED
100
AcDbEntity
  8
0
 62
     0
100
AcDbLine
 10
-66.65809884916052
 20
-646.2000000000007
 30
0.0
 11
295.6999999999935
 21
-404.628550960746
 31
0.0
  0
LINE
  5
2697
330
2BED
100
AcDbEntity
  8
0
 62
     0
100
AcDbLine
 10
-71.15806014304507
 20
-646.2000000000025
 30
0.0
 11
295.6999999999916
 21
-401.6285844253324
 31
0.0
  0
LINE
  5
2698
330
2BED
100
AcDbEntity
  8
0
 62
     0
100
AcDbLine
 10
-75.65802143692962
 20
-646.2000000000025
 30
0.0
 11
295.6999999999916
 21
-398.6286178899154
 31
0.0
  0
LINE
  5
2699
330
2BED
100
AcDbEntity
  8
0
 62
     0
100
AcDbLine
 10
-80.15798273081779
 20
-646.2000000000044
 30
0.0
 11
295.6999999999953
 21
-395.6286513544983
 31
0.0
  0
LINE
  5
269A
330
2BED
100
AcDbEntity
  8
0
 62
     0
100
AcDbLine
 10
-84.65794402470237
 20
-646.2000000000007
 30
0.0
 11
295.6999999999953
 21
-392.6286848190794
 31
0.0
  0
LINE
  5
269B
330
2BED
100
AcDbEntity
  8
0
 62
     0
100
AcDbLine
 10
-89.15790531858869
 20
-646.2000000000007
 30
0.0
 11
295.6999999999935
 21
-389.628718283664
 31
0.0
  0
LINE
  5
269C
330
2BED
100
AcDbEntity
  8
0
 62
     0
100
AcDbLine
 10
-93.65786661247145
 20
-646.2000000000007
 30
0.0
 11
295.6999999999953
 21
-386.628751748247
 31
0.0
  0
LINE
  5
269D
330
2BED
100
AcDbEntity
  8
0
 62
     0
100
AcDbLine
 10
-98.15782790635786
 20
-646.2000000000025
 30
0.0
 11
295.6999999999935
 21
-383.6287852128334
 31
0.0
  0
LINE
  5
269E
330
2BED
100
AcDbEntity
  8
0
 62
     0
100
AcDbLine
 10
-102.6577892002442
 20
-646.2000000000025
 30
0.0
 11
295.6999999999953
 21
-380.6288186774164
 31
0.0
  0
LINE
  5
269F
330
2BED
100
AcDbEntity
  8
0
 62
     0
100
AcDbLine
 10
-107.1577504941288
 20
-646.1999999999989
 30
0.0
 11
295.6999999999953
 21
-377.6288521419975
 31
0.0
  0
LINE
  5
26A0
330
2BED
100
AcDbEntity
  8
0
 62
     0
100
AcDbLine
 10
-111.6577117880133
 20
-646.2000000000007
 30
0.0
 11
295.6999999999953
 21
-374.6288856065839
 31
0.0
  0
LINE
  5
26A1
330
2BED
100
AcDbEntity
  8
0
 62
     0
100
AcDbLine
 10
-116.1576730818997
 20
-646.2000000000025
 30
0.0
 11
295.6999999999953
 21
-371.6289190711668
 31
0.0
  0
LINE
  5
26A2
330
2BED
100
AcDbEntity
  8
0
 62
     0
100
AcDbLine
 10
-120.6576343757878
 20
-646.2000000000025
 30
0.0
 11
295.6999999999935
 21
-368.6289525357515
 31
0.0
  0
LINE
  5
26A3
330
2BED
100
AcDbEntity
  8
0
 62
     0
100
AcDbLine
 10
-125.1575956696688
 20
-646.2000000000007
 30
0.0
 11
295.6999999999953
 21
-365.6289860003344
 31
0.0
  0
LINE
  5
26A4
330
2BED
100
AcDbEntity
  8
0
 62
     0
100
AcDbLine
 10
-129.6575569635606
 20
-646.2000000000044
 30
0.0
 11
295.6999999999935
 21
-362.6290194649191
 31
0.0
  0
LINE
  5
26A5
330
2BED
100
AcDbEntity
  8
0
 62
     0
100
AcDbLine
 10
-134.1575182574433
 20
-646.2000000000025
 30
0.0
 11
295.6999999999935
 21
-359.6290529295038
 31
0.0
  0
LINE
  5
26A6
330
2BED
100
AcDbEntity
  8
0
 62
     0
100
AcDbLine
 10
-138.6574795513297
 20
-646.2000000000025
 30
0.0
 11
295.6999999999935
 21
-356.6290863940867
 31
0.0
  0
LINE
  5
26A7
330
2BED
100
AcDbEntity
  8
0
 62
     0
100
AcDbLine
 10
-143.1574408452106
 20
-646.2000000000007
 30
0.0
 11
295.6999999999953
 21
-353.6291198586696
 31
0.0
  0
LINE
  5
26A8
330
2BED
100
AcDbEntity
  8
0
 62
     0
100
AcDbLine
 10
-147.6574021391007
 20
-646.2000000000025
 30
0.0
 11
295.6999999999935
 21
-350.6291533232542
 31
0.0
  0
LINE
  5
26A9
330
2BED
100
AcDbEntity
  8
0
 62
     0
100
AcDbLine
 10
-152.1573634329852
 20
-646.2000000000025
 30
0.0
 11
295.6999999999935
 21
-347.6291867878372
 31
0.0
  0
LINE
  5
26AA
330
2BED
100
AcDbEntity
  8
0
 62
     0
100
AcDbLine
 10
-156.6573247268716
 20
-646.2000000000025
 30
0.0
 11
295.6999999999971
 21
-344.6292202524219
 31
0.0
  0
LINE
  5
26AB
330
2BED
100
AcDbEntity
  8
0
 62
     0
100
AcDbLine
 10
-161.1572860207543
 20
-646.2000000000007
 30
0.0
 11
295.6999999999935
 21
-341.6292537170047
 31
0.0
  0
LINE
  5
26AC
330
2BED
100
AcDbEntity
  8
0
 62
     0
100
AcDbLine
 10
-165.6572473146424
 20
-646.2000000000007
 30
0.0
 11
295.6999999999953
 21
-338.6292871815876
 31
0.0
  0
LINE
  5
26AD
330
2BED
100
AcDbEntity
  8
0
 62
     0
100
AcDbLine
 10
-170.157208608527
 20
-646.2000000000025
 30
0.0
 11
295.6999999999935
 21
-335.6293206461742
 31
0.0
  0
LINE
  5
26AE
330
2BED
100
AcDbEntity
  8
0
 62
     0
100
AcDbLine
 10
-174.6571699024116
 20
-646.2000000000007
 30
0.0
 11
295.6999999999953
 21
-332.629354110757
 31
0.0
  0
LINE
  5
26AF
330
2BED
100
AcDbEntity
  8
0
 62
     0
100
AcDbLine
 10
-179.1571311962961
 20
-646.2000000000007
 30
0.0
 11
295.6999999999935
 21
-329.6293875753418
 31
0.0
  0
LINE
  5
26B0
330
2BED
100
AcDbEntity
  8
0
 62
     0
100
AcDbLine
 10
-183.6570924901844
 20
-646.2000000000007
 30
0.0
 11
295.6999999999953
 21
-326.6294210399228
 31
0.0
  0
LINE
  5
26B1
330
2BED
100
AcDbEntity
  8
0
 62
     0
100
AcDbLine
 10
-188.1570537840688
 20
-646.2000000000025
 30
0.0
 11
295.6999999999971
 21
-323.6294545045075
 31
0.0
  0
LINE
  5
26B2
330
2BED
100
AcDbEntity
  8
0
 62
     0
100
AcDbLine
 10
-192.6570150779534
 20
-646.2000000000025
 30
0.0
 11
295.6999999999953
 21
-320.6294879690923
 31
0.0
  0
LINE
  5
26B3
330
2BED
100
AcDbEntity
  8
0
 62
     0
100
AcDbLine
 10
-197.1569763718435
 20
-646.2000000000044
 30
0.0
 11
295.6999999999953
 21
-317.6295214336751
 31
0.0
  0
LINE
  5
26B4
330
2BED
100
AcDbEntity
  8
0
 62
     0
100
AcDbLine
 10
-201.6569376657261
 20
-646.2000000000007
 30
0.0
 11
295.6999999999953
 21
-314.6295548982598
 31
0.0
  0
LINE
  5
26B5
330
2BED
100
AcDbEntity
  8
0
 62
     0
100
AcDbLine
 10
-206.1568989596126
 20
-646.2000000000007
 30
0.0
 11
295.6999999999953
 21
-311.6295883628409
 31
0.0
  0
LINE
  5
26B6
330
2BED
100
AcDbEntity
  8
0
 62
     0
100
AcDbLine
 10
291.2444213637045
 20
-311.6000000000004
 30
0.0
 11
295.6999999999953
 21
-308.6296218274274
 31
0.0
  0
LINE
  5
26B7
330
2BED
100
AcDbEntity
  8
0
 62
     0
100
AcDbLine
 10
-210.6568602534953
 20
-646.2000000000007
 30
0.0
 11
291.2444213637045
 21
-311.6000000000004
 31
0.0
  0
LINE
  5
26B8
330
2BED
100
AcDbEntity
  8
0
 62
     0
100
AcDbLine
 10
286.74446006982
 20
-311.6000000000004
 30
0.0
 11
295.6999999999916
 21
-305.6296552920139
 31
0.0
  0
LINE
  5
26B9
330
2BED
100
AcDbEntity
  8
0
 62
     0
100
AcDbLine
 10
-215.1568215473817
 20
-646.2000000000025
 30
0.0
 11
286.74446006982
 21
-311.6000000000004
 31
0.0
  0
LINE
  5
26BA
330
2BED
100
AcDbEntity
  8
0
 62
     0
100
AcDbLine
 10
282.2444987759354
 20
-311.6000000000004
 30
0.0
 11
295.6999999999953
 21
-302.6296887565949
 31
0.0
  0
LINE
  5
26BB
330
2BED
100
AcDbEntity
  8
0
 62
     0
100
AcDbLine
 10
-219.6567828412681
 20
-646.2000000000025
 30
0.0
 11
282.2444987759354
 21
-311.6000000000004
 31
0.0
  0
LINE
  5
26BC
330
2BED
100
AcDbEntity
  8
0
 62
     0
100
AcDbLine
 10
277.7445374820509
 20
-311.5999999999985
 30
0.0
 11
295.6999999999916
 21
-299.6297222211797
 31
0.0
  0
LINE
  5
26BD
330
2BED
100
AcDbEntity
  8
0
 62
     0
100
AcDbLine
 10
-224.1567441351508
 20
-646.1999999999989
 30
0.0
 11
277.7445374820492
 21
-311.6000000000004
 31
0.0
  0
LINE
  5
26BE
330
2BED
100
AcDbEntity
  8
0
 62
     0
100
AcDbLine
 10
273.2445761881645
 20
-311.5999999999985
 30
0.0
 11
295.6999999999935
 21
-296.6297556857626
 31
0.0
  0
LINE
  5
26BF
330
2BED
100
AcDbEntity
  8
0
 62
     0
100
AcDbLine
 10
-228.656705429039
 20
-646.2000000000007
 30
0.0
 11
273.2445761881645
 21
-311.5999999999985
 31
0.0
  0
LINE
  5
26C0
330
2BED
100
AcDbEntity
  8
0
 62
     0
100
AcDbLine
 10
268.7446148942781
 20
-311.6000000000004
 30
0.0
 11
295.6999999999916
 21
-293.6297891503491
 31
0.0
  0
LINE
  5
26C1
330
2BED
100
AcDbEntity
  8
0
 62
     0
100
AcDbLine
 10
-233.1566667229235
 20
-646.2000000000025
 30
0.0
 11
268.7446148942781
 21
-311.6000000000004
 31
0.0
  0
LINE
  5
26C2
330
2BED
100
AcDbEntity
  8
0
 62
     0
100
AcDbLine
 10
264.2446536003954
 20
-311.5999999999985
 30
0.0
 11
295.6999999999935
 21
-290.6298226149301
 31
0.0
  0
LINE
  5
26C3
330
2BED
100
AcDbEntity
  8
0
 62
     0
100
AcDbLine
 10
-237.6566280168117
 20
-646.2000000000025
 30
0.0
 11
264.2446536003954
 21
-311.5999999999985
 31
0.0
  0
LINE
  5
26C4
330
2BED
100
AcDbEntity
  8
0
 62
     0
100
AcDbLine
 10
259.7446923065054
 20
-311.6000000000004
 30
0.0
 11
295.6999999999898
 21
-287.6298560795149
 31
0.0
  0
LINE
  5
26C5
330
2BED
100
AcDbEntity
  8
0
 62
     0
100
AcDbLine
 10
-242.1565893106945
 20
-646.1999999999989
 30
0.0
 11
259.7446923065054
 21
-311.6000000000004
 31
0.0
  0
LINE
  5
26C6
330
2BED
100
AcDbEntity
  8
0
 62
     0
100
AcDbLine
 10
255.2447310126225
 20
-311.6000000000004
 30
0.0
 11
295.6999999999935
 21
-284.6298895440996
 31
0.0
  0
LINE
  5
26C7
330
2BED
100
AcDbEntity
  8
0
 62
     0
100
AcDbLine
 10
-246.6565506045808
 20
-646.2000000000007
 30
0.0
 11
255.2447310126225
 21
-311.6000000000004
 31
0.0
  0
LINE
  5
26C8
330
2BED
100
AcDbEntity
  8
0
 62
     0
100
AcDbLine
 10
250.7447697187363
 20
-311.6000000000022
 30
0.0
 11
295.6999999999916
 21
-281.6299230086842
 31
0.0
  0
LINE
  5
26C9
330
2BED
100
AcDbEntity
  8
0
 62
     0
100
AcDbLine
 10
-251.1565118984654
 20
-646.2000000000025
 30
0.0
 11
250.7447697187363
 21
-311.6000000000022
 31
0.0
  0
LINE
  5
26CA
330
2BED
100
AcDbEntity
  8
0
 62
     0
100
AcDbLine
 10
246.2448084248535
 20
-311.5999999999985
 30
0.0
 11
295.6999999999916
 21
-278.6299564732672
 31
0.0
  0
LINE
  5
26CB
330
2BED
100
AcDbEntity
  8
0
 62
     0
100
AcDbLine
 10
-255.6564731923536
 20
-646.2000000000025
 30
0.0
 11
246.2448084248499
 21
-311.6000000000004
 31
0.0
  0
LINE
  5
26CC
330
2BED
100
AcDbEntity
  8
0
 62
     0
100
AcDbLine
 10
241.7448471309636
 20
-311.6000000000004
 30
0.0
 11
295.6999999999935
 21
-275.6299899378482
 31
0.0
  0
LINE
  5
26CD
330
2BED
100
AcDbEntity
  8
0
 62
     0
100
AcDbLine
 10
-260.1564344862363
 20
-646.2000000000007
 30
0.0
 11
241.7448471309636
 21
-311.6000000000004
 31
0.0
  0
LINE
  5
26CE
330
2BED
100
AcDbEntity
  8
0
 62
     0
100
AcDbLine
 10
237.2448858370808
 20
-311.5999999999985
 30
0.0
 11
295.6999999999916
 21
-272.6300234024329
 31
0.0
  0
LINE
  5
26CF
330
2BED
100
AcDbEntity
  8
0
 62
     0
100
AcDbLine
 10
-264.6563957801227
 20
-646.2000000000007
 30
0.0
 11
237.2448858370808
 21
-311.5999999999985
 31
0.0
  0
LINE
  5
26D0
330
2BED
100
AcDbEntity
  8
0
 62
     0
100
AcDbLine
 10
232.7449245431926
 20
-311.6000000000004
 30
0.0
 11
295.6999999999935
 21
-269.6300568670176
 31
0.0
  0
LINE
  5
26D1
330
2BED
100
AcDbEntity
  8
0
 62
     0
100
AcDbLine
 10
-269.1563570740091
 20
-646.2000000000007
 30
0.0
 11
232.7449245431926
 21
-311.6000000000004
 31
0.0
  0
LINE
  5
26D2
330
2BED
100
AcDbEntity
  8
0
 62
     0
100
AcDbLine
 10
228.2449632493062
 20
-311.6000000000022
 30
0.0
 11
295.6999999999898
 21
-266.6300903316023
 31
0.0
  0
LINE
  5
26D3
330
2BED
100
AcDbEntity
  8
0
 62
     0
100
AcDbLine
 10
-273.6563183678955
 20
-646.2000000000025
 30
0.0
 11
228.2449632493062
 21
-311.6000000000022
 31
0.0
  0
LINE
  5
26D4
330
2BED
100
AcDbEntity
  8
0
 62
     0
100
AcDbLine
 10
223.7450019554217
 20
-311.6000000000004
 30
0.0
 11
295.6999999999935
 21
-263.6301237961852
 31
0.0
  0
LINE
  5
26D5
330
2BED
100
AcDbEntity
  8
0
 62
     0
100
AcDbLine
 10
-278.1562796617783
 20
-646.2000000000007
 30
0.0
 11
223.7450019554217
 21
-311.6000000000004
 31
0.0
  0
LINE
  5
26D6
330
2BED
100
AcDbEntity
  8
0
 62
     0
100
AcDbLine
 10
219.2450406615371
 20
-311.5999999999985
 30
0.0
 11
295.6999999999898
 21
-260.6301572607699
 31
0.0
  0
LINE
  5
26D7
330
2BED
100
AcDbEntity
  8
0
 62
     0
100
AcDbLine
 10
-282.6562409556664
 20
-646.2000000000007
 30
0.0
 11
219.2450406615371
 21
-311.5999999999985
 31
0.0
  0
LINE
  5
26D8
330
2BED
100
AcDbEntity
  8
0
 62
     0
100
AcDbLine
 10
214.7450793676526
 20
-311.6000000000004
 30
0.0
 11
295.6999999999935
 21
-257.6301907253528
 31
0.0
  0
LINE
  5
26D9
330
2BED
100
AcDbEntity
  8
0
 62
     0
100
AcDbLine
 10
-287.1562022495472
 20
-646.1999999999989
 30
0.0
 11
214.7450793676526
 21
-311.6000000000004
 31
0.0
  0
LINE
  5
26DA
330
2BED
100
AcDbEntity
  8
0
 62
     0
100
AcDbLine
 10
210.2451180737644
 20
-311.6000000000022
 30
0.0
 11
295.6999999999935
 21
-254.6302241899375
 31
0.0
  0
LINE
  5
26DB
330
2BED
100
AcDbEntity
  8
0
 62
     0
100
AcDbLine
 10
-291.6561635434356
 20
-646.2000000000007
 30
0.0
 11
210.2451180737644
 21
-311.6000000000022
 31
0.0
  0
LINE
  5
26DC
330
2BED
100
AcDbEntity
  8
0
 62
     0
100
AcDbLine
 10
205.7451567798817
 20
-311.6000000000004
 30
0.0
 11
295.6999999999935
 21
-251.6302576545204
 31
0.0
  0
LINE
  5
26DD
330
2BED
100
AcDbEntity
  8
0
 62
     0
100
AcDbLine
 10
-295.7000000000044
 20
-645.8959175516082
 30
0.0
 11
205.7451567798817
 21
-311.6000000000004
 31
0.0
  0
LINE
  5
26DE
330
2BED
100
AcDbEntity
  8
0
 62
     0
100
AcDbLine
 10
201.2451954859953
 20
-311.5999999999985
 30
0.0
 11
295.6999999999935
 21
-248.6302911191033
 31
0.0
  0
LINE
  5
26DF
330
2BED
100
AcDbEntity
  8
0
 62
     0
100
AcDbLine
 10
-295.7000000000044
 20
-642.8959510161896
 30
0.0
 11
201.2451954859953
 21
-311.5999999999985
 31
0.0
  0
LINE
  5
26E0
330
2BED
100
AcDbEntity
  8
0
 62
     0
100
AcDbLine
 10
196.7452341921107
 20
-311.5999999999985
 30
0.0
 11
295.6999999999916
 21
-245.630324583688
 31
0.0
  0
LINE
  5
26E1
330
2BED
100
AcDbEntity
  8
0
 62
     0
100
AcDbLine
 10
-295.7000000000044
 20
-639.8959844807741
 30
0.0
 11
196.7452341921088
 21
-311.6000000000004
 31
0.0
  0
LINE
  5
26E2
330
2BED
100
AcDbEntity
  8
0
 62
     0
100
AcDbLine
 10
192.2452728982224
 20
-311.6000000000022
 30
0.0
 11
295.6999999999935
 21
-242.6303580482727
 31
0.0
  0
LINE
  5
26E3
330
2BED
100
AcDbEntity
  8
0
 62
     0
100
AcDbLine
 10
-295.7000000000044
 20
-636.8960179453588
 30
0.0
 11
192.2452728982224
 21
-311.6000000000022
 31
0.0
  0
LINE
  5
26E4
330
2BED
100
AcDbEntity
  8
0
 62
     0
100
AcDbLine
 10
187.745311604338
 20
-311.6000000000004
 30
0.0
 11
295.6999999999916
 21
-239.6303915128573
 31
0.0
  0
LINE
  5
26E5
330
2BED
100
AcDbEntity
  8
0
 62
     0
100
AcDbLine
 10
-295.7000000000062
 20
-633.8960514099434
 30
0.0
 11
187.745311604338
 21
-311.6000000000004
 31
0.0
  0
LINE
  5
26E6
330
2BED
100
AcDbEntity
  8
0
 62
     0
100
AcDbLine
 10
183.2453503104516
 20
-311.6000000000004
 30
0.0
 11
295.6999999999916
 21
-236.6304249774385
 31
0.0
  0
LINE
  5
26E7
330
2BED
100
AcDbEntity
  8
0
 62
     0
100
AcDbLine
 10
-295.7000000000062
 20
-630.8960848745264
 30
0.0
 11
183.2453503104479
 21
-311.6000000000022
 31
0.0
  0
LINE
  5
26E8
330
2BED
100
AcDbEntity
  8
0
 62
     0
100
AcDbLine
 10
178.745389016567
 20
-311.5999999999985
 30
0.0
 11
295.6999999999916
 21
-233.6304584420231
 31
0.0
  0
LINE
  5
26E9
330
2BED
100
AcDbEntity
  8
0
 62
     0
100
AcDbLine
 10
-295.7000000000044
 20
-627.8961183391075
 30
0.0
 11
178.745389016567
 21
-311.5999999999985
 31
0.0
  0
LINE
  5
26EA
330
2BED
100
AcDbEntity
  8
0
 62
     0
100
AcDbLine
 10
174.2454277226807
 20
-311.6000000000004
 30
0.0
 11
295.6999999999935
 21
-230.630491906606
 31
0.0
  0
LINE
  5
26EB
330
2BED
100
AcDbEntity
  8
0
 62
     0
100
AcDbLine
 10
-295.7000000000044
 20
-624.8961518036939
 30
0.0
 11
174.2454277226807
 21
-311.6000000000004
 31
0.0
  0
LINE
  5
26EC
330
2BED
100
AcDbEntity
  8
0
 62
     0
100
AcDbLine
 10
169.7454664287961
 20
-311.6000000000004
 30
0.0
 11
295.6999999999916
 21
-227.6305253711925
 31
0.0
  0
LINE
  5
26ED
330
2BED
100
AcDbEntity
  8
0
 62
     0
100
AcDbLine
 10
-295.7000000000044
 20
-621.8961852682769
 30
0.0
 11
169.7454664287961
 21
-311.6000000000004
 31
0.0
  0
LINE
  5
26EE
330
2BED
100
AcDbEntity
  8
0
 62
     0
100
AcDbLine
 10
165.2455051349097
 20
-311.6000000000004
 30
0.0
 11
295.6999999999916
 21
-224.6305588357754
 31
0.0
  0
LINE
  5
26EF
330
2BED
100
AcDbEntity
  8
0
 62
     0
100
AcDbLine
 10
-295.7000000000062
 20
-618.8962187328614
 30
0.0
 11
165.2455051349097
 21
-311.6000000000004
 31
0.0
  0
LINE
  5
26F0
330
2BED
100
AcDbEntity
  8
0
 62
     0
100
AcDbLine
 10
160.7455438410252
 20
-311.6000000000004
 30
0.0
 11
295.6999999999935
 21
-221.6305923003565
 31
0.0
  0
LINE
  5
26F1
330
2BED
100
AcDbEntity
  8
0
 62
     0
100
AcDbLine
 10
-295.7000000000044
 20
-615.8962521974443
 30
0.0
 11
160.7455438410252
 21
-311.6000000000004
 31
0.0
  0
LINE
  5
26F2
330
2BED
100
AcDbEntity
  8
0
 62
     0
100
AcDbLine
 10
156.2455825471406
 20
-311.5999999999985
 30
0.0
 11
295.6999999999916
 21
-218.630625764943
 31
0.0
  0
LINE
  5
26F3
330
2BED
100
AcDbEntity
  8
0
 62
     0
100
AcDbLine
 10
-295.7000000000062
 20
-612.896285662029
 30
0.0
 11
156.2455825471406
 21
-311.5999999999985
 31
0.0
  0
LINE
  5
26F4
330
2BED
100
AcDbEntity
  8
0
 62
     0
100
AcDbLine
 10
151.7456212532541
 20
-311.6000000000004
 30
0.0
 11
295.6999999999916
 21
-215.6306592295258
 31
0.0
  0
LINE
  5
26F5
330
2BED
100
AcDbEntity
  8
0
 62
     0
100
AcDbLine
 10
-295.7000000000062
 20
-609.8963191266139
 30
0.0
 11
151.7456212532506
 21
-311.6000000000022
 31
0.0
  0
LINE
  5
26F6
330
2BED
100
AcDbEntity
  8
0
 62
     0
100
AcDbLine
 10
147.2456599593679
 20
-311.6000000000004
 30
0.0
 11
295.699999999988
 21
-212.6306926941124
 31
0.0
  0
LINE
  5
26F7
330
2BED
100
AcDbEntity
  8
0
 62
     0
100
AcDbLine
 10
-295.7000000000025
 20
-606.8963525911949
 30
0.0
 11
147.2456599593679
 21
-311.6000000000004
 31
0.0
  0
LINE
  5
26F8
330
2BED
100
AcDbEntity
  8
0
 62
     0
100
AcDbLine
 10
142.7456986654815
 20
-311.6000000000004
 30
0.0
 11
295.6999999999898
 21
-209.6307261586953
 31
0.0
  0
LINE
  5
26F9
330
2BED
100
AcDbEntity
  8
0
 62
     0
100
AcDbLine
 10
-295.7000000000062
 20
-603.8963860557795
 30
0.0
 11
142.7456986654815
 21
-311.6000000000004
 31
0.0
  0
LINE
  5
26FA
330
2BED
100
AcDbEntity
  8
0
 62
     0
100
AcDbLine
 10
138.2457373715988
 20
-311.6000000000004
 30
0.0
 11
295.699999999988
 21
-206.63075962328
 31
0.0
  0
LINE
  5
26FB
330
2BED
100
AcDbEntity
  8
0
 62
     0
100
AcDbLine
 10
-295.7000000000025
 20
-600.8964195203644
 30
0.0
 11
138.2457373715988
 21
-311.6000000000004
 31
0.0
  0
LINE
  5
26FC
330
2BED
100
AcDbEntity
  8
0
 62
     0
100
AcDbLine
 10
133.7457760777124
 20
-311.6000000000004
 30
0.0
 11
295.6999999999898
 21
-203.6307930878647
 31
0.0
  0
LINE
  5
26FD
330
2BED
100
AcDbEntity
  8
0
 62
     0
100
AcDbLine
 10
-295.7000000000062
 20
-597.896452984949
 30
0.0
 11
133.7457760777088
 21
-311.6000000000022
 31
0.0
  0
LINE
  5
26FE
330
2BED
100
AcDbEntity
  8
0
 62
     0
100
AcDbLine
 10
129.245814783826
 20
-311.6000000000004
 30
0.0
 11
295.699999999988
 21
-200.6308265524495
 31
0.0
  0
LINE
  5
26FF
330
2BED
100
AcDbEntity
  8
0
 62
     0
100
AcDbLine
 10
-295.7000000000025
 20
-594.896486449532
 30
0.0
 11
129.245814783826
 21
-311.6000000000004
 31
0.0
  0
LINE
  5
2700
330
2BED
100
AcDbEntity
  8
0
 62
     0
100
AcDbLine
 10
124.7458534899397
 20
-311.6000000000004
 30
0.0
 11
295.6999999999898
 21
-197.6308600170305
 31
0.0
  0
LINE
  5
2701
330
2BED
100
AcDbEntity
  8
0
 62
     0
100
AcDbLine
 10
-295.7000000000062
 20
-591.8965199141147
 30
0.0
 11
124.7458534899397
 21
-311.6000000000004
 31
0.0
  0
LINE
  5
2702
330
2BED
100
AcDbEntity
  8
0
 62
     0
100
AcDbLine
 10
120.2458921960551
 20
-311.5999999999985
 30
0.0
 11
295.6999999999898
 21
-194.6308934816134
 31
0.0
  0
LINE
  5
2703
330
2BED
100
AcDbEntity
  8
0
 62
     0
100
AcDbLine
 10
-295.7000000000044
 20
-588.8965533786977
 30
0.0
 11
120.2458921960515
 21
-311.6000000000004
 31
0.0
  0
LINE
  5
2704
330
2BED
100
AcDbEntity
  8
0
 62
     0
100
AcDbLine
 10
115.7459309021669
 20
-311.6000000000022
 30
0.0
 11
295.6999999999898
 21
-191.6309269461981
 31
0.0
  0
LINE
  5
2705
330
2BED
100
AcDbEntity
  8
0
 62
     0
100
AcDbLine
 10
-295.7000000000025
 20
-585.8965868432824
 30
0.0
 11
115.7459309021669
 21
-311.6000000000022
 31
0.0
  0
LINE
  5
2706
330
2BED
100
AcDbEntity
  8
0
 62
     0
100
AcDbLine
 10
111.2459696082824
 20
-311.6000000000004
 30
0.0
 11
295.6999999999898
 21
-188.6309604107828
 31
0.0
  0
LINE
  5
2707
330
2BED
100
AcDbEntity
  8
0
 62
     0
100
AcDbLine
 10
-295.7000000000044
 20
-582.8966203078671
 30
0.0
 11
111.2459696082824
 21
-311.6000000000004
 31
0.0
  0
LINE
  5
2708
330
2BED
100
AcDbEntity
  8
0
 62
     0
100
AcDbLine
 10
106.7460083143978
 20
-311.6000000000004
 30
0.0
 11
295.6999999999898
 21
-185.6309938753657
 31
0.0
  0
LINE
  5
2709
330
2BED
100
AcDbEntity
  8
0
 62
     0
100
AcDbLine
 10
-295.7000000000062
 20
-579.8966537724518
 30
0.0
 11
106.7460083143978
 21
-311.6000000000004
 31
0.0
  0
LINE
  5
270A
330
2BED
100
AcDbEntity
  8
0
 62
     0
100
AcDbLine
 10
102.2460470205133
 20
-311.5999999999985
 30
0.0
 11
295.6999999999898
 21
-182.6310273399485
 31
0.0
  0
LINE
  5
270B
330
2BED
100
AcDbEntity
  8
0
 62
     0
100
AcDbLine
 10
-295.7000000000044
 20
-576.8966872370327
 30
0.0
 11
102.2460470205096
 21
-311.6000000000004
 31
0.0
  0
LINE
  5
270C
330
2BED
100
AcDbEntity
  8
0
 62
     0
100
AcDbLine
 10
97.74608572662872
 20
-311.6000000000004
 30
0.0
 11
295.6999999999898
 21
-179.6310608045351
 31
0.0
  0
LINE
  5
270D
330
2BED
100
AcDbEntity
  8
0
 62
     0
100
AcDbLine
 10
-295.7000000000025
 20
-573.8967207016177
 30
0.0
 11
97.74608572662872
 21
-311.6000000000004
 31
0.0
  0
LINE
  5
270E
330
2BED
100
AcDbEntity
  8
0
 62
     0
100
AcDbLine
 10
93.24612443274055
 20
-311.6000000000022
 30
0.0
 11
295.6999999999898
 21
-176.6310942691179
 31
0.0
  0
LINE
  5
270F
330
2BED
100
AcDbEntity
  8
0
 62
     0
100
AcDbLine
 10
-295.7000000000044
 20
-570.896754166204
 30
0.0
 11
93.24612443274055
 21
-311.6000000000022
 31
0.0
  0
LINE
  5
2710
330
2BED
100
AcDbEntity
  8
0
 62
     0
100
AcDbLine
 10
88.7461631388578
 20
-311.5999999999985
 30
0.0
 11
295.6999999999898
 21
-173.6311277337008
 31
0.0
  0
LINE
  5
2711
330
2BED
100
AcDbEntity
  8
0
 62
     0
100
AcDbLine
 10
-295.7000000000044
 20
-567.8967876307852
 30
0.0
 11
88.74616313885415
 21
-311.6000000000004
 31
0.0
  0
LINE
  5
2712
330
2BED
100
AcDbEntity
  8
0
 62
     0
100
AcDbLine
 10
84.24620184496779
 20
-311.6000000000004
 30
0.0
 11
295.6999999999898
 21
-170.6311611982837
 31
0.0
  0
LINE
  5
2713
330
2BED
100
AcDbEntity
  8
0
 62
     0
100
AcDbLine
 10
-295.7000000000044
 20
-564.8968210953698
 30
0.0
 11
84.24620184496779
 21
-311.6000000000004
 31
0.0
  0
LINE
  5
2714
330
2BED
100
AcDbEntity
  8
0
 62
     0
100
AcDbLine
 10
79.899999999996
 20
-311.4974939624772
 30
0.0
 11
295.699999999988
 21
-167.6311946628701
 31
0.0
  0
LINE
  5
2715
330
2BED
100
AcDbEntity
  8
0
 62
     0
100
AcDbLine
 10
-295.7000000000044
 20
-561.8968545599527
 30
0.0
 11
79.89999999998691
 21
-311.4974939624844
 31
0.0
  0
LINE
  5
2716
330
2BED
100
AcDbEntity
  8
0
 62
     0
100
AcDbLine
 10
79.89999999999419
 20
-308.4975274270637
 30
0.0
 11
295.699999999988
 21
-164.6312281274549
 31
0.0
  0
LINE
  5
2717
330
2BED
100
AcDbEntity
  8
0
 62
     0
100
AcDbLine
 10
-295.700000000008
 20
-558.8968880245393
 30
0.0
 11
79.89999999998872
 21
-308.4975274270673
 31
0.0
  0
LINE
  5
2718
330
2BED
100
AcDbEntity
  8
0
 62
     0
100
AcDbLine
 10
79.899999999996
 20
-305.4975608916466
 30
0.0
 11
295.6999999999898
 21
-161.631261592036
 31
0.0
  0
LINE
  5
2719
330
2BED
100
AcDbEntity
  8
0
 62
     0
100
AcDbLine
 10
-295.7000000000044
 20
-555.896921489122
 30
0.0
 11
79.89999999999056
 21
-305.4975608916502
 31
0.0
  0
LINE
  5
271A
330
2BED
100
AcDbEntity
  8
0
 62
     0
100
AcDbLine
 10
79.899999999996
 20
-302.4975943562294
 30
0.0
 11
295.6999999999898
 21
-158.6312950566207
 31
0.0
  0
LINE
  5
271B
330
2BED
100
AcDbEntity
  8
0
 62
     0
100
AcDbLine
 10
-295.7000000000025
 20
-552.8969549537031
 30
0.0
 11
79.89999999999056
 21
-302.4975943562349
 31
0.0
  0
LINE
  5
271C
330
2BED
100
AcDbEntity
  8
0
 62
     0
100
AcDbLine
 10
79.899999999996
 20
-299.4976278208124
 30
0.0
 11
295.6999999999898
 21
-155.6313285212018
 31
0.0
  0
LINE
  5
271D
330
2BED
100
AcDbEntity
  8
0
 62
     0
100
AcDbLine
 10
-295.7000000000044
 20
-549.8969884182879
 30
0.0
 11
79.89999999999056
 21
-299.497627820816
 31
0.0
  0
LINE
  5
271E
330
2BED
100
AcDbEntity
  8
0
 62
     0
100
AcDbLine
 10
79.8999999999978
 20
-296.4976612853952
 30
0.0
 11
295.699999999988
 21
-152.6313619857883
 31
0.0
  0
LINE
  5
271F
330
2BED
100
AcDbEntity
  8
0
 62
     0
100
AcDbLine
 10
-295.7000000000044
 20
-546.8970218828708
 30
0.0
 11
79.89999999998872
 21
-296.4976612854025
 31
0.0
  0
LINE
  5
2720
330
2BED
100
AcDbEntity
  8
0
 62
     0
100
AcDbLine
 10
79.899999999996
 20
-293.4976947499817
 30
0.0
 11
295.6999999999898
 21
-149.631395450373
 31
0.0
  0
LINE
  5
2721
330
2BED
100
AcDbEntity
  8
0
 62
     0
100
AcDbLine
 10
-295.7000000000044
 20
-543.8970553474574
 30
0.0
 11
79.89999999999056
 21
-293.4976947499854
 31
0.0
  0
LINE
  5
2722
330
2BED
100
AcDbEntity
  8
0
 62
     0
100
AcDbLine
 10
79.8999999999978
 20
-290.4977282145646
 30
0.0
 11
295.699999999988
 21
-146.6314289149559
 31
0.0
  0
LINE
  5
2723
330
2BED
100
AcDbEntity
  8
0
 62
     0
100
AcDbLine
 10
-295.7000000000044
 20
-540.8970888120383
 30
0.0
 11
79.89999999998872
 21
-290.49772821457
 31
0.0
  0
LINE
  5
2724
330
2BED
100
AcDbEntity
  8
0
 62
     0
100
AcDbLine
 10
79.89999999999419
 20
-287.4977616791475
 30
0.0
 11
295.699999999988
 21
-143.6314623795388
 31
0.0
  0
LINE
  5
2725
330
2BED
100
AcDbEntity
  8
0
 62
     0
100
AcDbLine
 10
-295.7000000000062
 20
-537.8971222766231
 30
0.0
 11
79.89999999998872
 21
-287.497761679153
 31
0.0
  0
LINE
  5
2726
330
2BED
100
AcDbEntity
  8
0
 62
     0
100
AcDbLine
 10
79.8999999999978
 20
-284.4977951437323
 30
0.0
 11
295.699999999988
 21
-140.6314958441235
 31
0.0
  0
LINE
  5
2727
330
2BED
100
AcDbEntity
  8
0
 62
     0
100
AcDbLine
 10
-295.7000000000044
 20
-534.8971557412077
 30
0.0
 11
79.89999999999056
 21
-284.4977951437359
 31
0.0
  0
LINE
  5
2728
330
2BED
100
AcDbEntity
  8
0
 62
     0
100
AcDbLine
 10
79.89999999999419
 20
-281.4978286083187
 30
0.0
 11
295.699999999988
 21
-137.6315293087082
 31
0.0
  0
LINE
  5
2729
330
2BED
100
AcDbEntity
  8
0
 62
     0
100
AcDbLine
 10
-295.7000000000062
 20
-531.8971892057922
 30
0.0
 11
79.89999999998872
 21
-281.4978286083224
 31
0.0
  0
LINE
  5
272A
330
2BED
100
AcDbEntity
  8
0
 62
     0
100
AcDbLine
 10
79.8999999999978
 20
-278.4978620728998
 30
0.0
 11
295.699999999988
 21
-134.6315627732929
 31
0.0
  0
LINE
  5
272B
330
2BED
100
AcDbEntity
  8
0
 62
     0
100
AcDbLine
 10
-295.7000000000044
 20
-528.8972226703754
 30
0.0
 11
79.89999999999056
 21
-278.4978620729035
 31
0.0
  0
LINE
  5
272C
330
2BED
100
AcDbEntity
  8
0
 62
     0
100
AcDbLine
 10
79.89999999999419
 20
-275.4978955374844
 30
0.0
 11
295.699999999988
 21
-131.6315962378739
 31
0.0
  0
LINE
  5
272D
330
2BED
100
AcDbEntity
  8
0
 62
     0
100
AcDbLine
 10
-295.7000000000062
 20
-525.8972561349601
 30
0.0
 11
79.89999999998872
 21
-275.4978955374881
 31
0.0
  0
LINE
  5
272E
330
2BED
100
AcDbEntity
  8
0
 62
     0
100
AcDbLine
 10
79.8999999999978
 20
-272.4979290020674
 30
0.0
 11
295.6999999999898
 21
-128.6316297024586
 31
0.0
  0
LINE
  5
272F
330
2BED
100
AcDbEntity
  8
0
 62
     0
100
AcDbLine
 10
-295.7000000000044
 20
-522.897289599543
 30
0.0
 11
79.89999999999056
 21
-272.497929002071
 31
0.0
  0
LINE
  5
2730
330
2BED
100
AcDbEntity
  8
0
 62
     0
100
AcDbLine
 10
79.89999999999419
 20
-269.4979624666539
 30
0.0
 11
295.699999999988
 21
-125.6316631670433
 31
0.0
  0
LINE
  5
2731
330
2BED
100
AcDbEntity
  8
0
 62
     0
100
AcDbLine
 10
-295.7000000000044
 20
-519.8973230641277
 30
0.0
 11
79.89999999998872
 21
-269.4979624666576
 31
0.0
  0
LINE
  5
2732
330
2BED
100
AcDbEntity
  8
0
 62
     0
100
AcDbLine
 10
79.899999999996
 20
-266.497995931235
 30
0.0
 11
295.699999999988
 21
-122.6316966316262
 31
0.0
  0
LINE
  5
2733
330
2BED
100
AcDbEntity
  8
0
 62
     0
100
AcDbLine
 10
-295.7000000000062
 20
-516.8973565287106
 30
0.0
 11
79.89999999998872
 21
-266.4979959312404
 31
0.0
  0
LINE
  5
2734
330
2BED
100
AcDbEntity
  8
0
 62
     0
100
AcDbLine
 10
79.8999999999978
 20
-263.4980293958179
 30
0.0
 11
295.699999999988
 21
-119.6317300962109
 31
0.0
  0
LINE
  5
2735
330
2BED
100
AcDbEntity
  8
0
 62
     0
100
AcDbLine
 10
-295.7000000000044
 20
-513.8973899932932
 30
0.0
 11
79.89999999999236
 21
-263.4980293958215
 31
0.0
  0
LINE
  5
2736
330
2BED
100
AcDbEntity
  8
0
 62
     0
100
AcDbLine
 10
79.89999999999419
 20
-260.4980628604044
 30
0.0
 11
293.9476408664851
 21
-117.8000000000011
 31
0.0
  0
LINE
  5
2737
330
2BED
100
AcDbEntity
  8
0
 62
     0
100
AcDbLine
 10
-295.7000000000062
 20
-510.8974234578799
 30
0.0
 11
79.89999999998872
 21
-260.498062860408
 31
0.0
  0
LINE
  5
2738
330
2BED
100
AcDbEntity
  8
0
 62
     0
100
AcDbLine
 10
79.89999999999236
 20
-257.4980963249873
 30
0.0
 11
289.4476795725987
 21
-117.8000000000011
 31
0.0
  0
LINE
  5
2739
330
2BED
100
AcDbEntity
  8
0
 62
     0
100
AcDbLine
 10
-295.7000000000062
 20
-507.8974569224611
 30
0.0
 11
79.89999999998872
 21
-257.4980963249891
 31
0.0
  0
LINE
  5
273A
330
2BED
100
AcDbEntity
  8
0
 62
     0
100
AcDbLine
 10
79.89999999999419
 20
-254.498129789572
 30
0.0
 11
284.9477182787122
 21
-117.8000000000029
 31
0.0
  0
LINE
  5
273B
330
2BED
100
AcDbEntity
  8
0
 62
     0
100
AcDbLine
 10
-295.7000000000062
 20
-504.8974903870475
 30
0.0
 11
79.89999999998872
 21
-254.4981297895756
 31
0.0
  0
LINE
  5
273C
330
2BED
100
AcDbEntity
  8
0
 62
     0
100
AcDbLine
 10
79.89999999999419
 20
-251.4981632541567
 30
0.0
 11
280.4477569848314
 21
-117.8000000000011
 31
0.0
  0
LINE
  5
273D
330
2BED
100
AcDbEntity
  8
0
 62
     0
100
AcDbLine
 10
-295.7000000000044
 20
-501.8975238516286
 30
0.0
 11
79.89999999999056
 21
-251.4981632541585
 31
0.0
  0
LINE
  5
273E
330
2BED
100
AcDbEntity
  8
0
 62
     0
100
AcDbLine
 10
79.89999999999419
 20
-248.4981967187378
 30
0.0
 11
275.9477956909432
 21
-117.8000000000011
 31
0.0
  0
LINE
  5
273F
330
2BED
100
AcDbEntity
  8
0
 62
     0
100
AcDbLine
 10
-295.7000000000025
 20
-498.8975573162115
 30
0.0
 11
79.89999999998872
 21
-248.4981967187414
 31
0.0
  0
LINE
  5
2740
330
2BED
100
AcDbEntity
  8
0
 62
     0
100
AcDbLine
 10
79.89999999999236
 20
-245.4982301833243
 30
0.0
 11
271.4478343970568
 21
-117.8000000000011
 31
0.0
  0
LINE
  5
2741
330
2BED
100
AcDbEntity
  8
0
 62
     0
100
AcDbLine
 10
-295.7000000000062
 20
-495.897590780796
 30
0.0
 11
79.89999999998872
 21
-245.4982301833261
 31
0.0
  0
LINE
  5
2742
330
2BED
100
AcDbEntity
  8
0
 62
     0
100
AcDbLine
 10
79.89999999999419
 20
-242.4982636479072
 30
0.0
 11
266.9478731031741
 21
-117.8000000000011
 31
0.0
  0
LINE
  5
2743
330
2BED
100
AcDbEntity
  8
0
 62
     0
100
AcDbLine
 10
-295.7000000000025
 20
-492.8976242453807
 30
0.0
 11
79.89999999999236
 21
-242.498263647909
 31
0.0
  0
LINE
  5
2744
330
2BED
100
AcDbEntity
  8
0
 62
     0
100
AcDbLine
 10
79.89999999999236
 20
-239.4982971124918
 30
0.0
 11
262.447911809284
 21
-117.8000000000029
 31
0.0
  0
LINE
  5
2745
330
2BED
100
AcDbEntity
  8
0
 62
     0
100
AcDbLine
 10
-295.7000000000062
 20
-489.8976577099656
 30
0.0
 11
79.89999999998872
 21
-239.4982971124937
 31
0.0
  0
LINE
  5
2746
330
2BED
100
AcDbEntity
  8
0
 62
     0
100
AcDbLine
 10
79.89999999999236
 20
-236.4983305770729
 30
0.0
 11
257.9479505153995
 21
-117.8000000000011
 31
0.0
  0
LINE
  5
2747
330
2BED
100
AcDbEntity
  8
0
 62
     0
100
AcDbLine
 10
-295.7000000000044
 20
-486.8976911745467
 30
0.0
 11
79.89999999998691
 21
-236.4983305770784
 31
0.0
  0
LINE
  5
2748
330
2BED
100
AcDbEntity
  8
0
 62
     0
100
AcDbLine
 10
79.89999999999236
 20
-233.4983640416595
 30
0.0
 11
253.4479892215149
 21
-117.8000000000029
 31
0.0
  0
LINE
  5
2749
330
2BED
100
AcDbEntity
  8
0
 62
     0
100
AcDbLine
 10
-295.7000000000062
 20
-483.8977246391332
 30
0.0
 11
79.89999999998872
 21
-233.4983640416613
 31
0.0
  0
LINE
  5
274A
330
2BED
100
AcDbEntity
  8
0
 62
     0
100
AcDbLine
 10
79.89999999999236
 20
-230.4983975062441
 30
0.0
 11
248.9480279276304
 21
-117.8000000000011
 31
0.0
  0
LINE
  5
274B
330
2BED
100
AcDbEntity
  8
0
 62
     0
100
AcDbLine
 10
-295.7000000000044
 20
-480.8977581037161
 30
0.0
 11
79.89999999999056
 21
-230.498397506246
 31
0.0
  0
LINE
  5
274C
330
2BED
100
AcDbEntity
  8
0
 62
     0
100
AcDbLine
 10
79.899999999996
 20
-227.4984309708252
 30
0.0
 11
244.4480666337422
 21
-117.8000000000029
 31
0.0
  0
LINE
  5
274D
330
2BED
100
AcDbEntity
  8
0
 62
     0
100
AcDbLine
 10
-295.7000000000062
 20
-477.8977915683007
 30
0.0
 11
79.89999999998872
 21
-227.4984309708289
 31
0.0
  0
LINE
  5
274E
330
2BED
100
AcDbEntity
  8
0
 62
     0
100
AcDbLine
 10
79.89999999999236
 20
-224.4984644354099
 30
0.0
 11
239.9481053398576
 21
-117.8000000000011
 31
0.0
  0
LINE
  5
274F
330
2BED
100
AcDbEntity
  8
0
 62
     0
100
AcDbLine
 10
-295.7000000000044
 20
-474.8978250328836
 30
0.0
 11
79.89999999999056
 21
-224.4984644354117
 31
0.0
  0
LINE
  5
2750
330
2BED
100
AcDbEntity
  8
0
 62
     0
100
AcDbLine
 10
79.899999999996
 20
-221.4984978999928
 30
0.0
 11
235.4481440459731
 21
-117.8000000000029
 31
0.0
  0
LINE
  5
2751
330
2BED
100
AcDbEntity
  8
0
 62
     0
100
AcDbLine
 10
-295.7000000000062
 20
-471.8978584974681
 30
0.0
 11
79.89999999999236
 21
-221.4984978999964
 31
0.0
  0
LINE
  5
2752
330
2BED
100
AcDbEntity
  8
0
 62
     0
100
AcDbLine
 10
79.89999999999236
 20
-218.4985313645775
 30
0.0
 11
230.9481827520885
 21
-117.8000000000011
 31
0.0
  0
LINE
  5
2753
330
2BED
100
AcDbEntity
  8
0
 62
     0
100
AcDbLine
 10
-295.7000000000044
 20
-468.8978919620511
 30
0.0
 11
79.89999999999056
 21
-218.4985313645793
 31
0.0
  0
LINE
  5
2754
330
2BED
100
AcDbEntity
  8
0
 62
     0
100
AcDbLine
 10
79.89999999999419
 20
-215.4985648291622
 30
0.0
 11
226.4482214582022
 21
-117.8000000000011
 31
0.0
  0
LINE
  5
2755
330
2BED
100
AcDbEntity
  8
0
 62
     0
100
AcDbLine
 10
-295.7000000000044
 20
-465.8979254266338
 30
0.0
 11
79.89999999999056
 21
-215.498564829164
 31
0.0
  0
LINE
  5
2756
330
2BED
100
AcDbEntity
  8
0
 62
     0
100
AcDbLine
 10
79.89999999999236
 20
-212.4985982937451
 30
0.0
 11
221.9482601643158
 21
-117.8000000000011
 31
0.0
  0
LINE
  5
2757
330
2BED
100
AcDbEntity
  8
0
 62
     0
100
AcDbLine
 10
-295.7000000000044
 20
-462.8979588912188
 30
0.0
 11
79.89999999999236
 21
-212.4985982937451
 31
0.0
  0
LINE
  5
2758
330
2BED
100
AcDbEntity
  8
0
 62
     0
100
AcDbLine
 10
79.89999999999419
 20
-209.498631758328
 30
0.0
 11
217.4482988704331
 21
-117.7999999999993
 31
0.0
  0
LINE
  5
2759
330
2BED
100
AcDbEntity
  8
0
 62
     0
100
AcDbLine
 10
-295.7000000000044
 20
-459.8979923558017
 30
0.0
 11
79.89999999999419
 21
-209.498631758328
 31
0.0
  0
LINE
  5
275A
330
2BED
100
AcDbEntity
  8
0
 62
     0
100
AcDbLine
 10
79.89999999999236
 20
-206.4986652229127
 30
0.0
 11
212.9483375765448
 21
-117.8000000000029
 31
0.0
  0
LINE
  5
275B
330
2BED
100
AcDbEntity
  8
0
 62
     0
100
AcDbLine
 10
-295.7000000000044
 20
-456.8980258203863
 30
0.0
 11
79.89999999999236
 21
-206.4986652229127
 31
0.0
  0
LINE
  5
275C
330
2BED
100
AcDbEntity
  8
0
 62
     0
100
AcDbLine
 10
79.89999999999419
 20
-203.4986986874974
 30
0.0
 11
208.4483762826603
 21
-117.8000000000029
 31
0.0
  0
LINE
  5
275D
330
2BED
100
AcDbEntity
  8
0
 62
     0
100
AcDbLine
 10
-295.7000000000044
 20
-453.8980592849712
 30
0.0
 11
79.89999999999419
 21
-203.4986986874974
 31
0.0
  0
LINE
  5
275E
330
2BED
100
AcDbEntity
  8
0
 62
     0
100
AcDbLine
 10
79.89999999999236
 20
-200.4987321520821
 30
0.0
 11
203.9484149887739
 21
-117.8000000000011
 31
0.0
  0
LINE
  5
275F
330
2BED
100
AcDbEntity
  8
0
 62
     0
100
AcDbLine
 10
-295.7000000000044
 20
-450.8980927495541
 30
0.0
 11
79.89999999999236
 21
-200.4987321520821
 31
0.0
  0
LINE
  5
2760
330
2BED
100
AcDbEntity
  8
0
 62
     0
100
AcDbLine
 10
79.89999999999419
 20
-197.4987656166631
 30
0.0
 11
199.4484536948912
 21
-117.7999999999993
 31
0.0
  0
LINE
  5
2761
330
2BED
100
AcDbEntity
  8
0
 62
     0
100
AcDbLine
 10
-295.7000000000044
 20
-447.8981262141369
 30
0.0
 11
79.89999999999419
 21
-197.4987656166631
 31
0.0
  0
LINE
  5
2762
330
2BED
100
AcDbEntity
  8
0
 62
     0
100
AcDbLine
 10
79.89999999999419
 20
-194.4987990812478
 30
0.0
 11
194.9484924010012
 21
-117.8000000000029
 31
0.0
  0
LINE
  5
2763
330
2BED
100
AcDbEntity
  8
0
 62
     0
100
AcDbLine
 10
-295.7000000000062
 20
-444.8981596787232
 30
0.0
 11
79.89999999999419
 21
-194.4987990812478
 31
0.0
  0
LINE
  5
2764
330
2BED
100
AcDbEntity
  8
0
 62
     0
100
AcDbLine
 10
79.89999999999419
 20
-191.4988325458324
 30
0.0
 11
190.4485311071185
 21
-117.8000000000029
 31
0.0
  0
LINE
  5
2765
330
2BED
100
AcDbEntity
  8
0
 62
     0
100
AcDbLine
 10
-295.7000000000044
 20
-441.898193143306
 30
0.0
 11
79.89999999999419
 21
-191.4988325458324
 31
0.0
  0
LINE
  5
2766
330
2BED
100
AcDbEntity
  8
0
 62
     0
100
AcDbLine
 10
79.89999999999419
 20
-188.4988660104154
 30
0.0
 11
185.9485698132303
 21
-117.8000000000029
 31
0.0
  0
LINE
  5
2767
330
2BED
100
AcDbEntity
  8
0
 62
     0
100
AcDbLine
 10
-295.700000000008
 20
-438.8982266078907
 30
0.0
 11
79.89999999999419
 21
-188.4988660104154
 31
0.0
  0
LINE
  5
2768
330
2BED
100
AcDbEntity
  8
0
 62
     0
100
AcDbLine
 10
79.89999999999236
 20
-185.4988994750001
 30
0.0
 11
181.4486085193474
 21
-117.7999999999993
 31
0.0
  0
LINE
  5
2769
330
2BED
100
AcDbEntity
  8
0
 62
     0
100
AcDbLine
 10
-295.7000000000062
 20
-435.8982600724719
 30
0.0
 11
79.89999999999236
 21
-185.4988994750001
 31
0.0
  0
LINE
  5
276A
330
2BED
100
AcDbEntity
  8
0
 62
     0
100
AcDbLine
 10
79.89999999999419
 20
-182.498932939583
 30
0.0
 11
176.9486472254593
 21
-117.8000000000029
 31
0.0
  0
LINE
  5
276B
330
2BED
100
AcDbEntity
  8
0
 62
     0
100
AcDbLine
 10
-295.7000000000044
 20
-432.8982935370568
 30
0.0
 11
79.89999999999419
 21
-182.498932939583
 31
0.0
  0
LINE
  5
276C
330
2BED
100
AcDbEntity
  8
0
 62
     0
100
AcDbLine
 10
79.89999999999419
 20
-179.4989664041676
 30
0.0
 11
172.4486859315765
 21
-117.8000000000011
 31
0.0
  0
LINE
  5
276D
330
2BED
100
AcDbEntity
  8
0
 62
     0
100
AcDbLine
 10
-295.7000000000044
 20
-429.8983270016414
 30
0.0
 11
79.89999999999419
 21
-179.4989664041676
 31
0.0
  0
LINE
  5
276E
330
2BED
100
AcDbEntity
  8
0
 62
     0
100
AcDbLine
 10
79.89999999999419
 20
-176.4989998687506
 30
0.0
 11
167.9487246376884
 21
-117.8000000000029
 31
0.0
  0
LINE
  5
276F
330
2BED
100
AcDbEntity
  8
0
 62
     0
100
AcDbLine
 10
-295.7000000000044
 20
-426.8983604662242
 30
0.0
 11
79.89999999999419
 21
-176.4989998687506
 31
0.0
  0
LINE
  5
2770
330
2BED
100
AcDbEntity
  8
0
 62
     0
100
AcDbLine
 10
79.89999999999236
 20
-173.4990333333352
 30
0.0
 11
163.448763343802
 21
-117.8000000000029
 31
0.0
  0
LINE
  5
2771
330
2BED
100
AcDbEntity
  8
0
 62
     0
100
AcDbLine
 10
-295.7000000000062
 20
-423.8983939308091
 30
0.0
 11
79.89999999999236
 21
-173.4990333333352
 31
0.0
  0
LINE
  5
2772
330
2BED
100
AcDbEntity
  8
0
 62
     0
100
AcDbLine
 10
79.89999999999419
 20
-170.4990667979181
 30
0.0
 11
158.9488020499193
 21
-117.7999999999993
 31
0.0
  0
LINE
  5
2773
330
2BED
100
AcDbEntity
  8
0
 62
     0
100
AcDbLine
 10
-295.7000000000044
 20
-420.8984273953901
 30
0.0
 11
79.89999999999419
 21
-170.4990667979181
 31
0.0
  0
LINE
  5
2774
330
2BED
100
AcDbEntity
  8
0
 62
     0
100
AcDbLine
 10
79.89999999999419
 20
-167.4991002625011
 30
0.0
 11
154.4488407560328
 21
-117.8000000000011
 31
0.0
  0
LINE
  5
2775
330
2BED
100
AcDbEntity
  8
0
 62
     0
100
AcDbLine
 10
-295.7000000000062
 20
-417.8984608599765
 30
0.0
 11
79.89999999999236
 21
-167.4991002625029
 31
0.0
  0
LINE
  5
2776
330
2BED
100
AcDbEntity
  8
0
 62
     0
100
AcDbLine
 10
79.89999999999236
 20
-164.4991337270876
 30
0.0
 11
149.9488794621484
 21
-117.8000000000011
 31
0.0
  0
LINE
  5
2777
330
2BED
100
AcDbEntity
  8
0
 62
     0
100
AcDbLine
 10
-295.7000000000062
 20
-414.8984943245611
 30
0.0
 11
79.89999999998872
 21
-164.4991337270894
 31
0.0
  0
LINE
  5
2778
330
2BED
100
AcDbEntity
  8
0
 62
     0
100
AcDbLine
 10
79.89999999999419
 20
-161.4991671916687
 30
0.0
 11
145.4489181682602
 21
-117.8000000000029
 31
0.0
  0
LINE
  5
2779
330
2BED
100
AcDbEntity
  8
0
 62
     0
100
AcDbLine
 10
-295.7000000000044
 20
-411.8985277891423
 30
0.0
 11
79.89999999999236
 21
-161.4991671916705
 31
0.0
  0
LINE
  5
277A
330
2BED
100
AcDbEntity
  8
0
 62
     0
100
AcDbLine
 10
79.89999999999236
 20
-158.4992006562534
 30
0.0
 11
140.9489568743756
 21
-117.8000000000011
 31
0.0
  0
LINE
  5
277B
330
2BED
100
AcDbEntity
  8
0
 62
     0
100
AcDbLine
 10
-295.7000000000062
 20
-408.898561253727
 30
0.0
 11
79.89999999998872
 21
-158.4992006562552
 31
0.0
  0
LINE
  5
277C
330
2BED
100
AcDbEntity
  8
0
 62
     0
100
AcDbLine
 10
79.89999999999419
 20
-155.4992341208381
 30
0.0
 11
136.4489955804911
 21
-117.8000000000011
 31
0.0
  0
LINE
  5
277D
330
2BED
100
AcDbEntity
  8
0
 62
     0
100
AcDbLine
 10
-295.7000000000044
 20
-405.8985947183098
 30
0.0
 11
79.89999999999236
 21
-155.4992341208399
 31
0.0
  0
LINE
  5
277E
330
2BED
100
AcDbEntity
  8
0
 62
     0
100
AcDbLine
 10
79.89999999999236
 20
-152.4992675854227
 30
0.0
 11
131.9490342866065
 21
-117.8000000000011
 31
0.0
  0
LINE
  5
277F
330
2BED
100
AcDbEntity
  8
0
 62
     0
100
AcDbLine
 10
-295.7000000000062
 20
-402.8986281828966
 30
0.0
 11
79.89999999998872
 21
-152.4992675854246
 31
0.0
  0
LINE
  5
2780
330
2BED
100
AcDbEntity
  8
0
 62
     0
100
AcDbLine
 10
79.89999999999419
 20
-149.4993010500057
 30
0.0
 11
127.4490729927183
 21
-117.8000000000029
 31
0.0
  0
LINE
  5
2781
330
2BED
100
AcDbEntity
  8
0
 62
     0
100
AcDbLine
 10
-295.7000000000044
 20
-399.8986616474777
 30
0.0
 11
79.89999999999236
 21
-149.4993010500075
 31
0.0
  0
LINE
  5
2782
330
2BED
100
AcDbEntity
  8
0
 62
     0
100
AcDbLine
 10
79.89999999999236
 20
-146.4993345145885
 30
0.0
 11
122.9491116988338
 21
-117.8000000000011
 31
0.0
  0
LINE
  5
2783
330
2BED
100
AcDbEntity
  8
0
 62
     0
100
AcDbLine
 10
-295.7000000000062
 20
-396.8986951120624
 30
0.0
 11
79.89999999998872
 21
-146.4993345145904
 31
0.0
  0
LINE
  5
2784
330
2BED
100
AcDbEntity
  8
0
 62
     0
100
AcDbLine
 10
79.89999999999236
 20
-143.4993679791731
 30
0.0
 11
118.4491504049474
 21
-117.8000000000029
 31
0.0
  0
LINE
  5
2785
330
2BED
100
AcDbEntity
  8
0
 62
     0
100
AcDbLine
 10
-295.7000000000062
 20
-393.898728576647
 30
0.0
 11
79.89999999999056
 21
-143.4993679791751
 31
0.0
  0
LINE
  5
2786
330
2BED
100
AcDbEntity
  8
0
 62
     0
100
AcDbLine
 10
79.89999999999419
 20
-140.4994014437561
 30
0.0
 11
113.9491891110629
 21
-117.8000000000047
 31
0.0
  0
LINE
  5
2787
330
2BED
100
AcDbEntity
  8
0
 62
     0
100
AcDbLine
 10
-295.7000000000062
 20
-390.8987620412318
 30
0.0
 11
79.89999999998872
 21
-140.4994014437616
 31
0.0
  0
LINE
  5
2788
330
2BED
100
AcDbEntity
  8
0
 62
     0
100
AcDbLine
 10
79.89999999999236
 20
-137.4994349083408
 30
0.0
 11
109.4492278171783
 21
-117.8000000000011
 31
0.0
  0
LINE
  5
2789
330
2BED
100
AcDbEntity
  8
0
 62
     0
100
AcDbLine
 10
-295.7000000000062
 20
-387.8987955058146
 30
0.0
 11
79.89999999998872
 21
-137.4994349083424
 31
0.0
  0
LINE
  5
278A
330
2BED
100
AcDbEntity
  8
0
 62
     0
100
AcDbLine
 10
79.89999999999236
 20
-134.4994683729237
 30
0.0
 11
104.9492665232901
 21
-117.8000000000011
 31
0.0
  0
LINE
  5
278B
330
2BED
100
AcDbEntity
  8
0
 62
     0
100
AcDbLine
 10
-295.700000000008
 20
-384.8988289703994
 30
0.0
 11
79.89999999999056
 21
-134.4994683729255
 31
0.0
  0
LINE
  5
278C
330
2BED
100
AcDbEntity
  8
0
 62
     0
100
AcDbLine
 10
79.89999999999236
 20
-131.4995018375066
 30
0.0
 11
100.4493052294092
 21
-117.7999999999993
 31
0.0
  0
LINE
  5
278D
330
2BED
100
AcDbEntity
  8
0
 62
     0
100
AcDbLine
 10
-295.7000000000062
 20
-381.8988624349804
 30
0.0
 11
79.89999999998872
 21
-131.4995018375084
 31
0.0
  0
LINE
  5
278E
330
2BED
100
AcDbEntity
  8
0
 62
     0
100
AcDbLine
 10
79.89999999999419
 20
-128.4995353020912
 30
0.0
 11
95.94934393552099
 21
-117.8000000000029
 31
0.0
  0
LINE
  5
278F
330
2BED
100
AcDbEntity
  8
0
 62
     0
100
AcDbLine
 10
-295.7000000000025
 20
-378.8988958995651
 30
0.0
 11
79.89999999999236
 21
-128.4995353020931
 31
0.0
  0
LINE
  5
2790
330
2BED
100
AcDbEntity
  8
0
 62
     0
100
AcDbLine
 10
79.89999999999236
 20
-125.4995687666778
 30
0.0
 11
91.44938264163648
 21
-117.8000000000011
 31
0.0
  0
LINE
  5
2791
330
2BED
100
AcDbEntity
  8
0
 62
     0
100
AcDbLine
 10
-295.7000000000062
 20
-375.8989293641498
 30
0.0
 11
79.89999999998872
 21
-125.4995687666796
 31
0.0
  0
LINE
  5
2792
330
2BED
100
AcDbEntity
  8
0
 62
     0
100
AcDbLine
 10
79.89999999999236
 20
-122.4996022312589
 30
0.0
 11
86.94942134775009
 21
-117.8000000000011
 31
0.0
  0
LINE
  5
2793
330
2BED
100
AcDbEntity
  8
0
 62
     0
100
AcDbLine
 10
-295.7000000000044
 20
-372.8989628287327
 30
0.0
 11
79.89999999999056
 21
-122.4996022312607
 31
0.0
  0
LINE
  5
2794
330
2BED
100
AcDbEntity
  8
0
 62
     0
100
AcDbLine
 10
79.899999999996
 20
-119.4996356958418
 30
0.0
 11
82.44946005386735
 21
-117.7999999999993
 31
0.0
  0
LINE
  5
2795
330
2BED
100
AcDbEntity
  8
0
 62
     0
100
AcDbLine
 10
-295.7000000000062
 20
-369.8989962933156
 30
0.0
 11
79.89999999998872
 21
-119.4996356958454
 31
0.0
  0
LINE
  5
2796
330
2BED
100
AcDbEntity
  8
0
 62
     0
100
AcDbLine
 10
-295.7000000000044
 20
-366.8990297579002
 30
0.0
 11
77.94949875997736
 21
-117.8000000000029
 31
0.0
  0
LINE
  5
2797
330
2BED
100
AcDbEntity
  8
0
 62
     0
100
AcDbLine
 10
-295.700000000008
 20
-363.8990632224868
 30
0.0
 11
73.44953746609276
 21
-117.8000000000029
 31
0.0
  0
LINE
  5
2798
330
2BED
100
AcDbEntity
  8
0
 62
     0
100
AcDbLine
 10
-295.7000000000044
 20
-360.8990966870678
 30
0.0
 11
68.94957617220825
 21
-117.8000000000011
 31
0.0
  0
LINE
  5
2799
330
2BED
100
AcDbEntity
  8
0
 62
     0
100
AcDbLine
 10
-295.700000000008
 20
-357.8991301516526
 30
0.0
 11
64.44961487832371
 21
-117.7999999999993
 31
0.0
  0
LINE
  5
279A
330
2BED
100
AcDbEntity
  8
0
 62
     0
100
AcDbLine
 10
-295.7000000000044
 20
-354.8991636162355
 30
0.0
 11
59.9496535844355
 21
-117.8000000000029
 31
0.0
  0
LINE
  5
279B
330
2BED
100
AcDbEntity
  8
0
 62
     0
100
AcDbLine
 10
-295.7000000000044
 20
-351.8991970808202
 30
0.0
 11
55.44969229055095
 21
-117.8000000000029
 31
0.0
  0
LINE
  5
279C
330
2BED
100
AcDbEntity
  8
0
 62
     0
100
AcDbLine
 10
-295.7000000000044
 20
-348.8992305454049
 30
0.0
 11
50.9497309966664
 21
-117.8000000000029
 31
0.0
  0
LINE
  5
279D
330
2BED
100
AcDbEntity
  8
0
 62
     0
100
AcDbLine
 10
-295.7000000000044
 20
-345.899264009986
 30
0.0
 11
46.44976970277821
 21
-117.8000000000029
 31
0.0
  0
LINE
  5
279E
330
2BED
100
AcDbEntity
  8
0
 62
     0
100
AcDbLine
 10
-295.7000000000062
 20
-342.8992974745706
 30
0.0
 11
41.94980840889366
 21
-117.7999999999993
 31
0.0
  0
LINE
  5
279F
330
2BED
100
AcDbEntity
  8
0
 62
     0
100
AcDbLine
 10
-295.7000000000044
 20
-339.8993309391535
 30
0.0
 11
37.44984711500911
 21
-117.8000000000011
 31
0.0
  0
LINE
  5
27A0
330
2BED
100
AcDbEntity
  8
0
 62
     0
100
AcDbLine
 10
-295.7000000000062
 20
-336.89936440374
 30
0.0
 11
32.94988582112456
 21
-117.8000000000011
 31
0.0
  0
LINE
  5
27A1
330
2BED
100
AcDbEntity
  8
0
 62
     0
100
AcDbLine
 10
-295.7000000000044
 20
-333.8993978683229
 30
0.0
 11
28.44992452723636
 21
-117.8000000000029
 31
0.0
  0
LINE
  5
27A2
330
2BED
100
AcDbEntity
  8
0
 62
     0
100
AcDbLine
 10
-295.7000000000062
 20
-330.8994313329058
 30
0.0
 11
23.94996323335363
 21
-117.7999999999993
 31
0.0
  0
LINE
  5
27A3
330
2BED
100
AcDbEntity
  8
0
 62
     0
100
AcDbLine
 10
-295.7000000000044
 20
-327.8994647974905
 30
0.0
 11
19.45000193946724
 21
-117.8000000000011
 31
0.0
  0
LINE
  5
27A4
330
2BED
100
AcDbEntity
  8
0
 62
     0
100
AcDbLine
 10
-295.7000000000044
 20
-324.8994982620732
 30
0.0
 11
14.9500406455827
 21
-117.8000000000011
 31
0.0
  0
LINE
  5
27A5
330
2BED
100
AcDbEntity
  8
0
 62
     0
100
AcDbLine
 10
-295.7000000000062
 20
-321.8995317266581
 30
0.0
 11
10.45007935169269
 21
-117.8000000000029
 31
0.0
  0
LINE
  5
27A6
330
2BED
100
AcDbEntity
  8
0
 62
     0
100
AcDbLine
 10
-295.7000000000044
 20
-318.8995651912409
 30
0.0
 11
5.950118057811777
 21
-117.8000000000011
 31
0.0
  0
LINE
  5
27A7
330
2BED
100
AcDbEntity
  8
0
 62
     0
100
AcDbLine
 10
-295.7000000000062
 20
-315.8995986558257
 30
0.0
 11
1.450156763923587
 21
-117.8000000000029
 31
0.0
  0
LINE
  5
27A8
330
2BED
100
AcDbEntity
  8
0
 62
     0
100
AcDbLine
 10
-295.7000000000062
 20
-312.8996321204104
 30
0.0
 11
-3.049804529960963
 21
-117.8000000000011
 31
0.0
  0
LINE
  5
27A9
330
2BED
100
AcDbEntity
  8
0
 62
     0
100
AcDbLine
 10
-295.7000000000062
 20
-309.8996655849933
 30
0.0
 11
-7.549765823845518
 21
-117.8000000000011
 31
0.0
  0
LINE
  5
27AA
330
2BED
100
AcDbEntity
  8
0
 62
     0
100
AcDbLine
 10
-295.7000000000044
 20
-306.8996990495762
 30
0.0
 11
-12.04972711773007
 21
-117.8000000000011
 31
0.0
  0
LINE
  5
27AB
330
2BED
100
AcDbEntity
  8
0
 62
     0
100
AcDbLine
 10
-295.7000000000044
 20
-303.8997325141572
 30
0.0
 11
-16.54968841161462
 21
-117.7999999999993
 31
0.0
  0
LINE
  5
27AC
330
2BED
100
AcDbEntity
  8
0
 62
     0
100
AcDbLine
 10
-295.7000000000062
 20
-300.8997659787437
 30
0.0
 11
-21.04964970550463
 21
-117.8000000000029
 31
0.0
  0
LINE
  5
27AD
330
2BED
100
AcDbEntity
  8
0
 62
     0
100
AcDbLine
 10
-295.7000000000044
 20
-297.8997994433285
 30
0.0
 11
-25.54961099938737
 21
-117.8000000000011
 31
0.0
  0
LINE
  5
27AE
330
2BED
100
AcDbEntity
  8
0
 62
     0
100
AcDbLine
 10
-295.7000000000062
 20
-294.8998329079113
 30
0.0
 11
-30.04957229327374
 21
-117.8000000000011
 31
0.0
  0
LINE
  5
27AF
330
2BED
100
AcDbEntity
  8
0
 62
     0
100
AcDbLine
 10
-295.7000000000062
 20
-291.8998663724942
 30
0.0
 11
-34.5495335871583
 21
-117.7999999999993
 31
0.0
  0
LINE
  5
27B0
330
2BED
100
AcDbEntity
  8
0
 62
     0
100
AcDbLine
 10
-295.7000000000062
 20
-288.8998998370807
 30
0.0
 11
-39.04949488104648
 21
-117.8000000000029
 31
0.0
  0
LINE
  5
27B1
330
2BED
100
AcDbEntity
  8
0
 62
     0
100
AcDbLine
 10
-295.7000000000062
 20
-285.8999333016636
 30
0.0
 11
-43.54945617493103
 21
-117.8000000000029
 31
0.0
  0
LINE
  5
27B2
330
2BED
100
AcDbEntity
  8
0
 62
     0
100
AcDbLine
 10
-295.7000000000062
 20
-282.8999667662484
 30
0.0
 11
-48.04941746881559
 21
-117.8000000000011
 31
0.0
  0
LINE
  5
27B3
330
2BED
100
AcDbEntity
  8
0
 62
     0
100
AcDbLine
 10
-295.7000000000062
 20
-279.9000002308294
 30
0.0
 11
-52.54937876270012
 21
-117.7999999999993
 31
0.0
  0
LINE
  5
27B4
330
2BED
100
AcDbEntity
  8
0
 62
     0
100
AcDbLine
 10
-295.7000000000062
 20
-276.9000336954159
 30
0.0
 11
-57.04934005658834
 21
-117.8000000000029
 31
0.0
  0
LINE
  5
27B5
330
2BED
100
AcDbEntity
  8
0
 62
     0
100
AcDbLine
 10
-295.7000000000062
 20
-273.9000671599988
 30
0.0
 11
-61.54930135047289
 21
-117.8000000000029
 31
0.0
  0
LINE
  5
27B6
330
2BED
100
AcDbEntity
  8
0
 62
     0
100
AcDbLine
 10
-295.7000000000044
 20
-270.9001006245817
 30
0.0
 11
-66.04926264435926
 21
-117.8000000000029
 31
0.0
  0
LINE
  5
27B7
330
2BED
100
AcDbEntity
  8
0
 62
     0
100
AcDbLine
 10
-295.7000000000062
 20
-267.9001340891664
 30
0.0
 11
-70.54922393824559
 21
-117.8000000000011
 31
0.0
  0
LINE
  5
27B8
330
2BED
100
AcDbEntity
  8
0
 62
     0
100
AcDbLine
 10
-295.7000000000044
 20
-264.9001675537475
 30
0.0
 11
-75.04918523212831
 21
-117.7999999999993
 31
0.0
  0
LINE
  5
27B9
330
2BED
100
AcDbEntity
  8
0
 62
     0
100
AcDbLine
 10
-295.700000000008
 20
-261.900201018334
 30
0.0
 11
-79.54914652601655
 21
-117.8000000000011
 31
0.0
  0
LINE
  5
27BA
330
2BED
100
AcDbEntity
  8
0
 62
     0
100
AcDbLine
 10
-295.7000000000044
 20
-258.9002344829169
 30
0.0
 11
-84.04910781989931
 21
-117.8000000000011
 31
0.0
  0
LINE
  5
27BB
330
2BED
100
AcDbEntity
  8
0
 62
     0
100
AcDbLine
 10
-295.7000000000062
 20
-255.9002679475016
 30
0.0
 11
-88.54906911378748
 21
-117.8000000000029
 31
0.0
  0
LINE
  5
27BC
330
2BED
100
AcDbEntity
  8
0
 62
     0
100
AcDbLine
 10
-295.7000000000044
 20
-252.9003014120844
 30
0.0
 11
-93.04903040767021
 21
-117.7999999999993
 31
0.0
  0
LINE
  5
27BD
330
2BED
100
AcDbEntity
  8
0
 62
     0
100
AcDbLine
 10
-295.7000000000044
 20
-249.9003348766673
 30
0.0
 11
-97.54899170155839
 21
-117.8000000000011
 31
0.0
  0
LINE
  5
27BE
330
2BED
100
AcDbEntity
  8
0
 62
     0
100
AcDbLine
 10
-295.7000000000044
 20
-246.9003683412538
 30
0.0
 11
-102.0489529954411
 21
-117.8000000000011
 31
0.0
  0
LINE
  5
27BF
330
2BED
100
AcDbEntity
  8
0
 62
     0
100
AcDbLine
 10
-295.7000000000044
 20
-243.9004018058349
 30
0.0
 11
-106.5489142893311
 21
-117.8000000000029
 31
0.0
  0
LINE
  5
27C0
330
2BED
100
AcDbEntity
  8
0
 62
     0
100
AcDbLine
 10
-295.7000000000062
 20
-240.9004352704196
 30
0.0
 11
-111.0488755832139
 21
-117.8000000000011
 31
0.0
  0
LINE
  5
27C1
330
2BED
100
AcDbEntity
  8
0
 62
     0
100
AcDbLine
 10
-295.7000000000044
 20
-237.9004687350043
 30
0.0
 11
-115.5488368771002
 21
-117.8000000000011
 31
0.0
  0
LINE
  5
27C2
330
2BED
100
AcDbEntity
  8
0
 62
     0
100
AcDbLine
 10
-295.7000000000044
 20
-234.900502199589
 30
0.0
 11
-120.0487981709811
 21
-117.8000000000011
 31
0.0
  0
LINE
  5
27C3
330
2BED
100
AcDbEntity
  8
0
 62
     0
100
AcDbLine
 10
-295.7000000000044
 20
-231.9005356641719
 30
0.0
 11
-124.5487594648693
 21
-117.8000000000011
 31
0.0
  0
LINE
  5
27C4
330
2BED
100
AcDbEntity
  8
0
 62
     0
100
AcDbLine
 10
-295.7000000000062
 20
-228.9005691287548
 30
0.0
 11
-129.0487207587557
 21
-117.8000000000011
 31
0.0
  0
LINE
  5
27C5
330
2BED
100
AcDbEntity
  8
0
 62
     0
100
AcDbLine
 10
-295.7000000000044
 20
-225.9006025933377
 30
0.0
 11
-133.5486820526385
 21
-117.7999999999974
 31
0.0
  0
LINE
  5
27C6
330
2BED
100
AcDbEntity
  8
0
 62
     0
100
AcDbLine
 10
-295.7000000000062
 20
-222.9006360579242
 30
0.0
 11
-138.0486433465248
 21
-117.7999999999993
 31
0.0
  0
LINE
  5
27C7
330
2BED
100
AcDbEntity
  8
0
 62
     0
100
AcDbLine
 10
-295.7000000000062
 20
-219.9006695225071
 30
0.0
 11
-142.548604640413
 21
-117.8000000000011
 31
0.0
  0
LINE
  5
27C8
330
2BED
100
AcDbEntity
  8
0
 62
     0
100
AcDbLine
 10
-295.7000000000044
 20
-216.90070298709
 30
0.0
 11
-147.0485659342975
 21
-117.8000000000011
 31
0.0
  0
LINE
  5
27C9
330
2BED
100
AcDbEntity
  8
0
 62
     0
100
AcDbLine
 10
-295.7000000000044
 20
-213.9007364516729
 30
0.0
 11
-151.5485272281801
 21
-117.7999999999993
 31
0.0
  0
LINE
  5
27CA
330
2BED
100
AcDbEntity
  8
0
 62
     0
100
AcDbLine
 10
-295.7000000000062
 20
-210.9007699162575
 30
0.0
 11
-156.0484885220721
 21
-117.8000000000029
 31
0.0
  0
LINE
  5
27CB
330
2BED
100
AcDbEntity
  8
0
 62
     0
100
AcDbLine
 10
-295.7000000000062
 20
-207.9008033808441
 30
0.0
 11
-160.5484498159549
 21
-117.8000000000011
 31
0.0
  0
LINE
  5
27CC
330
2BED
100
AcDbEntity
  8
0
 62
     0
100
AcDbLine
 10
-295.7000000000044
 20
-204.9008368454252
 30
0.0
 11
-165.0484111098394
 21
-117.8000000000011
 31
0.0
  0
LINE
  5
27CD
330
2BED
100
AcDbEntity
  8
0
 62
     0
100
AcDbLine
 10
-295.7000000000062
 20
-201.9008703100098
 30
0.0
 11
-169.548372403724
 21
-117.7999999999993
 31
0.0
  0
LINE
  5
27CE
330
2BED
100
AcDbEntity
  8
0
 62
     0
100
AcDbLine
 10
-295.7000000000062
 20
-198.9009037745927
 30
0.0
 11
-174.0483336976139
 21
-117.8000000000029
 31
0.0
  0
LINE
  5
27CF
330
2BED
100
AcDbEntity
  8
0
 62
     0
100
AcDbLine
 10
-295.7000000000044
 20
-195.9009372391774
 30
0.0
 11
-178.5482949914967
 21
-117.8000000000029
 31
0.0
  0
LINE
  5
27D0
330
2BED
100
AcDbEntity
  8
0
 62
     0
100
AcDbLine
 10
-295.7000000000062
 20
-192.9009707037621
 30
0.0
 11
-183.0482562853831
 21
-117.8000000000011
 31
0.0
  0
LINE
  5
27D1
330
2BED
100
AcDbEntity
  8
0
 62
     0
100
AcDbLine
 10
-295.7000000000062
 20
-189.9010041683432
 30
0.0
 11
-187.5482175792676
 21
-117.7999999999993
 31
0.0
  0
LINE
  5
27D2
330
2BED
100
AcDbEntity
  8
0
 62
     0
100
AcDbLine
 10
-295.7000000000062
 20
-186.9010376329279
 30
0.0
 11
-192.0481788731522
 21
-117.7999999999993
 31
0.0
  0
LINE
  5
27D3
330
2BED
100
AcDbEntity
  8
0
 62
     0
100
AcDbLine
 10
-295.7000000000044
 20
-183.9010710975108
 30
0.0
 11
-196.5481401670386
 21
-117.8000000000011
 31
0.0
  0
LINE
  5
27D4
330
2BED
100
AcDbEntity
  8
0
 62
     0
100
AcDbLine
 10
-295.7000000000062
 20
-180.9011045620973
 30
0.0
 11
-201.0481014609213
 21
-117.8000000000011
 31
0.0
  0
LINE
  5
27D5
330
2BED
100
AcDbEntity
  8
0
 62
     0
100
AcDbLine
 10
-295.7000000000062
 20
-177.9011380266801
 30
0.0
 11
-205.5480627548059
 21
-117.7999999999974
 31
0.0
  0
LINE
  5
27D6
330
2BED
100
AcDbEntity
  8
0
 62
     0
100
AcDbLine
 10
-295.7000000000025
 20
-174.9011714912612
 30
0.0
 11
-210.0480240486941
 21
-117.7999999999993
 31
0.0
  0
LINE
  5
27D7
330
2BED
100
AcDbEntity
  8
0
 62
     0
100
AcDbLine
 10
-295.7000000000062
 20
-171.9012049558478
 30
0.0
 11
-214.5479853425786
 21
-117.7999999999993
 31
0.0
  0
LINE
  5
27D8
330
2BED
100
AcDbEntity
  8
0
 62
     0
100
AcDbLine
 10
-295.700000000008
 20
-168.9012384204325
 30
0.0
 11
-219.047946636465
 21
-117.8000000000011
 31
0.0
  0
LINE
  5
27D9
330
2BED
100
AcDbEntity
  8
0
 62
     0
100
AcDbLine
 10
-295.7000000000062
 20
-165.9012718850154
 30
0.0
 11
-223.5479079303514
 21
-117.8000000000011
 31
0.0
  0
LINE
  5
27DA
330
2BED
100
AcDbEntity
  8
0
 62
     0
100
AcDbLine
 10
-295.7000000000025
 20
-162.9013053495964
 30
0.0
 11
-228.0478692242359
 21
-117.7999999999993
 31
0.0
  0
LINE
  5
27DB
330
2BED
100
AcDbEntity
  8
0
 62
     0
100
AcDbLine
 10
-295.700000000008
 20
-159.9013388141829
 30
0.0
 11
-232.5478305181259
 21
-117.8000000000011
 31
0.0
  0
LINE
  5
27DC
330
2BED
100
AcDbEntity
  8
0
 62
     0
100
AcDbLine
 10
-295.7000000000044
 20
-156.9013722787676
 30
0.0
 11
-237.0477918120069
 21
-117.8000000000011
 31
0.0
  0
LINE
  5
27DD
330
2BED
100
AcDbEntity
  8
0
 62
     0
100
AcDbLine
 10
-295.7000000000062
 20
-153.9014057433504
 30
0.0
 11
-241.5477531058932
 21
-117.8000000000011
 31
0.0
  0
LINE
  5
27DE
330
2BED
100
AcDbEntity
  8
0
 62
     0
100
AcDbLine
 10
-295.7000000000044
 20
-150.9014392079334
 30
0.0
 11
-246.0477143997796
 21
-117.8000000000011
 31
0.0
  0
LINE
  5
27DF
330
2BED
100
AcDbEntity
  8
0
 62
     0
100
AcDbLine
 10
-295.700000000008
 20
-147.9014726725181
 30
0.0
 11
-250.5476756936641
 21
-117.7999999999974
 31
0.0
  0
LINE
  5
27E0
330
2BED
100
AcDbEntity
  8
0
 62
     0
100
AcDbLine
 10
-295.7000000000044
 20
-144.901506137101
 30
0.0
 11
-255.0476369875487
 21
-117.7999999999993
 31
0.0
  0
LINE
  5
27E1
330
2BED
100
AcDbEntity
  8
0
 62
     0
100
AcDbLine
 10
-295.7000000000044
 20
-141.9015396016857
 30
0.0
 11
-259.5475982814369
 21
-117.8000000000011
 31
0.0
  0
LINE
  5
27E2
330
2BED
100
AcDbEntity
  8
0
 62
     0
100
AcDbLine
 10
-295.7000000000062
 20
-138.9015730662686
 30
0.0
 11
-264.0475595753232
 21
-117.8000000000011
 31
0.0
  0
LINE
  5
27E3
330
2BED
100
AcDbEntity
  8
0
 62
     0
100
AcDbLine
 10
-295.7000000000044
 20
-135.9016065308515
 30
0.0
 11
-268.547520869206
 21
-117.7999999999993
 31
0.0
  0
LINE
  5
27E4
330
2BED
100
AcDbEntity
  8
0
 62
     0
100
AcDbLine
 10
-295.7000000000044
 20
-132.9016399954362
 30
0.0
 11
-273.0474821630887
 21
-117.7999999999974
 31
0.0
  0
LINE
  5
27E5
330
2BED
100
AcDbEntity
  8
0
 62
     0
100
AcDbLine
 10
-295.7000000000044
 20
-129.9016734600209
 30
0.0
 11
-277.5474434569788
 21
-117.8000000000011
 31
0.0
  0
LINE
  5
27E6
330
2BED
100
AcDbEntity
  8
0
 62
     0
100
AcDbLine
 10
-295.7000000000062
 20
-126.9017069246056
 30
0.0
 11
-282.0474047508615
 21
-117.7999999999993
 31
0.0
  0
LINE
  5
27E7
330
2BED
100
AcDbEntity
  8
0
 62
     0
100
AcDbLine
 10
-295.7000000000044
 20
-123.9017403891866
 30
0.0
 11
-286.5473660447477
 21
-117.7999999999993
 31
0.0
  0
LINE
  5
27E8
330
2BED
100
AcDbEntity
  8
0
 62
     0
100
AcDbLine
 10
-295.7000000000062
 20
-120.9017738537732
 30
0.0
 11
-291.0473273386342
 21
-117.8000000000011
 31
0.0
  0
LINE
  5
27E9
330
2BED
100
AcDbEntity
  8
0
 62
     0
100
AcDbLine
 10
-295.7000000000062
 20
-117.9018073183561
 30
0.0
 11
-295.5472886325224
 21
-117.8000000000011
 31
0.0
  0
ENDBLK
  5
27EA
330
2BED
100
AcDbEntity
  8
0
100
AcDbBlockEnd
  0
BLOCK
  5
2BF0
330
2BEF
100
AcDbEntity
  8
0
100
AcDbBlockBegin
  2
*X77
 70
     1
 10
0.0
 20
0.0
 30
0.0
  3
*X77
  1

  0
LINE
  5
27ED
330
2BEF
100
AcDbEntity
  8
0
 62
     0
100
AcDbLine
 10
-295.6999999999971
 20
-645.2925021507634
 30
0.0
 11
-294.3387497501591
 21
-646.1999999999989
 31
0.0
  0
LINE
  5
27EE
330
2BEF
100
AcDbEntity
  8
0
 62
     0
100
AcDbLine
 10
-295.6999999999989
 20
-642.2925356153464
 30
0.0
 11
-289.8387884562708
 21
-646.1999999999997
 31
0.0
  0
LINE
  5
27EF
330
2BEF
100
AcDbEntity
  8
0
 62
     0
100
AcDbLine
 10
-295.6999999999971
 20
-639.2925690799293
 30
0.0
 11
-285.3388271623862
 21
-646.199999999998
 31
0.0
  0
LINE
  5
27F0
330
2BEF
100
AcDbEntity
  8
0
 62
     0
100
AcDbLine
 10
-295.6999999999971
 20
-636.2926025445158
 30
0.0
 11
-280.8388658684997
 21
-646.2000000000007
 31
0.0
  0
LINE
  5
27F1
330
2BEF
100
AcDbEntity
  8
0
 62
     0
100
AcDbLine
 10
-295.6999999999971
 20
-633.2926360090996
 30
0.0
 11
-276.3389045746171
 21
-646.1999999999989
 31
0.0
  0
LINE
  5
27F2
330
2BEF
100
AcDbEntity
  8
0
 62
     0
100
AcDbLine
 10
-295.6999999999989
 20
-630.2926694736814
 30
0.0
 11
-271.8389432807289
 21
-646.1999999999997
 31
0.0
  0
LINE
  5
27F3
330
2BEF
100
AcDbEntity
  8
0
 62
     0
100
AcDbLine
 10
-295.6999999999989
 20
-627.2927029382644
 30
0.0
 11
-267.3389819868444
 21
-646.1999999999989
 31
0.0
  0
LINE
  5
27F4
330
2BEF
100
AcDbEntity
  8
0
 62
     0
100
AcDbLine
 10
-295.6999999999971
 20
-624.292736402851
 30
0.0
 11
-262.839020692958
 21
-646.2000000000007
 31
0.0
  0
LINE
  5
27F5
330
2BEF
100
AcDbEntity
  8
0
 62
     0
100
AcDbLine
 10
-295.6999999999989
 20
-621.2927698674339
 30
0.0
 11
-258.3390593990734
 21
-646.2000000000007
 31
0.0
  0
LINE
  5
27F6
330
2BEF
100
AcDbEntity
  8
0
 62
     0
100
AcDbLine
 10
-295.6999999999971
 20
-618.2928033320167
 30
0.0
 11
-253.8390981051871
 21
-646.1999999999989
 31
0.0
  0
LINE
  5
27F7
330
2BEF
100
AcDbEntity
  8
0
 62
     0
100
AcDbLine
 10
-295.6999999999971
 20
-615.2928367966004
 30
0.0
 11
-249.3391368113025
 21
-646.199999999998
 31
0.0
  0
LINE
  5
27F8
330
2BEF
100
AcDbEntity
  8
0
 62
     0
100
AcDbLine
 10
-295.6999999999971
 20
-612.2928702611834
 30
0.0
 11
-244.839175517418
 21
-646.1999999999967
 31
0.0
  0
LINE
  5
27F9
330
2BEF
100
AcDbEntity
  8
0
 62
     0
100
AcDbLine
 10
-295.6999999999989
 20
-609.2929037257697
 30
0.0
 11
-240.3392142235316
 21
-646.2000000000007
 31
0.0
  0
LINE
  5
27FA
330
2BEF
100
AcDbEntity
  8
0
 62
     0
100
AcDbLine
 10
-295.6999999999971
 20
-606.292937190352
 30
0.0
 11
-235.8392529296434
 21
-646.1999999999997
 31
0.0
  0
LINE
  5
27FB
330
2BEF
100
AcDbEntity
  8
0
 62
     0
100
AcDbLine
 10
-295.6999999999989
 20
-603.2929706549347
 30
0.0
 11
-231.3392916357607
 21
-646.199999999998
 31
0.0
  0
LINE
  5
27FC
330
2BEF
100
AcDbEntity
  8
0
 62
     0
100
AcDbLine
 10
-295.6999999999989
 20
-600.2930041195185
 30
0.0
 11
-226.8393303418761
 21
-646.1999999999967
 31
0.0
  0
LINE
  5
27FD
330
2BEF
100
AcDbEntity
  8
0
 62
     0
100
AcDbLine
 10
-295.6999999999989
 20
-597.2930375841052
 30
0.0
 11
-222.3393690479879
 21
-646.2000000000016
 31
0.0
  0
LINE
  5
27FE
330
2BEF
100
AcDbEntity
  8
0
 62
     0
100
AcDbLine
 10
-295.6999999999971
 20
-594.2930710486879
 30
0.0
 11
-217.8394077541016
 21
-646.1999999999997
 31
0.0
  0
LINE
  5
27FF
330
2BEF
100
AcDbEntity
  8
0
 62
     0
100
AcDbLine
 10
-295.6999999999989
 20
-591.2931045132709
 30
0.0
 11
-213.3394464602188
 21
-646.1999999999989
 31
0.0
  0
LINE
  5
2800
330
2BEF
100
AcDbEntity
  8
0
 62
     0
100
AcDbLine
 10
-295.6999999999989
 20
-588.2931379778527
 30
0.0
 11
-208.8394851663288
 21
-646.1999999999997
 31
0.0
  0
LINE
  5
2801
330
2BEF
100
AcDbEntity
  8
0
 62
     0
100
AcDbLine
 10
-295.6999999999971
 20
-585.2931714424412
 30
0.0
 11
-204.3395238724443
 21
-646.2000000000016
 31
0.0
  0
LINE
  5
2802
330
2BEF
100
AcDbEntity
  8
0
 62
     0
100
AcDbLine
 10
-295.6999999999989
 20
-582.2932049070232
 30
0.0
 11
-199.8395625785597
 21
-646.2000000000007
 31
0.0
  0
LINE
  5
2803
330
2BEF
100
AcDbEntity
  8
0
 62
     0
100
AcDbLine
 10
-295.6999999999989
 20
-579.2932383716061
 30
0.0
 11
-195.339601284677
 21
-646.1999999999989
 31
0.0
  0
LINE
  5
2804
330
2BEF
100
AcDbEntity
  8
0
 62
     0
100
AcDbLine
 10
-295.6999999999989
 20
-576.293271836189
 30
0.0
 11
-190.8396399907888
 21
-646.1999999999989
 31
0.0
  0
LINE
  5
2805
330
2BEF
100
AcDbEntity
  8
0
 62
     0
100
AcDbLine
 10
-295.6999999999971
 20
-573.2933053007719
 30
0.0
 11
-186.3396786969041
 21
-646.199999999998
 31
0.0
  0
LINE
  5
2806
330
2BEF
100
AcDbEntity
  8
0
 62
     0
100
AcDbLine
 10
-295.6999999999989
 20
-570.2933387653593
 30
0.0
 11
-181.8397174030197
 21
-646.1999999999997
 31
0.0
  0
LINE
  5
2807
330
2BEF
100
AcDbEntity
  8
0
 62
     0
100
AcDbLine
 10
-295.6999999999971
 20
-567.293372229942
 30
0.0
 11
-177.3397561091351
 21
-646.1999999999989
 31
0.0
  0
LINE
  5
2808
330
2BEF
100
AcDbEntity
  8
0
 62
     0
100
AcDbLine
 10
-295.6999999999971
 20
-564.2934056945249
 30
0.0
 11
-172.8397948152451
 21
-646.1999999999989
 31
0.0
  0
LINE
  5
2809
330
2BEF
100
AcDbEntity
  8
0
 62
     0
100
AcDbLine
 10
-295.6999999999989
 20
-561.293439159107
 30
0.0
 11
-168.3398335213624
 21
-646.199999999998
 31
0.0
  0
LINE
  5
280A
330
2BEF
100
AcDbEntity
  8
0
 62
     0
100
AcDbLine
 10
-295.6999999999989
 20
-558.2934726236945
 30
0.0
 11
-163.8398722274778
 21
-646.1999999999997
 31
0.0
  0
LINE
  5
280B
330
2BEF
100
AcDbEntity
  8
0
 62
     0
100
AcDbLine
 10
-295.6999999999989
 20
-555.2935060882766
 30
0.0
 11
-159.3399109335896
 21
-646.2000000000007
 31
0.0
  0
LINE
  5
280C
330
2BEF
100
AcDbEntity
  8
0
 62
     0
100
AcDbLine
 10
-295.6999999999989
 20
-552.2935395528602
 30
0.0
 11
-154.8399496397031
 21
-646.1999999999997
 31
0.0
  0
LINE
  5
280D
330
2BEF
100
AcDbEntity
  8
0
 62
     0
100
AcDbLine
 10
-295.6999999999989
 20
-549.2935730174431
 30
0.0
 11
-150.3399883458205
 21
-646.199999999998
 31
0.0
  0
LINE
  5
280E
330
2BEF
100
AcDbEntity
  8
0
 62
     0
100
AcDbLine
 10
-295.6999999999989
 20
-546.2936064820297
 30
0.0
 11
-145.8400270519341
 21
-646.2000000000007
 31
0.0
  0
LINE
  5
280F
330
2BEF
100
AcDbEntity
  8
0
 62
     0
100
AcDbLine
 10
-295.6999999999971
 20
-543.2936399466123
 30
0.0
 11
-141.3400657580478
 21
-646.2000000000007
 31
0.0
  0
LINE
  5
2810
330
2BEF
100
AcDbEntity
  8
0
 62
     0
100
AcDbLine
 10
-295.6999999999989
 20
-540.2936734111952
 30
0.0
 11
-136.8401044641632
 21
-646.1999999999989
 31
0.0
  0
LINE
  5
2811
330
2BEF
100
AcDbEntity
  8
0
 62
     0
100
AcDbLine
 10
-295.6999999999989
 20
-537.2937068757789
 30
0.0
 11
-132.3401431702805
 21
-646.199999999998
 31
0.0
  0
LINE
  5
2812
330
2BEF
100
AcDbEntity
  8
0
 62
     0
100
AcDbLine
 10
-295.6999999999971
 20
-534.2937403403611
 30
0.0
 11
-127.8401818763905
 21
-646.1999999999967
 31
0.0
  0
LINE
  5
2813
330
2BEF
100
AcDbEntity
  8
0
 62
     0
100
AcDbLine
 10
-295.6999999999971
 20
-531.2937738049486
 30
0.0
 11
-123.3402205825059
 21
-646.2000000000007
 31
0.0
  0
LINE
  5
2814
330
2BEF
100
AcDbEntity
  8
0
 62
     0
100
AcDbLine
 10
-295.6999999999989
 20
-528.2938072695306
 30
0.0
 11
-118.8402592886214
 21
-646.1999999999997
 31
0.0
  0
LINE
  5
2815
330
2BEF
100
AcDbEntity
  8
0
 62
     0
100
AcDbLine
 10
-295.6999999999989
 20
-525.2938407341132
 30
0.0
 11
-114.3402979947368
 21
-646.199999999998
 31
0.0
  0
LINE
  5
2816
330
2BEF
100
AcDbEntity
  8
0
 62
     0
100
AcDbLine
 10
-295.6999999999971
 20
-522.2938741986971
 30
0.0
 11
-109.8403367008486
 21
-646.1999999999989
 31
0.0
  0
LINE
  5
2817
330
2BEF
100
AcDbEntity
  8
0
 62
     0
100
AcDbLine
 10
-295.6999999999989
 20
-519.2939076632836
 30
0.0
 11
-105.3403754069641
 21
-646.2000000000007
 31
0.0
  0
LINE
  5
2818
330
2BEF
100
AcDbEntity
  8
0
 62
     0
100
AcDbLine
 10
-295.6999999999971
 20
-516.2939411278665
 30
0.0
 11
-100.8404141130777
 21
-646.1999999999997
 31
0.0
  0
LINE
  5
2819
330
2BEF
100
AcDbEntity
  8
0
 62
     0
100
AcDbLine
 10
-295.6999999999989
 20
-513.2939745924487
 30
0.0
 11
-96.34045281919316
 21
-646.1999999999989
 31
0.0
  0
LINE
  5
281A
330
2BEF
100
AcDbEntity
  8
0
 62
     0
100
AcDbLine
 10
-295.6999999999971
 20
-510.2940080570321
 30
0.0
 11
-91.84049152530674
 21
-646.1999999999989
 31
0.0
  0
LINE
  5
281B
330
2BEF
100
AcDbEntity
  8
0
 62
     0
100
AcDbLine
 10
-295.7000000000008
 20
-507.2940415216177
 30
0.0
 11
-87.34053023142219
 21
-646.2000000000016
 31
0.0
  0
LINE
  5
281C
330
2BEF
100
AcDbEntity
  8
0
 62
     0
100
AcDbLine
 10
-295.6999999999989
 20
-504.2940749862018
 30
0.0
 11
-82.84056893753769
 21
-646.1999999999997
 31
0.0
  0
LINE
  5
281D
330
2BEF
100
AcDbEntity
  8
0
 62
     0
100
AcDbLine
 10
-295.6999999999989
 20
-501.2941084507847
 30
0.0
 11
-78.34060764364948
 21
-646.1999999999997
 31
0.0
  0
LINE
  5
281E
330
2BEF
100
AcDbEntity
  8
0
 62
     0
100
AcDbLine
 10
-295.6999999999989
 20
-498.2941419153676
 30
0.0
 11
-73.84064634976676
 21
-646.1999999999989
 31
0.0
  0
LINE
  5
281F
330
2BEF
100
AcDbEntity
  8
0
 62
     0
100
AcDbLine
 10
-295.6999999999989
 20
-495.2941753799541
 30
0.0
 11
-69.3406850558804
 21
-646.2000000000007
 31
0.0
  0
LINE
  5
2820
330
2BEF
100
AcDbEntity
  8
0
 62
     0
100
AcDbLine
 10
-295.6999999999971
 20
-492.294208844537
 30
0.0
 11
-64.84072376199401
 21
-646.1999999999997
 31
0.0
  0
LINE
  5
2821
330
2BEF
100
AcDbEntity
  8
0
 62
     0
100
AcDbLine
 10
-295.6999999999989
 20
-489.2942423091207
 30
0.0
 11
-60.34076246810764
 21
-646.2000000000007
 31
0.0
  0
LINE
  5
2822
330
2BEF
100
AcDbEntity
  8
0
 62
     0
100
AcDbLine
 10
-295.7000000000008
 20
-486.2942757737028
 30
0.0
 11
-55.8408011742249
 21
-646.1999999999989
 31
0.0
  0
LINE
  5
2823
330
2BEF
100
AcDbEntity
  8
0
 62
     0
100
AcDbLine
 10
-295.6999999999971
 20
-483.2943092382866
 30
0.0
 11
-51.34083988033673
 21
-646.199999999998
 31
0.0
  0
LINE
  5
2824
330
2BEF
100
AcDbEntity
  8
0
 62
     0
100
AcDbLine
 10
-295.6999999999989
 20
-480.294342702872
 30
0.0
 11
-46.84087858645216
 21
-646.1999999999997
 31
0.0
  0
LINE
  5
2825
330
2BEF
100
AcDbEntity
  8
0
 62
     0
100
AcDbLine
 10
-295.6999999999989
 20
-477.294376167454
 30
0.0
 11
-42.34091729256578
 21
-646.1999999999997
 31
0.0
  0
LINE
  5
2826
330
2BEF
100
AcDbEntity
  8
0
 62
     0
100
AcDbLine
 10
-295.6999999999989
 20
-474.2944096320397
 30
0.0
 11
-37.84095599868124
 21
-646.2000000000007
 31
0.0
  0
LINE
  5
2827
330
2BEF
100
AcDbEntity
  8
0
 62
     0
100
AcDbLine
 10
-295.6999999999971
 20
-471.2944430966223
 30
0.0
 11
-33.34099470479487
 21
-646.1999999999989
 31
0.0
  0
LINE
  5
2828
330
2BEF
100
AcDbEntity
  8
0
 62
     0
100
AcDbLine
 10
-295.6999999999989
 20
-468.2944765612074
 30
0.0
 11
-28.84103341091032
 21
-646.2000000000007
 31
0.0
  0
LINE
  5
2829
330
2BEF
100
AcDbEntity
  8
0
 62
     0
100
AcDbLine
 10
-295.6999999999971
 20
-465.2945100257902
 30
0.0
 11
-24.34107211702394
 21
-646.1999999999989
 31
0.0
  0
LINE
  5
282A
330
2BEF
100
AcDbEntity
  8
0
 62
     0
100
AcDbLine
 10
-295.6999999999971
 20
-462.2945434903749
 30
0.0
 11
-19.84111082313938
 21
-646.1999999999997
 31
0.0
  0
LINE
  5
282B
330
2BEF
100
AcDbEntity
  8
0
 62
     0
100
AcDbLine
 10
-295.6999999999989
 20
-459.2945769549569
 30
0.0
 11
-15.34114952925301
 21
-646.1999999999989
 31
0.0
  0
LINE
  5
282C
330
2BEF
100
AcDbEntity
  8
0
 62
     0
100
AcDbLine
 10
-295.7000000000008
 20
-456.2946104195424
 30
0.0
 11
-10.84118823536846
 21
-646.2000000000007
 31
0.0
  0
LINE
  5
282D
330
2BEF
100
AcDbEntity
  8
0
 62
     0
100
AcDbLine
 10
-295.6999999999989
 20
-453.2946438841252
 30
0.0
 11
-6.341226941482091
 21
-646.1999999999997
 31
0.0
  0
LINE
  5
282E
330
2BEF
100
AcDbEntity
  8
0
 62
     0
100
AcDbLine
 10
-295.6999999999989
 20
-450.2946773487082
 30
0.0
 11
-1.841265647597538
 21
-646.199999999998
 31
0.0
  0
LINE
  5
282F
330
2BEF
100
AcDbEntity
  8
0
 62
     0
100
AcDbLine
 10
-295.6999999999989
 20
-447.2947108132928
 30
0.0
 11
2.658695646287013
 21
-646.1999999999989
 31
0.0
  0
LINE
  5
2830
330
2BEF
100
AcDbEntity
  8
0
 62
     0
100
AcDbLine
 10
-295.6999999999989
 20
-444.2947442778756
 30
0.0
 11
7.158656940175204
 21
-646.1999999999997
 31
0.0
  0
LINE
  5
2831
330
2BEF
100
AcDbEntity
  8
0
 62
     0
100
AcDbLine
 10
-295.6999999999971
 20
-441.2947777424614
 30
0.0
 11
11.65861823406157
 21
-646.1999999999997
 31
0.0
  0
LINE
  5
2832
330
2BEF
100
AcDbEntity
  8
0
 62
     0
100
AcDbLine
 10
-295.6999999999989
 20
-438.2948112070442
 30
0.0
 11
16.15857952794431
 21
-646.1999999999989
 31
0.0
  0
LINE
  5
2833
330
2BEF
100
AcDbEntity
  8
0
 62
     0
100
AcDbLine
 10
-295.6999999999989
 20
-435.2948446716291
 30
0.0
 11
20.6585408218325
 21
-646.2000000000007
 31
0.0
  0
LINE
  5
2834
330
2BEF
100
AcDbEntity
  8
0
 62
     0
100
AcDbLine
 10
-295.6999999999989
 20
-432.2948781362111
 30
0.0
 11
25.15850211571705
 21
-646.1999999999997
 31
0.0
  0
LINE
  5
2835
330
2BEF
100
AcDbEntity
  8
0
 62
     0
100
AcDbLine
 10
-295.6999999999989
 20
-429.2949116007957
 30
0.0
 11
29.65846340960343
 21
-646.2000000000007
 31
0.0
  0
LINE
  5
2836
330
2BEF
100
AcDbEntity
  8
0
 62
     0
100
AcDbLine
 10
-295.6999999999989
 20
-426.2949450653795
 30
0.0
 11
34.15842470348616
 21
-646.1999999999989
 31
0.0
  0
LINE
  5
2837
330
2BEF
100
AcDbEntity
  8
0
 62
     0
100
AcDbLine
 10
-295.6999999999989
 20
-423.2949785299642
 30
0.0
 11
38.65838599737435
 21
-646.2000000000007
 31
0.0
  0
LINE
  5
2838
330
2BEF
100
AcDbEntity
  8
0
 62
     0
100
AcDbLine
 10
-295.6999999999971
 20
-420.2950119945469
 30
0.0
 11
43.1583472912589
 21
-646.1999999999989
 31
0.0
  0
LINE
  5
2839
330
2BEF
100
AcDbEntity
  8
0
 62
     0
100
AcDbLine
 10
-295.7000000000008
 20
-417.2950454591306
 30
0.0
 11
47.65830858514346
 21
-646.1999999999997
 31
0.0
  0
LINE
  5
283A
330
2BEF
100
AcDbEntity
  8
0
 62
     0
100
AcDbLine
 10
-295.6999999999989
 20
-414.2950789237145
 30
0.0
 11
52.1582698790262
 21
-646.199999999998
 31
0.0
  0
LINE
  5
283B
330
2BEF
100
AcDbEntity
  8
0
 62
     0
100
AcDbLine
 10
-295.6999999999989
 20
-411.2951123882967
 30
0.0
 11
56.65823117291802
 21
-646.1999999999989
 31
0.0
  0
LINE
  5
283C
330
2BEF
100
AcDbEntity
  8
0
 62
     0
100
AcDbLine
 10
-295.6999999999989
 20
-408.2951458528823
 30
0.0
 11
61.15819246680075
 21
-646.1999999999997
 31
0.0
  0
LINE
  5
283D
330
2BEF
100
AcDbEntity
  8
0
 62
     0
100
AcDbLine
 10
-295.7000000000008
 20
-405.2951793174652
 30
0.0
 11
65.65815376068529
 21
-646.199999999998
 31
0.0
  0
LINE
  5
283E
330
2BEF
100
AcDbEntity
  8
0
 62
     0
100
AcDbLine
 10
-295.6999999999989
 20
-402.2952127820497
 30
0.0
 11
70.15811505457349
 21
-646.2000000000007
 31
0.0
  0
LINE
  5
283F
330
2BEF
100
AcDbEntity
  8
0
 62
     0
100
AcDbLine
 10
-295.6999999999989
 20
-399.2952462466329
 30
0.0
 11
74.65807634845987
 21
-646.1999999999997
 31
0.0
  0
LINE
  5
2840
330
2BEF
100
AcDbEntity
  8
0
 62
     0
100
AcDbLine
 10
-295.6999999999989
 20
-396.2952797112175
 30
0.0
 11
79.15803764234259
 21
-646.1999999999997
 31
0.0
  0
LINE
  5
2841
330
2BEF
100
AcDbEntity
  8
0
 62
     0
100
AcDbLine
 10
-295.6999999999989
 20
-393.2953131758011
 30
0.0
 11
83.65799893622895
 21
-646.1999999999989
 31
0.0
  0
LINE
  5
2842
330
2BEF
100
AcDbEntity
  8
0
 62
     0
100
AcDbLine
 10
-295.6999999999989
 20
-390.2953466403851
 30
0.0
 11
88.15796023011534
 21
-646.1999999999997
 31
0.0
  0
LINE
  5
2843
330
2BEF
100
AcDbEntity
  8
0
 62
     0
100
AcDbLine
 10
-295.6999999999989
 20
-387.2953801049689
 30
0.0
 11
92.6579215239999
 21
-646.1999999999989
 31
0.0
  0
LINE
  5
2844
330
2BEF
100
AcDbEntity
  8
0
 62
     0
100
AcDbLine
 10
-295.7000000000008
 20
-384.2954135695527
 30
0.0
 11
97.15788281788444
 21
-646.2000000000007
 31
0.0
  0
LINE
  5
2845
330
2BEF
100
AcDbEntity
  8
0
 62
     0
100
AcDbLine
 10
-295.6999999999989
 20
-381.2954470341356
 30
0.0
 11
101.6578441117708
 21
-646.1999999999989
 31
0.0
  0
LINE
  5
2846
330
2BEF
100
AcDbEntity
  8
0
 62
     0
100
AcDbLine
 10
-295.6999999999989
 20
-378.2954804987211
 30
0.0
 11
106.1578054056572
 21
-646.2000000000007
 31
0.0
  0
LINE
  5
2847
330
2BEF
100
AcDbEntity
  8
0
 62
     0
100
AcDbLine
 10
-295.6999999999989
 20
-375.2955139633041
 30
0.0
 11
110.6577666995417
 21
-646.1999999999989
 31
0.0
  0
LINE
  5
2848
330
2BEF
100
AcDbEntity
  8
0
 62
     0
100
AcDbLine
 10
-295.6999999999989
 20
-372.295547427887
 30
0.0
 11
115.1577279934263
 21
-646.199999999998
 31
0.0
  0
LINE
  5
2849
330
2BEF
100
AcDbEntity
  8
0
 62
     0
100
AcDbLine
 10
-295.6999999999971
 20
-369.2955808924716
 30
0.0
 11
119.6576892873127
 21
-646.1999999999989
 31
0.0
  0
LINE
  5
284A
330
2BEF
100
AcDbEntity
  8
0
 62
     0
100
AcDbLine
 10
-295.6999999999989
 20
-366.2956143570545
 30
0.0
 11
124.157650581199
 21
-646.1999999999989
 31
0.0
  0
LINE
  5
284B
330
2BEF
100
AcDbEntity
  8
0
 62
     0
100
AcDbLine
 10
-295.7000000000008
 20
-363.2956478216383
 30
0.0
 11
128.6576118750836
 21
-646.1999999999997
 31
0.0
  0
LINE
  5
284C
330
2BEF
100
AcDbEntity
  8
0
 62
     0
100
AcDbLine
 10
-295.6999999999971
 20
-360.2956812862232
 30
0.0
 11
133.1575731689699
 21
-646.199999999998
 31
0.0
  0
LINE
  5
284D
330
2BEF
100
AcDbEntity
  8
0
 62
     0
100
AcDbLine
 10
-295.6999999999989
 20
-357.2957147508069
 30
0.0
 11
137.6575344628562
 21
-646.2000000000007
 31
0.0
  0
LINE
  5
284E
330
2BEF
100
AcDbEntity
  8
0
 62
     0
100
AcDbLine
 10
-295.7000000000008
 20
-354.2957482153897
 30
0.0
 11
142.1574957567409
 21
-646.1999999999997
 31
0.0
  0
LINE
  5
284F
330
2BEF
100
AcDbEntity
  8
0
 62
     0
100
AcDbLine
 10
-295.6999999999989
 20
-351.2957816799744
 30
0.0
 11
146.6574570506272
 21
-646.1999999999997
 31
0.0
  0
LINE
  5
2850
330
2BEF
100
AcDbEntity
  8
0
 62
     0
100
AcDbLine
 10
-295.6999999999989
 20
-348.2958151445572
 30
0.0
 11
151.1574183445118
 21
-646.1999999999989
 31
0.0
  0
LINE
  5
2851
330
2BEF
100
AcDbEntity
  8
0
 62
     0
100
AcDbLine
 10
-295.6999999999989
 20
-345.2958486091429
 30
0.0
 11
155.6573796383982
 21
-646.1999999999997
 31
0.0
  0
LINE
  5
2852
330
2BEF
100
AcDbEntity
  8
0
 62
     0
100
AcDbLine
 10
-295.6999999999989
 20
-342.2958820737258
 30
0.0
 11
160.1573409322827
 21
-646.1999999999989
 31
0.0
  0
LINE
  5
2853
330
2BEF
100
AcDbEntity
  8
0
 62
     0
100
AcDbLine
 10
-295.6999999999971
 20
-339.2959155383105
 30
0.0
 11
164.6573022261691
 21
-646.1999999999997
 31
0.0
  0
LINE
  5
2854
330
2BEF
100
AcDbEntity
  8
0
 62
     0
100
AcDbLine
 10
-295.6999999999989
 20
-336.2959490028925
 30
0.0
 11
169.1572635200518
 21
-646.199999999998
 31
0.0
  0
LINE
  5
2855
330
2BEF
100
AcDbEntity
  8
0
 62
     0
100
AcDbLine
 10
-295.6999999999989
 20
-333.2959824674762
 30
0.0
 11
173.65722481394
 21
-646.1999999999989
 31
0.0
  0
LINE
  5
2856
330
2BEF
100
AcDbEntity
  8
0
 62
     0
100
AcDbLine
 10
-295.6999999999989
 20
-330.2960159320609
 30
0.0
 11
178.1571861078246
 21
-646.1999999999989
 31
0.0
  0
LINE
  5
2857
330
2BEF
100
AcDbEntity
  8
0
 62
     0
100
AcDbLine
 10
-295.6999999999989
 20
-327.2960493966439
 30
0.0
 11
182.6571474017109
 21
-646.199999999998
 31
0.0
  0
LINE
  5
2858
330
2BEF
100
AcDbEntity
  8
0
 62
     0
100
AcDbLine
 10
-295.6999999999989
 20
-324.2960828612286
 30
0.0
 11
187.1571086955936
 21
-646.1999999999989
 31
0.0
  0
LINE
  5
2859
330
2BEF
100
AcDbEntity
  8
0
 62
     0
100
AcDbLine
 10
-295.6999999999989
 20
-321.2961163258114
 30
0.0
 11
191.6570699894837
 21
-646.1999999999989
 31
0.0
  0
LINE
  5
285A
330
2BEF
100
AcDbEntity
  8
0
 62
     0
100
AcDbLine
 10
-295.6999999999971
 20
-318.2961497903962
 30
0.0
 11
196.1570312833682
 21
-646.1999999999997
 31
0.0
  0
LINE
  5
285B
330
2BEF
100
AcDbEntity
  8
0
 62
     0
100
AcDbLine
 10
-295.6999999999989
 20
-315.29618325498
 30
0.0
 11
200.6569925772528
 21
-646.199999999998
 31
0.0
  0
LINE
  5
285C
330
2BEF
100
AcDbEntity
  8
0
 62
     0
100
AcDbLine
 10
-295.6999999999989
 20
-312.2962167195646
 30
0.0
 11
205.1569538711374
 21
-646.1999999999997
 31
0.0
  0
LINE
  5
285D
330
2BEF
100
AcDbEntity
  8
0
 62
     0
100
AcDbLine
 10
-295.7000000000008
 20
-309.2962501841466
 30
0.0
 11
209.6569151650237
 21
-646.1999999999997
 31
0.0
  0
LINE
  5
285E
330
2BEF
100
AcDbEntity
  8
0
 62
     0
100
AcDbLine
 10
-295.6999999999971
 20
-306.2962836487323
 30
0.0
 11
214.1568764589101
 21
-646.1999999999997
 31
0.0
  0
LINE
  5
285F
330
2BEF
100
AcDbEntity
  8
0
 62
     0
100
AcDbLine
 10
-295.7000000000008
 20
-303.2963171133143
 30
0.0
 11
218.6568377527947
 21
-646.1999999999989
 31
0.0
  0
LINE
  5
2860
330
2BEF
100
AcDbEntity
  8
0
 62
     0
100
AcDbLine
 10
-295.6999999999989
 20
-300.2963505778989
 30
0.0
 11
223.156799046681
 21
-646.2000000000007
 31
0.0
  0
LINE
  5
2861
330
2BEF
100
AcDbEntity
  8
0
 62
     0
100
AcDbLine
 10
-295.6999999999989
 20
-297.2963840424828
 30
0.0
 11
227.6567603405673
 21
-646.1999999999989
 31
0.0
  0
LINE
  5
2862
330
2BEF
100
AcDbEntity
  8
0
 62
     0
100
AcDbLine
 10
-295.6999999999989
 20
-294.2964175070675
 30
0.0
 11
232.1567216344501
 21
-646.1999999999997
 31
0.0
  0
LINE
  5
2863
330
2BEF
100
AcDbEntity
  8
0
 62
     0
100
AcDbLine
 10
-295.7000000000008
 20
-291.2964509716503
 30
0.0
 11
236.6566829283347
 21
-646.199999999998
 31
0.0
  0
LINE
  5
2864
330
2BEF
100
AcDbEntity
  8
0
 62
     0
100
AcDbLine
 10
-295.6999999999971
 20
-288.2964844362332
 30
0.0
 11
241.1566442222247
 21
-646.1999999999989
 31
0.0
  0
LINE
  5
2865
330
2BEF
100
AcDbEntity
  8
0
 62
     0
100
AcDbLine
 10
-295.6999999999989
 20
-285.2965179008179
 30
0.0
 11
245.6566055161093
 21
-646.1999999999997
 31
0.0
  0
LINE
  5
2866
330
2BEF
100
AcDbEntity
  8
0
 62
     0
100
AcDbLine
 10
-295.7000000000008
 20
-282.2965513654008
 30
0.0
 11
250.156566809992
 21
-646.199999999998
 31
0.0
  0
LINE
  5
2867
330
2BEF
100
AcDbEntity
  8
0
 62
     0
100
AcDbLine
 10
-295.6999999999989
 20
-279.2965848299864
 30
0.0
 11
254.6565281038802
 21
-646.2000000000007
 31
0.0
  0
LINE
  5
2868
330
2BEF
100
AcDbEntity
  8
0
 62
     0
100
AcDbLine
 10
-295.6999999999989
 20
-276.2966182945683
 30
0.0
 11
259.1564893977666
 21
-646.1999999999989
 31
0.0
  0
LINE
  5
2869
330
2BEF
100
AcDbEntity
  8
0
 62
     0
100
AcDbLine
 10
-295.6999999999989
 20
-273.2966517591531
 30
0.0
 11
263.6564506916493
 21
-646.1999999999997
 31
0.0
  0
LINE
  5
286A
330
2BEF
100
AcDbEntity
  8
0
 62
     0
100
AcDbLine
 10
-295.6999999999989
 20
-270.2966852237359
 30
0.0
 11
268.1564119855357
 21
-646.1999999999989
 31
0.0
  0
LINE
  5
286B
330
2BEF
100
AcDbEntity
  8
0
 62
     0
100
AcDbLine
 10
-295.6999999999971
 20
-267.2967186883216
 30
0.0
 11
272.656373279422
 21
-646.1999999999997
 31
0.0
  0
LINE
  5
286C
330
2BEF
100
AcDbEntity
  8
0
 62
     0
100
AcDbLine
 10
-295.6999999999989
 20
-264.2967521529044
 30
0.0
 11
277.1563345733066
 21
-646.1999999999989
 31
0.0
  0
LINE
  5
286D
330
2BEF
100
AcDbEntity
  8
0
 62
     0
100
AcDbLine
 10
-295.6999999999989
 20
-261.2967856174892
 30
0.0
 11
281.6562958671909
 21
-646.1999999999989
 31
0.0
  0
LINE
  5
286E
330
2BEF
100
AcDbEntity
  8
0
 62
     0
100
AcDbLine
 10
-295.6999999999989
 20
-258.296819082072
 30
0.0
 11
286.1562571610757
 21
-646.199999999998
 31
0.0
  0
LINE
  5
286F
330
2BEF
100
AcDbEntity
  8
0
 62
     0
100
AcDbLine
 10
-295.6999999999989
 20
-255.2968525466558
 30
0.0
 11
290.6562184549639
 21
-646.2000000000007
 31
0.0
  0
LINE
  5
2870
330
2BEF
100
AcDbEntity
  8
0
 62
     0
100
AcDbLine
 10
-295.6999999999989
 20
-252.2968860112405
 30
0.0
 11
295.1561797488484
 21
-646.1999999999989
 31
0.0
  0
LINE
  5
2871
330
2BEF
100
AcDbEntity
  8
0
 62
     0
100
AcDbLine
 10
-295.6999999999989
 20
-249.2969194758225
 30
0.0
 11
295.6999999999953
 21
-643.5625793729068
 31
0.0
  0
LINE
  5
2872
330
2BEF
100
AcDbEntity
  8
0
 62
     0
100
AcDbLine
 10
-295.6999999999989
 20
-246.2969529404072
 30
0.0
 11
295.6999999999971
 21
-640.5626128374925
 31
0.0
  0
LINE
  5
2873
330
2BEF
100
AcDbEntity
  8
0
 62
     0
100
AcDbLine
 10
-295.6999999999989
 20
-243.2969864049901
 30
0.0
 11
295.6999999999953
 21
-637.5626463020753
 31
0.0
  0
LINE
  5
2874
330
2BEF
100
AcDbEntity
  8
0
 62
     0
100
AcDbLine
 10
-295.7000000000008
 20
-240.2970198695748
 30
0.0
 11
295.6999999999953
 21
-634.56267976666
 31
0.0
  0
LINE
  5
2875
330
2BEF
100
AcDbEntity
  8
0
 62
     0
100
AcDbLine
 10
-295.6999999999971
 20
-237.2970533341586
 30
0.0
 11
295.6999999999971
 21
-631.5627132312429
 31
0.0
  0
LINE
  5
2876
330
2BEF
100
AcDbEntity
  8
0
 62
     0
100
AcDbLine
 10
-295.6999999999989
 20
-234.2970867987433
 30
0.0
 11
295.6999999999971
 21
-628.5627466958276
 31
0.0
  0
LINE
  5
2877
330
2BEF
100
AcDbEntity
  8
0
 62
     0
100
AcDbLine
 10
-295.6999999999989
 20
-231.2971202633262
 30
0.0
 11
295.6999999999953
 21
-625.5627801604114
 31
0.0
  0
LINE
  5
2878
330
2BEF
100
AcDbEntity
  8
0
 62
     0
100
AcDbLine
 10
-295.7000000000008
 20
-228.29715372791
 30
0.0
 11
295.6999999999953
 21
-622.5628136249952
 31
0.0
  0
LINE
  5
2879
330
2BEF
100
AcDbEntity
  8
0
 62
     0
100
AcDbLine
 10
-295.6999999999989
 20
-225.2971871924929
 30
0.0
 11
295.6999999999971
 21
-619.562847089579
 31
0.0
  0
LINE
  5
287A
330
2BEF
100
AcDbEntity
  8
0
 62
     0
100
AcDbLine
 10
-295.6999999999989
 20
-222.2972206570775
 30
0.0
 11
295.6999999999953
 21
-616.5628805541626
 31
0.0
  0
LINE
  5
287B
330
2BEF
100
AcDbEntity
  8
0
 62
     0
100
AcDbLine
 10
-295.6999999999989
 20
-219.2972541216613
 30
0.0
 11
295.6999999999953
 21
-613.5629140187456
 31
0.0
  0
LINE
  5
287C
330
2BEF
100
AcDbEntity
  8
0
 62
     0
100
AcDbLine
 10
-295.6999999999971
 20
-216.2972875862461
 30
0.0
 11
295.6999999999971
 21
-610.5629474833311
 31
0.0
  0
LINE
  5
287D
330
2BEF
100
AcDbEntity
  8
0
 62
     0
100
AcDbLine
 10
-295.6999999999989
 20
-213.2973210508289
 30
0.0
 11
295.6999999999953
 21
-607.5629809479139
 31
0.0
  0
LINE
  5
287E
330
2BEF
100
AcDbEntity
  8
0
 62
     0
100
AcDbLine
 10
-295.6999999999989
 20
-210.2973545154118
 30
0.0
 11
295.6999999999953
 21
-604.563014412497
 31
0.0
  0
LINE
  5
287F
330
2BEF
100
AcDbEntity
  8
0
 62
     0
100
AcDbLine
 10
-295.6999999999989
 20
-207.2973879799965
 30
0.0
 11
295.6999999999953
 21
-601.5630478770816
 31
0.0
  0
LINE
  5
2880
330
2BEF
100
AcDbEntity
  8
0
 62
     0
100
AcDbLine
 10
-295.6999999999971
 20
-204.2974214445802
 30
0.0
 11
295.6999999999971
 21
-598.5630813416648
 31
0.0
  0
LINE
  5
2881
330
2BEF
100
AcDbEntity
  8
0
 62
     0
100
AcDbLine
 10
-295.7000000000008
 20
-201.2974549091641
 30
0.0
 11
295.6999999999935
 21
-595.5631148062484
 31
0.0
  0
LINE
  5
2882
330
2BEF
100
AcDbEntity
  8
0
 62
     0
100
AcDbLine
 10
-295.6999999999989
 20
-198.2974883737468
 30
0.0
 11
295.6999999999971
 21
-592.5631482708332
 31
0.0
  0
LINE
  5
2883
330
2BEF
100
AcDbEntity
  8
0
 62
     0
100
AcDbLine
 10
-295.6999999999989
 20
-195.2975218383317
 30
0.0
 11
295.6999999999971
 21
-589.563181735417
 31
0.0
  0
LINE
  5
2884
330
2BEF
100
AcDbEntity
  8
0
 62
     0
100
AcDbLine
 10
-295.6999999999989
 20
-192.2975553029146
 30
0.0
 11
295.6999999999971
 21
-586.5632152000007
 31
0.0
  0
LINE
  5
2885
330
2BEF
100
AcDbEntity
  8
0
 62
     0
100
AcDbLine
 10
-295.7000000000008
 20
-189.2975887675002
 30
0.0
 11
295.6999999999953
 21
-583.5632486645845
 31
0.0
  0
LINE
  5
2886
330
2BEF
100
AcDbEntity
  8
0
 62
     0
100
AcDbLine
 10
-295.6999999999989
 20
-186.297622232083
 30
0.0
 11
295.6999999999953
 21
-580.5632821291673
 31
0.0
  0
LINE
  5
2887
330
2BEF
100
AcDbEntity
  8
0
 62
     0
100
AcDbLine
 10
-295.6999999999989
 20
-183.2976556966676
 30
0.0
 11
295.6999999999971
 21
-577.563315593753
 31
0.0
  0
LINE
  5
2888
330
2BEF
100
AcDbEntity
  8
0
 62
     0
100
AcDbLine
 10
-295.6999999999989
 20
-180.2976891612507
 30
0.0
 11
295.6999999999953
 21
-574.5633490583359
 31
0.0
  0
LINE
  5
2889
330
2BEF
100
AcDbEntity
  8
0
 62
     0
100
AcDbLine
 10
-295.6999999999989
 20
-177.2977226258354
 30
0.0
 11
295.6999999999971
 21
-571.5633825229206
 31
0.0
  0
LINE
  5
288A
330
2BEF
100
AcDbEntity
  8
0
 62
     0
100
AcDbLine
 10
-295.6999999999989
 20
-174.2977560904173
 30
0.0
 11
295.6999999999971
 21
-568.5634159875035
 31
0.0
  0
LINE
  5
288B
330
2BEF
100
AcDbEntity
  8
0
 62
     0
100
AcDbLine
 10
-295.7000000000008
 20
-171.2977895550011
 30
0.0
 11
295.6999999999989
 21
-565.563449452089
 31
0.0
  0
LINE
  5
288C
330
2BEF
100
AcDbEntity
  8
0
 62
     0
100
AcDbLine
 10
-295.7000000000008
 20
-168.2978230195858
 30
0.0
 11
295.6999999999971
 21
-562.5634829166727
 31
0.0
  0
LINE
  5
288D
330
2BEF
100
AcDbEntity
  8
0
 62
     0
100
AcDbLine
 10
-295.6999999999971
 20
-165.2978564841687
 30
0.0
 11
295.7000000000008
 21
-559.5635163812564
 31
0.0
  0
LINE
  5
288E
330
2BEF
100
AcDbEntity
  8
0
 62
     0
100
AcDbLine
 10
-295.6999999999989
 20
-162.2978899487534
 30
0.0
 11
295.6999999999989
 21
-556.5635498458402
 31
0.0
  0
LINE
  5
288F
330
2BEF
100
AcDbEntity
  8
0
 62
     0
100
AcDbLine
 10
-295.6999999999989
 20
-159.2979234133361
 30
0.0
 11
295.6999999999971
 21
-553.5635833104231
 31
0.0
  0
LINE
  5
2890
330
2BEF
100
AcDbEntity
  8
0
 62
     0
100
AcDbLine
 10
-295.6999999999989
 20
-156.2979568779219
 30
0.0
 11
295.6999999999989
 21
-550.563616775009
 31
0.0
  0
LINE
  5
2891
330
2BEF
100
AcDbEntity
  8
0
 62
     0
100
AcDbLine
 10
-295.6999999999971
 20
-153.2979903425048
 30
0.0
 11
295.6999999999989
 21
-547.5636502395919
 31
0.0
  0
LINE
  5
2892
330
2BEF
100
AcDbEntity
  8
0
 62
     0
100
AcDbLine
 10
-295.6999999999989
 20
-150.2980238070894
 30
0.0
 11
295.6999999999989
 21
-544.5636837041766
 31
0.0
  0
LINE
  5
2893
330
2BEF
100
AcDbEntity
  8
0
 62
     0
100
AcDbLine
 10
-295.6999999999989
 20
-147.2980572716715
 30
0.0
 11
295.6999999999989
 21
-541.5637171687595
 31
0.0
  0
LINE
  5
2894
330
2BEF
100
AcDbEntity
  8
0
 62
     0
100
AcDbLine
 10
-295.6999999999989
 20
-144.2980907362561
 30
0.0
 11
295.7000000000008
 21
-538.5637506333439
 31
0.0
  0
LINE
  5
2895
330
2BEF
100
AcDbEntity
  8
0
 62
     0
100
AcDbLine
 10
-295.6999999999989
 20
-141.29812420084
 30
0.0
 11
295.6999999999989
 21
-535.5637840979261
 31
0.0
  0
LINE
  5
2896
330
2BEF
100
AcDbEntity
  8
0
 62
     0
100
AcDbLine
 10
-295.7000000000008
 20
-138.2981576654247
 30
0.0
 11
295.6999999999989
 21
-532.5638175625125
 31
0.0
  0
LINE
  5
2897
330
2BEF
100
AcDbEntity
  8
0
 62
     0
100
AcDbLine
 10
-295.6999999999989
 20
-135.2981911300076
 30
0.0
 11
295.6999999999989
 21
-529.5638510270945
 31
0.0
  0
LINE
  5
2898
330
2BEF
100
AcDbEntity
  8
0
 62
     0
100
AcDbLine
 10
-295.6999999999989
 20
-132.2982245945904
 30
0.0
 11
295.6999999999989
 21
-526.5638844916775
 31
0.0
  0
LINE
  5
2899
330
2BEF
100
AcDbEntity
  8
0
 62
     0
100
AcDbLine
 10
-295.6999999999989
 20
-129.2982580591751
 30
0.0
 11
295.6999999999989
 21
-523.5639179562622
 31
0.0
  0
LINE
  5
289A
330
2BEF
100
AcDbEntity
  8
0
 62
     0
100
AcDbLine
 10
-295.6999999999989
 20
-126.2982915237589
 30
0.0
 11
295.6999999999989
 21
-520.563951420846
 31
0.0
  0
LINE
  5
289B
330
2BEF
100
AcDbEntity
  8
0
 62
     0
100
AcDbLine
 10
-295.6999999999971
 20
-123.2983249883436
 30
0.0
 11
295.7000000000008
 21
-517.5639848854307
 31
0.0
  0
LINE
  5
289C
330
2BEF
100
AcDbEntity
  8
0
 62
     0
100
AcDbLine
 10
-295.7000000000008
 20
-120.2983584529256
 30
0.0
 11
295.6999999999989
 21
-514.5640183500136
 31
0.0
  0
LINE
  5
289D
330
2BEF
100
AcDbEntity
  8
0
 62
     0
100
AcDbLine
 10
-294.9475859549584
 20
-117.8000000000002
 30
0.0
 11
295.6999999999989
 21
-511.5640518145981
 31
0.0
  0
LINE
  5
289E
330
2BEF
100
AcDbEntity
  8
0
 62
     0
100
AcDbLine
 10
-290.4476246610703
 20
-117.7999999999993
 30
0.0
 11
295.7000000000008
 21
-508.5640852791811
 31
0.0
  0
LINE
  5
289F
330
2BEF
100
AcDbEntity
  8
0
 62
     0
100
AcDbLine
 10
-285.9476633671857
 20
-117.8000000000002
 30
0.0
 11
295.7000000000008
 21
-505.5641187437668
 31
0.0
  0
LINE
  5
28A0
330
2BEF
100
AcDbEntity
  8
0
 62
     0
100
AcDbLine
 10
-281.4477020733029
 20
-117.7999999999983
 30
0.0
 11
295.6999999999971
 21
-502.5641522083487
 31
0.0
  0
LINE
  5
28A1
330
2BEF
100
AcDbEntity
  8
0
 62
     0
100
AcDbLine
 10
-276.9477407794166
 20
-117.7999999999993
 30
0.0
 11
295.7000000000008
 21
-499.5641856729343
 31
0.0
  0
LINE
  5
28A2
330
2BEF
100
AcDbEntity
  8
0
 62
     0
100
AcDbLine
 10
-272.4477794855284
 20
-117.8000000000002
 30
0.0
 11
295.6999999999989
 21
-496.5642191375163
 31
0.0
  0
LINE
  5
28A3
330
2BEF
100
AcDbEntity
  8
0
 62
     0
100
AcDbLine
 10
-267.9478181916438
 20
-117.8000000000002
 30
0.0
 11
295.6999999999989
 21
-493.5642526021011
 31
0.0
  0
LINE
  5
28A4
330
2BEF
100
AcDbEntity
  8
0
 62
     0
100
AcDbLine
 10
-263.4478568977593
 20
-117.7999999999993
 30
0.0
 11
295.6999999999989
 21
-490.5642860666839
 31
0.0
  0
LINE
  5
28A5
330
2BEF
100
AcDbEntity
  8
0
 62
     0
100
AcDbLine
 10
-258.9478956038729
 20
-117.7999999999974
 30
0.0
 11
295.7000000000008
 21
-487.5643195312677
 31
0.0
  0
LINE
  5
28A6
330
2BEF
100
AcDbEntity
  8
0
 62
     0
100
AcDbLine
 10
-254.4479343099865
 20
-117.8000000000002
 30
0.0
 11
295.6999999999989
 21
-484.5643529958523
 31
0.0
  0
LINE
  5
28A7
330
2BEF
100
AcDbEntity
  8
0
 62
     0
100
AcDbLine
 10
-249.947973016102
 20
-117.7999999999993
 30
0.0
 11
295.6999999999989
 21
-481.5643864604352
 31
0.0
  0
LINE
  5
28A8
330
2BEF
100
AcDbEntity
  8
0
 62
     0
100
AcDbLine
 10
-245.4480117222173
 20
-117.7999999999993
 30
0.0
 11
295.6999999999989
 21
-478.5644199250199
 31
0.0
  0
LINE
  5
28A9
330
2BEF
100
AcDbEntity
  8
0
 62
     0
100
AcDbLine
 10
-240.9480504283292
 20
-117.8000000000002
 30
0.0
 11
295.6999999999989
 21
-475.564453389602
 31
0.0
  0
LINE
  5
28AA
330
2BEF
100
AcDbEntity
  8
0
 62
     0
100
AcDbLine
 10
-236.4480891344447
 20
-117.8000000000011
 30
0.0
 11
295.7000000000008
 21
-472.5644868541885
 31
0.0
  0
LINE
  5
28AB
330
2BEF
100
AcDbEntity
  8
0
 62
     0
100
AcDbLine
 10
-231.9481278405583
 20
-117.7999999999993
 30
0.0
 11
295.6999999999989
 21
-469.5645203187705
 31
0.0
  0
LINE
  5
28AC
330
2BEF
100
AcDbEntity
  8
0
 62
     0
100
AcDbLine
 10
-227.4481665466737
 20
-117.8000000000002
 30
0.0
 11
295.7000000000008
 21
-466.5645537833551
 31
0.0
  0
LINE
  5
28AD
330
2BEF
100
AcDbEntity
  8
0
 62
     0
100
AcDbLine
 10
-222.9482052527874
 20
-117.7999999999993
 30
0.0
 11
295.6999999999989
 21
-463.5645872479381
 31
0.0
  0
LINE
  5
28AE
330
2BEF
100
AcDbEntity
  8
0
 62
     0
100
AcDbLine
 10
-218.4482439589046
 20
-117.8000000000002
 30
0.0
 11
295.6999999999989
 21
-460.5646207125228
 31
0.0
  0
LINE
  5
28AF
330
2BEF
100
AcDbEntity
  8
0
 62
     0
100
AcDbLine
 10
-213.9482826650183
 20
-117.7999999999983
 30
0.0
 11
295.6999999999989
 21
-457.5646541771066
 31
0.0
  0
LINE
  5
28B0
330
2BEF
100
AcDbEntity
  8
0
 62
     0
100
AcDbLine
 10
79.9000000000051
 20
-310.6983883420808
 30
0.0
 11
81.25242094032365
 21
-311.5999999999995
 31
0.0
  0
LINE
  5
28B1
330
2BEF
100
AcDbEntity
  8
0
 62
     0
100
AcDbLine
 10
81.25242094032365
 20
-311.5999999999995
 30
0.0
 11
295.7000000000008
 21
-454.5646876416912
 31
0.0
  0
LINE
  5
28B2
330
2BEF
100
AcDbEntity
  8
0
 62
     0
100
AcDbLine
 10
-209.4483213711337
 20
-117.7999999999993
 30
0.0
 11
79.90000000000145
 21
-310.6983883420771
 31
0.0
  0
LINE
  5
28B3
330
2BEF
100
AcDbEntity
  8
0
 62
     0
100
AcDbLine
 10
79.9000000000051
 20
-307.6984218066637
 30
0.0
 11
85.75238223420637
 21
-311.5999999999977
 31
0.0
  0
LINE
  5
28B4
330
2BEF
100
AcDbEntity
  8
0
 62
     0
100
AcDbLine
 10
85.75238223420999
 20
-311.6000000000004
 30
0.0
 11
295.6999999999989
 21
-451.564721106274
 31
0.0
  0
LINE
  5
28B5
330
2BEF
100
AcDbEntity
  8
0
 62
     0
100
AcDbLine
 10
-204.9483600772455
 20
-117.8000000000002
 30
0.0
 11
79.89999999999962
 21
-307.69842180666
 31
0.0
  0
LINE
  5
28B6
330
2BEF
100
AcDbEntity
  8
0
 62
     0
100
AcDbLine
 10
79.9000000000051
 20
-304.6984552712483
 30
0.0
 11
90.25234352809455
 21
-311.5999999999995
 31
0.0
  0
LINE
  5
28B7
330
2BEF
100
AcDbEntity
  8
0
 62
     0
100
AcDbLine
 10
90.25234352809635
 20
-311.6000000000004
 30
0.0
 11
295.7000000000008
 21
-448.5647545708588
 31
0.0
  0
LINE
  5
28B8
330
2BEF
100
AcDbEntity
  8
0
 62
     0
100
AcDbLine
 10
-200.448398783361
 20
-117.8000000000002
 30
0.0
 11
79.90000000000145
 21
-304.6984552712456
 31
0.0
  0
LINE
  5
28B9
330
2BEF
100
AcDbEntity
  8
0
 62
     0
100
AcDbLine
 10
79.9000000000051
 20
-301.6984887358303
 30
0.0
 11
94.75230482198091
 21
-311.5999999999995
 31
0.0
  0
LINE
  5
28BA
330
2BEF
100
AcDbEntity
  8
0
 62
     0
100
AcDbLine
 10
94.75230482198091
 20
-311.5999999999995
 30
0.0
 11
295.7000000000008
 21
-445.5647880354415
 31
0.0
  0
LINE
  5
28BB
330
2BEF
100
AcDbEntity
  8
0
 62
     0
100
AcDbLine
 10
-195.9484374894746
 20
-117.7999999999993
 30
0.0
 11
79.90000000000145
 21
-301.6984887358285
 31
0.0
  0
LINE
  5
28BC
330
2BEF
100
AcDbEntity
  8
0
 62
     0
100
AcDbLine
 10
79.90000000000326
 20
-298.6985222004132
 30
0.0
 11
99.25226611586369
 21
-311.5999999999968
 31
0.0
  0
LINE
  5
28BD
330
2BEF
100
AcDbEntity
  8
0
 62
     0
100
AcDbLine
 10
99.25226611586548
 20
-311.5999999999977
 30
0.0
 11
295.7000000000008
 21
-442.5648215000252
 31
0.0
  0
LINE
  5
28BE
330
2BEF
100
AcDbEntity
  8
0
 62
     0
100
AcDbLine
 10
-191.4484761955882
 20
-117.8000000000002
 30
0.0
 11
79.90000000000145
 21
-298.6985222004114
 31
0.0
  0
LINE
  5
28BF
330
2BEF
100
AcDbEntity
  8
0
 62
     0
100
AcDbLine
 10
79.90000000000326
 20
-295.6985556649979
 30
0.0
 11
103.7522274097518
 21
-311.6000000000004
 31
0.0
  0
LINE
  5
28C0
330
2BEF
100
AcDbEntity
  8
0
 62
     0
100
AcDbLine
 10
103.7522274097518
 20
-311.6000000000004
 30
0.0
 11
295.6999999999989
 21
-439.5648549646103
 31
0.0
  0
LINE
  5
28C1
330
2BEF
100
AcDbEntity
  8
0
 62
     0
100
AcDbLine
 10
-186.9485149017054
 20
-117.8000000000002
 30
0.0
 11
79.89999999999962
 21
-295.6985556649961
 31
0.0
  0
LINE
  5
28C2
330
2BEF
100
AcDbEntity
  8
0
 62
     0
100
AcDbLine
 10
79.9000000000051
 20
-292.6985891295817
 30
0.0
 11
108.2521887036382
 21
-311.5999999999977
 31
0.0
  0
LINE
  5
28C3
330
2BEF
100
AcDbEntity
  8
0
 62
     0
100
AcDbLine
 10
108.25218870364
 20
-311.5999999999995
 30
0.0
 11
295.7000000000008
 21
-436.5648884291919
 31
0.0
  0
LINE
  5
28C4
330
2BEF
100
AcDbEntity
  8
0
 62
     0
100
AcDbLine
 10
-182.4485536078173
 20
-117.7999999999993
 30
0.0
 11
79.90000000000145
 21
-292.6985891295781
 31
0.0
  0
LINE
  5
28C5
330
2BEF
100
AcDbEntity
  8
0
 62
     0
100
AcDbLine
 10
79.9000000000051
 20
-289.6986225941664
 30
0.0
 11
112.7521499975228
 21
-311.5999999999995
 31
0.0
  0
LINE
  5
28C6
330
2BEF
100
AcDbEntity
  8
0
 62
     0
100
AcDbLine
 10
112.7521499975228
 20
-311.5999999999995
 30
0.0
 11
295.6999999999989
 21
-433.5649218937767
 31
0.0
  0
LINE
  5
28C7
330
2BEF
100
AcDbEntity
  8
0
 62
     0
100
AcDbLine
 10
-177.9485923139327
 20
-117.7999999999993
 30
0.0
 11
79.90000000000145
 21
-289.6986225941646
 31
0.0
  0
LINE
  5
28C8
330
2BEF
100
AcDbEntity
  8
0
 62
     0
100
AcDbLine
 10
79.90000000000326
 20
-286.6986560587492
 30
0.0
 11
117.2521112914055
 21
-311.5999999999968
 31
0.0
  0
LINE
  5
28C9
330
2BEF
100
AcDbEntity
  8
0
 62
     0
100
AcDbLine
 10
117.2521112914092
 20
-311.5999999999995
 30
0.0
 11
295.6999999999989
 21
-430.5649553583598
 31
0.0
  0
LINE
  5
28CA
330
2BEF
100
AcDbEntity
  8
0
 62
     0
100
AcDbLine
 10
-173.4486310200481
 20
-117.7999999999993
 30
0.0
 11
79.89999999999962
 21
-286.6986560587466
 31
0.0
  0
LINE
  5
28CB
330
2BEF
100
AcDbEntity
  8
0
 62
     0
100
AcDbLine
 10
79.9000000000051
 20
-283.698689523334
 30
0.0
 11
121.7520725852919
 21
-311.5999999999985
 31
0.0
  0
LINE
  5
28CC
330
2BEF
100
AcDbEntity
  8
0
 62
     0
100
AcDbLine
 10
121.7520725852937
 20
-311.5999999999995
 30
0.0
 11
295.6999999999989
 21
-427.5649888229445
 31
0.0
  0
LINE
  5
28CD
330
2BEF
100
AcDbEntity
  8
0
 62
     0
100
AcDbLine
 10
-168.9486697261618
 20
-117.8000000000002
 30
0.0
 11
79.89999999999962
 21
-283.6986895233313
 31
0.0
  0
LINE
  5
28CE
330
2BEF
100
AcDbEntity
  8
0
 62
     0
100
AcDbLine
 10
79.9000000000051
 20
-280.6987229879169
 30
0.0
 11
126.2520338791801
 21
-311.5999999999985
 31
0.0
  0
LINE
  5
28CF
330
2BEF
100
AcDbEntity
  8
0
 62
     0
100
AcDbLine
 10
126.2520338791801
 20
-311.5999999999985
 30
0.0
 11
295.7000000000008
 21
-424.5650222875282
 31
0.0
  0
LINE
  5
28D0
330
2BEF
100
AcDbEntity
  8
0
 62
     0
100
AcDbLine
 10
-164.4487084322773
 20
-117.7999999999983
 30
0.0
 11
79.90000000000145
 21
-280.6987229879141
 31
0.0
  0
LINE
  5
28D1
330
2BEF
100
AcDbEntity
  8
0
 62
     0
100
AcDbLine
 10
79.9000000000051
 20
-277.6987564525025
 30
0.0
 11
130.751995173061
 21
-311.5999999999977
 31
0.0
  0
LINE
  5
28D2
330
2BEF
100
AcDbEntity
  8
0
 62
     0
100
AcDbLine
 10
130.7519951730628
 20
-311.5999999999985
 30
0.0
 11
295.6999999999989
 21
-421.5650557521128
 31
0.0
  0
LINE
  5
28D3
330
2BEF
100
AcDbEntity
  8
0
 62
     0
100
AcDbLine
 10
-159.9487471383927
 20
-117.7999999999993
 30
0.0
 11
79.89999999999962
 21
-277.6987564524989
 31
0.0
  0
LINE
  5
28D4
330
2BEF
100
AcDbEntity
  8
0
 62
     0
100
AcDbLine
 10
79.90000000000326
 20
-274.6987899170845
 30
0.0
 11
135.2519564669528
 21
-311.5999999999995
 31
0.0
  0
LINE
  5
28D5
330
2BEF
100
AcDbEntity
  8
0
 62
     0
100
AcDbLine
 10
135.2519564669528
 20
-311.5999999999995
 30
0.0
 11
295.7000000000008
 21
-418.5650892166959
 31
0.0
  0
LINE
  5
28D6
330
2BEF
100
AcDbEntity
  8
0
 62
     0
100
AcDbLine
 10
-155.4487858445045
 20
-117.7999999999993
 30
0.0
 11
79.90000000000145
 21
-274.6987899170825
 31
0.0
  0
LINE
  5
28D7
330
2BEF
100
AcDbEntity
  8
0
 62
     0
100
AcDbLine
 10
79.9000000000051
 20
-271.6988233816692
 30
0.0
 11
139.7519177608355
 21
-311.5999999999995
 31
0.0
  0
LINE
  5
28D8
330
2BEF
100
AcDbEntity
  8
0
 62
     0
100
AcDbLine
 10
139.7519177608374
 20
-311.6000000000004
 30
0.0
 11
295.7000000000008
 21
-415.5651226812794
 31
0.0
  0
LINE
  5
28D9
330
2BEF
100
AcDbEntity
  8
0
 62
     0
100
AcDbLine
 10
-150.9488245506181
 20
-117.8000000000002
 30
0.0
 11
79.90000000000145
 21
-271.6988233816674
 31
0.0
  0
LINE
  5
28DA
330
2BEF
100
AcDbEntity
  8
0
 62
     0
100
AcDbLine
 10
79.9000000000051
 20
-268.698856846252
 30
0.0
 11
144.2518790547219
 21
-311.5999999999985
 31
0.0
  0
LINE
  5
28DB
330
2BEF
100
AcDbEntity
  8
0
 62
     0
100
AcDbLine
 10
144.2518790547219
 20
-311.5999999999985
 30
0.0
 11
295.7000000000008
 21
-412.5651561458635
 31
0.0
  0
LINE
  5
28DC
330
2BEF
100
AcDbEntity
  8
0
 62
     0
100
AcDbLine
 10
-146.4488632567354
 20
-117.7999999999993
 30
0.0
 11
79.90000000000145
 21
-268.6988568462502
 31
0.0
  0
LINE
  5
28DD
330
2BEF
100
AcDbEntity
  8
0
 62
     0
100
AcDbLine
 10
79.90000000000326
 20
-265.6988903108368
 30
0.0
 11
148.7518403486028
 21
-311.5999999999985
 31
0.0
  0
LINE
  5
28DE
330
2BEF
100
AcDbEntity
  8
0
 62
     0
100
AcDbLine
 10
148.7518403486046
 20
-311.5999999999995
 30
0.0
 11
295.6999999999989
 21
-409.5651896104481
 31
0.0
  0
LINE
  5
28DF
330
2BEF
100
AcDbEntity
  8
0
 62
     0
100
AcDbLine
 10
-141.948901962849
 20
-117.8000000000011
 30
0.0
 11
79.89999999999962
 21
-265.698890310834
 31
0.0
  0
LINE
  5
28E0
330
2BEF
100
AcDbEntity
  8
0
 62
     0
100
AcDbLine
 10
79.9000000000051
 20
-262.6989237754206
 30
0.0
 11
153.2518016424947
 21
-311.6000000000004
 31
0.0
  0
LINE
  5
28E1
330
2BEF
100
AcDbEntity
  8
0
 62
     0
100
AcDbLine
 10
153.2518016424947
 20
-311.6000000000004
 30
0.0
 11
295.6999999999989
 21
-406.5652230750311
 31
0.0
  0
LINE
  5
28E2
330
2BEF
100
AcDbEntity
  8
0
 62
     0
100
AcDbLine
 10
-137.4489406689626
 20
-117.8000000000002
 30
0.0
 11
79.90000000000145
 21
-262.6989237754179
 31
0.0
  0
LINE
  5
28E3
330
2BEF
100
AcDbEntity
  8
0
 62
     0
100
AcDbLine
 10
79.90000000000326
 20
-259.6989572400025
 30
0.0
 11
157.7517629363774
 21
-311.5999999999977
 31
0.0
  0
LINE
  5
28E4
330
2BEF
100
AcDbEntity
  8
0
 62
     0
100
AcDbLine
 10
157.7517629363792
 20
-311.5999999999985
 30
0.0
 11
295.7000000000008
 21
-403.5652565396139
 31
0.0
  0
LINE
  5
28E5
330
2BEF
100
AcDbEntity
  8
0
 62
     0
100
AcDbLine
 10
-132.9489793750781
 20
-117.7999999999983
 30
0.0
 11
79.90000000000145
 21
-259.6989572399998
 31
0.0
  0
LINE
  5
28E6
330
2BEF
100
AcDbEntity
  8
0
 62
     0
100
AcDbLine
 10
79.9000000000051
 20
-256.6989907045881
 30
0.0
 11
162.2517242302638
 21
-311.5999999999995
 31
0.0
  0
LINE
  5
28E7
330
2BEF
100
AcDbEntity
  8
0
 62
     0
100
AcDbLine
 10
162.2517242302638
 20
-311.5999999999995
 30
0.0
 11
295.6999999999989
 21
-400.5652900041985
 31
0.0
  0
LINE
  5
28E8
330
2BEF
100
AcDbEntity
  8
0
 62
     0
100
AcDbLine
 10
-128.4490180811935
 20
-117.7999999999993
 30
0.0
 11
79.89999999999962
 21
-256.6989907045854
 31
0.0
  0
LINE
  5
28E9
330
2BEF
100
AcDbEntity
  8
0
 62
     0
100
AcDbLine
 10
79.90000000000326
 20
-253.6990241691701
 30
0.0
 11
166.7516855241465
 21
-311.5999999999968
 31
0.0
  0
LINE
  5
28EA
330
2BEF
100
AcDbEntity
  8
0
 62
     0
100
AcDbLine
 10
166.751685524152
 20
-311.5999999999995
 30
0.0
 11
295.7000000000008
 21
-397.5653234687817
 31
0.0
  0
LINE
  5
28EB
330
2BEF
100
AcDbEntity
  8
0
 62
     0
100
AcDbLine
 10
-123.9490567873054
 20
-117.8000000000002
 30
0.0
 11
79.90000000000145
 21
-253.6990241691683
 31
0.0
  0
LINE
  5
28EC
330
2BEF
100
AcDbEntity
  8
0
 62
     0
100
AcDbLine
 10
79.9000000000051
 20
-250.6990576337548
 30
0.0
 11
171.2516468180365
 21
-311.6000000000004
 31
0.0
  0
LINE
  5
28ED
330
2BEF
100
AcDbEntity
  8
0
 62
     0
100
AcDbLine
 10
171.2516468180365
 20
-311.6000000000004
 30
0.0
 11
295.7000000000044
 21
-394.565356933369
 31
0.0
  0
LINE
  5
28EE
330
2BEF
100
AcDbEntity
  8
0
 62
     0
100
AcDbLine
 10
-119.449095493419
 20
-117.8000000000002
 30
0.0
 11
79.90000000000145
 21
-250.699057633753
 31
0.0
  0
LINE
  5
28EF
330
2BEF
100
AcDbEntity
  8
0
 62
     0
100
AcDbLine
 10
79.90000000000326
 20
-247.6990910983377
 30
0.0
 11
175.7516081119192
 21
-311.5999999999977
 31
0.0
  0
LINE
  5
28F0
330
2BEF
100
AcDbEntity
  8
0
 62
     0
100
AcDbLine
 10
175.7516081119211
 20
-311.5999999999995
 30
0.0
 11
295.7000000000025
 21
-391.5653903979519
 31
0.0
  0
LINE
  5
28F1
330
2BEF
100
AcDbEntity
  8
0
 62
     0
100
AcDbLine
 10
-114.9491341995362
 20
-117.7999999999993
 30
0.0
 11
79.90000000000145
 21
-247.6990910983359
 31
0.0
  0
LINE
  5
28F2
330
2BEF
100
AcDbEntity
  8
0
 62
     0
100
AcDbLine
 10
79.90000000000326
 20
-244.6991245629233
 30
0.0
 11
180.2515694058056
 21
-311.5999999999995
 31
0.0
  0
LINE
  5
28F3
330
2BEF
100
AcDbEntity
  8
0
 62
     0
100
AcDbLine
 10
180.2515694058056
 20
-311.5999999999995
 30
0.0
 11
295.7000000000025
 21
-388.5654238625365
 31
0.0
  0
LINE
  5
28F4
330
2BEF
100
AcDbEntity
  8
0
 62
     0
100
AcDbLine
 10
-110.4491729056499
 20
-117.8000000000011
 30
0.0
 11
79.89999999999962
 21
-244.6991245629206
 31
0.0
  0
LINE
  5
28F5
330
2BEF
100
AcDbEntity
  8
0
 62
     0
100
AcDbLine
 10
79.9000000000051
 20
-241.6991580275062
 30
0.0
 11
184.7515306996938
 21
-311.5999999999995
 31
0.0
  0
LINE
  5
28F6
330
2BEF
100
AcDbEntity
  8
0
 62
     0
100
AcDbLine
 10
184.7515306996938
 20
-311.5999999999995
 30
0.0
 11
295.7000000000044
 21
-385.5654573271193
 31
0.0
  0
LINE
  5
28F7
330
2BEF
100
AcDbEntity
  8
0
 62
     0
100
AcDbLine
 10
-105.9492116117635
 20
-117.7999999999993
 30
0.0
 11
79.90000000000326
 21
-241.6991580275044
 31
0.0
  0
LINE
  5
28F8
330
2BEF
100
AcDbEntity
  8
0
 62
     0
100
AcDbLine
 10
79.9000000000051
 20
-238.6991914920909
 30
0.0
 11
189.2514919935765
 21
-311.5999999999985
 31
0.0
  0
LINE
  5
28F9
330
2BEF
100
AcDbEntity
  8
0
 62
     0
100
AcDbLine
 10
189.2514919935783
 20
-311.5999999999995
 30
0.0
 11
295.7000000000044
 21
-382.5654907917051
 31
0.0
  0
LINE
  5
28FA
330
2BEF
100
AcDbEntity
  8
0
 62
     0
100
AcDbLine
 10
-101.4492503178789
 20
-117.8000000000002
 30
0.0
 11
79.89999999999962
 21
-238.6991914920882
 31
0.0
  0
LINE
  5
28FB
330
2BEF
100
AcDbEntity
  8
0
 62
     0
100
AcDbLine
 10
79.90000000000326
 20
-235.6992249566737
 30
0.0
 11
193.7514532874611
 21
-311.5999999999985
 31
0.0
  0
LINE
  5
28FC
330
2BEF
100
AcDbEntity
  8
0
 62
     0
100
AcDbLine
 10
193.7514532874611
 20
-311.5999999999985
 30
0.0
 11
295.7000000000025
 21
-379.565524256288
 31
0.0
  0
LINE
  5
28FD
330
2BEF
100
AcDbEntity
  8
0
 62
     0
100
AcDbLine
 10
-96.94928902399443
 20
-117.7999999999983
 30
0.0
 11
79.90000000000145
 21
-235.699224956672
 31
0.0
  0
LINE
  5
28FE
330
2BEF
100
AcDbEntity
  8
0
 62
     0
100
AcDbLine
 10
79.90000000000326
 20
-232.6992584212576
 30
0.0
 11
198.2514145813457
 21
-311.5999999999977
 31
0.0
  0
LINE
  5
28FF
330
2BEF
100
AcDbEntity
  8
0
 62
     0
100
AcDbLine
 10
198.2514145813475
 20
-311.5999999999985
 30
0.0
 11
295.7000000000025
 21
-376.5655577208718
 31
0.0
  0
LINE
  5
2900
330
2BEF
100
AcDbEntity
  8
0
 62
     0
100
AcDbLine
 10
-92.44932773010622
 20
-117.8000000000011
 30
0.0
 11
79.89999999999962
 21
-232.6992584212558
 31
0.0
  0
LINE
  5
2901
330
2BEF
100
AcDbEntity
  8
0
 62
     0
100
AcDbLine
 10
79.9000000000051
 20
-229.6992918858423
 30
0.0
 11
202.7513758752357
 21
-311.5999999999995
 31
0.0
  0
LINE
  5
2902
330
2BEF
100
AcDbEntity
  8
0
 62
     0
100
AcDbLine
 10
202.7513758752357
 20
-311.5999999999995
 30
0.0
 11
295.7000000000044
 21
-373.5655911854546
 31
0.0
  0
LINE
  5
2903
330
2BEF
100
AcDbEntity
  8
0
 62
     0
100
AcDbLine
 10
-87.9493664362217
 20
-117.7999999999993
 30
0.0
 11
79.90000000000326
 21
-229.6992918858395
 31
0.0
  0
LINE
  5
2904
330
2BEF
100
AcDbEntity
  8
0
 62
     0
100
AcDbLine
 10
79.90000000000326
 20
-226.6993253504261
 30
0.0
 11
207.2513371691184
 21
-311.5999999999995
 31
0.0
  0
LINE
  5
2905
330
2BEF
100
AcDbEntity
  8
0
 62
     0
100
AcDbLine
 10
207.2513371691202
 20
-311.6000000000004
 30
0.0
 11
295.7000000000025
 21
-370.5656246500394
 31
0.0
  0
LINE
  5
2906
330
2BEF
100
AcDbEntity
  8
0
 62
     0
100
AcDbLine
 10
-83.4494051423371
 20
-117.8000000000002
 30
0.0
 11
79.89999999999962
 21
-226.6993253504243
 31
0.0
  0
LINE
  5
2907
330
2BEF
100
AcDbEntity
  8
0
 62
     0
100
AcDbLine
 10
79.90000000000326
 20
-223.6993588150089
 30
0.0
 11
211.7512984630048
 21
-311.5999999999985
 31
0.0
  0
LINE
  5
2908
330
2BEF
100
AcDbEntity
  8
0
 62
     0
100
AcDbLine
 10
211.7512984630048
 20
-311.5999999999985
 30
0.0
 11
295.7000000000044
 21
-367.5656581146222
 31
0.0
  0
LINE
  5
2909
330
2BEF
100
AcDbEntity
  8
0
 62
     0
100
AcDbLine
 10
-78.94944384845074
 20
-117.7999999999993
 30
0.0
 11
79.90000000000145
 21
-223.6993588150071
 31
0.0
  0
LINE
  5
290A
330
2BEF
100
AcDbEntity
  8
0
 62
     0
100
AcDbLine
 10
79.9000000000051
 20
-220.6993922795918
 30
0.0
 11
216.2512597568893
 21
-311.5999999999968
 31
0.0
  0
LINE
  5
290B
330
2BEF
100
AcDbEntity
  8
0
 62
     0
100
AcDbLine
 10
216.251259756893
 20
-311.5999999999995
 30
0.0
 11
295.7000000000044
 21
-364.565691579206
 31
0.0
  0
LINE
  5
290C
330
2BEF
100
AcDbEntity
  8
0
 62
     0
100
AcDbLine
 10
-74.44948255456257
 20
-117.7999999999993
 30
0.0
 11
79.90000000000145
 21
-220.69939227959
 31
0.0
  0
LINE
  5
290D
330
2BEF
100
AcDbEntity
  8
0
 62
     0
100
AcDbLine
 10
79.90000000000326
 20
-217.6994257441766
 30
0.0
 11
220.7512210507776
 21
-311.6000000000004
 31
0.0
  0
LINE
  5
290E
330
2BEF
100
AcDbEntity
  8
0
 62
     0
100
AcDbLine
 10
220.7512210507776
 20
-311.6000000000004
 30
0.0
 11
295.7000000000044
 21
-361.5657250437906
 31
0.0
  0
LINE
  5
290F
330
2BEF
100
AcDbEntity
  8
0
 62
     0
100
AcDbLine
 10
-69.94952126067983
 20
-117.8000000000002
 30
0.0
 11
79.90000000000145
 21
-217.6994257441748
 31
0.0
  0
LINE
  5
2910
330
2BEF
100
AcDbEntity
  8
0
 62
     0
100
AcDbLine
 10
79.90000000000326
 20
-214.6994592087604
 30
0.0
 11
225.2511823446603
 21
-311.5999999999977
 31
0.0
  0
LINE
  5
2911
330
2BEF
100
AcDbEntity
  8
0
 62
     0
100
AcDbLine
 10
225.2511823446603
 20
-311.5999999999985
 30
0.0
 11
295.7000000000025
 21
-358.5657585083736
 31
0.0
  0
LINE
  5
2912
330
2BEF
100
AcDbEntity
  8
0
 62
     0
100
AcDbLine
 10
-65.44955996679528
 20
-117.7999999999983
 30
0.0
 11
79.90000000000326
 21
-214.6994592087604
 31
0.0
  0
LINE
  5
2913
330
2BEF
100
AcDbEntity
  8
0
 62
     0
100
AcDbLine
 10
79.9000000000051
 20
-211.699492673345
 30
0.0
 11
229.7511436385466
 21
-311.5999999999995
 31
0.0
  0
LINE
  5
2914
330
2BEF
100
AcDbEntity
  8
0
 62
     0
100
AcDbLine
 10
229.7511436385466
 20
-311.5999999999995
 30
0.0
 11
295.7000000000025
 21
-355.5657919729573
 31
0.0
  0
LINE
  5
2915
330
2BEF
100
AcDbEntity
  8
0
 62
     0
100
AcDbLine
 10
-60.9495986729089
 20
-117.8000000000002
 30
0.0
 11
79.90000000000145
 21
-211.6994926733432
 31
0.0
  0
LINE
  5
2916
330
2BEF
100
AcDbEntity
  8
0
 62
     0
100
AcDbLine
 10
79.9000000000051
 20
-208.6995261379279
 30
0.0
 11
234.251104932433
 21
-311.5999999999985
 31
0.0
  0
LINE
  5
2917
330
2BEF
100
AcDbEntity
  8
0
 62
     0
100
AcDbLine
 10
234.251104932433
 20
-311.5999999999985
 30
0.0
 11
295.7000000000044
 21
-352.5658254375412
 31
0.0
  0
LINE
  5
2918
330
2BEF
100
AcDbEntity
  8
0
 62
     0
100
AcDbLine
 10
-56.44963737902253
 20
-117.7999999999993
 30
0.0
 11
79.90000000000145
 21
-208.6995261379261
 31
0.0
  0
LINE
  5
2919
330
2BEF
100
AcDbEntity
  8
0
 62
     0
100
AcDbLine
 10
79.90000000000326
 20
-205.6995596025117
 30
0.0
 11
238.7510662263157
 21
-311.5999999999985
 31
0.0
  0
LINE
  5
291A
330
2BEF
100
AcDbEntity
  8
0
 62
     0
100
AcDbLine
 10
238.7510662263176
 20
-311.5999999999995
 30
0.0
 11
295.7000000000025
 21
-349.5658589021259
 31
0.0
  0
LINE
  5
291B
330
2BEF
100
AcDbEntity
  8
0
 62
     0
100
AcDbLine
 10
-51.9496760851398
 20
-117.7999999999993
 30
0.0
 11
79.89999999999962
 21
-205.6995596025099
 31
0.0
  0
LINE
  5
291C
330
2BEF
100
AcDbEntity
  8
0
 62
     0
100
AcDbLine
 10
79.9000000000051
 20
-202.6995930670955
 30
0.0
 11
243.2510275202039
 21
-311.5999999999985
 31
0.0
  0
LINE
  5
291D
330
2BEF
100
AcDbEntity
  8
0
 62
     0
100
AcDbLine
 10
243.2510275202039
 20
-311.5999999999985
 30
0.0
 11
295.7000000000025
 21
-346.5658923667088
 31
0.0
  0
LINE
  5
291E
330
2BEF
100
AcDbEntity
  8
0
 62
     0
100
AcDbLine
 10
-47.44971479125342
 20
-117.7999999999983
 30
0.0
 11
79.90000000000145
 21
-202.6995930670937
 31
0.0
  0
LINE
  5
291F
330
2BEF
100
AcDbEntity
  8
0
 62
     0
100
AcDbLine
 10
79.9000000000051
 20
-199.6996265316792
 30
0.0
 11
247.7509888140867
 21
-311.5999999999977
 31
0.0
  0
LINE
  5
2920
330
2BEF
100
AcDbEntity
  8
0
 62
     0
100
AcDbLine
 10
247.7509888140885
 20
-311.5999999999985
 30
0.0
 11
295.7000000000044
 21
-343.5659258312935
 31
0.0
  0
LINE
  5
2921
330
2BEF
100
AcDbEntity
  8
0
 62
     0
100
AcDbLine
 10
-42.94975349736524
 20
-117.8000000000011
 30
0.0
 11
79.90000000000145
 21
-199.6996265316775
 31
0.0
  0
LINE
  5
2922
330
2BEF
100
AcDbEntity
  8
0
 62
     0
100
AcDbLine
 10
79.90000000000326
 20
-196.6996599962631
 30
0.0
 11
252.2509501079749
 21
-311.5999999999995
 31
0.0
  0
LINE
  5
2923
330
2BEF
100
AcDbEntity
  8
0
 62
     0
100
AcDbLine
 10
252.2509501079749
 20
-311.5999999999995
 30
0.0
 11
295.7000000000025
 21
-340.5659592958764
 31
0.0
  0
LINE
  5
2924
330
2BEF
100
AcDbEntity
  8
0
 62
     0
100
AcDbLine
 10
-38.44979220348069
 20
-117.7999999999993
 30
0.0
 11
79.90000000000145
 21
-196.6996599962604
 31
0.0
  0
LINE
  5
2925
330
2BEF
100
AcDbEntity
  8
0
 62
     0
100
AcDbLine
 10
79.90000000000326
 20
-193.6996934608478
 30
0.0
 11
256.7509114018576
 21
-311.5999999999985
 31
0.0
  0
LINE
  5
2926
330
2BEF
100
AcDbEntity
  8
0
 62
     0
100
AcDbLine
 10
256.7509114018594
 20
-311.5999999999995
 30
0.0
 11
295.7000000000025
 21
-337.5659927604609
 31
0.0
  0
LINE
  5
2927
330
2BEF
100
AcDbEntity
  8
0
 62
     0
100
AcDbLine
 10
-33.94983090959795
 20
-117.8000000000002
 30
0.0
 11
79.89999999999962
 21
-193.699693460846
 31
0.0
  0
LINE
  5
2928
330
2BEF
100
AcDbEntity
  8
0
 62
     0
100
AcDbLine
 10
79.90000000000326
 20
-190.6997269254306
 30
0.0
 11
261.2508726957457
 21
-311.5999999999985
 31
0.0
  0
LINE
  5
2929
330
2BEF
100
AcDbEntity
  8
0
 62
     0
100
AcDbLine
 10
261.2508726957457
 20
-311.5999999999985
 30
0.0
 11
295.7000000000025
 21
-334.5660262250449
 31
0.0
  0
LINE
  5
292A
330
2BEF
100
AcDbEntity
  8
0
 62
     0
100
AcDbLine
 10
-29.44986961571158
 20
-117.7999999999983
 30
0.0
 11
79.90000000000145
 21
-190.6997269254288
 31
0.0
  0
LINE
  5
292B
330
2BEF
100
AcDbEntity
  8
0
 62
     0
100
AcDbLine
 10
79.9000000000051
 20
-187.6997603900154
 30
0.0
 11
265.7508339896285
 21
-311.5999999999977
 31
0.0
  0
LINE
  5
292C
330
2BEF
100
AcDbEntity
  8
0
 62
     0
100
AcDbLine
 10
265.750833989634
 20
-311.6000000000013
 30
0.0
 11
295.7000000000044
 21
-331.5660596896297
 31
0.0
  0
LINE
  5
292D
330
2BEF
100
AcDbEntity
  8
0
 62
     0
100
AcDbLine
 10
-24.94990832182339
 20
-117.8000000000011
 30
0.0
 11
79.90000000000145
 21
-187.6997603900136
 31
0.0
  0
LINE
  5
292E
330
2BEF
100
AcDbEntity
  8
0
 62
     0
100
AcDbLine
 10
79.90000000000326
 20
-184.6997938545992
 30
0.0
 11
270.2507952835167
 21
-311.5999999999995
 31
0.0
  0
LINE
  5
292F
330
2BEF
100
AcDbEntity
  8
0
 62
     0
100
AcDbLine
 10
270.2507952835167
 20
-311.5999999999995
 30
0.0
 11
295.7000000000025
 21
-328.5660931542125
 31
0.0
  0
LINE
  5
2930
330
2BEF
100
AcDbEntity
  8
0
 62
     0
100
AcDbLine
 10
-20.44994702793883
 20
-117.8000000000002
 30
0.0
 11
79.89999999999962
 21
-184.6997938545955
 31
0.0
  0
LINE
  5
2931
330
2BEF
100
AcDbEntity
  8
0
 62
     0
100
AcDbLine
 10
79.9000000000051
 20
-181.6998273191821
 30
0.0
 11
274.7507565774013
 21
-311.5999999999977
 31
0.0
  0
LINE
  5
2932
330
2BEF
100
AcDbEntity
  8
0
 62
     0
100
AcDbLine
 10
274.7507565774031
 20
-311.5999999999985
 30
0.0
 11
295.7000000000044
 21
-325.5661266187952
 31
0.0
  0
LINE
  5
2933
330
2BEF
100
AcDbEntity
  8
0
 62
     0
100
AcDbLine
 10
-15.94998573405428
 20
-117.7999999999983
 30
0.0
 11
79.90000000000145
 21
-181.699827319179
 31
0.0
  0
LINE
  5
2934
330
2BEF
100
AcDbEntity
  8
0
 62
     0
100
AcDbLine
 10
79.90000000000326
 20
-178.6998607837658
 30
0.0
 11
279.2507178712895
 21
-311.5999999999985
 31
0.0
  0
LINE
  5
2935
330
2BEF
100
AcDbEntity
  8
0
 62
     0
100
AcDbLine
 10
279.2507178712895
 20
-311.5999999999985
 30
0.0
 11
295.7000000000044
 21
-322.5661600833801
 31
0.0
  0
LINE
  5
2936
330
2BEF
100
AcDbEntity
  8
0
 62
     0
100
AcDbLine
 10
-11.45002444016427
 20
-117.8000000000011
 30
0.0
 11
79.90000000000145
 21
-178.699860783764
 31
0.0
  0
LINE
  5
2937
330
2BEF
100
AcDbEntity
  8
0
 62
     0
100
AcDbLine
 10
79.9000000000051
 20
-175.6998942483496
 30
0.0
 11
283.750679165174
 21
-311.5999999999985
 31
0.0
  0
LINE
  5
2938
330
2BEF
100
AcDbEntity
  8
0
 62
     0
100
AcDbLine
 10
283.7506791651758
 20
-311.5999999999995
 30
0.0
 11
295.7000000000044
 21
-319.5661935479638
 31
0.0
  0
LINE
  5
2939
330
2BEF
100
AcDbEntity
  8
0
 62
     0
100
AcDbLine
 10
-6.950063146281536
 20
-117.7999999999993
 30
0.0
 11
79.89999999999962
 21
-175.6998942483469
 31
0.0
  0
LINE
  5
293A
330
2BEF
100
AcDbEntity
  8
0
 62
     0
100
AcDbLine
 10
79.90000000000145
 20
-172.6999277129334
 30
0.0
 11
288.2506404590586
 21
-311.6000000000004
 31
0.0
  0
LINE
  5
293B
330
2BEF
100
AcDbEntity
  8
0
 62
     0
100
AcDbLine
 10
288.2506404590586
 20
-311.6000000000004
 30
0.0
 11
295.7000000000025
 21
-316.5662270125476
 31
0.0
  0
LINE
  5
293C
330
2BEF
100
AcDbEntity
  8
0
 62
     0
100
AcDbLine
 10
-2.45010185239698
 20
-117.8000000000002
 30
0.0
 11
79.89999999999962
 21
-172.6999277129316
 31
0.0
  0
LINE
  5
293D
330
2BEF
100
AcDbEntity
  8
0
 62
     0
100
AcDbLine
 10
79.9000000000051
 20
-169.6999611775163
 30
0.0
 11
292.7506017529449
 21
-311.5999999999977
 31
0.0
  0
LINE
  5
293E
330
2BEF
100
AcDbEntity
  8
0
 62
     0
100
AcDbLine
 10
292.7506017529467
 20
-311.5999999999985
 30
0.0
 11
295.7000000000044
 21
-313.5662604771305
 31
0.0
  0
LINE
  5
293F
330
2BEF
100
AcDbEntity
  8
0
 62
     0
100
AcDbLine
 10
2.049859441489386
 20
-117.7999999999993
 30
0.0
 11
79.90000000000145
 21
-169.6999611775145
 31
0.0
  0
LINE
  5
2940
330
2BEF
100
AcDbEntity
  8
0
 62
     0
100
AcDbLine
 10
79.90000000000326
 20
-166.6999946421019
 30
0.0
 11
295.6999999999989
 21
-310.5662939417125
 31
0.0
  0
LINE
  5
2941
330
2BEF
100
AcDbEntity
  8
0
 62
     0
100
AcDbLine
 10
6.549820735375757
 20
-117.8000000000002
 30
0.0
 11
79.90000000000145
 21
-166.6999946420992
 31
0.0
  0
LINE
  5
2942
330
2BEF
100
AcDbEntity
  8
0
 62
     0
100
AcDbLine
 10
79.90000000000326
 20
-163.7000281066848
 30
0.0
 11
295.6999999999989
 21
-307.5663274062952
 31
0.0
  0
LINE
  5
2943
330
2BEF
100
AcDbEntity
  8
0
 62
     0
100
AcDbLine
 10
11.04978202925849
 20
-117.7999999999993
 30
0.0
 11
79.89999999999962
 21
-163.700028106683
 31
0.0
  0
LINE
  5
2944
330
2BEF
100
AcDbEntity
  8
0
 62
     0
100
AcDbLine
 10
79.90000000000326
 20
-160.7000615712695
 30
0.0
 11
295.6999999999989
 21
-304.56636087088
 31
0.0
  0
LINE
  5
2945
330
2BEF
100
AcDbEntity
  8
0
 62
     0
100
AcDbLine
 10
15.54974332314486
 20
-117.7999999999993
 30
0.0
 11
79.90000000000145
 21
-160.7000615712676
 31
0.0
  0
LINE
  5
2946
330
2BEF
100
AcDbEntity
  8
0
 62
     0
100
AcDbLine
 10
79.9000000000051
 20
-157.7000950358524
 30
0.0
 11
295.7000000000008
 21
-301.566394335463
 31
0.0
  0
LINE
  5
2947
330
2BEF
100
AcDbEntity
  8
0
 62
     0
100
AcDbLine
 10
20.04970461702942
 20
-117.7999999999983
 30
0.0
 11
79.89999999999962
 21
-157.7000950358497
 31
0.0
  0
LINE
  5
2948
330
2BEF
100
AcDbEntity
  8
0
 62
     0
100
AcDbLine
 10
79.9000000000051
 20
-154.7001285004371
 30
0.0
 11
295.6999999999989
 21
-298.5664278000486
 31
0.0
  0
LINE
  5
2949
330
2BEF
100
AcDbEntity
  8
0
 62
     0
100
AcDbLine
 10
24.54966591091761
 20
-117.8000000000011
 30
0.0
 11
79.89999999999962
 21
-154.7001285004344
 31
0.0
  0
LINE
  5
294A
330
2BEF
100
AcDbEntity
  8
0
 62
     0
100
AcDbLine
 10
79.9000000000051
 20
-151.7001619650209
 30
0.0
 11
295.7000000000008
 21
-295.5664612646314
 31
0.0
  0
LINE
  5
294B
330
2BEF
100
AcDbEntity
  8
0
 62
     0
100
AcDbLine
 10
29.04962720480217
 20
-117.7999999999993
 30
0.0
 11
79.90000000000145
 21
-151.7001619650173
 31
0.0
  0
LINE
  5
294C
330
2BEF
100
AcDbEntity
  8
0
 62
     0
100
AcDbLine
 10
79.9000000000069
 20
-148.7001954296056
 30
0.0
 11
295.7000000000008
 21
-292.5664947292162
 31
0.0
  0
LINE
  5
294D
330
2BEF
100
AcDbEntity
  8
0
 62
     0
100
AcDbLine
 10
33.54958849868854
 20
-117.8000000000002
 30
0.0
 11
79.90000000000145
 21
-148.700195429602
 31
0.0
  0
LINE
  5
294E
330
2BEF
100
AcDbEntity
  8
0
 62
     0
100
AcDbLine
 10
79.90000000000326
 20
-145.7002288941876
 30
0.0
 11
295.7000000000008
 21
-289.566528193799
 31
0.0
  0
LINE
  5
294F
330
2BEF
100
AcDbEntity
  8
0
 62
     0
100
AcDbLine
 10
38.04954979257491
 20
-117.8000000000011
 30
0.0
 11
79.90000000000145
 21
-145.7002288941858
 31
0.0
  0
LINE
  5
2950
330
2BEF
100
AcDbEntity
  8
0
 62
     0
100
AcDbLine
 10
79.9000000000051
 20
-142.7002623587714
 30
0.0
 11
295.6999999999971
 21
-286.5665616583811
 31
0.0
  0
LINE
  5
2951
330
2BEF
100
AcDbEntity
  8
0
 62
     0
100
AcDbLine
 10
42.54951108645945
 20
-117.7999999999993
 30
0.0
 11
79.89999999999962
 21
-142.7002623587686
 31
0.0
  0
LINE
  5
2952
330
2BEF
100
AcDbEntity
  8
0
 62
     0
100
AcDbLine
 10
79.90000000000326
 20
-139.7002958233552
 30
0.0
 11
295.6999999999989
 21
-283.5665951229657
 31
0.0
  0
LINE
  5
2953
330
2BEF
100
AcDbEntity
  8
0
 62
     0
100
AcDbLine
 10
47.04947238034399
 20
-117.8000000000002
 30
0.0
 11
79.90000000000145
 21
-139.7002958233533
 31
0.0
  0
LINE
  5
2954
330
2BEF
100
AcDbEntity
  8
0
 62
     0
100
AcDbLine
 10
79.9000000000051
 20
-136.700329287939
 30
0.0
 11
295.6999999999989
 21
-280.5666285875495
 31
0.0
  0
LINE
  5
2955
330
2BEF
100
AcDbEntity
  8
0
 62
     0
100
AcDbLine
 10
51.54943367423038
 20
-117.7999999999983
 30
0.0
 11
79.89999999999962
 21
-136.7003292879353
 31
0.0
  0
LINE
  5
2956
330
2BEF
100
AcDbEntity
  8
0
 62
     0
100
AcDbLine
 10
79.90000000000326
 20
-133.7003627525237
 30
0.0
 11
295.6999999999989
 21
-277.5666620521342
 31
0.0
  0
LINE
  5
2957
330
2BEF
100
AcDbEntity
  8
0
 62
     0
100
AcDbLine
 10
56.04939496811494
 20
-117.8000000000002
 30
0.0
 11
79.89999999999962
 21
-133.70036275252
 31
0.0
  0
LINE
  5
2958
330
2BEF
100
AcDbEntity
  8
0
 62
     0
100
AcDbLine
 10
79.9000000000051
 20
-130.7003962171066
 30
0.0
 11
295.6999999999989
 21
-274.5666955167171
 31
0.0
  0
LINE
  5
2959
330
2BEF
100
AcDbEntity
  8
0
 62
     0
100
AcDbLine
 10
60.54935626200131
 20
-117.7999999999983
 30
0.0
 11
79.89999999999962
 21
-130.7003962171038
 31
0.0
  0
LINE
  5
295A
330
2BEF
100
AcDbEntity
  8
0
 62
     0
100
AcDbLine
 10
79.9000000000051
 20
-127.7004296816913
 30
0.0
 11
295.7000000000008
 21
-271.5667289813018
 31
0.0
  0
LINE
  5
295B
330
2BEF
100
AcDbEntity
  8
0
 62
     0
100
AcDbLine
 10
65.04931755588586
 20
-117.7999999999993
 30
0.0
 11
79.90000000000145
 21
-127.7004296816885
 31
0.0
  0
LINE
  5
295C
330
2BEF
100
AcDbEntity
  8
0
 62
     0
100
AcDbLine
 10
79.9000000000051
 20
-124.7004631462741
 30
0.0
 11
295.6999999999989
 21
-268.5667624458847
 31
0.0
  0
LINE
  5
295D
330
2BEF
100
AcDbEntity
  8
0
 62
     0
100
AcDbLine
 10
69.54927884977042
 20
-117.7999999999974
 30
0.0
 11
79.89999999999962
 21
-124.7004631462714
 31
0.0
  0
LINE
  5
295E
330
2BEF
100
AcDbEntity
  8
0
 62
     0
100
AcDbLine
 10
79.90000000000326
 20
-121.7004966108597
 30
0.0
 11
295.6999999999989
 21
-265.5667959104703
 31
0.0
  0
LINE
  5
295F
330
2BEF
100
AcDbEntity
  8
0
 62
     0
100
AcDbLine
 10
74.0492401436568
 20
-117.8000000000002
 30
0.0
 11
79.89999999999962
 21
-121.7004966108561
 31
0.0
  0
LINE
  5
2960
330
2BEF
100
AcDbEntity
  8
0
 62
     0
100
AcDbLine
 10
79.9000000000051
 20
-118.7005300754417
 30
0.0
 11
295.7000000000008
 21
-262.5668293750532
 31
0.0
  0
LINE
  5
2961
330
2BEF
100
AcDbEntity
  8
0
 62
     0
100
AcDbLine
 10
78.54920143754494
 20
-117.7999999999993
 30
0.0
 11
79.90000000000145
 21
-118.700530075439
 31
0.0
  0
LINE
  5
2962
330
2BEF
100
AcDbEntity
  8
0
 62
     0
100
AcDbLine
 10
83.04916273142771
 20
-117.7999999999993
 30
0.0
 11
295.6999999999989
 21
-259.566862839637
 31
0.0
  0
LINE
  5
2963
330
2BEF
100
AcDbEntity
  8
0
 62
     0
100
AcDbLine
 10
87.54912402531227
 20
-117.7999999999983
 30
0.0
 11
295.6999999999989
 21
-256.5668963042199
 31
0.0
  0
LINE
  5
2964
330
2BEF
100
AcDbEntity
  8
0
 62
     0
100
AcDbLine
 10
92.04908531920045
 20
-117.8000000000011
 30
0.0
 11
295.6999999999989
 21
-253.5669297688046
 31
0.0
  0
LINE
  5
2965
330
2BEF
100
AcDbEntity
  8
0
 62
     0
100
AcDbLine
 10
96.54904661308686
 20
-117.7999999999993
 30
0.0
 11
295.7000000000008
 21
-250.5669632333884
 31
0.0
  0
LINE
  5
2966
330
2BEF
100
AcDbEntity
  8
0
 62
     0
100
AcDbLine
 10
101.0490079069695
 20
-117.8000000000002
 30
0.0
 11
295.6999999999989
 21
-247.5669966979731
 31
0.0
  0
LINE
  5
2967
330
2BEF
100
AcDbEntity
  8
0
 62
     0
100
AcDbLine
 10
105.5489692008577
 20
-117.8000000000011
 30
0.0
 11
295.7000000000008
 21
-244.567030162556
 31
0.0
  0
LINE
  5
2968
330
2BEF
100
AcDbEntity
  8
0
 62
     0
100
AcDbLine
 10
110.0489304947441
 20
-117.7999999999993
 30
0.0
 11
295.7000000000008
 21
-241.5670636271388
 31
0.0
  0
LINE
  5
2969
330
2BEF
100
AcDbEntity
  8
0
 62
     0
100
AcDbLine
 10
114.5488917886287
 20
-117.8000000000002
 30
0.0
 11
295.7000000000008
 21
-238.5670970917236
 31
0.0
  0
LINE
  5
296A
330
2BEF
100
AcDbEntity
  8
0
 62
     0
100
AcDbLine
 10
119.0488530825114
 20
-117.7999999999983
 30
0.0
 11
295.6999999999989
 21
-235.5671305563074
 31
0.0
  0
LINE
  5
296B
330
2BEF
100
AcDbEntity
  8
0
 62
     0
100
AcDbLine
 10
123.5488143763996
 20
-117.8000000000002
 30
0.0
 11
295.6999999999989
 21
-232.5671640208911
 31
0.0
  0
LINE
  5
296C
330
2BEF
100
AcDbEntity
  8
0
 62
     0
100
AcDbLine
 10
128.0487756702841
 20
-117.7999999999983
 30
0.0
 11
295.6999999999989
 21
-229.567197485474
 31
0.0
  0
LINE
  5
296D
330
2BEF
100
AcDbEntity
  8
0
 62
     0
100
AcDbLine
 10
132.5487369641687
 20
-117.7999999999993
 30
0.0
 11
295.6999999999989
 21
-226.5672309500587
 31
0.0
  0
LINE
  5
296E
330
2BEF
100
AcDbEntity
  8
0
 62
     0
100
AcDbLine
 10
137.0486982580532
 20
-117.7999999999983
 30
0.0
 11
295.6999999999989
 21
-223.5672644146416
 31
0.0
  0
LINE
  5
296F
330
2BEF
100
AcDbEntity
  8
0
 62
     0
100
AcDbLine
 10
141.5486595519414
 20
-117.8000000000002
 30
0.0
 11
295.7000000000008
 21
-220.5672978792263
 31
0.0
  0
LINE
  5
2970
330
2BEF
100
AcDbEntity
  8
0
 62
     0
100
AcDbLine
 10
146.048620845826
 20
-117.7999999999993
 30
0.0
 11
295.6999999999989
 21
-217.5673313438101
 31
0.0
  0
LINE
  5
2971
330
2BEF
100
AcDbEntity
  8
0
 62
     0
100
AcDbLine
 10
150.5485821397105
 20
-117.7999999999993
 30
0.0
 11
295.6999999999989
 21
-214.5673648083948
 31
0.0
  0
LINE
  5
2972
330
2BEF
100
AcDbEntity
  8
0
 62
     0
100
AcDbLine
 10
155.0485434335987
 20
-117.8000000000002
 30
0.0
 11
295.6999999999989
 21
-211.5673982729777
 31
0.0
  0
LINE
  5
2973
330
2BEF
100
AcDbEntity
  8
0
 62
     0
100
AcDbLine
 10
159.5485047274833
 20
-117.8000000000011
 30
0.0
 11
295.7000000000008
 21
-208.5674317375624
 31
0.0
  0
LINE
  5
2974
330
2BEF
100
AcDbEntity
  8
0
 62
     0
100
AcDbLine
 10
164.0484660213678
 20
-117.7999999999993
 30
0.0
 11
295.6999999999989
 21
-205.5674652021444
 31
0.0
  0
LINE
  5
2975
330
2BEF
100
AcDbEntity
  8
0
 62
     0
100
AcDbLine
 10
168.5484273152542
 20
-117.7999999999983
 30
0.0
 11
295.6999999999989
 21
-202.5674986667282
 31
0.0
  0
LINE
  5
2976
330
2BEF
100
AcDbEntity
  8
0
 62
     0
100
AcDbLine
 10
173.0483886091406
 20
-117.8000000000002
 30
0.0
 11
295.7000000000008
 21
-199.5675321313129
 31
0.0
  0
LINE
  5
2977
330
2BEF
100
AcDbEntity
  8
0
 62
     0
100
AcDbLine
 10
177.5483499030251
 20
-117.7999999999983
 30
0.0
 11
295.6999999999989
 21
-196.5675655958957
 31
0.0
  0
LINE
  5
2978
330
2BEF
100
AcDbEntity
  8
0
 62
     0
100
AcDbLine
 10
182.0483111969079
 20
-117.7999999999993
 30
0.0
 11
295.6999999999989
 21
-193.5675990604804
 31
0.0
  0
LINE
  5
2979
330
2BEF
100
AcDbEntity
  8
0
 62
     0
100
AcDbLine
 10
186.5482724907961
 20
-117.7999999999974
 30
0.0
 11
295.7000000000008
 21
-190.5676325250633
 31
0.0
  0
LINE
  5
297A
330
2BEF
100
AcDbEntity
  8
0
 62
     0
100
AcDbLine
 10
191.0482337846824
 20
-117.8000000000002
 30
0.0
 11
295.7000000000008
 21
-187.5676659896489
 31
0.0
  0
LINE
  5
297B
330
2BEF
100
AcDbEntity
  8
0
 62
     0
100
AcDbLine
 10
195.548195078567
 20
-117.7999999999993
 30
0.0
 11
295.6999999999971
 21
-184.5676994542309
 31
0.0
  0
LINE
  5
297C
330
2BEF
100
AcDbEntity
  8
0
 62
     0
100
AcDbLine
 10
200.0481563724516
 20
-117.7999999999993
 30
0.0
 11
295.7000000000008
 21
-181.5677329188164
 31
0.0
  0
LINE
  5
297D
330
2BEF
100
AcDbEntity
  8
0
 62
     0
100
AcDbLine
 10
204.5481176663397
 20
-117.8000000000002
 30
0.0
 11
295.6999999999989
 21
-178.5677663833984
 31
0.0
  0
LINE
  5
297E
330
2BEF
100
AcDbEntity
  8
0
 62
     0
100
AcDbLine
 10
209.0480789602243
 20
-117.8000000000002
 30
0.0
 11
295.6999999999989
 21
-175.5677998479831
 31
0.0
  0
LINE
  5
297F
330
2BEF
100
AcDbEntity
  8
0
 62
     0
100
AcDbLine
 10
213.5480402541089
 20
-117.7999999999993
 30
0.0
 11
295.6999999999989
 21
-172.567833312567
 31
0.0
  0
LINE
  5
2980
330
2BEF
100
AcDbEntity
  8
0
 62
     0
100
AcDbLine
 10
218.0480015479952
 20
-117.7999999999993
 30
0.0
 11
295.7000000000008
 21
-169.5678667771517
 31
0.0
  0
LINE
  5
2981
330
2BEF
100
AcDbEntity
  8
0
 62
     0
100
AcDbLine
 10
222.5479628418816
 20
-117.8000000000002
 30
0.0
 11
295.6999999999989
 21
-166.5679002417346
 31
0.0
  0
LINE
  5
2982
330
2BEF
100
AcDbEntity
  8
0
 62
     0
100
AcDbLine
 10
227.0479241357662
 20
-117.7999999999993
 30
0.0
 11
295.6999999999989
 21
-163.5679337063174
 31
0.0
  0
LINE
  5
2983
330
2BEF
100
AcDbEntity
  8
0
 62
     0
100
AcDbLine
 10
231.5478854296507
 20
-117.7999999999993
 30
0.0
 11
295.6999999999989
 21
-160.5679671709022
 31
0.0
  0
LINE
  5
2984
330
2BEF
100
AcDbEntity
  8
0
 62
     0
100
AcDbLine
 10
236.0478467235371
 20
-117.7999999999983
 30
0.0
 11
295.6999999999989
 21
-157.5680006354841
 31
0.0
  0
LINE
  5
2985
330
2BEF
100
AcDbEntity
  8
0
 62
     0
100
AcDbLine
 10
240.5478080174216
 20
-117.8000000000002
 30
0.0
 11
295.6999999999989
 21
-154.5680341000707
 31
0.0
  0
LINE
  5
2986
330
2BEF
100
AcDbEntity
  8
0
 62
     0
100
AcDbLine
 10
245.047769311308
 20
-117.7999999999983
 30
0.0
 11
295.6999999999989
 21
-151.5680675646526
 31
0.0
  0
LINE
  5
2987
330
2BEF
100
AcDbEntity
  8
0
 62
     0
100
AcDbLine
 10
249.5477306051944
 20
-117.7999999999993
 30
0.0
 11
295.7000000000008
 21
-148.5681010292373
 31
0.0
  0
LINE
  5
2988
330
2BEF
100
AcDbEntity
  8
0
 62
     0
100
AcDbLine
 10
254.0476918990807
 20
-117.7999999999993
 30
0.0
 11
295.6999999999989
 21
-145.5681344938202
 31
0.0
  0
LINE
  5
2989
330
2BEF
100
AcDbEntity
  8
0
 62
     0
100
AcDbLine
 10
258.5476531929635
 20
-117.8000000000002
 30
0.0
 11
295.6999999999989
 21
-142.5681679584049
 31
0.0
  0
LINE
  5
298A
330
2BEF
100
AcDbEntity
  8
0
 62
     0
100
AcDbLine
 10
263.0476144868499
 20
-117.7999999999993
 30
0.0
 11
295.6999999999989
 21
-139.5682014229887
 31
0.0
  0
LINE
  5
298B
330
2BEF
100
AcDbEntity
  8
0
 62
     0
100
AcDbLine
 10
267.5475757807344
 20
-117.7999999999993
 30
0.0
 11
295.7000000000008
 21
-136.5682348875734
 31
0.0
  0
LINE
  5
298C
330
2BEF
100
AcDbEntity
  8
0
 62
     0
100
AcDbLine
 10
272.0475370746226
 20
-117.8000000000002
 30
0.0
 11
295.6999999999989
 21
-133.5682683521563
 31
0.0
  0
LINE
  5
298D
330
2BEF
100
AcDbEntity
  8
0
 62
     0
100
AcDbLine
 10
276.5474983685071
 20
-117.8000000000002
 30
0.0
 11
295.6999999999989
 21
-130.5683018167401
 31
0.0
  0
LINE
  5
298E
330
2BEF
100
AcDbEntity
  8
0
 62
     0
100
AcDbLine
 10
281.0474596623935
 20
-117.7999999999993
 30
0.0
 11
295.7000000000008
 21
-127.5683352813239
 31
0.0
  0
LINE
  5
298F
330
2BEF
100
AcDbEntity
  8
0
 62
     0
100
AcDbLine
 10
285.5474209562763
 20
-117.7999999999983
 30
0.0
 11
295.6999999999989
 21
-124.5683687459068
 31
0.0
  0
LINE
  5
2990
330
2BEF
100
AcDbEntity
  8
0
 62
     0
100
AcDbLine
 10
290.0473822501644
 20
-117.7999999999993
 30
0.0
 11
295.6999999999989
 21
-121.5684022104915
 31
0.0
  0
LINE
  5
2991
330
2BEF
100
AcDbEntity
  8
0
 62
     0
100
AcDbLine
 10
294.547343544049
 20
-117.7999999999983
 30
0.0
 11
295.7000000000008
 21
-118.5684356750744
 31
0.0
  0
ENDBLK
  5
2992
330
2BEF
100
AcDbEntity
  8
0
100
AcDbBlockEnd
  0
ENDSEC
  0
SECTION
  2
ENTITIES
  0
TEXT
  5
953
330
2B0E
100
AcDbEntity
  8
OUTLINE
  6
Continuous
 62
     3
100
AcDbText
 10
-418.231467
 20
13.715189
 30
0.0
 40
64.0
  1
 
 41
0.9
100
AcDbText
  0
TEXT
  5
954
330
2B0E
100
AcDbEntity
  8
OUTLINE
  6
Continuous
 62
     3
100
AcDbText
 10
-418.231467
 20
13.715189
 30
0.0
 40
64.0
  1
 
 41
0.9
100
AcDbText
  0
TEXT
  5
955
330
2B0E
100
AcDbEntity
  8
OUTLINE
  6
Continuous
 62
     3
100
AcDbText
 10
1341.41903
 20
-706.0588199999997
 30
0.0
 40
64.0
  1
 
 41
0.9
100
AcDbText
  0
TEXT
  5
956
330
2B0E
100
AcDbEntity
  8
OUTLINE
  6
Continuous
 62
     3
100
AcDbText
 10
1341.41903
 20
-706.0588199999997
 30
0.0
 40
64.0
  1
 
 41
0.9
100
AcDbText
  0
TEXT
  5
957
330
2B0E
100
AcDbEntity
  8
OUTLINE
  6
Continuous
 62
     3
100
AcDbText
 10
1341.41903
 20
-706.0588199999997
 30
0.0
 40
64.0
  1
 
 41
0.9
100
AcDbText
  0
TEXT
  5
958
330
2B0E
100
AcDbEntity
  8
OUTLINE
  6
Continuous
 62
     3
100
AcDbText
 10
1341.41903
 20
-706.0588199999997
 30
0.0
 40
64.0
  1
 
 41
0.9
100
AcDbText
  0
TEXT
  5
29FB
330
2B0E
100
AcDbEntity
  8
ETC
100
AcDbText
 10
559.2987359845865
 20
353.1081935879405
 30
0.0
 40
64.0
  1
システム部材
 41
0.9
100
AcDbText
  0
TEXT
  5
29FC
330
2B0E
100
AcDbEntity
  8
ETC
100
AcDbText
 10
565.5067339845841
 20
453.9915195879406
 30
0.0
 40
64.0
  1
QW-60SDBCM_6
 41
0.9
100
AcDbText
  0
TEXT
  5
29FD
330
2B0E
100
AcDbEntity
  8
ETC
100
AcDbText
 10
559.2987359845865
 20
253.1081935879405
 30
0.0
 40
64.0
  1
QW-60SDBCM
 41
0.9
100
AcDbText
  0
POINT
  5
29FE
330
2B0E
100
AcDbEntity
  8
ARRANGE
100
AcDbPoint
 10
0.0
 20
0.0000000986733539
 30
0.0
 39
50.0
  0
LINE
  5
29FF
330
2B0E
100
AcDbEntity
  8
DETAIL
100
AcDbLine
 10
-295.6999999999971
 20
-117.7999999013254
 30
0.0
 11
295.7000000000008
 21
-117.7999999013263
 31
0.0
  0
LINE
  5
2A00
330
2B0E
100
AcDbEntity
  8
DETAIL
100
AcDbLine
 10
295.7000000000008
 20
-646.1999999013259
 30
0.0
 11
-295.6999999999971
 21
-646.1999999013259
 31
0.0
  0
LINE
  5
2A01
330
2B0E
100
AcDbEntity
  8
DETAIL
100
AcDbLine
 10
-295.6999999999971
 20
-646.1999999013259
 30
0.0
 11
-295.6999999999971
 21
-117.7999999013263
 31
0.0
  0
LINE
  5
2A02
330
2B0E
100
AcDbEntity
  8
NOTE
100
AcDbLine
 10
-325.0
 20
12.50000009867335
 30
0.0
 11
-325.0
 21
-12.49999990132664
 31
0.0
  0
LINE
  5
2A03
330
2B0E
100
AcDbEntity
  8
DETAIL
100
AcDbLine
 10
295.7000000000008
 20
-646.1999999013259
 30
0.0
 11
295.7000000000008
 21
-117.7999999013263
 31
0.0
  0
LINE
  5
2A04
330
2B0E
100
AcDbEntity
  8
BASIS
100
AcDbLine
 10
0.0
 20
25.00000009867335
 30
0.0
 11
0.0
 21
-707.9999999013264
 31
0.0
  0
CIRCLE
  5
2A05
330
2B0E
100
AcDbEntity
  8
ARRANGE
100
AcDbCircle
 10
0.0
 20
0.0
 30
0.0
 40
40.0
  0
LINE
  5
2A06
330
2B0E
100
AcDbEntity
  8
NOTE
100
AcDbLine
 10
325.0
 20
-12.49999990132664
 30
0.0
 11
325.0
 21
12.50000009867335
 31
0.0
  0
INSERT
  5
2A07
330
2B0E
100
AcDbEntity
  8
0
100
AcDbBlockReference
  2
*U74
 10
0.0
 20
0.0000000986733539
 30
0.0
1001
ACAD
1000
DSTYLE
1002
{
1070
    41
1040
12.0
1070
    42
1040
20.0
1070
    43
1040
200.0
1070
    44
1040
20.0
1070
    73
1070
     0
1070
    74
1070
     0
1070
    77
1070
     1
1070
    78
1070
     8
1070
   140
1040
64.0
1070
   147
1040
50.0
1070
   172
1070
     1
1070
   174
1070
     1
1070
   275
1070
     0
1070
   284
1070
     0
1070
   285
1070
     0
1070
   286
1070
     0
1070
   341
1005
0
1070
   342
1005
0
1002
}
  0
INSERT
  5
2A08
330
2B0E
100
AcDbEntity
  8
0
100
AcDbBlockReference
  2
*U75
 10
0.0
 20
0.0000000986733539
 30
0.0
  0
LINE
  5
2A09
330
2B0E
100
AcDbEntity
  8
DETAIL
100
AcDbLine
 10
-325.0
 20
-86.99999990132617
 30
0.0
 11
325.0
 21
-86.99999990132617
 31
0.0
  0
LINE
  5
2A0A
330
2B0E
100
AcDbEntity
  8
DETAIL
100
AcDbLine
 10
-311.5
 20
-101.9999999013262
 30
0.0
 11
311.5
 21
-101.9999999013262
 31
0.0
  0
LINE
  5
2A0B
330
2B0E
100
AcDbEntity
  8
DETAIL
100
AcDbLine
 10
-350.0
 20
-9.999999901326646
 30
0.0
 11
350.0
 21
-9.999999901326646
 31
0.0
  0
LINE
  5
2A0C
330
2B0E
100
AcDbEntity
  8
DETAIL
100
AcDbLine
 10
325.0
 20
-661.9999999013259
 30
0.0
 11
-325.0
 21
-661.9999999013259
 31
0.0
  0
LINE
  5
2A0D
330
2B0E
100
AcDbEntity
  8
DETAIL
100
AcDbLine
 10
-311.5
 20
-682.9999999013259
 30
0.0
 11
-311.5
 21
-101.9999999013262
 31
0.0
  0
LINE
  5
2A0E
330
2B0E
100
AcDbEntity
  8
DETAIL
100
AcDbLine
 10
-325.0
 20
-86.99999990132617
 30
0.0
 11
-325.0
 21
-661.9999999013259
 31
0.0
  0
LINE
  5
2A0F
330
2B0E
100
AcDbEntity
  8
DETAIL
100
AcDbLine
 10
-350.0
 20
-9.999999901326646
 30
0.0
 11
-350.0
 21
0.0000000986733539
 31
0.0
  0
LINE
  5
2A10
330
2B0E
100
AcDbEntity
  8
DETAIL
100
AcDbLine
 10
-311.5
 20
-86.99999990132617
 30
0.0
 11
-311.5
 21
-9.999999901326646
 31
0.0
  0
LINE
  5
2A11
330
2B0E
100
AcDbEntity
  8
DETAIL
100
AcDbLine
 10
-311.5
 20
-86.99999990132617
 30
0.0
 11
-311.5
 21
-9.999999901326646
 31
0.0
  0
LINE
  5
2A12
330
2B0E
100
AcDbEntity
  8
DETAIL
100
AcDbLine
 10
-311.5
 20
-206.9999999013261
 30
0.0
 11
-311.5
 21
-101.9999999013262
 31
0.0
  0
LINE
  5
2A13
330
2B0E
100
AcDbEntity
  8
DETAIL
100
AcDbLine
 10
311.5
 20
-682.9999999013259
 30
0.0
 11
311.5
 21
-101.9999999013262
 31
0.0
  0
LINE
  5
2A14
330
2B0E
100
AcDbEntity
  8
DETAIL
100
AcDbLine
 10
325.0
 20
-86.99999990132617
 30
0.0
 11
325.0
 21
-661.9999999013259
 31
0.0
  0
LINE
  5
2A15
330
2B0E
100
AcDbEntity
  8
DETAIL
100
AcDbLine
 10
311.5
 20
-86.9999999013271
 30
0.0
 11
311.5
 21
-9.999999901326646
 31
0.0
  0
LINE
  5
2A16
330
2B0E
100
AcDbEntity
  8
DETAIL
100
AcDbLine
 10
350.0
 20
-9.999999901326646
 30
0.0
 11
350.0
 21
0.0000000986733539
 31
0.0
  0
LINE
  5
2A17
330
2B0E
100
AcDbEntity
  8
DETAIL
100
AcDbLine
 10
143.5
 20
-661.9999999013259
 30
0.0
 11
280.0
 21
-661.9999999013259
 31
0.0
  0
LINE
  5
2A18
330
2B0E
100
AcDbEntity
  8
DETAIL
100
AcDbLine
 10
311.5
 20
-676.9999999013264
 30
0.0
 11
-311.5
 21
-676.9999999013264
 31
0.0
  0
LINE
  5
2A19
330
2B0E
100
AcDbEntity
  8
DETAIL
100
AcDbLine
 10
311.5
 20
-682.9999999013259
 30
0.0
 11
-311.5
 21
-682.9999999013259
 31
0.0
  0
LINE
  5
2A1A
330
2B0E
100
AcDbEntity
  8
OUTLINE
100
AcDbLine
 10
-325.0
 20
-86.99999990132617
 30
0.0
 11
325.0
 21
-86.99999990132617
 31
0.0
  0
LINE
  5
2A1B
330
2B0E
100
AcDbEntity
  8
OUTLINE
100
AcDbLine
 10
-311.5
 20
-101.9999999013262
 30
0.0
 11
311.5
 21
-101.9999999013262
 31
0.0
  0
LINE
  5
2A1C
330
2B0E
100
AcDbEntity
  8
OUTLINE
100
AcDbLine
 10
-350.0
 20
-9.999999901326646
 30
0.0
 11
350.0
 21
-9.999999901326646
 31
0.0
  0
LINE
  5
2A1D
330
2B0E
100
AcDbEntity
  8
OUTLINE
100
AcDbLine
 10
325.0
 20
-661.9999999013259
 30
0.0
 11
-325.0
 21
-661.9999999013259
 31
0.0
  0
LINE
  5
2A1E
330
2B0E
100
AcDbEntity
  8
OUTLINE
100
AcDbLine
 10
-311.5
 20
-682.9999999013259
 30
0.0
 11
-311.5
 21
-101.9999999013262
 31
0.0
  0
LINE
  5
2A1F
330
2B0E
100
AcDbEntity
  8
OUTLINE
100
AcDbLine
 10
-325.0
 20
-86.99999990132617
 30
0.0
 11
-325.0
 21
-661.9999999013259
 31
0.0
  0
LINE
  5
2A20
330
2B0E
100
AcDbEntity
  8
OUTLINE
100
AcDbLine
 10
-350.0
 20
-9.999999901326646
 30
0.0
 11
-350.0
 21
0.0000000986733539
 31
0.0
  0
LINE
  5
2A21
330
2B0E
100
AcDbEntity
  8
OUTLINE
100
AcDbLine
 10
-311.5
 20
-86.99999990132617
 30
0.0
 11
-311.5
 21
-9.999999901326646
 31
0.0
  0
LINE
  5
2A22
330
2B0E
100
AcDbEntity
  8
OUTLINE
100
AcDbLine
 10
-311.5
 20
-86.99999990132617
 30
0.0
 11
-311.5
 21
-9.999999901326646
 31
0.0
  0
LINE
  5
2A23
330
2B0E
100
AcDbEntity
  8
OUTLINE
100
AcDbLine
 10
-311.5
 20
-206.9999999013261
 30
0.0
 11
-311.5
 21
-101.9999999013262
 31
0.0
  0
LINE
  5
2A24
330
2B0E
100
AcDbEntity
  8
OUTLINE
100
AcDbLine
 10
311.5
 20
-682.9999999013259
 30
0.0
 11
311.5
 21
-101.9999999013262
 31
0.0
  0
LINE
  5
2A25
330
2B0E
100
AcDbEntity
  8
OUTLINE
100
AcDbLine
 10
325.0
 20
-86.99999990132617
 30
0.0
 11
325.0
 21
-661.9999999013259
 31
0.0
  0
LINE
  5
2A26
330
2B0E
100
AcDbEntity
  8
OUTLINE
100
AcDbLine
 10
311.5
 20
-86.9999999013271
 30
0.0
 11
311.5
 21
-9.999999901326646
 31
0.0
  0
LINE
  5
2A27
330
2B0E
100
AcDbEntity
  8
OUTLINE
100
AcDbLine
 10
350.0
 20
-9.999999901326646
 30
0.0
 11
350.0
 21
0.0000000986733539
 31
0.0
  0
LINE
  5
2A28
330
2B0E
100
AcDbEntity
  8
OUTLINE
100
AcDbLine
 10
143.5
 20
-661.9999999013259
 30
0.0
 11
280.0
 21
-661.9999999013259
 31
0.0
  0
LINE
  5
2A29
330
2B0E
100
AcDbEntity
  8
OUTLINE
100
AcDbLine
 10
311.5
 20
-676.9999999013264
 30
0.0
 11
-311.5
 21
-676.9999999013264
 31
0.0
  0
LINE
  5
2A2A
330
2B0E
100
AcDbEntity
  8
OUTLINE
100
AcDbLine
 10
311.5
 20
-682.9999999013259
 30
0.0
 11
-311.5
 21
-682.9999999013259
 31
0.0
  0
LINE
  5
2A2B
330
2B0E
100
AcDbEntity
  8
DETAIL
100
AcDbLine
 39
50.0
 10
-350.0
 20
0.0000000986733539
 30
0.0
 11
350.0
 21
0.0000000986733539
 31
0.0
  0
LINE
  5
2A2C
330
2B0E
100
AcDbEntity
  8
NOTE
100
AcDbLine
 39
50.0
 10
312.5
 20
0.0000000986733539
 30
0.0
 11
337.5
 21
0.0000000986733539
 31
0.0
  0
LINE
  5
2A2D
330
2B0E
100
AcDbEntity
  8
NOTE
100
AcDbLine
 39
50.0
 10
-337.5
 20
0.0000000986733539
 30
0.0
 11
-312.5
 21
0.0000000986733539
 31
0.0
  0
LINE
  5
2A2E
330
2B0E
100
AcDbEntity
  8
OUTLINE
100
AcDbLine
 39
50.0
 10
-350.0
 20
0.0000000986733539
 30
0.0
 11
350.0
 21
0.0000000986733539
 31
0.0
  0
LINE
  5
2A2F
330
2B0E
100
AcDbEntity
  8
DETAIL
100
AcDbLine
 10
-295.7000000000008
 20
-117.7999999013263
 30
0.0
 11
295.7000000000008
 21
-117.7999999013263
 31
0.0
  0
LINE
  5
2A30
330
2B0E
100
AcDbEntity
  8
DETAIL
100
AcDbLine
 10
295.7000000000008
 20
-646.1999999013259
 30
0.0
 11
-295.7000000000008
 21
-646.1999999013259
 31
0.0
  0
LINE
  5
2A31
330
2B0E
100
AcDbEntity
  8
DETAIL
100
AcDbLine
 10
-295.7000000000008
 20
-646.1999999013259
 30
0.0
 11
-295.7000000000008
 21
-117.7999999013263
 31
0.0
  0
LINE
  5
2A32
330
2B0E
100
AcDbEntity
  8
DETAIL
100
AcDbLine
 10
295.7000000000008
 20
-646.1999999013259
 30
0.0
 11
295.7000000000008
 21
-117.7999999013263
 31
0.0
  0
INSERT
  5
2A33
330
2B0E
100
AcDbEntity
  8
DETAIL
  6
Continuous
100
AcDbBlockReference
  2
*X76
 10
0.0
 20
0.0000000986733539
 30
0.0
1001
ACADANNOTATIVE
1000
AnnotativeData
1002
{
1070
     1
1070
     0
1002
}
1001
ACAD
1000
HATCH
1002
{
1070
    19
1000
LINE
1040
19.969
1040
0.5880014249968896
1000
R14_HATCH_DATA
1000
620B
1011
1.0
1021
0.0000000986733539
1031
0.0
1011
0.0
1021
1.000000098673353
1031
0.0
1011
0.0
1021
0.0000000986733539
1031
1.0
1040
0.0
1010
0.0
1020
0.0
1030
1.0
1000
LINE
1070
     0
1070
     0
1071
        2
1071
        7
1070
     0
1070
     1
1071
        6
1040
79.8999999999978
1040
-117.7999999999997
1040
-295.6999999999971
1040
-117.7999999999988
1040
-295.6999999999971
1040
-646.1999999999992
1040
295.6999999999971
1040
-646.2000000000003
1040
295.7000000000044
1040
-311.5999999999981
1040
79.9000000000051
1040
-311.599999999999
1071
        0
1071
       23
1070
     0
1070
     1
1071
        4
1040
295.6999999999971
1040
-117.7999999999997
1040
79.90000000000145
1040
-117.7999999999997
1040
79.8999999999978
1040
-311.599999999999
1040
295.7000000000008
1040
-311.5999999999981
1071
        0
1070
     0
1070
     1
1040
0.5880014249968896
1040
19.969
1070
     0
1070
     1
1040
0.5880014249968896
1040
19385.33328151472
1040
3972.854271422061
1040
-1.384598579568018
1040
2.076903172775084
1070
     0
1040
1.613430983217254
1071
        2
1040
-125.5144917360667
1040
-226.4329559806551
1040
0.0
1040
226.2833088850493
1040
-236.5214214842222
1040
0.0
1002
}
  0
INSERT
  5
2A34
330
2B0E
100
AcDbEntity
  8
DETAIL
  6
Continuous
100
AcDbBlockReference
  2
*X77
 10
0.0
 20
0.0000000986733539
 30
0.0
1001
ACADANNOTATIVE
1000
AnnotativeData
1002
{
1070
     1
1070
     0
1002
}
1001
ACAD
1000
HATCH
1002
{
1070
    19
1000
LINE
1040
19.969
1040
5.695183882182695
1000
R14_HATCH_DATA
1000
6211
1011
1.0
1021
0.0000000986733539
1031
0.0
1011
0.0
1021
1.000000098673353
1031
0.0
1011
0.0
1021
0.0000000986733539
1031
1.0
1040
0.0
1010
0.0
1020
0.0
1030
1.0
1000
LINE
1070
     0
1070
     0
1071
        2
1071
        7
1070
     0
1070
     1
1071
        6
1040
79.90000000000145
1040
-117.7999999999997
1040
-295.6999999999971
1040
-117.7999999999988
1040
-295.6999999999971
1040
-646.1999999999992
1040
295.6999999999971
1040
-646.2000000000003
1040
295.7000000000044
1040
-311.5999999999981
1040
79.9000000000051
1040
-311.599999999999
1071
        0
1071
       23
1070
     0
1070
     1
1071
        4
1040
79.9000000000051
1040
-117.7999999999997
1040
79.90000000000145
1040
-311.599999999999
1040
295.7000000000008
1040
-311.599999999999
1040
295.7000000000008
1040
-117.7999999999997
1071
        0
1070
     0
1070
     1
1040
5.695183882182695
1040
19.969
1070
     0
1070
     1
1040
5.695183882182695
1040
19385.33328151472
1040
3972.854271422061
1040
1.384598579568018
1040
2.076903172775084
1070
     0
1040
1.466562367668305
1071
        2
1040
-114.2492474774626
1040
-267.133730478266
1040
0.0
1040
191.278018232686
1040
-163.1693230282421
1040
0.0
1002
}
  0
LINE
  5
2A35
330
2B0E
100
AcDbEntity
  8
DETAIL
100
AcDbLine
 10
-295.7000000000008
 20
-117.7999999013263
 30
0.0
 11
295.7000000000008
 21
-117.7999999013263
 31
0.0
  0
LINE
  5
2A36
330
2B0E
100
AcDbEntity
  8
DETAIL
100
AcDbLine
 10
295.7000000000008
 20
-646.1999999013259
 30
0.0
 11
-295.7000000000008
 21
-646.1999999013259
 31
0.0
  0
LINE
  5
2A37
330
2B0E
100
AcDbEntity
  8
DETAIL
100
AcDbLine
 10
-295.7000000000008
 20
-646.1999999013259
 30
0.0
 11
-295.7000000000008
 21
-117.7999999013263
 31
0.0
  0
LINE
  5
2A38
330
2B0E
100
AcDbEntity
  8
DETAIL
100
AcDbLine
 10
295.7000000000008
 20
-646.1999999013259
 30
0.0
 11
295.7000000000008
 21
-117.7999999013263
 31
0.0
  0
LINE
  5
2A39
330
2B0E
100
AcDbEntity
  8
SIZE
100
AcDbLine
 10
325.0
 20
32.50000009867335
 30
0.0
 11
325.0
 21
181.9134197055536
 31
0.0
  0
LINE
  5
2A3A
330
2B0E
100
AcDbEntity
  8
SIZE
100
AcDbLine
 10
-325.0
 20
32.50000009867335
 30
0.0
 11
-325.0
 21
181.9134197055536
 31
0.0
  0
LINE
  5
2A3B
330
2B0E
100
AcDbEntity
  8
SIZE
100
AcDbLine
 10
313.0
 20
161.9134197055536
 30
0.0
 11
-313.0
 21
161.9134197055536
 31
0.0
  0
INSERT
  5
2A3C
330
2B0E
100
AcDbEntity
  8
SIZE
100
AcDbBlockReference
  2
_DOTBLANK
 10
325.0
 20
161.9134197055536
 30
0.0
 41
12.0
 42
12.0
 43
12.0
  0
INSERT
  5
2A3D
330
2B0E
100
AcDbEntity
  8
SIZE
100
AcDbBlockReference
  2
_DOTBLANK
 10
-325.0
 20
161.9134197055536
 30
0.0
 41
12.0
 42
12.0
 43
12.0
 50
180.0
  0
LINE
  5
2A3E
330
2B0E
100
AcDbEntity
  8
SIZE
100
AcDbLine
 10
350.0
 20
20.00000009867335
 30
0.0
 11
350.0
 21
297.6865930351904
 31
0.0
  0
LINE
  5
2A3F
330
2B0E
100
AcDbEntity
  8
SIZE
100
AcDbLine
 10
-350.0
 20
20.00000009867335
 30
0.0
 11
-350.0
 21
297.6865930351904
 31
0.0
  0
LINE
  5
2A40
330
2B0E
100
AcDbEntity
  8
SIZE
100
AcDbLine
 10
338.0
 20
277.6865930351904
 30
0.0
 11
-338.0
 21
277.6865930351904
 31
0.0
  0
INSERT
  5
2A41
330
2B0E
100
AcDbEntity
  8
SIZE
100
AcDbBlockReference
  2
_DOTBLANK
 10
350.0
 20
277.6865930351904
 30
0.0
 41
12.0
 42
12.0
 43
12.0
  0
INSERT
  5
2A42
330
2B0E
100
AcDbEntity
  8
SIZE
100
AcDbBlockReference
  2
_DOTBLANK
 10
-350.0
 20
277.6865930351904
 30
0.0
 41
12.0
 42
12.0
 43
12.0
 50
180.0
  0
LINE
  5
2A43
330
2B0E
100
AcDbEntity
  8
SIZE
100
AcDbLine
 10
370.0
 20
0.0000000986733539
 30
0.0
 11
474.9073130872016
 21
0.0000000986733539
 31
0.0
  0
LINE
  5
2A44
330
2B0E
100
AcDbEntity
  8
SIZE
100
AcDbLine
 10
370.0
 20
-9.999999901326646
 30
0.0
 11
474.9073130872016
 21
-9.999999901326646
 31
0.0
  0
LINE
  5
2A45
330
2B0E
100
AcDbEntity
  8
SIZE
100
AcDbLine
 10
454.9073130872016
 20
12.00000009867335
 30
0.0
 11
454.9073130872016
 21
24.00000009867336
 31
0.0
  0
LINE
  5
2A46
330
2B0E
100
AcDbEntity
  8
SIZE
100
AcDbLine
 10
454.9073130872016
 20
-21.99999990132665
 30
0.0
 11
454.9073130872016
 21
-136.285714187041
 31
0.0
  0
INSERT
  5
2A47
330
2B0E
100
AcDbEntity
  8
SIZE
100
AcDbBlockReference
  2
_DOTBLANK
 10
454.9073130872016
 20
0.0000000986733539
 30
0.0
 41
12.0
 42
12.0
 43
12.0
 50
270.0
  0
INSERT
  5
2A48
330
2B0E
100
AcDbEntity
  8
SIZE
100
AcDbBlockReference
  2
_DOTBLANK
 10
454.9073130872016
 20
-9.999999901326646
 30
0.0
 41
12.0
 42
12.0
 43
12.0
 50
90.0
  0
LINE
  5
2A49
330
2B0E
100
AcDbEntity
  8
SIZE
100
AcDbLine
 10
325.0
 20
-681.9999999013259
 30
0.0
 11
325.0
 21
-883.4116713904331
 31
0.0
  0
LINE
  5
2A4A
330
2B0E
100
AcDbEntity
  8
SIZE
100
AcDbLine
 10
-325.0
 20
-681.9999999013259
 30
0.0
 11
-325.0
 21
-883.4116713904331
 31
0.0
  0
LINE
  5
2A4B
330
2B0E
100
AcDbEntity
  8
SIZE
100
AcDbLine
 10
313.0
 20
-863.4116713904331
 30
0.0
 11
-313.0
 21
-863.4116713904331
 31
0.0
  0
INSERT
  5
2A4C
330
2B0E
100
AcDbEntity
  8
SIZE
100
AcDbBlockReference
  2
_DOTBLANK
 10
325.0
 20
-863.4116713904331
 30
0.0
 41
12.0
 42
12.0
 43
12.0
  0
INSERT
  5
2A4D
330
2B0E
100
AcDbEntity
  8
SIZE
100
AcDbBlockReference
  2
_DOTBLANK
 10
-325.0
 20
-863.4116713904331
 30
0.0
 41
12.0
 42
12.0
 43
12.0
 50
180.0
  0
LINE
  5
2A4E
330
2B0E
100
AcDbEntity
  8
SIZE
100
AcDbLine
 10
-345.0
 20
-661.9999999013259
 30
0.0
 11
-543.5633253057098
 21
-661.9999999013259
 31
0.0
  0
LINE
  5
2A4F
330
2B0E
100
AcDbEntity
  8
SIZE
100
AcDbLine
 10
-331.5
 20
-682.9999999013259
 30
0.0
 11
-543.5633253057098
 21
-682.9999999013259
 31
0.0
  0
LINE
  5
2A50
330
2B0E
100
AcDbEntity
  8
SIZE
100
AcDbLine
 10
-523.5633253057097
 20
-649.9999999013262
 30
0.0
 11
-523.5633253057097
 21
-637.9999999013262
 31
0.0
  0
LINE
  5
2A51
330
2B0E
100
AcDbEntity
  8
SIZE
100
AcDbLine
 10
-523.5633253057097
 20
-694.9999999013264
 30
0.0
 11
-523.5633253057097
 21
-795.5714284727548
 31
0.0
  0
INSERT
  5
2A52
330
2B0E
100
AcDbEntity
  8
SIZE
100
AcDbBlockReference
  2
_DOTBLANK
 10
-523.5633253057097
 20
-661.9999999013259
 30
0.0
 41
12.0
 42
12.0
 43
12.0
 50
270.0
  0
INSERT
  5
2A53
330
2B0E
100
AcDbEntity
  8
SIZE
100
AcDbBlockReference
  2
_DOTBLANK
 10
-523.5633253057097
 20
-682.9999999013259
 30
0.0
 41
12.0
 42
12.0
 43
12.0
 50
90.0
  0
LINE
  5
2A54
330
2B0E
100
AcDbEntity
  8
SIZE
100
AcDbLine
 10
-345.0
 20
-661.9999999013259
 30
0.0
 11
-543.5633253057098
 21
-661.9999999013259
 31
0.0
  0
LINE
  5
2A55
330
2B0E
100
AcDbEntity
  8
SIZE
100
AcDbLine
 10
-370.0
 20
0.0000000986733539
 30
0.0
 11
-543.5633253057098
 21
0.0000000986733539
 31
0.0
  0
LINE
  5
2A56
330
2B0E
100
AcDbEntity
  8
SIZE
100
AcDbLine
 10
-523.5633253057097
 20
-649.9999999013262
 30
0.0
 11
-523.5633253057097
 21
-11.99999990132664
 31
0.0
  0
INSERT
  5
2A57
330
2B0E
100
AcDbEntity
  8
SIZE
100
AcDbBlockReference
  2
_DOTBLANK
 10
-523.5633253057097
 20
-661.9999999013259
 30
0.0
 41
12.0
 42
12.0
 43
12.0
 50
270.0
  0
INSERT
  5
2A58
330
2B0E
100
AcDbEntity
  8
SIZE
100
AcDbBlockReference
  2
_DOTBLANK
 10
-523.5633253057097
 20
0.0000000986733539
 30
0.0
 41
12.0
 42
12.0
 43
12.0
 50
90.0
  0
TEXT
  5
2A59
330
2B0E
100
AcDbEntity
  8
SIZE
100
AcDbText
 10
-74.05714285714293
 20
-853.411671390433
 30
0.0
 40
64.0
  1
650
 41
0.9
100
AcDbText
  0
TEXT
  5
2A5A
330
2B0E
100
AcDbEntity
  8
SIZE
100
AcDbText
 10
-533.5633253057094
 20
-785.5714284727541
 30
0.0
 40
64.0
  1
21
 50
90.0
 41
0.9
100
AcDbText
  0
TEXT
  5
2A5B
330
2B0E
100
AcDbEntity
  8
SIZE
100
AcDbText
 10
-533.5633253057094
 20
-406.0571427584688
 30
0.0
 40
64.0
  1
662
 50
90.0
 41
0.9
100
AcDbText
  0
TEXT
  5
2A5C
330
2B0E
100
AcDbEntity
  8
SIZE
100
AcDbText
 10
-74.61302049113601
 20
171.9134197055535
 30
0.0
 40
64.0
  1
650
 41
0.9
100
AcDbText
  0
TEXT
  5
2A5D
330
2B0E
100
AcDbEntity
  8
SIZE
100
AcDbText
 10
-74.05714285714293
 20
287.6865930351904
 30
0.0
 40
64.0
  1
700
 41
0.9
100
AcDbText
  0
TEXT
  5
2A5E
330
2B0E
100
AcDbEntity
  8
SIZE
100
AcDbText
 10
444.9073130872021
 20
-126.2857141870408
 30
0.0
 40
64.0
  1
10
 50
90.0
 41
0.9
100
AcDbText
  0
ENDSEC
  0
SECTION
  2
OBJECTS
  0
DICTIONARY
  5
2AA6
330
0
100
AcDbDictionary
281
     1
  3
ACAD_2007HEADERVARS_RT
350
2CFC
  3
ACAD_COLOR
350
2B04
  3
ACAD_GROUP
350
2AA7
  3
ACAD_LAYOUT
350
2B03
  3
ACAD_MATERIAL
350
2AAA
  3
ACAD_MLEADERSTYLE
350
2B07
  3
ACAD_MLINESTYLE
350
2B00
  3
ACAD_PLOTSETTINGS
350
2B02
  3
ACAD_PLOTSTYLENAME
350
2AA8
  3
ACAD_SCALELIST
350
2AD4
  3
ACAD_TABLESTYLE
350
2B05
  3
ACAD_VISUALSTYLE
350
2AC3
  3
ACDB_RECOMPOSE_DATA
350
2CFA
  3
AcDbVariableDictionary
350
2CF1
  3
AcmDictionary
350
2CA4
  3
AMG
350
2BF1
  3
DWGPROPS
350
2CFB
  3
MAPISURF_MODULE
350
2C71
  0
DICTIONARY
  5
2CCC
330
2AF6
100
AcDbDictionary
280
     1
281
     1
  3
ADSK_XREC_LAYER_RECONCILED
360
2CCD
  0
DICTIONARY
  5
2CCE
330
2B25
100
AcDbDictionary
280
     1
281
     1
  3
ADSK_XREC_LAYER_RECONCILED
360
2CCF
  0
DICTIONARY
  5
2CD0
330
2B26
100
AcDbDictionary
280
     1
281
     1
  3
ADSK_XREC_LAYER_RECONCILED
360
2CD1
  0
DICTIONARY
  5
2CD2
330
2B27
100
AcDbDictionary
280
     1
281
     1
  3
ADSK_XREC_LAYER_RECONCILED
360
2CD3
  0
DICTIONARY
  5
2CD4
330
2B28
100
AcDbDictionary
280
     1
281
     1
  3
ADSK_XREC_LAYER_RECONCILED
360
2CD5
  0
DICTIONARY
  5
2CD6
330
2B29
100
AcDbDictionary
280
     1
281
     1
  3
ADSK_XREC_LAYER_RECONCILED
360
2CD7
  0
DICTIONARY
  5
2CD8
330
2B2B
100
AcDbDictionary
280
     1
281
     1
  3
ADSK_XREC_LAYER_RECONCILED
360
2CD9
  0
DICTIONARY
  5
2CDA
330
2B2C
100
AcDbDictionary
280
     1
281
     1
  3
ADSK_XREC_LAYER_RECONCILED
360
2CDB
  0
DICTIONARY
  5
2CDC
330
2B2D
100
AcDbDictionary
280
     1
281
     1
  3
ADSK_XREC_LAYER_RECONCILED
360
2CDD
  0
DICTIONARY
  5
2CDE
330
2B2E
100
AcDbDictionary
280
     1
281
     1
  3
ADSK_XREC_LAYER_RECONCILED
360
2CDF
  0
DICTIONARY
  5
2CE0
330
2B2F
100
AcDbDictionary
280
     1
281
     1
  3
ADSK_XREC_LAYER_RECONCILED
360
2CE1
  0
DICTIONARY
  5
2CE2
330
2B0E
100
AcDbDictionary
280
     1
281
     1
  3
ACAD_INDEX
360
2CE3
  0
DICTIONARY
  5
2CFC
102
{ACAD_REACTORS
330
2AA6
102
}
330
2AA6
100
AcDbDictionary
281
     1
  3
DIMARCSYM
350
2CFD
  3
DIMLTEX1
350
2CFF
  3
DIMLTEX2
350
2D00
  3
DIMLTYPE
350
2CFE
  0
DICTIONARY
  5
2B04
102
{ACAD_REACTORS
330
2AA6
102
}
330
2AA6
100
AcDbDictionary
281
     1
  0
DICTIONARY
  5
2AA7
102
{ACAD_REACTORS
330
2AA6
102
}
330
2AA6
100
AcDbDictionary
281
     1
  0
DICTIONARY
  5
2B03
102
{ACAD_REACTORS
330
2AA6
102
}
330
2AA6
100
AcDbDictionary
281
     1
  3
Model
350
2B11
  3
レイアウト1
350
2B0D
  0
DICTIONARY
  5
2AAA
102
{ACAD_REACTORS
330
2AA6
102
}
330
2AA6
100
AcDbDictionary
281
     1
  3
ByBlock
350
2AB3
  3
ByLayer
350
2AAB
  3
Global
350
2ABB
  0
DICTIONARY
  5
2B07
102
{ACAD_REACTORS
330
2AA6
102
}
330
2AA6
100
AcDbDictionary
281
     1
  3
Standard
350
2B08
  0
DICTIONARY
  5
2B00
102
{ACAD_REACTORS
330
2AA6
102
}
330
2AA6
100
AcDbDictionary
281
     1
  3
Standard
350
2B01
  0
DICTIONARY
  5
2B02
102
{ACAD_REACTORS
330
2AA6
102
}
330
2AA6
100
AcDbDictionary
281
     1
  0
ACDBDICTIONARYWDFLT
  5
2AA8
102
{ACAD_REACTORS
330
2AA6
102
}
330
2AA6
100
AcDbDictionary
281
     1
  3
Normal
350
2AA9
100
AcDbDictionaryWithDefault
340
2AA9
  0
DICTIONARY
  5
2AD4
102
{ACAD_REACTORS
330
2AA6
102
}
330
2AA6
100
AcDbDictionary
281
     1
  3
A0
350
2AD5
  3
A1
350
2AD6
  3
A2
350
2AD7
  3
A3
350
2AD8
  3
A4
350
2AD9
  3
A5
350
2ADA
  3
A6
350
2ADB
  3
A7
350
2ADC
  3
A8
350
2ADD
  3
A9
350
2ADE
  3
B0
350
2ADF
  3
B1
350
2AE0
  3
B2
350
2AE1
  3
B3
350
2AE2
  3
B4
350
2AE3
  3
B5
350
2AE4
  3
B6
350
2AE5
  3
B7
350
2AE6
  3
B8
350
2AE7
  3
B9
350
2AE8
  3
C0
350
2AE9
  3
C1
350
2AEA
  3
C2
350
2AEB
  3
C3
350
2AEC
  3
C4
350
2AED
  3
C5
350
2AEE
  3
C6
350
2AEF
  3
C7
350
2AF0
  3
C8
350
2AF1
  3
C9
350
2AF2
  3
D0
350
2AF3
  3
D1
350
2AF4
  3
D2
350
2AF5
  0
DICTIONARY
  5
2B05
102
{ACAD_REACTORS
330
2AA6
102
}
330
2AA6
100
AcDbDictionary
281
     1
  3
Standard
350
2B06
  0
DICTIONARY
  5
2AC3
102
{ACAD_REACTORS
330
2AA6
102
}
330
2AA6
100
AcDbDictionary
281
     1
  3
2dWireframe
350
2AC9
  3
3D Hidden
350
2ACB
  3
3dWireframe
350
2ACA
  3
Basic
350
2AC8
  3
Brighten
350
2ACF
  3
ColorChange
350
2AD3
  3
Conceptual
350
2ACC
  3
Dim
350
2ACE
  3
Facepattern
350
2AD2
  3
Flat
350
2AC4
  3
FlatWithEdges
350
2AC5
  3
Gouraud
350
2AC6
  3
GouraudWithEdges
350
2AC7
  3
Linepattern
350
2AD1
  3
Realistic
350
2ACD
  3
Thicken
350
2AD0
  0
XRECORD
  5
2CFA
102
{ACAD_REACTORS
330
2AA6
102
}
330
2AA6
100
AcDbXrecord
280
     1
 90
        1
330
2B06
  0
DICTIONARY
  5
2CF1
102
{ACAD_REACTORS
330
2AA6
102
}
330
2AA6
100
AcDbDictionary
281
     1
  3
CANNOSCALE
350
2CF4
  3
CMLEADERSTYLE
350
2CF3
  3
CTABLESTYLE
350
2CF2
  3
DIMASSOC
350
2CF7
  3
INDEXCTL
350
2CF6
  3
SORTENTS
350
2CF5
  0
DICTIONARY
  5
2CA4
102
{ACAD_REACTORS
330
2AA6
102
}
330
2AA6
100
AcDbDictionary
281
     1
  3
AcmStdDictionary
350
2CB2
  0
DICTIONARY
  5
2BF1
102
{ACAD_REACTORS
330
2AA6
102
}
330
2AA6
100
AcDbDictionary
281
     1
  3
AcMgSettings
350
2BF2
  0
XRECORD
  5
2CFB
102
{ACAD_REACTORS
330
2AA6
102
}
330
2AA6
100
AcDbXrecord
280
     1
  1
DWGPROPS COOKIE
  2

  3

  4

  6

  7

  8
A090053
  9

300
AmdtFileType=84
301
=
302
=
303
=
304
=
305
=
306
=
307
=
308
=
309
=
 40
1.042031226851851
 41
2452321.396199653
 42
2456212.849004363
  1

 90
        1
  0
XRECORD
  5
2CCD
102
{ACAD_REACTORS
330
2CCC
102
}
330
2CCC
100
AcDbXrecord
280
     1
290
     1
  0
XRECORD
  5
2CCF
102
{ACAD_REACTORS
330
2CCE
102
}
330
2CCE
100
AcDbXrecord
280
     1
290
     1
  0
XRECORD
  5
2CD1
102
{ACAD_REACTORS
330
2CD0
102
}
330
2CD0
100
AcDbXrecord
280
     1
290
     1
  0
XRECORD
  5
2CD3
102
{ACAD_REACTORS
330
2CD2
102
}
330
2CD2
100
AcDbXrecord
280
     1
290
     1
  0
XRECORD
  5
2CD5
102
{ACAD_REACTORS
330
2CD4
102
}
330
2CD4
100
AcDbXrecord
280
     1
290
     1
  0
XRECORD
  5
2CD7
102
{ACAD_REACTORS
330
2CD6
102
}
330
2CD6
100
AcDbXrecord
280
     1
290
     1
  0
XRECORD
  5
2CD9
102
{ACAD_REACTORS
330
2CD8
102
}
330
2CD8
100
AcDbXrecord
280
     1
290
     1
  0
XRECORD
  5
2CDB
102
{ACAD_REACTORS
330
2CDA
102
}
330
2CDA
100
AcDbXrecord
280
     1
290
     1
  0
XRECORD
  5
2CDD
102
{ACAD_REACTORS
330
2CDC
102
}
330
2CDC
100
AcDbXrecord
280
     1
290
     1
  0
XRECORD
  5
2CDF
102
{ACAD_REACTORS
330
2CDE
102
}
330
2CDE
100
AcDbXrecord
280
     1
290
     1
  0
XRECORD
  5
2CE1
102
{ACAD_REACTORS
330
2CE0
102
}
330
2CE0
100
AcDbXrecord
280
     1
290
     1
  0
DICTIONARY
  5
2CE3
102
{ACAD_REACTORS
330
2CE2
102
}
330
2CE2
100
AcDbDictionary
281
     1
  3
*A1
350
2CE4
  0
XRECORD
  5
2CFD
102
{ACAD_REACTORS
330
2CFC
102
}
330
2CFC
100
AcDbXrecord
280
     1
 70
     1
  0
XRECORD
  5
2CFF
102
{ACAD_REACTORS
330
2CFC
102
}
330
2CFC
100
AcDbXrecord
280
     1
340
2AFC
  0
XRECORD
  5
2D00
102
{ACAD_REACTORS
330
2CFC
102
}
330
2CFC
100
AcDbXrecord
280
     1
340
2AFC
  0
XRECORD
  5
2CFE
102
{ACAD_REACTORS
330
2CFC
102
}
330
2CFC
100
AcDbXrecord
280
     1
340
2AFC
  0
LAYOUT
  5
2B11
102
{ACAD_XDICTIONARY
360
2D07
102
}
102
{ACAD_REACTORS
330
2B03
102
}
330
2B03
100
AcDbPlotSettings
  1

  2
自動 EPSON LP-9600S (W2450527 上)
  4

  6

 40
0.0
 41
0.0
 42
0.0
 43
0.0
 44
0.0
 45
0.0
 46
0.0
 47
0.0
 48
0.0
 49
0.0
140
0.0
141
0.0
142
1.0
143
1.0
 70
  1712
 72
     0
 73
     0
 74
     0
  7

 75
     0
147
1.0
148
0.0
149
0.0
100
AcDbLayout
  1
Model
 70
     1
 71
     0
 10
0.0
 20
0.0
 11
12.0
 21
9.0
 12
0.0
 22
0.0
 32
0.0
 14
0.0
 24
0.0
 34
0.0
 15
0.0
 25
0.0
 35
0.0
146
0.0
 13
0.0
 23
0.0
 33
0.0
 16
1.0
 26
0.0
 36
0.0
 17
0.0
 27
1.0
 37
0.0
 76
     0
330
2B0E
331
2B12
  0
LAYOUT
  5
2B0D
102
{ACAD_XDICTIONARY
360
2D05
102
}
102
{ACAD_REACTORS
330
2B03
102
}
330
2B03
100
AcDbPlotSettings
  1

  2
自動 EPSON LP-9600S (W2450527 上)
  4

  6

 40
0.0
 41
0.0
 42
0.0
 43
0.0
 44
0.0
 45
0.0
 46
0.0
 47
0.0
 48
0.0
 49
0.0
140
0.0
141
0.0
142
1.0
143
1.0
 70
   688
 72
     0
 73
     0
 74
     5
  7

 75
    16
147
1.0
148
0.0
149
0.0
100
AcDbLayout
  1
レイアウト1
 70
     1
 71
     1
 10
0.0
 20
0.0
 11
12.0
 21
9.0
 12
0.0
 22
0.0
 32
0.0
 14
1.000000000000000E+20
 24
1.000000000000000E+20
 34
1.000000000000000E+20
 15
-1.000000000000000E+20
 25
-1.000000000000000E+20
 35
-1.000000000000000E+20
146
0.0
 13
0.0
 23
0.0
 33
0.0
 16
1.0
 26
0.0
 36
0.0
 17
0.0
 27
1.0
 37
0.0
 76
     0
330
2B0A
  0
MATERIAL
  5
2AB3
102
{ACAD_XDICTIONARY
360
2AB4
102
}
102
{ACAD_REACTORS
330
2AAA
102
}
330
2AAA
100
AcDbMaterial
  1
ByBlock
 72
     0
 43
0.0208333333333333
 43
0.0
 43
0.0
 43
0.0
 43
0.0
 43
0.0208333333333333
 43
0.0
 43
0.0
 43
0.0
 43
0.0
 43
1.0
 43
0.0
 43
0.0
 43
0.0
 43
0.0
 43
1.0
 77
     0
 47
0.0208333333333333
 47
0.0
 47
0.0
 47
0.0
 47
0.0
 47
0.0208333333333333
 47
0.0
 47
0.0
 47
0.0
 47
0.0
 47
1.0
 47
0.0
 47
0.0
 47
0.0
 47
0.0
 47
1.0
171
     0
 49
0.0208333333333333
 49
0.0
 49
0.0
 49
0.0
 49
0.0
 49
0.0208333333333333
 49
0.0
 49
0.0
 49
0.0
 49
0.0
 49
1.0
 49
0.0
 49
0.0
 49
0.0
 49
0.0
 49
1.0
175
     0
142
0.0208333333333333
142
0.0
142
0.0
142
0.0
142
0.0
142
0.0208333333333333
142
0.0
142
0.0
142
0.0
142
0.0
142
1.0
142
0.0
142
0.0
142
0.0
142
0.0
142
1.0
179
     0
144
0.0208333333333333
144
0.0
144
0.0
144
0.0
144
0.0
144
0.0208333333333333
144
0.0
144
0.0
144
0.0
144
0.0
144
1.0
144
0.0
144
0.0
144
0.0
144
0.0
144
1.0
147
0.0208333333333333
147
0.0
147
0.0
147
0.0
147
0.0
147
0.0208333333333333
147
0.0
147
0.0
147
0.0
147
0.0
147
1.0
147
0.0
147
0.0
147
0.0
147
0.0
147
1.0
  0
MATERIAL
  5
2AAB
102
{ACAD_XDICTIONARY
360
2AAC
102
}
102
{ACAD_REACTORS
330
2AAA
102
}
330
2AAA
100
AcDbMaterial
  1
ByLayer
 72
     0
 43
0.0208333333333333
 43
0.0
 43
0.0
 43
0.0
 43
0.0
 43
0.0208333333333333
 43
0.0
 43
0.0
 43
0.0
 43
0.0
 43
1.0
 43
0.0
 43
0.0
 43
0.0
 43
0.0
 43
1.0
 77
     0
 47
0.0208333333333333
 47
0.0
 47
0.0
 47
0.0
 47
0.0
 47
0.0208333333333333
 47
0.0
 47
0.0
 47
0.0
 47
0.0
 47
1.0
 47
0.0
 47
0.0
 47
0.0
 47
0.0
 47
1.0
171
     0
 49
0.0208333333333333
 49
0.0
 49
0.0
 49
0.0
 49
0.0
 49
0.0208333333333333
 49
0.0
 49
0.0
 49
0.0
 49
0.0
 49
1.0
 49
0.0
 49
0.0
 49
0.0
 49
0.0
 49
1.0
175
     0
142
0.0208333333333333
142
0.0
142
0.0
142
0.0
142
0.0
142
0.0208333333333333
142
0.0
142
0.0
142
0.0
142
0.0
142
1.0
142
0.0
142
0.0
142
0.0
142
0.0
142
1.0
179
     0
144
0.0208333333333333
144
0.0
144
0.0
144
0.0
144
0.0
144
0.0208333333333333
144
0.0
144
0.0
144
0.0
144
0.0
144
1.0
144
0.0
144
0.0
144
0.0
144
0.0
144
1.0
147
0.0208333333333333
147
0.0
147
0.0
147
0.0
147
0.0
147
0.0208333333333333
147
0.0
147
0.0
147
0.0
147
0.0
147
1.0
147
0.0
147
0.0
147
0.0
147
0.0
147
1.0
  0
MATERIAL
  5
2ABB
102
{ACAD_XDICTIONARY
360
2ABC
102
}
102
{ACAD_REACTORS
330
2AAA
102
}
330
2AAA
100
AcDbMaterial
  1
Global
 72
     0
 43
0.0208333333333333
 43
0.0
 43
0.0
 43
0.0
 43
0.0
 43
0.0208333333333333
 43
0.0
 43
0.0
 43
0.0
 43
0.0
 43
1.0
 43
0.0
 43
0.0
 43
0.0
 43
0.0
 43
1.0
 77
     0
 47
0.0208333333333333
 47
0.0
 47
0.0
 47
0.0
 47
0.0
 47
0.0208333333333333
 47
0.0
 47
0.0
 47
0.0
 47
0.0
 47
1.0
 47
0.0
 47
0.0
 47
0.0
 47
0.0
 47
1.0
171
     0
 49
0.0208333333333333
 49
0.0
 49
0.0
 49
0.0
 49
0.0
 49
0.0208333333333333
 49
0.0
 49
0.0
 49
0.0
 49
0.0
 49
1.0
 49
0.0
 49
0.0
 49
0.0
 49
0.0
 49
1.0
175
     0
142
0.0208333333333333
142
0.0
142
0.0
142
0.0
142
0.0
142
0.0208333333333333
142
0.0
142
0.0
142
0.0
142
0.0
142
1.0
142
0.0
142
0.0
142
0.0
142
0.0
142
1.0
179
     0
144
0.0208333333333333
144
0.0
144
0.0
144
0.0
144
0.0
144
0.0208333333333333
144
0.0
144
0.0
144
0.0
144
0.0
144
1.0
144
0.0
144
0.0
144
0.0
144
0.0
144
1.0
147
0.0208333333333333
147
0.0
147
0.0
147
0.0
147
0.0
147
0.0208333333333333
147
0.0
147
0.0
147
0.0
147
0.0
147
1.0
147
0.0
147
0.0
147
0.0
147
0.0
147
1.0
  0
MLEADERSTYLE
  5
2B08
102
{ACAD_REACTORS
330
2B07
102
}
330
2B07
100
AcDbMLeaderStyle
170
     2
171
     1
172
     0
 90
        2
 40
0.0
 41
0.0
173
     1
 91
-1056964608
340
2AFC
 92
       -2
290
     1
 42
0.09
291
     1
 43
0.36
  3
Standard
 44
0.18
300

342
2AF7
174
     1
178
     6
175
     1
176
     0
 93
-1056964608
 45
0.18
292
     0
297
     0
 46
0.18
 94
-1056964608
 47
1.0
 49
1.0
140
1.0
293
     1
141
0.0
294
     1
177
     0
142
1.0
295
     0
296
     0
143
0.125
1001
ACAD_MLEADERVER
1070
     2
  0
MLINESTYLE
  5
2B01
102
{ACAD_REACTORS
330
2B00
102
}
330
2B00
100
AcDbMlineStyle
  2
STANDARD
 70
     0
  3

 62
   256
 51
90.0
 52
90.0
 71
     2
 49
0.5
 62
   256
  6
BYLAYER
 49
-0.5
 62
   256
  6
BYLAYER
  0
ACDBPLACEHOLDER
  5
2AA9
102
{ACAD_REACTORS
330
2AA8
102
}
330
2AA8
  0
SCALE
  5
2AD5
102
{ACAD_REACTORS
330
2AD4
102
}
330
2AD4
100
AcDbScale
 70
     0
300
1:1
140
1.0
141
1.0
290
     1
  0
SCALE
  5
2AD6
102
{ACAD_REACTORS
330
2AD4
102
}
330
2AD4
100
AcDbScale
 70
     0
300
1:2
140
1.0
141
2.0
290
     0
  0
SCALE
  5
2AD7
102
{ACAD_REACTORS
330
2AD4
102
}
330
2AD4
100
AcDbScale
 70
     0
300
1:4
140
1.0
141
4.0
290
     0
  0
SCALE
  5
2AD8
102
{ACAD_REACTORS
330
2AD4
102
}
330
2AD4
100
AcDbScale
 70
     0
300
1:5
140
1.0
141
5.0
290
     0
  0
SCALE
  5
2AD9
102
{ACAD_REACTORS
330
2AD4
102
}
330
2AD4
100
AcDbScale
 70
     0
300
1:8
140
1.0
141
8.0
290
     0
  0
SCALE
  5
2ADA
102
{ACAD_REACTORS
330
2AD4
102
}
330
2AD4
100
AcDbScale
 70
     0
300
1:10
140
1.0
141
10.0
290
     0
  0
SCALE
  5
2ADB
102
{ACAD_REACTORS
330
2AD4
102
}
330
2AD4
100
AcDbScale
 70
     0
300
1:16
140
1.0
141
16.0
290
     0
  0
SCALE
  5
2ADC
102
{ACAD_REACTORS
330
2AD4
102
}
330
2AD4
100
AcDbScale
 70
     0
300
1:20
140
1.0
141
20.0
290
     0
  0
SCALE
  5
2ADD
102
{ACAD_REACTORS
330
2AD4
102
}
330
2AD4
100
AcDbScale
 70
     0
300
1:30
140
1.0
141
30.0
290
     0
  0
SCALE
  5
2ADE
102
{ACAD_REACTORS
330
2AD4
102
}
330
2AD4
100
AcDbScale
 70
     0
300
1:40
140
1.0
141
40.0
290
     0
  0
SCALE
  5
2ADF
102
{ACAD_REACTORS
330
2AD4
102
}
330
2AD4
100
AcDbScale
 70
     0
300
1:50
140
1.0
141
50.0
290
     0
  0
SCALE
  5
2AE0
102
{ACAD_REACTORS
330
2AD4
102
}
330
2AD4
100
AcDbScale
 70
     0
300
1:100
140
1.0
141
100.0
290
     0
  0
SCALE
  5
2AE1
102
{ACAD_REACTORS
330
2AD4
102
}
330
2AD4
100
AcDbScale
 70
     0
300
2:1
140
2.0
141
1.0
290
     0
  0
SCALE
  5
2AE2
102
{ACAD_REACTORS
330
2AD4
102
}
330
2AD4
100
AcDbScale
 70
     0
300
4:1
140
4.0
141
1.0
290
     0
  0
SCALE
  5
2AE3
102
{ACAD_REACTORS
330
2AD4
102
}
330
2AD4
100
AcDbScale
 70
     0
300
8:1
140
8.0
141
1.0
290
     0
  0
SCALE
  5
2AE4
102
{ACAD_REACTORS
330
2AD4
102
}
330
2AD4
100
AcDbScale
 70
     0
300
10:1
140
10.0
141
1.0
290
     0
  0
SCALE
  5
2AE5
102
{ACAD_REACTORS
330
2AD4
102
}
330
2AD4
100
AcDbScale
 70
     0
300
100:1
140
100.0
141
1.0
290
     0
  0
SCALE
  5
2AE6
102
{ACAD_REACTORS
330
2AD4
102
}
330
2AD4
100
AcDbScale
 70
     0
300
1/128" = 1'-0"
140
0.0078125
141
12.0
290
     0
  0
SCALE
  5
2AE7
102
{ACAD_REACTORS
330
2AD4
102
}
330
2AD4
100
AcDbScale
 70
     0
300
1/64" = 1'-0"
140
0.015625
141
12.0
290
     0
  0
SCALE
  5
2AE8
102
{ACAD_REACTORS
330
2AD4
102
}
330
2AD4
100
AcDbScale
 70
     0
300
1/32" = 1'-0"
140
0.03125
141
12.0
290
     0
  0
SCALE
  5
2AE9
102
{ACAD_REACTORS
330
2AD4
102
}
330
2AD4
100
AcDbScale
 70
     0
300
1/16" = 1'-0"
140
0.0625
141
12.0
290
     0
  0
SCALE
  5
2AEA
102
{ACAD_REACTORS
330
2AD4
102
}
330
2AD4
100
AcDbScale
 70
     0
300
3/32" = 1'-0"
140
0.09375
141
12.0
290
     0
  0
SCALE
  5
2AEB
102
{ACAD_REACTORS
330
2AD4
102
}
330
2AD4
100
AcDbScale
 70
     0
300
1/8" = 1'-0"
140
0.125
141
12.0
290
     0
  0
SCALE
  5
2AEC
102
{ACAD_REACTORS
330
2AD4
102
}
330
2AD4
100
AcDbScale
 70
     0
300
3/16" = 1'-0"
140
0.1875
141
12.0
290
     0
  0
SCALE
  5
2AED
102
{ACAD_REACTORS
330
2AD4
102
}
330
2AD4
100
AcDbScale
 70
     0
300
1/4" = 1'-0"
140
0.25
141
12.0
290
     0
  0
SCALE
  5
2AEE
102
{ACAD_REACTORS
330
2AD4
102
}
330
2AD4
100
AcDbScale
 70
     0
300
3/8" = 1'-0"
140
0.375
141
12.0
290
     0
  0
SCALE
  5
2AEF
102
{ACAD_REACTORS
330
2AD4
102
}
330
2AD4
100
AcDbScale
 70
     0
300
1/2" = 1'-0"
140
0.5
141
12.0
290
     0
  0
SCALE
  5
2AF0
102
{ACAD_REACTORS
330
2AD4
102
}
330
2AD4
100
AcDbScale
 70
     0
300
3/4" = 1'-0"
140
0.75
141
12.0
290
     0
  0
SCALE
  5
2AF1
102
{ACAD_REACTORS
330
2AD4
102
}
330
2AD4
100
AcDbScale
 70
     0
300
1" = 1'-0"
140
1.0
141
12.0
290
     0
  0
SCALE
  5
2AF2
102
{ACAD_REACTORS
330
2AD4
102
}
330
2AD4
100
AcDbScale
 70
     0
300
1-1/2" = 1'-0"
140
1.5
141
12.0
290
     0
  0
SCALE
  5
2AF3
102
{ACAD_REACTORS
330
2AD4
102
}
330
2AD4
100
AcDbScale
 70
     0
300
3" = 1'-0"
140
3.0
141
12.0
290
     0
  0
SCALE
  5
2AF4
102
{ACAD_REACTORS
330
2AD4
102
}
330
2AD4
100
AcDbScale
 70
     0
300
6" = 1'-0"
140
6.0
141
12.0
290
     0
  0
SCALE
  5
2AF5
102
{ACAD_REACTORS
330
2AD4
102
}
330
2AD4
100
AcDbScale
 70
     0
300
1'-0" = 1'-0"
140
12.0
141
12.0
290
     0
  0
TABLESTYLE
  5
2B06
102
{ACAD_XDICTIONARY
360
2CF8
102
}
102
{ACAD_REACTORS
330
2B05
102
}
330
2B05
100
AcDbTableStyle
  3
Standard
 70
     0
 71
     0
 40
0.06
 41
0.06
280
     0
281
     0
  7
STANDARD
140
0.18
170
     2
 62
     0
 63
     7
283
     0
274
    -2
284
     1
 64
     0
275
    -2
285
     1
 65
     0
276
    -2
286
     1
 66
     0
277
    -2
287
     1
 67
     0
278
    -2
288
     1
 68
     0
279
    -2
289
     1
 69
     0
  7
STANDARD
140
0.25
170
     5
 62
     0
 63
     7
283
     0
274
    -2
284
     1
 64
     0
275
    -2
285
     1
 65
     0
276
    -2
286
     1
 66
     0
277
    -2
287
     1
 67
     0
278
    -2
288
     1
 68
     0
279
    -2
289
     1
 69
     0
  7
STANDARD
140
0.18
170
     5
 62
     0
 63
     7
283
     0
274
    -2
284
     1
 64
     0
275
    -2
285
     1
 65
     0
276
    -2
286
     1
 66
     0
277
    -2
287
     1
 67
     0
278
    -2
288
     1
 68
     0
279
    -2
289
     1
 69
     0
  0
VISUALSTYLE
  5
2AC9
102
{ACAD_REACTORS
330
2AC3
102
}
330
2AC3
100
AcDbVisualStyle
  2
2dWireframe
 70
     4
 71
     0
 72
     2
 73
     0
 90
        0
 40
-0.6
 41
-30.0
 62
     5
 63
     7
 74
     1
 91
        4
 64
     7
 65
   257
 75
     1
175
     1
 42
1.0
 92
        0
 66
   257
 43
1.0
 76
     1
 77
     6
 78
     2
 67
     7
 79
     5
170
     0
171
     0
290
     0
174
     0
 93
        1
 44
0.0
173
     0
291
     0
 45
0.0
1001
ACAD
1000
AcDbSavedByObjectVersion
1070
     0
  0
VISUALSTYLE
  5
2ACB
102
{ACAD_REACTORS
330
2AC3
102
}
330
2AC3
100
AcDbVisualStyle
  2
3D Hidden
 70
     6
 71
     1
 72
     2
 73
     2
 90
        0
 40
-0.6
 41
-30.0
 62
     5
 63
     7
 74
     2
 91
        2
 64
     7
 65
   257
 75
     2
175
     1
 42
40.0
 92
        0
 66
   257
 43
1.0
 76
     1
 77
     6
 78
     2
 67
     7
 79
     3
170
     0
171
     0
290
     0
174
     0
 93
        1
 44
0.0
173
     0
291
     0
 45
0.0
1001
ACAD
1000
AcDbSavedByObjectVersion
1070
     0
  0
VISUALSTYLE
  5
2ACA
102
{ACAD_REACTORS
330
2AC3
102
}
330
2AC3
100
AcDbVisualStyle
  2
3dWireframe
 70
     5
 71
     0
 72
     2
 73
     0
 90
        0
 40
-0.6
 41
-30.0
 62
     5
 63
     7
 74
     1
 91
        4
 64
     7
 65
   257
 75
     1
175
     1
 42
1.0
 92
        0
 66
   257
 43
1.0
 76
     1
 77
     6
 78
     2
 67
     7
 79
     5
170
     0
171
     0
290
     0
174
     0
 93
        1
 44
0.0
173
     0
291
     0
 45
0.0
1001
ACAD
1000
AcDbSavedByObjectVersion
1070
     0
  0
VISUALSTYLE
  5
2AC8
102
{ACAD_REACTORS
330
2AC3
102
}
330
2AC3
100
AcDbVisualStyle
  2
Basic
 70
     7
 71
     1
 72
     0
 73
     1
 90
        0
 40
-0.6
 41
-30.0
 62
     5
 63
     7
 74
     0
 91
        4
 64
     7
 65
   257
 75
     1
175
     1
 42
1.0
 92
        8
 66
     7
 43
1.0
 76
     1
 77
     6
 78
     2
 67
     7
 79
     5
170
     0
171
     0
290
     0
174
     0
 93
        1
 44
0.0
173
     0
291
     1
 45
0.0
1001
ACAD
1000
AcDbSavedByObjectVersion
1070
     0
  0
VISUALSTYLE
  5
2ACF
102
{ACAD_REACTORS
330
2AC3
102
}
330
2AC3
100
AcDbVisualStyle
  2
Brighten
 70
    12
 71
     2
 72
     2
 73
     0
 90
        0
 40
-0.6
 41
-30.0
 62
     5
 63
     7
 74
     1
 91
        4
 64
     7
 65
   257
 75
     1
175
     1
 42
1.0
 92
        8
 66
     7
 43
1.0
 76
     1
 77
     6
 78
     2
 67
     7
 79
     5
170
     0
171
     0
290
     0
174
     0
 93
        1
 44
50.0
173
     0
291
     1
 45
0.0
1001
ACAD
1000
AcDbSavedByObjectVersion
1070
     0
  0
VISUALSTYLE
  5
2AD3
102
{ACAD_REACTORS
330
2AC3
102
}
330
2AC3
100
AcDbVisualStyle
  2
ColorChange
 70
    16
 71
     2
 72
     2
 73
     3
 90
        0
 40
-0.6
 41
-30.0
 62
     5
 63
     8
 74
     1
 91
        4
 64
     7
 65
   257
 75
     1
175
     1
 42
1.0
 92
        8
 66
     8
 43
1.0
 76
     1
 77
     6
 78
     2
 67
     7
 79
     5
170
     0
171
     0
290
     0
174
     0
 93
        1
 44
0.0
173
     0
291
     1
 45
0.0
1001
ACAD
1000
AcDbSavedByObjectVersion
1070
     0
  0
VISUALSTYLE
  5
2ACC
102
{ACAD_REACTORS
330
2AC3
102
}
330
2AC3
100
AcDbVisualStyle
  2
Conceptual
 70
     9
 71
     3
 72
     2
 73
     0
 90
        0
 40
-0.6
 41
-30.0
 62
     5
 63
     7
 74
     2
 91
        2
 64
     7
 65
   257
 75
     1
175
     1
 42
40.0
 92
        8
 66
     7
 43
1.0
 76
     1
 77
     6
 78
     2
 67
     7
 79
     3
170
     0
171
     0
290
     0
174
     0
 93
        1
 44
0.0
173
     0
291
     0
 45
0.0
1001
ACAD
1000
AcDbSavedByObjectVersion
1070
     0
  0
VISUALSTYLE
  5
2ACE
102
{ACAD_REACTORS
330
2AC3
102
}
330
2AC3
100
AcDbVisualStyle
  2
Dim
 70
    11
 71
     2
 72
     2
 73
     0
 90
        0
 40
-0.6
 41
-30.0
 62
     5
 63
     7
 74
     1
 91
        4
 64
     7
 65
   257
 75
     1
175
     1
 42
1.0
 92
        8
 66
     7
 43
1.0
 76
     1
 77
     6
 78
     2
 67
     7
 79
     5
170
     0
171
     0
290
     0
174
     0
 93
        1
 44
-50.0
173
     0
291
     1
 45
0.0
1001
ACAD
1000
AcDbSavedByObjectVersion
1070
     0
  0
VISUALSTYLE
  5
2AD2
102
{ACAD_REACTORS
330
2AC3
102
}
330
2AC3
100
AcDbVisualStyle
  2
Facepattern
 70
    15
 71
     2
 72
     2
 73
     0
 90
        0
 40
-0.6
 41
-30.0
 62
     5
 63
     7
 74
     1
 91
        4
 64
     7
 65
   257
 75
     1
175
     1
 42
1.0
 92
        8
 66
     7
 43
1.0
 76
     1
 77
     6
 78
     2
 67
     7
 79
     5
170
     0
171
     0
290
     0
174
     0
 93
        1
 44
0.0
173
     0
291
     1
 45
0.0
1001
ACAD
1000
AcDbSavedByObjectVersion
1070
     0
  0
VISUALSTYLE
  5
2AC4
102
{ACAD_REACTORS
330
2AC3
102
}
330
2AC3
100
AcDbVisualStyle
  2
Flat
 70
     0
 71
     2
 72
     1
 73
     1
 90
        2
 40
-0.6
 41
30.0
 62
     5
 63
     7
 74
     0
 91
        4
 64
     7
 65
   257
 75
     1
175
     1
 42
1.0
 92
        8
 66
     7
 43
1.0
 76
     1
 77
     6
 78
     2
 67
     7
 79
     5
170
     0
171
     0
290
     0
174
     0
 93
       13
 44
0.0
173
     0
291
     1
 45
0.0
1001
ACAD
1000
AcDbSavedByObjectVersion
1070
     0
  0
VISUALSTYLE
  5
2AC5
102
{ACAD_REACTORS
330
2AC3
102
}
330
2AC3
100
AcDbVisualStyle
  2
FlatWithEdges
 70
     1
 71
     2
 72
     1
 73
     1
 90
        2
 40
-0.6
 41
30.0
 62
     5
 63
     7
 74
     1
 91
        4
 64
     7
 65
   257
 75
     1
175
     1
 42
1.0
 92
        0
 66
   257
 43
1.0
 76
     1
 77
     6
 78
     2
 67
     7
 79
     5
170
     0
171
     0
290
     0
174
     0
 93
       13
 44
0.0
173
     0
291
     1
 45
0.0
1001
ACAD
1000
AcDbSavedByObjectVersion
1070
     0
  0
VISUALSTYLE
  5
2AC6
102
{ACAD_REACTORS
330
2AC3
102
}
330
2AC3
100
AcDbVisualStyle
  2
Gouraud
 70
     2
 71
     2
 72
     2
 73
     1
 90
        2
 40
-0.6
 41
30.0
 62
     5
 63
     7
 74
     0
 91
        4
 64
     7
 65
   257
 75
     1
175
     1
 42
1.0
 92
        0
 66
     7
 43
1.0
 76
     1
 77
     6
 78
     2
 67
     7
 79
     5
170
     0
171
     0
290
     0
174
     0
 93
       13
 44
0.0
173
     0
291
     1
 45
0.0
1001
ACAD
1000
AcDbSavedByObjectVersion
1070
     0
  0
VISUALSTYLE
  5
2AC7
102
{ACAD_REACTORS
330
2AC3
102
}
330
2AC3
100
AcDbVisualStyle
  2
GouraudWithEdges
 70
     3
 71
     2
 72
     2
 73
     1
 90
        2
 40
-0.6
 41
30.0
 62
     5
 63
     7
 74
     1
 91
        4
 64
     7
 65
   257
 75
     1
175
     1
 42
1.0
 92
        0
 66
   257
 43
1.0
 76
     1
 77
     6
 78
     2
 67
     7
 79
     5
170
     0
171
     0
290
     0
174
     0
 93
       13
 44
0.0
173
     0
291
     1
 45
0.0
1001
ACAD
1000
AcDbSavedByObjectVersion
1070
     0
  0
VISUALSTYLE
  5
2AD1
102
{ACAD_REACTORS
330
2AC3
102
}
330
2AC3
100
AcDbVisualStyle
  2
Linepattern
 70
    14
 71
     2
 72
     2
 73
     0
 90
        0
 40
-0.6
 41
-30.0
 62
     5
 63
     7
 74
     1
 91
        4
 64
     7
 65
   257
 75
     7
175
     7
 42
1.0
 92
        8
 66
     7
 43
1.0
 76
     1
 77
     6
 78
     2
 67
     7
 79
     5
170
     0
171
     0
290
     0
174
     0
 93
        1
 44
0.0
173
     0
291
     1
 45
0.0
1001
ACAD
1000
AcDbSavedByObjectVersion
1070
     0
  0
VISUALSTYLE
  5
2ACD
102
{ACAD_REACTORS
330
2AC3
102
}
330
2AC3
100
AcDbVisualStyle
  2
Realistic
 70
     8
 71
     2
 72
     2
 73
     0
 90
        0
 40
-0.6
 41
-30.0
 62
     5
 63
     7
 74
     1
 91
        0
 64
     7
 65
   257
 75
     1
175
     1
 42
1.0
 92
        8
 66
     8
 43
1.0
 76
     1
 77
     6
 78
     2
 67
     7
 79
     5
170
     0
171
     0
290
     0
174
     0
 93
       13
 44
0.0
173
     0
291
     0
 45
0.0
1001
ACAD
1000
AcDbSavedByObjectVersion
1070
     0
  0
VISUALSTYLE
  5
2AD0
102
{ACAD_REACTORS
330
2AC3
102
}
330
2AC3
100
AcDbVisualStyle
  2
Thicken
 70
    13
 71
     2
 72
     2
 73
     0
 90
        0
 40
-0.6
 41
-30.0
 62
     5
 63
     7
 74
     1
 91
        4
 64
     7
 65
   257
 75
     1
175
     1
 42
1.0
 92
       12
 66
     7
 43
1.0
 76
     1
 77
     6
 78
     2
 67
     7
 79
     5
170
     0
171
     0
290
     0
174
     0
 93
        1
 44
0.0
173
     0
291
     1
 45
0.0
1001
ACAD
1000
AcDbSavedByObjectVersion
1070
     0
  0
DICTIONARYVAR
  5
2CF4
102
{ACAD_REACTORS
330
2CF1
102
}
330
2CF1
100
DictionaryVariables
280
     0
  1
1:1
  0
DICTIONARYVAR
  5
2CF3
102
{ACAD_REACTORS
330
2CF1
102
}
330
2CF1
100
DictionaryVariables
280
     0
  1
STANDARD
  0
DICTIONARYVAR
  5
2CF2
102
{ACAD_REACTORS
330
2CF1
102
}
330
2CF1
100
DictionaryVariables
280
     0
  1
STANDARD
  0
DICTIONARYVAR
  5
2CF7
102
{ACAD_REACTORS
330
2CF1
102
}
330
2CF1
100
DictionaryVariables
280
     0
  1
1
  0
DICTIONARYVAR
  5
2CF6
102
{ACAD_REACTORS
330
2CF1
102
}
330
2CF1
100
DictionaryVariables
280
     0
  1
1
  0
DICTIONARYVAR
  5
2CF5
102
{ACAD_REACTORS
330
2CF1
102
}
330
2CF1
100
DictionaryVariables
280
     0
  1
127
  0
DICTIONARY
  5
2CB2
102
{ACAD_REACTORS
330
2CA4
102
}
330
2CA4
100
AcDbDictionary
281
     1
  0
DICTIONARY
  5
2BF2
102
{ACAD_REACTORS
330
2BF1
102
}
330
2BF1
100
AcDbDictionary
281
     1
  3
DWGSETTINGS
350
2BF3
  3
TRANSSETTINGS
350
2BF4
  0
LAYER_INDEX
  5
2CE4
102
{ACAD_REACTORS
330
2CE3
102
}
330
2CE3
100
AcDbIndex
 40
2456212.849004363
100
AcDbLayerIndex
  8
0
360
2CE5
 90
        2
  8
OUTLINE
360
2CE6
 90
       24
  8
SIZE
360
2CE7
 90
       38
  8
BASIS
360
2CE8
 90
        1
  8
DETAIL
360
2CE9
 90
       32
  8
ARRANGE
360
2CEA
 90
        2
  8
DEFPOINTS
360
2CEB
 90
        0
  8
ETC
360
2CEC
 90
        3
  8
FIX
360
2CED
 90
        0
  8
NOTE
360
2CEE
 90
        4
  8
SERVICESPACE
360
2CEF
 90
        0
  8
SYMBOLLINE
360
2CF0
 90
        0
  0
DICTIONARY
  5
2D07
330
2B11
100
AcDbDictionary
280
     1
281
     1
  3
ACAD_XREC_ROUNDTRIP
360
2D08
  0
DICTIONARY
  5
2D05
330
2B0D
100
AcDbDictionary
280
     1
281
     1
  3
ACAD_XREC_ROUNDTRIP
360
2D06
  0
DICTIONARY
  5
2AB4
330
2AB3
100
AcDbDictionary
280
     1
281
     1
  3
ACAD_XREC_ROUNDTRIP
360
2D02
  3
BUMPTILE
360
2AB6
  3
DIFFUSETILE
360
2AB5
  3
OPACITYTILE
360
2AB9
  3
REFLECTIONTILE
360
2AB8
  3
REFRACTIONTILE
360
2ABA
  3
SPECULARTILE
360
2AB7
  0
DICTIONARY
  5
2AAC
330
2AAB
100
AcDbDictionary
280
     1
281
     1
  3
ACAD_XREC_ROUNDTRIP
360
2D01
  3
BUMPTILE
360
2AAE
  3
DIFFUSETILE
360
2AAD
  3
OPACITYTILE
360
2AB1
  3
REFLECTIONTILE
360
2AB0
  3
REFRACTIONTILE
360
2AB2
  3
SPECULARTILE
360
2AAF
  0
DICTIONARY
  5
2ABC
330
2ABB
100
AcDbDictionary
280
     1
281
     1
  3
ACAD_XREC_ROUNDTRIP
360
2D03
  3
BUMPTILE
360
2ABE
  3
DIFFUSETILE
360
2ABD
  3
OPACITYTILE
360
2AC1
  3
REFLECTIONTILE
360
2AC0
  3
REFRACTIONTILE
360
2AC2
  3
SPECULARTILE
360
2ABF
  0
DICTIONARY
  5
2CF8
330
2B06
100
AcDbDictionary
280
     1
281
     1
  3
ACAD_ROUNDTRIP_2008_TABLESTYLE_CELLSTYLEMAP
360
2CF9
  3
ACAD_XREC_ROUNDTRIP
360
2D04
  0
IDBUFFER
  5
2CE5
330
0
100
AcDbIdBuffer
330
2A07
330
2A08
  0
IDBUFFER
  5
2CE6
330
0
100
AcDbIdBuffer
330
2A24
330
2A25
330
2A26
330
2A27
330
2A28
330
2A29
330
2A2A
330
2A2E
330
953
330
954
330
955
330
956
330
957
330
958
330
2A1A
330
2A1B
330
2A1C
330
2A1D
330
2A1E
330
2A1F
330
2A20
330
2A21
330
2A22
330
2A23
  0
IDBUFFER
  5
2CE7
330
0
100
AcDbIdBuffer
330
2A49
330
2A4A
330
2A4B
330
2A4C
330
2A4D
330
2A4E
330
2A4F
330
2A50
330
2A51
330
2A52
330
2A53
330
2A54
330
2A55
330
2A56
330
2A57
330
2A58
330
2A59
330
2A5A
330
2A5B
330
2A5C
330
2A5D
330
2A5E
330
2A39
330
2A3A
330
2A3B
330
2A3C
330
2A3D
330
2A3E
330
2A3F
330
2A40
330
2A41
330
2A42
330
2A43
330
2A44
330
2A45
330
2A46
330
2A47
330
2A48
  0
IDBUFFER
  5
2CE8
330
0
100
AcDbIdBuffer
330
2A04
  0
IDBUFFER
  5
2CE9
330
0
100
AcDbIdBuffer
330
2A15
330
2A16
330
2A17
330
2A18
330
2A19
330
2A2B
330
2A2F
330
2A30
330
2A31
330
2A32
330
2A33
330
2A34
330
2A35
330
2A36
330
2A37
330
2A38
330
29FF
330
2A00
330
2A01
330
2A03
330
2A09
330
2A0A
330
2A0B
330
2A0C
330
2A0D
330
2A0E
330
2A0F
330
2A10
330
2A11
330
2A12
330
2A13
330
2A14
  0
IDBUFFER
  5
2CEA
330
0
100
AcDbIdBuffer
330
29FE
330
2A05
  0
IDBUFFER
  5
2CEB
330
0
100
AcDbIdBuffer
  0
IDBUFFER
  5
2CEC
330
0
100
AcDbIdBuffer
330
29FB
330
29FC
330
29FD
  0
IDBUFFER
  5
2CED
330
0
100
AcDbIdBuffer
  0
IDBUFFER
  5
2CEE
330
0
100
AcDbIdBuffer
330
2A02
330
2A06
330
2A2C
330
2A2D
  0
IDBUFFER
  5
2CEF
330
0
100
AcDbIdBuffer
  0
IDBUFFER
  5
2CF0
330
0
100
AcDbIdBuffer
  0
XRECORD
  5
2D08
102
{ACAD_REACTORS
330
2D07
102
}
330
2D07
100
AcDbXrecord
280
     1
102
SHADEPLOT
 70
     0
102
SHADEPLOTRESLEVEL
 70
     2
102
SHADEPLOTCUSTOMDPI
 70
   300
  0
XRECORD
  5
2D06
102
{ACAD_REACTORS
330
2D05
102
}
330
2D05
100
AcDbXrecord
280
     1
102
SHADEPLOT
 70
     0
102
SHADEPLOTRESLEVEL
 70
     2
102
SHADEPLOTCUSTOMDPI
 70
   300
  0
XRECORD
  5
2D02
102
{ACAD_REACTORS
330
2AB4
102
}
330
2AB4
100
AcDbXrecord
280
     1
102
MATERIAL
148
0.0
149
0.0
149
0.0
 93
        0
 94
      127
282
     0
 72
     0
 77
     0
171
     0
175
     0
179
     0
273
     0
  0
XRECORD
  5
2AB6
102
{ACAD_REACTORS
330
2AB4
102
}
330
2AB4
100
AcDbXrecord
280
     1
270
     1
271
     1
  0
XRECORD
  5
2AB5
102
{ACAD_REACTORS
330
2AB4
102
}
330
2AB4
100
AcDbXrecord
280
     1
270
     1
271
     1
  0
XRECORD
  5
2AB9
102
{ACAD_REACTORS
330
2AB4
102
}
330
2AB4
100
AcDbXrecord
280
     1
270
     1
271
     1
  0
XRECORD
  5
2AB8
102
{ACAD_REACTORS
330
2AB4
102
}
330
2AB4
100
AcDbXrecord
280
     1
270
     1
271
     1
  0
XRECORD
  5
2ABA
102
{ACAD_REACTORS
330
2AB4
102
}
330
2AB4
100
AcDbXrecord
280
     1
270
     1
271
     1
  0
XRECORD
  5
2AB7
102
{ACAD_REACTORS
330
2AB4
102
}
330
2AB4
100
AcDbXrecord
280
     1
270
     1
271
     1
  0
XRECORD
  5
2D01
102
{ACAD_REACTORS
330
2AAC
102
}
330
2AAC
100
AcDbXrecord
280
     1
102
MATERIAL
148
0.0
149
0.0
149
0.0
 93
        0
 94
      127
282
     0
 72
     0
 77
     0
171
     0
175
     0
179
     0
273
     0
  0
XRECORD
  5
2AAE
102
{ACAD_REACTORS
330
2AAC
102
}
330
2AAC
100
AcDbXrecord
280
     1
270
     1
271
     1
  0
XRECORD
  5
2AAD
102
{ACAD_REACTORS
330
2AAC
102
}
330
2AAC
100
AcDbXrecord
280
     1
270
     1
271
     1
  0
XRECORD
  5
2AB1
102
{ACAD_REACTORS
330
2AAC
102
}
330
2AAC
100
AcDbXrecord
280
     1
270
     1
271
     1
  0
XRECORD
  5
2AB0
102
{ACAD_REACTORS
330
2AAC
102
}
330
2AAC
100
AcDbXrecord
280
     1
270
     1
271
     1
  0
XRECORD
  5
2AB2
102
{ACAD_REACTORS
330
2AAC
102
}
330
2AAC
100
AcDbXrecord
280
     1
270
     1
271
     1
  0
XRECORD
  5
2AAF
102
{ACAD_REACTORS
330
2AAC
102
}
330
2AAC
100
AcDbXrecord
280
     1
270
     1
271
     1
  0
XRECORD
  5
2D03
102
{ACAD_REACTORS
330
2ABC
102
}
330
2ABC
100
AcDbXrecord
280
     1
102
MATERIAL
148
0.0
149
0.0
149
0.0
 93
        0
 94
      127
282
     0
 72
     0
 77
     0
171
     0
175
     0
179
     0
273
     0
  0
XRECORD
  5
2ABE
102
{ACAD_REACTORS
330
2ABC
102
}
330
2ABC
100
AcDbXrecord
280
     1
270
     1
271
     1
  0
XRECORD
  5
2ABD
102
{ACAD_REACTORS
330
2ABC
102
}
330
2ABC
100
AcDbXrecord
280
     1
270
     1
271
     1
  0
XRECORD
  5
2AC1
102
{ACAD_REACTORS
330
2ABC
102
}
330
2ABC
100
AcDbXrecord
280
     1
270
     1
271
     1
  0
XRECORD
  5
2AC0
102
{ACAD_REACTORS
330
2ABC
102
}
330
2ABC
100
AcDbXrecord
280
     1
270
     1
271
     1
  0
XRECORD
  5
2AC2
102
{ACAD_REACTORS
330
2ABC
102
}
330
2ABC
100
AcDbXrecord
280
     1
270
     1
271
     1
  0
XRECORD
  5
2ABF
102
{ACAD_REACTORS
330
2ABC
102
}
330
2ABC
100
AcDbXrecord
280
     1
270
     1
271
     1
  0
CELLSTYLEMAP
  5
2CF9
102
{ACAD_REACTORS
330
2CF8
102
}
330
2CF8
100
AcDbCellStyleMap
 90
        3
300
CELLSTYLE
  1
TABLEFORMAT_BEGIN
 90
        5
170
     1
 91
        0
 92
    32768
 62
   257
 93
        1
300
CONTENTFORMAT
  1
CONTENTFORMAT_BEGIN
 90
        0
 91
        0
 92
      512
 93
        0
300

 40
0.0
140
1.0
 94
        5
 62
     0
340
2AF7
144
0.25
309
CONTENTFORMAT_END
171
     0
 94
        0
309
TABLEFORMAT_END
  1
CELLSTYLE_BEGIN
 90
        1
 91
        1
300
_TITLE
309
CELLSTYLE_END
300
CELLSTYLE
  1
TABLEFORMAT_BEGIN
 90
        5
170
     1
 91
        0
 92
        0
 62
   257
 93
        1
300
CONTENTFORMAT
  1
CONTENTFORMAT_BEGIN
 90
        0
 91
        0
 92
      512
 93
        0
300

 40
0.0
140
1.0
 94
        5
 62
     0
340
2AF7
144
0.18
309
CONTENTFORMAT_END
171
     0
 94
        0
309
TABLEFORMAT_END
  1
CELLSTYLE_BEGIN
 90
        2
 91
        1
300
_HEADER
309
CELLSTYLE_END
300
CELLSTYLE
  1
TABLEFORMAT_BEGIN
 90
        5
170
     1
 91
        0
 92
        0
 62
   257
 93
        1
300
CONTENTFORMAT
  1
CONTENTFORMAT_BEGIN
 90
        0
 91
        0
 92
      512
 93
        0
300

 40
0.0
140
1.0
 94
        2
 62
     0
340
2AF7
144
0.18
309
CONTENTFORMAT_END
171
     0
 94
        0
309
TABLEFORMAT_END
  1
CELLSTYLE_BEGIN
 90
        3
 91
        2
300
_DATA
309
CELLSTYLE_END
  0
XRECORD
  5
2D04
102
{ACAD_REACTORS
330
2CF8
102
}
330
2CF8
100
AcDbXrecord
280
     1
102
ACAD_ROUNDTRIP_PRE2007_TABLESTYLE
 90
      512
 91
        0
  1

 92
      512
 93
        0
  2

 94
      512
 95
        0
  3

  0
ENDSEC
  0
EOF
