  0
SECTION
  2
HEADER
  9
$ACADVER
  1
AC1015
  9
$ACADMAINTVER
 70
    20
  9
$DWGCODEPAGE
  3
ANSI_932
  9
$INSBASE
 10
0.0
 20
0.0
 30
0.0
  9
$EXTMIN
 10
-776.7608478744078
 20
-581.9091681413229
 30
-0.0015257624927045
  9
$EXTMAX
 10
847.0047110656778
 20
691.4978108735486
 30
50.00152599532333
  9
$LIMMIN
 10
-2970.0
 20
-2100.0
  9
$LIMMAX
 10
2970.0
 20
2100.0
  9
$ORTHOMODE
 70
     1
  9
$REGENMODE
 70
     0
  9
$FILLMODE
 70
     1
  9
$QTEXTMODE
 70
     0
  9
$MIRRTEXT
 70
     0
  9
$LTSCALE
 40
20.0
  9
$ATTMODE
 70
     1
  9
$TEXTSIZE
 40
64.0
  9
$TRACEWID
 40
0.05
  9
$TEXTSTYLE
  7
STANDARD
  9
$CLAYER
  8
0
  9
$CELTYPE
  6
ByLayer
  9
$CECOLOR
 62
   256
  9
$CELTSCALE
 40
1.0
  9
$DISPSILH
 70
     0
  9
$DIMSCALE
 40
1.0
  9
$DIMASZ
 40
0.12
  9
$DIMEXO
 40
0.05
  9
$DIMDLI
 40
0.5
  9
$DIMRND
 40
0.0
  9
$DIMDLE
 40
0.0
  9
$DIMEXE
 40
0.1
  9
$DIMTP
 40
0.1
  9
$DIMTM
 40
0.1
  9
$DIMTXT
 40
0.12
  9
$DIMCEN
 40
0.0
  9
$DIMTSZ
 40
0.0
  9
$DIMTOL
 70
     0
  9
$DIMLIM
 70
     0
  9
$DIMTIH
 70
     1
  9
$DIMTOH
 70
     1
  9
$DIMSE1
 70
     0
  9
$DIMSE2
 70
     0
  9
$DIMTAD
 70
     0
  9
$DIMZIN
 70
     7
  9
$DIMBLK
  1

  9
$DIMASO
 70
     1
  9
$DIMSHO
 70
     0
  9
$DIMPOST
  1

  9
$DIMAPOST
  1
mm
  9
$DIMALT
 70
     0
  9
$DIMALTD
 70
     2
  9
$DIMALTF
 40
25.4
  9
$DIMLFAC
 40
1.0
  9
$DIMTOFL
 70
     0
  9
$DIMTVP
 40
0.0
  9
$DIMTIX
 70
     0
  9
$DIMSOXD
 70
     0
  9
$DIMSAH
 70
     0
  9
$DIMBLK1
  1

  9
$DIMBLK2
  1

  9
$DIMSTYLE
  2
AM_ANSI
  9
$DIMCLRD
 70
   256
  9
$DIMCLRE
 70
   256
  9
$DIMCLRT
 70
     2
  9
$DIMTFAC
 40
0.71
  9
$DIMGAP
 40
0.06
  9
$DIMJUST
 70
     0
  9
$DIMSD1
 70
     0
  9
$DIMSD2
 70
     0
  9
$DIMTOLJ
 70
     1
  9
$DIMTZIN
 70
     7
  9
$DIMALTZ
 70
     0
  9
$DIMALTTZ
 70
     0
  9
$DIMUPT
 70
     0
  9
$DIMDEC
 70
     4
  9
$DIMTDEC
 70
     4
  9
$DIMALTU
 70
     2
  9
$DIMALTTD
 70
     4
  9
$DIMTXSTY
  7
STANDARD
  9
$DIMAUNIT
 70
     0
  9
$DIMADEC
 70
     0
  9
$DIMALTRND
 40
0.0
  9
$DIMAZIN
 70
     2
  9
$DIMDSEP
 70
    46
  9
$DIMATFIT
 70
     3
  9
$DIMFRAC
 70
     0
  9
$DIMLDRBLK
  1

  9
$DIMLUNIT
 70
     2
  9
$DIMLWD
 70
    -1
  9
$DIMLWE
 70
    -1
  9
$DIMTMOVE
 70
     0
  9
$LUNITS
 70
     2
  9
$LUPREC
 70
     4
  9
$SKETCHINC
 40
0.1
  9
$FILLETRAD
 40
4.0
  9
$AUNITS
 70
     1
  9
$AUPREC
 70
     3
  9
$MENU
  1
ACAD
  9
$ELEVATION
 40
0.0
  9
$PELEVATION
 40
0.0
  9
$THICKNESS
 40
50.0
  9
$LIMCHECK
 70
     0
  9
$CHAMFERA
 40
0.0
  9
$CHAMFERB
 40
0.0
  9
$CHAMFERC
 40
0.0
  9
$CHAMFERD
 40
0.0
  9
$SKPOLY
 70
     0
  9
$TDCREATE
 40
2452321.396199653
  9
$TDUCREATE
 40
2452321.021199653
  9
$TDUPDATE
 40
2456213.396253878
  9
$TDUUPDATE
 40
2456213.021253878
  9
$TDINDWG
 40
1.0442741435
  9
$TDUSRTIMER
 40
1.0442687384
  9
$USRTIMER
 70
     1
  9
$ANGBASE
 50
0.0
  9
$ANGDIR
 70
     0
  9
$PDMODE
 70
     3
  9
$PDSIZE
 40
-2.0
  9
$PLINEWID
 40
0.0
  9
$SPLFRAME
 70
     0
  9
$SPLINETYPE
 70
     6
  9
$SPLINESEGS
 70
     8
  9
$HANDSEED
  5
308D
  9
$SURFTAB1
 70
     6
  9
$SURFTAB2
 70
     6
  9
$SURFTYPE
 70
     6
  9
$SURFU
 70
     6
  9
$SURFV
 70
     6
  9
$UCSBASE
  2

  9
$UCSNAME
  2

  9
$UCSORG
 10
0.0
 20
0.0
 30
0.0
  9
$UCSXDIR
 10
1.0
 20
0.0
 30
0.0
  9
$UCSYDIR
 10
0.0
 20
1.0
 30
0.0
  9
$UCSORTHOREF
  2

  9
$UCSORTHOVIEW
 70
     0
  9
$UCSORGTOP
 10
0.0
 20
0.0
 30
0.0
  9
$UCSORGBOTTOM
 10
0.0
 20
0.0
 30
0.0
  9
$UCSORGLEFT
 10
0.0
 20
0.0
 30
0.0
  9
$UCSORGRIGHT
 10
0.0
 20
0.0
 30
0.0
  9
$UCSORGFRONT
 10
0.0
 20
0.0
 30
0.0
  9
$UCSORGBACK
 10
0.0
 20
0.0
 30
0.0
  9
$PUCSBASE
  2

  9
$PUCSNAME
  2

  9
$PUCSORG
 10
0.0
 20
0.0
 30
0.0
  9
$PUCSXDIR
 10
1.0
 20
0.0
 30
0.0
  9
$PUCSYDIR
 10
0.0
 20
1.0
 30
0.0
  9
$PUCSORTHOREF
  2

  9
$PUCSORTHOVIEW
 70
     0
  9
$PUCSORGTOP
 10
0.0
 20
0.0
 30
0.0
  9
$PUCSORGBOTTOM
 10
0.0
 20
0.0
 30
0.0
  9
$PUCSORGLEFT
 10
0.0
 20
0.0
 30
0.0
  9
$PUCSORGRIGHT
 10
0.0
 20
0.0
 30
0.0
  9
$PUCSORGFRONT
 10
0.0
 20
0.0
 30
0.0
  9
$PUCSORGBACK
 10
0.0
 20
0.0
 30
0.0
  9
$USERI1
 70
     0
  9
$USERI2
 70
     0
  9
$USERI3
 70
     0
  9
$USERI4
 70
     0
  9
$USERI5
 70
     0
  9
$USERR1
 40
20.0
  9
$USERR2
 40
0.0
  9
$USERR3
 40
0.0
  9
$USERR4
 40
0.0
  9
$USERR5
 40
0.0
  9
$WORLDVIEW
 70
     1
  9
$SHADEDGE
 70
     3
  9
$SHADEDIF
 70
    70
  9
$TILEMODE
 70
     1
  9
$MAXACTVP
 70
    64
  9
$PINSBASE
 10
0.0
 20
0.0
 30
0.0
  9
$PLIMCHECK
 70
     0
  9
$PEXTMIN
 10
1.000000000000000E+20
 20
1.000000000000000E+20
 30
1.000000000000000E+20
  9
$PEXTMAX
 10
-1.000000000000000E+20
 20
-1.000000000000000E+20
 30
-1.000000000000000E+20
  9
$PLIMMIN
 10
0.0
 20
0.0
  9
$PLIMMAX
 10
12.0
 20
9.0
  9
$UNITMODE
 70
     0
  9
$VISRETAIN
 70
     1
  9
$PLINEGEN
 70
     0
  9
$PSLTSCALE
 70
     1
  9
$TREEDEPTH
 70
  3020
  9
$CMLSTYLE
  2
Standard
  9
$CMLJUST
 70
     0
  9
$CMLSCALE
 40
1.0
  9
$PROXYGRAPHICS
 70
     1
  9
$MEASUREMENT
 70
     0
  9
$CELWEIGHT
370
    -1
  9
$ENDCAPS
280
     0
  9
$JOINSTYLE
280
     0
  9
$LWDISPLAY
290
     0
  9
$INSUNITS
 70
     0
  9
$HYPERLINKBASE
  1

  9
$STYLESHEET
  1

  9
$XEDIT
290
     1
  9
$CEPSNTYPE
380
     0
  9
$PSTYLEMODE
290
     1
  9
$FINGERPRINTGUID
  2
{1D45C3C0-BA49-44FA-8B64-C495CF1F45A6}
  9
$VERSIONGUID
  2
{95E818DA-698F-4865-9723-F10E88ECA0A9}
  9
$EXTNAMES
290
     1
  9
$PSVPSCALE
 40
0.0
  9
$OLESTARTUP
290
     0
  0
ENDSEC
  0
SECTION
  2
CLASSES
  0
CLASS
  1
ACDBDICTIONARYWDFLT
  2
AcDbDictionaryWithDefault
  3
ObjectDBX Classes
 90
        0
280
     0
281
     0
  0
CLASS
  1
MATERIAL
  2
AcDbMaterial
  3
ObjectDBX Classes
 90
     1153
280
     0
281
     0
  0
CLASS
  1
VISUALSTYLE
  2
AcDbVisualStyle
  3
ObjectDBX Classes
 90
     4095
280
     0
281
     0
  0
CLASS
  1
SCALE
  2
AcDbScale
  3
ObjectDBX Classes
 90
     1153
280
     0
281
     0
  0
CLASS
  1
TABLESTYLE
  2
AcDbTableStyle
  3
ObjectDBX Classes
 90
     4095
280
     0
281
     0
  0
CLASS
  1
MLEADERSTYLE
  2
AcDbMLeaderStyle
  3
ACDB_MLEADERSTYLE_CLASS
 90
     4095
280
     0
281
     0
  0
CLASS
  1
AMGSETTINGSOBJ
  2
AmgSettingsObj
  3
"AcadM|Product Description: AutoCAD Mechanical|Company: Autodesk, Inc."
 90
     1024
280
     0
281
     0
  0
CLASS
  1
ACME_DOCUMENT
  2
AcMeDbDoc
  3
AcMeServices
 90
     1024
280
     0
281
     0
  0
CLASS
  1
ACMESCOPE
  2
AcMeScope
  3
AcMeServices
 90
     1024
280
     0
281
     0
  0
CLASS
  1
ACMECOMMANDHISTORY
  2
AcMeCommandHistory
  3
AcMeServices
 90
     1024
280
     0
281
     0
  0
CLASS
  1
ACIMSYSVARMAN
  2
AcImSysVarManager
  3
AcMeServices
 90
     1024
280
     0
281
     0
  0
CLASS
  1
ACIMREALSYSVAR
  2
AcImRealSysVar
  3
AcMeServices
 90
     1024
280
     0
281
     0
  0
CLASS
  1
ACIMINTSYSVAR
  2
AcImIntSysVar
  3
AcMeServices
 90
     1024
280
     0
281
     0
  0
CLASS
  1
ACMEDRAWINGMAN
  2
AcMeDrawingMan
  3
AcMeServices
 90
     1024
280
     0
281
     0
  0
CLASS
  1
ACMEVIEW
  2
AcMeView
  3
AcMeServices
 90
     1024
280
     0
281
     0
  0
CLASS
  1
ACDBENTITYCACHE
  2
AcMeEntityCache
  3
AcMeServices
 90
     1024
280
     0
281
     0
  0
CLASS
  1
GSMANAGER
  2
AcMeGSManager
  3
AcMeServices
 90
     1024
280
     0
281
     0
  0
CLASS
  1
AMDTINTERNALREACTOR
  2
AmdtInternalReactor
  3
AcMeServices
 90
     1024
280
     0
281
     0
  0
CLASS
  1
ACMESTATEMGR
  2
AcMeStateMgr
  3
AcMeServices
 90
     1024
280
     0
281
     0
  0
CLASS
  1
ACGREFMASTER
  2
AcGrefMaster
  3
AcAttribServices
 90
     1024
280
     0
281
     0
  0
CLASS
  1
AM_DRAWING_MGR
  2
AcDmDwgMgr
  3
AcMechDwgViewMgmt
 90
     1024
280
     0
281
     0
  0
CLASS
  1
AM_DWG_DOCUMENT
  2
AcDmDwgDocument
  3
AcMechDwgViewMgmt
 90
     1024
280
     0
281
     0
  0
CLASS
  1
AM_DWG_SHEET
  2
AcDmSheet
  3
AcMechDwgViewMgmt
 90
     1024
280
     0
281
     0
  0
CLASS
  1
AM_VIEWDIMPARMAP
  2
AcDmViewDimParMap
  3
AcMechDwgViewMgmt
 90
     1024
280
     0
281
     0
  0
CLASS
  1
AM_DWGMGR_NAME
  2
AcDmDwgMgrName
  3
AcMechDwgViewMgmt
 90
     1024
280
     0
281
     0
  0
CLASS
  1
ACME_DATABASE
  2
AcMeDbDatabase
  3
AcMeServices
 90
     1024
280
     0
281
     0
  0
CLASS
  1
ACRFINSADJUSTERMGR
  2
AcRfInsAdjusterMgr
  3
AcMeServices
 90
     1024
280
     0
281
     0
  0
CLASS
  1
ACGREFACADMASTER
  2
AcGrefacadMaster
  3
AcGrefServices
 90
     1024
280
     0
281
     0
  0
CLASS
  1
AMDTMENUSTATEMGR
  2
AmdtMenuStateMgr
  3
McadcomServices
 90
     1024
280
     0
281
     0
  0
CLASS
  1
AMDTMCOMMENUSTATE
  2
AmdtMcomMenuState
  3
McadcomServices
 90
     1024
280
     0
281
     0
  0
CLASS
  1
AMIMASTER
  2
AmiMaster
  3
AmiServices
 90
     1024
280
     0
281
     0
  0
CLASS
  1
ASAPP
  2
AcAsAppObject
  3
AutoSurfServices
 90
     1024
280
     0
281
     0
  0
CLASS
  1
IM_STATIC_MAN
  2
AcImStaticVarManager
  3
AcMeServices
 90
     1024
280
     0
281
     0
  0
CLASS
  1
ACIMSTRSYSVAR
  2
AcImStrSysVar
  3
AcMeServices
 90
     1024
280
     0
281
     0
  0
CLASS
  1
ACIMDBLSTATICVAR
  2
AcImDblStaticVar
  3
AcMeServices
 90
     1024
280
     0
281
     0
  0
CLASS
  1
ACIMSTRSTATICVAR
  2
AcImStrStaticVar
  3
AcMeServices
 90
     1024
280
     0
281
     0
  0
CLASS
  1
ACIMINTSTATICVAR
  2
AcImIntStaticVar
  3
AcMeServices
 90
     1024
280
     0
281
     0
  0
CLASS
  1
ACASGREFMASTER
  2
AcAsGrefMaster
  3
AutoSurfResolverServices
 90
     1024
280
     0
281
     0
  0
CLASS
  1
ACADGREFMODULE
  2
AcAdGrefModule
  3
AdGrefServices
 90
     1024
280
     0
281
     0
  0
CLASS
  1
AMDTMAPISURFMOUDULE
  2
AmdtMApiSurfModule
  3
MApiSurfServices
 90
     1024
280
     0
281
     0
  0
CLASS
  1
MAPIAMMOUDLE
  2
MApiAmModule
  3
MApiAmServices
 90
     1024
280
     0
281
     0
  0
CLASS
  1
AMDTADMENUSTATE
  2
AmdtAdMenuState
  3
DesignerServices
 90
     1024
280
     0
281
     0
  0
CLASS
  1
ADAPPL
  2
AcAdAppl
  3
DesignerServices
 90
     1024
280
     0
281
     0
  0
CLASS
  1
DEPMGR
  2
AcAdDepMgr
  3
DesignerServices
 90
     1024
280
     0
281
     0
  0
CLASS
  1
PARAMMGR
  2
AcAdParamMgr
  3
DesignerServices
 90
     1024
280
     0
281
     0
  0
CLASS
  1
PARAMSCOPE
  2
AcAdParamScope
  3
DesignerServices
 90
     1024
280
     0
281
     0
  0
CLASS
  1
NAMEDAPPL
  2
AcAdNamedAppl
  3
DesignerServices
 90
     1024
280
     0
281
     0
  0
CLASS
  1
AMDTDMMENUSTATE
  2
AmdtDmMenuState
  3
AcMechDwgViewMgmt
 90
     1024
280
     0
281
     0
  0
CLASS
  1
MAPIADMODULE
  2
MApiAdModule
  3
MApiAdServices
 90
     1024
280
     0
281
     0
  0
CLASS
  1
AMDTAMMENUSTATE
  2
AmdtAmMenuState
  3
DesignerAssemblies
 90
     1024
280
     0
281
     0
  0
CLASS
  1
ACAMPROJECT
  2
AcAmProject
  3
DesignerAssemblies
 90
     1024
280
     0
281
     0
  0
CLASS
  1
ACAMGRCOMPDEF
  2
AcAmGrCompDef
  3
DesignerAssemblies
 90
     1024
280
     0
281
     0
  0
CLASS
  1
ACCMCONTEXT
  2
AcCmContext
  3
DesignerAssemblies
 90
     1024
280
     0
281
     0
  0
CLASS
  1
ACAMCOMPDEF
  2
AcAmCompDef
  3
DesignerAssemblies
 90
     1024
280
     0
281
     0
  0
CLASS
  1
ACAMCOMPDEFMGR
  2
AcAmCompDefMgr
  3
DesignerAssemblies
 90
     1024
280
     0
281
     0
  0
CLASS
  1
AMCONTEXTMGR
  2
AcAmContextMgr
  3
DesignerAssemblies
 90
     1024
280
     0
281
     0
  0
CLASS
  1
ACAMCONTEXTMODELER
  2
AcAmContextModeler
  3
DesignerAssemblies
 90
     1024
280
     0
281
     0
  0
CLASS
  1
ACMDATADICTIONARY
  2
AcmDataDictionary
  3
"AcmSymBB|Product Description: AutoCAD Mechanical|Company: Autodesk, Inc."
 90
     1024
280
     0
281
     0
  0
CLASS
  1
ACMDATAENTRYBLOCK
  2
AcmDataEntryBlock
  3
AcmSymBB|Product Description: AutoCAD Mechanical|Company: Autodesk, Inc.
 90
     1024
280
     0
281
     0
  0
CLASS
  1
ACRFATTGENMGR
  2
AcRfAttGeneralMgr
  3
AcAttribServices
 90
     1024
280
     0
281
     0
  0
CLASS
  1
ACRFOBJATTMGR
  2
AcRfObjAttGroupMgr
  3
AcAttribServices
 90
     1024
280
     0
281
     0
  0
CLASS
  1
ACRFMCADAPIATTHOLDER
  2
AcRfMCADAPIAttHolder
  3
AcAttribServices
 90
     1024
280
     0
281
     0
  0
CLASS
  1
AMDTSYSATTR
  2
AmdtSystemAttribute
  3
AcAttribServices
 90
     1024
280
     0
281
     0
  0
CLASS
  1
CATALOGSTATE
  2
AcAmCatalogState
  3
DesignerAssemblies
 90
     1024
280
     0
281
     0
  0
CLASS
  1
ACAMGRCOMPDEFSET
  2
AcAmGrCompDefSet
  3
DesignerAssemblies
 90
     1024
280
     0
281
     0
  0
CLASS
  1
AMDTBROWSERDBTAB
  2
AmdtBrowserDbTab
  3
McadcomServices
 90
     1024
280
     0
281
     0
  0
CLASS
  1
CBROWSERAPPOBJECT
  2
CBrowserAppObject
  3
McadcomServices
 90
     1024
280
     0
281
     0
  0
CLASS
  1
DM_PLACEHOLDER
  2
AcDmSelsetPlaceholder
  3
AcMechDwgViewMgmt
 90
     1024
280
     0
281
     0
  0
CLASS
  1
ACMSTANDARDANSI
  2
AcmStandardANSI
  3
"Amdt_StdImp|Product Description: AutoCAD Mechanical|Company: Autodesk, Inc."
 90
     1024
280
     0
281
     0
  0
CLASS
  1
ACMSURFSTANDARDANSI
  2
AcmSurfTextStdANSI
  3
"Amdt_StdImp|Product Description: AutoCAD Mechanical|Company: Autodesk, Inc."
 90
     1024
280
     0
281
     0
  0
CLASS
  1
ACMFCFSTANDARDANSI
  2
AcmFCFStdANSI
  3
"Amdt_StdImp|Product Description: AutoCAD Mechanical|Company: Autodesk, Inc."
 90
     1024
280
     0
281
     0
  0
CLASS
  1
ACMWELDSTANDARDANSI
  2
AcmWeldingStdANSI
  3
"Amdt_StdImp|Product Description: AutoCAD Mechanical|Company: Autodesk, Inc."
 90
     1024
280
     0
281
     0
  0
CLASS
  1
ACMIDSTANDARDANSI
  2
AcmIdStdANSI
  3
"Amdt_StdImp|Product Description: AutoCAD Mechanical|Company: Autodesk, Inc."
 90
     1024
280
     0
281
     0
  0
CLASS
  1
ACMDATUMSTANDARDANSI
  2
AcmDatumStdANSI
  3
"Amdt_StdImp|Product Description: AutoCAD Mechanical|Company: Autodesk, Inc."
 90
     1024
280
     0
281
     0
  0
CLASS
  1
ACMBOMSTANDARDANSI
  2
AcmBOMStdANSI
  3
"Amdt_StdImp|Product Description: AutoCAD Mechanical|Company: Autodesk, Inc."
 90
     1024
280
     0
281
     0
  0
CLASS
  1
ACMDETAILSTANDARDANSI
  2
AmdtDetailSymStdANSI
  3
"Amdt_StdImp|Product Description: AutoCAD Mechanical|Company: Autodesk, Inc."
 90
     1024
280
     0
281
     0
  0
CLASS
  1
ACMSECTIONSTANDARDANSI
  2
AmdtSectionSymStdANSI
  3
"Amdt_StdImp|Product Description: AutoCAD Mechanical|Company: Autodesk, Inc."
 90
     1024
280
     0
281
     0
  0
CLASS
  1
ACMCENTERLINESTANDARDANSI
  2
AmdtCenterLineStdANSI
  3
"Amdt_StdImp|Product Description: AutoCAD Mechanical|Company: Autodesk, Inc."
 90
     1024
280
     0
281
     0
  0
CLASS
  1
ACMTHREADLINESTANDARDANSI
  2
AmdtThreadLineStdANSI
  3
"Amdt_StdImp|Product Description: AutoCAD Mechanical|Company: Autodesk, Inc."
 90
     1024
280
     0
281
     0
  0
CLASS
  1
ACMNOTESTANDARDANSI
  2
AmdtNoteStdANSI
  3
"Amdt_StdImp|Product Description: AutoCAD Mechanical|Company: Autodesk, Inc."
 90
     1024
280
     0
281
     0
  0
CLASS
  1
ACMTAPERSTANDARDANSI
  2
AcmTaperStdANSI
  3
"Amdt_StdImp|Product Description: AutoCAD Mechanical|Company: Autodesk, Inc."
 90
     1024
280
     0
281
     0
  0
CLASS
  1
ACMANOOTATIONVIEWSTANDARDANSI
  2
AmdtAnViewStdANSI
  3
"Amdt_StdImp|Product Description: AutoCAD Mechanical|Company: Autodesk, Inc."
 90
     1024
280
     0
281
     0
  0
CLASS
  1
ACAMGLAYSTD
  2
AcAmgLayStd
  3
"AmgLay|Product Description: AutoCAD Mechanical|Company: Autodesk, Inc."
 90
     1024
280
     0
281
     0
  0
CLASS
  1
ACAMGDIMSTD
  2
AcAmgDimStd
  3
"AmgDim|Product Description: AutoCAD Mechanical|Company: Autodesk, Inc."
 90
     1024
280
     0
281
     0
  0
CLASS
  1
ACAMGHOLECHARTSTDANSI
  2
AcAmgHoleChartStdANSI
  3
AmgDim|Product Description: AutoCAD Mechanical|Company: Autodesk, Inc.
 90
     1024
280
     0
281
     0
  0
CLASS
  1
AMGOBJPROPCFG
  2
AmgObjPropCfg
  3
"AmgLay|Product Description: AutoCAD Mechanical|Company: Autodesk, Inc."
 90
     1025
280
     0
281
     0
  0
CLASS
  1
ACAMGTITLESTD
  2
AcAmgTitleStd
  3
"AmgTitle|Product Description: AutoCAD Mechanical|Company: Autodesk, Inc."
 90
     4095
280
     0
281
     0
  0
CLASS
  1
AMDTNOTETEMPLATEDB
  2
AmdtNoteTemplateDB
  3
AcmSymBB|Product Description: AutoCAD Mechanical|Company: Autodesk, Inc.
 90
     1024
280
     0
281
     0
  0
CLASS
  1
ACAMGFILTERDAT
  2
AcAmgFilterDat
  3
"AcadM|Product Description: AutoCAD Mechanical|Company: Autodesk, Inc."
 90
     1024
280
     0
281
     0
  0
CLASS
  1
LAYER_INDEX
  2
AcDbLayerIndex
  3
ObjectDBX Classes
 90
        0
280
     0
281
     0
  0
CLASS
  1
IDBUFFER
  2
AcDbIdBuffer
  3
ObjectDBX Classes
 90
        0
280
     0
281
     0
  0
CLASS
  1
DICTIONARYVAR
  2
AcDbDictionaryVar
  3
ObjectDBX Classes
 90
        0
280
     0
281
     0
  0
CLASS
  1
CELLSTYLEMAP
  2
AcDbCellStyleMap
  3
ObjectDBX Classes
 90
     1152
280
     0
281
     0
  0
CLASS
  1
ACDBPLACEHOLDER
  2
AcDbPlaceHolder
  3
ObjectDBX Classes
 90
        0
280
     0
281
     0
  0
CLASS
  1
LAYOUT
  2
AcDbLayout
  3
ObjectDBX Classes
 90
        0
280
     0
281
     0
  0
ENDSEC
  0
SECTION
  2
TABLES
  0
TABLE
  2
VPORT
  5
2E71
330
0
100
AcDbSymbolTable
 70
     1
  0
VPORT
  5
2EE1
330
2E71
100
AcDbSymbolTableRecord
100
AcDbViewportTableRecord
  2
*ACTIVE
 70
     0
 10
0.0
 20
0.0
 11
1.0
 21
1.0
 12
-218.8115719927306
 22
0.0
 13
0.0
 23
0.0
 14
1.0
 24
1.0
 15
0.0
 25
0.0
 16
0.0
 26
0.0
 36
1.0
 17
253.9335035883655
 27
54.79432136611285
 37
0.0
 40
1281.812305609029
 41
1.712555066079295
 42
50.0
 43
0.0
 44
0.0
 50
0.0
 51
0.0
 71
     0
 72
   100
 73
     1
 74
     0
 75
     0
 76
     0
 77
     0
 78
     0
281
     0
 65
     0
110
0.0
120
0.0
130
0.0
111
1.0
121
0.0
131
0.0
112
0.0
122
1.0
132
0.0
 79
     0
146
0.0
  0
ENDTAB
  0
TABLE
  2
LTYPE
  5
2E6E
330
0
100
AcDbSymbolTable
 70
    19
  0
LTYPE
  5
2ECB
330
2E6E
100
AcDbSymbolTableRecord
100
AcDbLinetypeTableRecord
  2
ByBlock
 70
     0
  3

 72
    65
 73
     0
 40
0.0
  0
LTYPE
  5
2ECC
330
2E6E
100
AcDbSymbolTableRecord
100
AcDbLinetypeTableRecord
  2
ByLayer
 70
     0
  3

 72
    65
 73
     0
 40
0.0
  0
LTYPE
  5
2ECD
330
2E6E
100
AcDbSymbolTableRecord
100
AcDbLinetypeTableRecord
  2
CONTINUOUS
 70
     0
  3
実線
 72
    65
 73
     0
 40
0.0
  0
LTYPE
  5
2EE2
330
2E6E
100
AcDbSymbolTableRecord
100
AcDbLinetypeTableRecord
  2
DASHDOT
 70
     0
  3
____ _ ____ _ ____ _ ____ _ ____ _ ____ _ ____
 72
    65
 73
     4
 40
5.5
 49
4.0
 74
     0
 49
-0.6
 74
     0
 49
0.3
 74
     0
 49
-0.6
 74
     0
  0
LTYPE
  5
2EE3
330
2E6E
100
AcDbSymbolTableRecord
100
AcDbLinetypeTableRecord
  2
HIDDEN
 70
     0
  3
Hidden __ __ __ __ __ __ __ __ __ __ __ __ __ _
 72
    65
 73
     2
 40
0.375
 49
0.25
 74
     0
 49
-0.125
 74
     0
  0
LTYPE
  5
2EE4
330
2E6E
100
AcDbSymbolTableRecord
100
AcDbLinetypeTableRecord
  2
PHANTOM2
 70
     0
  3
Phantom (.5x) ___ _ _ ___ _ _ ___ _ _ ___ _ _
 72
    65
 73
     6
 40
1.25
 49
0.625
 74
     0
 49
-0.125
 74
     0
 49
0.125
 74
     0
 49
-0.125
 74
     0
 49
0.125
 74
     0
 49
-0.125
 74
     0
  0
LTYPE
  5
2EE5
330
2E6E
100
AcDbSymbolTableRecord
100
AcDbLinetypeTableRecord
  2
CENTER
 70
     0
  3
Center ____ _ ____ _ ____ _ ____ _ ____ _ ____
 72
    65
 73
     4
 40
2.0
 49
1.25
 74
     0
 49
-0.25
 74
     0
 49
0.25
 74
     0
 49
-0.25
 74
     0
  0
LTYPE
  5
2EE6
330
2E6E
100
AcDbSymbolTableRecord
100
AcDbLinetypeTableRecord
  2
ASULTYPE
 70
     0
  3
実線
 72
    65
 73
     2
 40
3.0
 49
2.5
 74
     0
 49
0.5
 74
     0
  0
LTYPE
  5
2EE7
330
2E6E
100
AcDbSymbolTableRecord
100
AcDbLinetypeTableRecord
  2
ASVLTYPE
 70
     0
  3
__ __ __ __ __ __ __ __ __ __ __ __ __ __ __ __ __ __ __ __ __
 72
    65
 73
     2
 40
0.75
 49
0.5
 74
     0
 49
-0.25
 74
     0
  0
LTYPE
  5
2EE8
330
2E6E
100
AcDbSymbolTableRecord
100
AcDbLinetypeTableRecord
  2
AM_ISO02W050
 70
     0
  3
__ __ __ __ __ __ __ __ __ __ __ __ __ __ __
 72
    65
 73
     2
 40
7.5
 49
6.0
 74
     0
 49
-1.5
 74
     0
  0
LTYPE
  5
2EE9
330
2E6E
100
AcDbSymbolTableRecord
100
AcDbLinetypeTableRecord
  2
AM_ISO08W050
 70
     0
  3
____ . ____ . ____ . ____ . ____ . ____ . ____
 72
    65
 73
     4
 40
18.0
 49
12.0
 74
     0
 49
-1.5
 74
     0
 49
3.0
 74
     0
 49
-1.5
 74
     0
  0
LTYPE
  5
2EEA
330
2E6E
100
AcDbSymbolTableRecord
100
AcDbLinetypeTableRecord
  2
AM_ISO09W050
 70
     0
  3
_____ . . _____ . . _____ . . ____ .. ____
 72
    65
 73
     6
 40
22.5
 49
12.0
 74
     0
 49
-1.5
 74
     0
 49
3.0
 74
     0
 49
-1.5
 74
     0
 49
3.0
 74
     0
 49
-1.5
 74
     0
  0
LTYPE
  5
2EEB
330
2E6E
100
AcDbSymbolTableRecord
100
AcDbLinetypeTableRecord
  2
AMCONSTR
 70
     0
  3
_______________________
 72
    65
 73
     2
 40
9999.0
 49
9999.0
 74
     0
 49
0.0
 74
     0
  0
LTYPE
  5
2EEC
330
2E6E
100
AcDbSymbolTableRecord
100
AcDbLinetypeTableRecord
  2
AM_ISO08W050X2
 70
     0
  3
__ . __ . __ . __ . __ . __
 72
    65
 73
     4
 40
9.0
 49
6.0
 74
     0
 49
-0.75
 74
     0
 49
1.5
 74
     0
 49
-0.75
 74
     0
  0
LTYPE
  5
2EED
330
2E6E
100
AcDbSymbolTableRecord
100
AcDbLinetypeTableRecord
  2
AM_ISO02W050X2
 70
     0
  3
 _ _ _ _ _ _ _ _ _ _ _ _
 72
    65
 73
     2
 40
3.75
 49
3.0
 74
     0
 49
-0.75
 74
     0
  0
LTYPE
  5
2EEE
330
2E6E
100
AcDbSymbolTableRecord
100
AcDbLinetypeTableRecord
  2
AMZIGZAG
 70
     0
  3
/\/-/\/-/\/-/\/-/\/-/\/
 72
    65
 73
     2
 40
11.0001
 49
0.0001
 74
     0
 49
-11.0
 74
     0
  0
LTYPE
  5
2EEF
330
2E6E
100
AcDbSymbolTableRecord
100
AcDbLinetypeTableRecord
  2
CENTER2
 70
     0
  3
Center (.5x) ___ _ ___ _ ___ _ ___ _ ___ _ ___
 72
    65
 73
     4
 40
1.125
 49
0.75
 74
     0
 49
-0.125
 74
     0
 49
0.125
 74
     0
 49
-0.125
 74
     0
  0
LTYPE
  5
2EF0
330
2E6E
100
AcDbSymbolTableRecord
100
AcDbLinetypeTableRecord
  2
HIDDEN2
 70
     0
  3
Hidden (.5x) _ _ _ _ _ _ _ _ _ _ _ _ _ _ _ _ _
 72
    65
 73
     2
 40
0.1875
 49
0.125
 74
     0
 49
-0.0625
 74
     0
  0
LTYPE
  5
2EF1
330
2E6E
100
AcDbSymbolTableRecord
100
AcDbLinetypeTableRecord
  2
AMZIGZAG2
 70
     0
  3
/\/-/\/-/\/-/\/-/\/-/\/
 72
    65
 73
     2
 40
0.4401
 49
0.0001
 74
     0
 49
-0.4400000000000003
 74
     0
  0
LTYPE
  5
2EF2
330
2E6E
100
AcDbSymbolTableRecord
100
AcDbLinetypeTableRecord
  2
ACANSTGB
 70
     0
  3
__ . . __ . .
 72
    65
 73
     6
 40
0.35433070866
 49
0.15748031496
 74
     0
 49
-0.03937007874
 74
     0
 49
0.03937007874
 74
     0
 49
-0.03937007874
 74
     0
 49
0.03937007874
 74
     0
 49
-0.03937007874
 74
     0
  0
LTYPE
  5
2EF3
330
2E6E
100
AcDbSymbolTableRecord
100
AcDbLinetypeTableRecord
  2
ACANSTGL
 70
     0
  3
_ _ _ _ _
 72
    65
 73
     2
 40
0.11811023622
 49
0.07874015748
 74
     0
 49
-0.03937007874
 74
     0
  0
ENDTAB
  0
TABLE
  2
LAYER
  5
2E6B
330
0
100
AcDbSymbolTable
 70
    13
  0
LAYER
  5
2EC5
102
{ACAD_XDICTIONARY
360
3049
102
}
330
2E6B
100
AcDbSymbolTableRecord
100
AcDbLayerTableRecord
  2
0
 70
     0
 62
     7
  6
CONTINUOUS
370
    -3
390
2E78
  0
LAYER
  5
2EF4
102
{ACAD_XDICTIONARY
360
304B
102
}
330
2E6B
100
AcDbSymbolTableRecord
100
AcDbLayerTableRecord
  2
OUTLINE
 70
     0
 62
     3
  6
CONTINUOUS
370
    -3
390
2E78
  0
LAYER
  5
2EF5
102
{ACAD_XDICTIONARY
360
304D
102
}
330
2E6B
100
AcDbSymbolTableRecord
100
AcDbLayerTableRecord
  2
SIZE
 70
     0
 62
    30
  6
CONTINUOUS
370
    -3
390
2E78
  0
LAYER
  5
2EF6
102
{ACAD_XDICTIONARY
360
304F
102
}
330
2E6B
100
AcDbSymbolTableRecord
100
AcDbLayerTableRecord
  2
BASIS
 70
     0
 62
     6
  6
DASHDOT
370
    -3
390
2E78
  0
LAYER
  5
2EF7
102
{ACAD_XDICTIONARY
360
3051
102
}
330
2E6B
100
AcDbSymbolTableRecord
100
AcDbLayerTableRecord
  2
DETAIL
 70
     0
 62
     5
  6
CONTINUOUS
370
    -3
390
2E78
  0
LAYER
  5
2EF8
102
{ACAD_XDICTIONARY
360
3053
102
}
330
2E6B
100
AcDbSymbolTableRecord
100
AcDbLayerTableRecord
  2
ARRANGE
 70
     0
 62
     1
  6
CONTINUOUS
370
    -3
390
2E78
  0
LAYER
  5
2EF9
330
2E6B
100
AcDbSymbolTableRecord
100
AcDbLayerTableRecord
  2
DEFPOINTS
 70
     0
 62
     7
  6
CONTINUOUS
290
     0
370
    -3
390
2E78
  0
LAYER
  5
2EFA
102
{ACAD_XDICTIONARY
360
3055
102
}
330
2E6B
100
AcDbSymbolTableRecord
100
AcDbLayerTableRecord
  2
ETC
 70
     0
 62
    61
  6
CONTINUOUS
370
    -3
390
2E78
  0
LAYER
  5
2EFB
102
{ACAD_XDICTIONARY
360
3057
102
}
330
2E6B
100
AcDbSymbolTableRecord
100
AcDbLayerTableRecord
  2
FIX
 70
     0
 62
    11
  6
CONTINUOUS
370
    -3
390
2E78
  0
LAYER
  5
2EFC
102
{ACAD_XDICTIONARY
360
3059
102
}
330
2E6B
100
AcDbSymbolTableRecord
100
AcDbLayerTableRecord
  2
NOTE
 70
     0
 62
     4
  6
CONTINUOUS
370
    -3
390
2E78
  0
LAYER
  5
2EFD
102
{ACAD_XDICTIONARY
360
305B
102
}
330
2E6B
100
AcDbSymbolTableRecord
100
AcDbLayerTableRecord
  2
SERVICESPACE
 70
     0
 62
     2
  6
DASHDOT
370
    -3
390
2E78
  0
LAYER
  5
2EFE
102
{ACAD_XDICTIONARY
360
305D
102
}
330
2E6B
100
AcDbSymbolTableRecord
100
AcDbLayerTableRecord
  2
SYMBOLLINE
 70
     0
 62
    15
  6
CONTINUOUS
370
    -3
390
2E78
  0
LAYER
  5
2EFF
102
{ACAD_XDICTIONARY
360
305F
102
}
330
2E6B
100
AcDbSymbolTableRecord
100
AcDbLayerTableRecord
  2
DETAIL___1
 70
     0
 62
     5
  6
CONTINUOUS
370
    -3
390
2E78
  0
ENDTAB
  0
TABLE
  2
STYLE
  5
2E6C
330
0
100
AcDbSymbolTable
 70
     5
  0
STYLE
  5
2EC6
330
2E6C
100
AcDbSymbolTableRecord
100
AcDbTextStyleTableRecord
  2
STANDARD
 70
     0
 40
64.0
 41
0.9
 50
0.0
 71
     0
 42
64.0
  3
SIMPLEX.shx
  4
BIGFONT.shx
  0
STYLE
  5
2ECA
330
2E6C
100
AcDbSymbolTableRecord
100
AcDbTextStyleTableRecord
  2
ANNOTATIVE
 70
     0
 40
0.0
 41
1.0
 50
0.0
 71
     0
 42
0.2
  3
txt
  4

1001
ACADANNOTATIVE
1000
AnnotativeData
1002
{
1070
     1
1070
     1
1002
}
  0
STYLE
  5
2F00
330
2E6C
100
AcDbSymbolTableRecord
100
AcDbTextStyleTableRecord
  2

 70
     1
 40
0.0
 41
1.0
 50
0.0
 71
     0
 42
64.0
  3
genltshp.shx
  4

  0
STYLE
  5
2F01
330
2E6C
100
AcDbSymbolTableRecord
100
AcDbTextStyleTableRecord
  2
ACANSTS
 70
     0
 40
1.0
 41
1.0
 50
0.0
 71
     0
 42
64.0
  3
romans.shx
  4
extfont.shx
  0
STYLE
  5
2F02
330
2E6C
100
AcDbSymbolTableRecord
100
AcDbTextStyleTableRecord
  2
ACANSGDT
 70
     0
 40
0.0
 41
1.0
 50
0.0
 71
     0
 42
64.0
  3
amgdt.shx
  4

  0
ENDTAB
  0
TABLE
  2
VIEW
  5
2E6F
330
0
100
AcDbSymbolTable
 70
     1
  0
VIEW
  5
2F03
330
2E6F
100
AcDbSymbolTableRecord
100
AcDbViewTableRecord
  2
ALL
 70
     0
 40
4282.619807999997
 10
0.0
 20
41.30990399999999
 41
5940.0
 11
0.0
 21
0.0
 31
1.0
 12
0.0
 22
0.0
 32
0.0
 42
50.0
 43
0.0
 44
0.0
 50
0.0
 71
     0
281
     0
 72
     1
110
0.0
120
0.0
130
0.0
111
1.0
121
0.0
131
0.0
112
0.0
122
1.0
132
0.0
 79
     0
146
0.0
  0
ENDTAB
  0
TABLE
  2
UCS
  5
2E70
330
0
100
AcDbSymbolTable
 70
     0
  0
ENDTAB
  0
TABLE
  2
APPID
  5
2E72
330
0
100
AcDbSymbolTable
 70
    30
  0
APPID
  5
2EC7
330
2E72
100
AcDbSymbolTableRecord
100
AcDbRegAppTableRecord
  2
ACAD
 70
     0
  0
APPID
  5
2ECE
330
2E72
100
AcDbSymbolTableRecord
100
AcDbRegAppTableRecord
  2
ACADANNOTATIVE
 70
     0
  0
APPID
  5
2ED8
330
2E72
100
AcDbSymbolTableRecord
100
AcDbRegAppTableRecord
  2
ACAD_MLEADERVER
 70
     0
  0
APPID
  5
2F04
330
2E72
100
AcDbSymbolTableRecord
100
AcDbRegAppTableRecord
  2
GENIUS_GENDIM_13
 70
     0
  0
APPID
  5
2F05
330
2E72
100
AcDbSymbolTableRecord
100
AcDbRegAppTableRecord
  2
GENIUS_GENDTOL_13
 70
     0
  0
APPID
  5
2F06
330
2E72
100
AcDbSymbolTableRecord
100
AcDbRegAppTableRecord
  2
GENIUS_GE3DTOL_13
 70
     0
  0
APPID
  5
2F07
330
2E72
100
AcDbSymbolTableRecord
100
AcDbRegAppTableRecord
  2
MCAD_NO_VIS
 70
     0
  0
APPID
  5
2F08
330
2E72
100
AcDbSymbolTableRecord
100
AcDbRegAppTableRecord
  2
ACAD_TEMP_GRAPHIC
 70
     0
  0
APPID
  5
2F09
330
2E72
100
AcDbSymbolTableRecord
100
AcDbRegAppTableRecord
  2
AD_DRAW
 70
     0
  0
APPID
  5
2F0A
330
2E72
100
AcDbSymbolTableRecord
100
AcDbRegAppTableRecord
  2
ACATTRIBSERVICES
 70
     0
  0
APPID
  5
2F0B
330
2E72
100
AcDbSymbolTableRecord
100
AcDbRegAppTableRecord
  2
ASURF_PCURVE_APPNAME
 70
     0
  0
APPID
  5
2F0C
330
2E72
100
AcDbSymbolTableRecord
100
AcDbRegAppTableRecord
  2
AMG_3D2D_5_0
 70
     0
  0
APPID
  5
2F0D
330
2E72
100
AcDbSymbolTableRecord
100
AcDbRegAppTableRecord
  2
DESIGNERASSEMBLIES
 70
     0
  0
APPID
  5
2F0E
330
2E72
100
AcDbSymbolTableRecord
100
AcDbRegAppTableRecord
  2
ACADM_DIM_EDIT
 70
     0
  0
APPID
  5
2F0F
330
2E72
100
AcDbSymbolTableRecord
100
AcDbRegAppTableRecord
  2
AMDT_DM_ADJ
 70
     0
  0
APPID
  5
2F10
330
2E72
100
AcDbSymbolTableRecord
100
AcDbRegAppTableRecord
  2
ACAD_DSTYLE_DIMARC_LENGTH_
 70
     0
  0
APPID
  5
2F11
330
2E72
100
AcDbSymbolTableRecord
100
AcDbRegAppTableRecord
  2
ACAD_DSTYLE_DIMJOGGED_JOGA
 70
     0
  0
APPID
  5
2F12
330
2E72
100
AcDbSymbolTableRecord
100
AcDbRegAppTableRecord
  2
ACAD_PSEXT
 70
     0
  0
APPID
  5
2F13
330
2E72
100
AcDbSymbolTableRecord
100
AcDbRegAppTableRecord
  2
ACAD_EXEMPT_FROM_CAD_STANDARDS
 70
     0
  0
APPID
  5
2F14
330
2E72
100
AcDbSymbolTableRecord
100
AcDbRegAppTableRecord
  2
ACAD_DSTYLE_DIMJAG
 70
     0
  0
APPID
  5
2F15
330
2E72
100
AcDbSymbolTableRecord
100
AcDbRegAppTableRecord
  2
ACAD_DSTYLE_DIMTALN
 70
     0
  0
APPID
  5
2F16
330
2E72
100
AcDbSymbolTableRecord
100
AcDbRegAppTableRecord
  2
AMG_3D2D_5_00
 70
     0
  0
APPID
  5
2F17
330
2E72
100
AcDbSymbolTableRecord
100
AcDbRegAppTableRecord
  2
AMG_3D2D_5_01
 70
     0
  0
APPID
  5
2F18
330
2E72
100
AcDbSymbolTableRecord
100
AcDbRegAppTableRecord
  2
AMG_3D2D_5_02
 70
     0
  0
APPID
  5
2F19
330
2E72
100
AcDbSymbolTableRecord
100
AcDbRegAppTableRecord
  2
AMG_3D2D_5_03
 70
     0
  0
APPID
  5
2FE9
330
2E72
100
AcDbSymbolTableRecord
100
AcDbRegAppTableRecord
  2
AMG_3D2D_5.0
 70
     0
  0
APPID
  5
3089
330
2E72
100
AcDbSymbolTableRecord
100
AcDbRegAppTableRecord
  2
ACAD_DSTYLE_DIMARC_LENGTH_SYMBOL
 70
     0
  0
APPID
  5
308A
330
2E72
100
AcDbSymbolTableRecord
100
AcDbRegAppTableRecord
  2
ACAD_DSTYLE_DIM_LINETYPE
 70
     0
  0
APPID
  5
308B
330
2E72
100
AcDbSymbolTableRecord
100
AcDbRegAppTableRecord
  2
ACAD_DSTYLE_DIM_EXT1_LINETYPE
 70
     0
  0
APPID
  5
308C
330
2E72
100
AcDbSymbolTableRecord
100
AcDbRegAppTableRecord
  2
ACAD_DSTYLE_DIM_EXT2_LINETYPE
 70
     0
  0
ENDTAB
  0
TABLE
  2
DIMSTYLE
  5
2E73
330
0
100
AcDbSymbolTable
 70
    10
100
AcDbDimStyleTable
 71
     1
340
2F1A
  0
DIMSTYLE
105
2EC8
330
2E73
100
AcDbSymbolTableRecord
100
AcDbDimStyleTableRecord
  2
STANDARD
 70
     0
 41
12.0
 42
20.0
 44
20.0
 77
     1
 78
     8
140
64.0
141
0.0
147
10.0
172
     1
275
     1
279
     2
284
     7
285
     7
286
     7
340
2EC6
  0
DIMSTYLE
105
2EC9
330
2E73
100
AcDbSymbolTableRecord
100
AcDbDimStyleTableRecord
  2
ANNOTATIVE
 70
     0
275
     1
279
     2
284
     7
285
     7
286
     7
340
2EC6
1001
ACADANNOTATIVE
1000
AnnotativeData
1002
{
1070
     1
1070
     1
1002
}
  0
DIMSTYLE
105
2F1A
330
2E73
100
AcDbSymbolTableRecord
100
AcDbDimStyleTableRecord
  2
AM_ANSI
 70
     0
  4
mm
 41
0.12
 42
0.05
 43
0.5
 44
0.1
 47
0.1
 48
0.1
 78
     7
 79
     2
140
0.12
141
0.0
146
0.71
147
0.06
176
   256
177
   256
178
     2
274
     4
284
     7
340
2EC6
371
    -1
372
    -1
1001
ACAD_DSTYLE_DIMARC_LENGTH_SYMBOL
1070
   379
1070
     1
1001
ACAD_DSTYLE_DIM_LINETYPE
1070
   380
1005
2ECB
1001
ACAD_DSTYLE_DIM_EXT1_LINETYPE
1070
   381
1005
2ECB
1001
ACAD_DSTYLE_DIM_EXT2_LINETYPE
1070
   382
1005
2ECB
  0
DIMSTYLE
105
2F1B
330
2E73
100
AcDbSymbolTableRecord
100
AcDbDimStyleTableRecord
  2
AM_ANSI$3
 70
     0
  4
mm
 41
0.12
 42
0.05
 43
0.5
 44
0.1
 47
0.1
 48
0.1
 78
     7
 79
     2
140
0.12
141
0.0
146
0.71
147
0.06
176
   256
177
   256
178
     2
274
     4
284
     7
288
     1
289
     0
340
2EC6
371
    -1
372
    -1
1001
ACAD_DSTYLE_DIMARC_LENGTH_SYMBOL
1070
   379
1070
     1
1001
ACAD_DSTYLE_DIM_LINETYPE
1070
   380
1005
2ECB
1001
ACAD_DSTYLE_DIM_EXT1_LINETYPE
1070
   381
1005
2ECB
1001
ACAD_DSTYLE_DIM_EXT2_LINETYPE
1070
   382
1005
2ECB
  0
DIMSTYLE
105
2F1C
330
2E73
100
AcDbSymbolTableRecord
100
AcDbDimStyleTableRecord
  2
AM_ANSI$4
 70
     0
  4
mm
 41
0.12
 42
0.05
 43
0.5
 44
0.1
 47
0.1
 48
0.1
 78
     7
 79
     2
140
0.12
141
0.0
146
0.71
147
0.06
176
   256
177
   256
178
     2
274
     4
284
     7
340
2EC6
371
    -1
372
    -1
1001
ACAD_DSTYLE_DIMARC_LENGTH_SYMBOL
1070
   379
1070
     1
1001
ACAD_DSTYLE_DIM_LINETYPE
1070
   380
1005
2ECB
1001
ACAD_DSTYLE_DIM_EXT1_LINETYPE
1070
   381
1005
2ECB
1001
ACAD_DSTYLE_DIM_EXT2_LINETYPE
1070
   382
1005
2ECB
  0
DIMSTYLE
105
2F1D
330
2E73
100
AcDbSymbolTableRecord
100
AcDbDimStyleTableRecord
  2
AM_ANSI$7
 70
     0
  4
mm
 41
0.12
 42
0.05
 43
0.5
 44
0.1
 47
0.1
 48
0.1
 78
     7
 79
     2
140
0.12
141
0.0
146
0.71
147
0.06
176
   256
177
   256
178
     2
274
     4
284
     7
340
2EC6
371
    -1
372
    -1
1001
ACAD_DSTYLE_DIMARC_LENGTH_SYMBOL
1070
   379
1070
     1
1001
ACAD_DSTYLE_DIM_LINETYPE
1070
   380
1005
2ECB
1001
ACAD_DSTYLE_DIM_EXT1_LINETYPE
1070
   381
1005
2ECB
1001
ACAD_DSTYLE_DIM_EXT2_LINETYPE
1070
   382
1005
2ECB
  0
DIMSTYLE
105
2F1E
330
2E73
100
AcDbSymbolTableRecord
100
AcDbDimStyleTableRecord
  2
AM_ANSI$SF
 70
     0
  4
mm
 41
0.12
 42
0.05
 43
0.5
 44
0.1
 47
0.1
 48
0.1
 75
     1
 76
     1
 78
     7
 79
     2
140
0.12
141
0.0
146
0.71
147
0.06
176
   256
177
   256
178
     2
274
     4
284
     7
340
2EC6
371
    -1
372
    -1
1001
ACAD_DSTYLE_DIMARC_LENGTH_SYMBOL
1070
   379
1070
     1
1001
ACAD_DSTYLE_DIM_LINETYPE
1070
   380
1005
2ECB
1001
ACAD_DSTYLE_DIM_EXT1_LINETYPE
1070
   381
1005
2ECB
1001
ACAD_DSTYLE_DIM_EXT2_LINETYPE
1070
   382
1005
2ECB
  0
DIMSTYLE
105
2F1F
330
2E73
100
AcDbSymbolTableRecord
100
AcDbDimStyleTableRecord
  2
AM_ANSI$SH
 70
     0
  4
mm
 41
0.12
 42
0.05
 43
0.5
 44
0.1
 47
0.1
 48
0.1
 75
     1
 76
     1
 78
     7
 79
     2
140
0.12
141
0.0
146
0.71
147
0.06
173
     1
176
   256
177
   256
178
     2
274
     4
284
     7
340
2EC6
343
2F33
371
    -1
372
    -1
1001
ACAD_DSTYLE_DIMARC_LENGTH_SYMBOL
1070
   379
1070
     1
1001
ACAD_DSTYLE_DIM_LINETYPE
1070
   380
1005
2ECB
1001
ACAD_DSTYLE_DIM_EXT1_LINETYPE
1070
   381
1005
2ECB
1001
ACAD_DSTYLE_DIM_EXT2_LINETYPE
1070
   382
1005
2ECB
  0
DIMSTYLE
105
2F20
330
2E73
100
AcDbSymbolTableRecord
100
AcDbDimStyleTableRecord
  2
STANDARD1
 70
     0
 40
6.0
 41
2.5
 42
0.625
 43
6.0
 44
1.25
 47
1.0
 48
0.5
 77
     1
 78
     8
140
2.5
141
0.0
146
0.6
147
1.0
173
     1
275
     1
279
     2
284
     7
285
     7
286
     7
340
2EC6
  0
DIMSTYLE
105
2F21
330
2E73
100
AcDbSymbolTableRecord
100
AcDbDimStyleTableRecord
  2
STANDARD$0
 70
     0
 41
12.0
 42
20.0
 44
20.0
 73
     0
 74
     0
 77
     1
 78
     8
140
64.0
141
0.0
147
10.0
172
     1
275
     1
279
     2
284
     7
285
     7
286
     7
340
2EC6
  0
ENDTAB
  0
TABLE
  2
BLOCK_RECORD
  5
2E6A
330
0
100
AcDbSymbolTable
 70
    32
  0
BLOCK_RECORD
  5
2EDD
102
{ACAD_XDICTIONARY
360
3061
102
}
330
2E6A
100
AcDbSymbolTableRecord
100
AcDbBlockTableRecord
  2
*Model_Space
340
2EE0
  0
BLOCK_RECORD
  5
2ED9
330
2E6A
100
AcDbSymbolTableRecord
100
AcDbBlockTableRecord
  2
*Paper_Space
340
2EDC
  0
BLOCK_RECORD
  5
2F29
330
2E6A
100
AcDbSymbolTableRecord
100
AcDbBlockTableRecord
  2
$MODEL_SPACE
340
0
  0
BLOCK_RECORD
  5
2F2B
330
2E6A
100
AcDbSymbolTableRecord
100
AcDbBlockTableRecord
  2
$PAPER_SPACE
340
0
  0
BLOCK_RECORD
  5
2F2D
330
2E6A
100
AcDbSymbolTableRecord
100
AcDbBlockTableRecord
  2
_ORIGIN
340
0
  0
BLOCK_RECORD
  5
2F2F
330
2E6A
100
AcDbSymbolTableRecord
100
AcDbBlockTableRecord
  2
_DOTBLANK
340
0
102
{BLKREFS
331
202C
331
202D
331
2035
331
2036
331
203E
331
203F
331
2047
331
2048
331
2052
331
2053
331
205D
331
205E
331
2BF3
331
2BF4
331
2BF8
331
2BF9
331
2BFD
331
2BFE
331
2C04
331
2C05
331
2C09
331
2C0A
331
2C0E
331
2C0F
102
}
  0
BLOCK_RECORD
  5
2F31
330
2E6A
100
AcDbSymbolTableRecord
100
AcDbBlockTableRecord
  2
_OPEN30
340
0
102
{BLKREFS
331
2199
331
261A
331
2A62
102
}
  0
BLOCK_RECORD
  5
2F33
330
2E6A
100
AcDbSymbolTableRecord
100
AcDbBlockTableRecord
  2
GENAXEH
340
0
  0
BLOCK_RECORD
  5
2F35
330
2E6A
100
AcDbSymbolTableRecord
100
AcDbBlockTableRecord
  2
*U6
340
0
  0
BLOCK_RECORD
  5
2F37
330
2E6A
100
AcDbSymbolTableRecord
100
AcDbBlockTableRecord
  2
*D7
340
0
  0
BLOCK_RECORD
  5
2F39
330
2E6A
100
AcDbSymbolTableRecord
100
AcDbBlockTableRecord
  2
*U8
340
0
102
{BLKREFS
331
202E
102
}
  0
BLOCK_RECORD
  5
2F3B
330
2E6A
100
AcDbSymbolTableRecord
100
AcDbBlockTableRecord
  2
*D9
340
0
  0
BLOCK_RECORD
  5
2F3D
330
2E6A
100
AcDbSymbolTableRecord
100
AcDbBlockTableRecord
  2
*U10
340
0
102
{BLKREFS
331
2037
102
}
  0
BLOCK_RECORD
  5
2F3F
330
2E6A
100
AcDbSymbolTableRecord
100
AcDbBlockTableRecord
  2
*D11
340
0
  0
BLOCK_RECORD
  5
2F41
330
2E6A
100
AcDbSymbolTableRecord
100
AcDbBlockTableRecord
  2
*U12
340
0
102
{BLKREFS
331
2040
102
}
  0
BLOCK_RECORD
  5
2F43
330
2E6A
100
AcDbSymbolTableRecord
100
AcDbBlockTableRecord
  2
*D13
340
0
  0
BLOCK_RECORD
  5
2F45
330
2E6A
100
AcDbSymbolTableRecord
100
AcDbBlockTableRecord
  2
*U14
340
0
102
{BLKREFS
331
2049
102
}
  0
BLOCK_RECORD
  5
2F47
330
2E6A
100
AcDbSymbolTableRecord
100
AcDbBlockTableRecord
  2
*D15
340
0
  0
BLOCK_RECORD
  5
2F49
330
2E6A
100
AcDbSymbolTableRecord
100
AcDbBlockTableRecord
  2
*U16
340
0
102
{BLKREFS
331
2054
102
}
  0
BLOCK_RECORD
  5
2F4B
330
2E6A
100
AcDbSymbolTableRecord
100
AcDbBlockTableRecord
  2
*D17
340
0
  0
BLOCK_RECORD
  5
2F4D
330
2E6A
100
AcDbSymbolTableRecord
100
AcDbBlockTableRecord
  2
*U18
340
0
102
{BLKREFS
331
205F
102
}
  0
BLOCK_RECORD
  5
2F4F
330
2E6A
100
AcDbSymbolTableRecord
100
AcDbBlockTableRecord
  2
*U19
340
0
  0
BLOCK_RECORD
  5
2F51
330
2E6A
100
AcDbSymbolTableRecord
100
AcDbBlockTableRecord
  2
*U20
340
0
  0
BLOCK_RECORD
  5
2F53
330
2E6A
100
AcDbSymbolTableRecord
100
AcDbBlockTableRecord
  2
*X21
340
0
  0
BLOCK_RECORD
  5
2F55
330
2E6A
100
AcDbSymbolTableRecord
100
AcDbBlockTableRecord
  2
*X22
340
0
  0
BLOCK_RECORD
  5
2F57
330
2E6A
100
AcDbSymbolTableRecord
100
AcDbBlockTableRecord
  2
*U23
340
0
  0
BLOCK_RECORD
  5
2F59
330
2E6A
100
AcDbSymbolTableRecord
100
AcDbBlockTableRecord
  2
*X24
340
0
  0
BLOCK_RECORD
  5
2F5B
330
2E6A
100
AcDbSymbolTableRecord
100
AcDbBlockTableRecord
  2
*X25
340
0
  0
BLOCK_RECORD
  5
2F5D
330
2E6A
100
AcDbSymbolTableRecord
100
AcDbBlockTableRecord
  2
*X26
340
0
102
{BLKREFS
331
2B8C
102
}
  0
BLOCK_RECORD
  5
2F5F
330
2E6A
100
AcDbSymbolTableRecord
100
AcDbBlockTableRecord
  2
*X27
340
0
102
{BLKREFS
331
2B8D
102
}
  0
BLOCK_RECORD
  5
2F61
330
2E6A
100
AcDbSymbolTableRecord
100
AcDbBlockTableRecord
  2
*U28
340
0
102
{BLKREFS
331
2BE3
102
}
  0
BLOCK_RECORD
  5
2F63
330
2E6A
100
AcDbSymbolTableRecord
100
AcDbBlockTableRecord
  2
*X29
340
0
102
{BLKREFS
331
2BE4
102
}
  0
BLOCK_RECORD
  5
2F65
330
2E6A
100
AcDbSymbolTableRecord
100
AcDbBlockTableRecord
  2
*X30
340
0
102
{BLKREFS
331
2BE5
102
}
  0
ENDTAB
  0
ENDSEC
  0
SECTION
  2
BLOCKS
  0
BLOCK
  5
2EDE
330
2EDD
100
AcDbEntity
  8
0
100
AcDbBlockBegin
  2
*Model_Space
 70
     0
 10
0.0
 20
0.0
 30
0.0
  3
*Model_Space
  1

  0
ENDBLK
  5
2EDF
330
2EDD
100
AcDbEntity
  8
0
100
AcDbBlockEnd
  0
BLOCK
  5
2EDA
330
2ED9
100
AcDbEntity
 67
     1
  8
0
100
AcDbBlockBegin
  2
*Paper_Space
 70
     0
 10
0.0
 20
0.0
 30
0.0
  3
*Paper_Space
  1

  0
ENDBLK
  5
2EDB
330
2ED9
100
AcDbEntity
 67
     1
  8
0
100
AcDbBlockEnd
  0
BLOCK
  5
2F2A
330
2F29
100
AcDbEntity
  8
0
100
AcDbBlockBegin
  2
$MODEL_SPACE
 70
     0
 10
0.0
 20
0.0
 30
0.0
  3
$MODEL_SPACE
  1

  0
ENDBLK
  5
2CCA
330
2F29
100
AcDbEntity
  8
0
100
AcDbBlockEnd
  0
BLOCK
  5
2F2C
330
2F2B
100
AcDbEntity
  8
0
100
AcDbBlockBegin
  2
$PAPER_SPACE
 70
     0
 10
0.0
 20
0.0
 30
0.0
  3
$PAPER_SPACE
  1

  0
ENDBLK
  5
2CC6
330
2F2B
100
AcDbEntity
  8
0
100
AcDbBlockEnd
  0
BLOCK
  5
2F2E
330
2F2D
100
AcDbEntity
  8
0
100
AcDbBlockBegin
  2
_ORIGIN
 70
     0
 10
0.0
 20
0.0
 30
0.0
  3
_ORIGIN
  1

  0
CIRCLE
  5
880
330
2F2D
100
AcDbEntity
  8
0
  6
Continuous
 62
     7
100
AcDbCircle
 10
0.0
 20
0.0
 30
0.0
 40
0.5
  0
LINE
  5
881
330
2F2D
100
AcDbEntity
  8
0
  6
Continuous
 62
     7
100
AcDbLine
 10
0.0
 20
0.0
 30
0.0
 11
-1.0
 21
0.0
 31
0.0
  0
ENDBLK
  5
882
330
2F2D
100
AcDbEntity
  8
0
100
AcDbBlockEnd
  0
BLOCK
  5
2F30
330
2F2F
100
AcDbEntity
  8
0
 62
     1
100
AcDbBlockBegin
  2
_DOTBLANK
 70
     0
 10
0.0
 20
0.0
 30
0.0
  3
_DOTBLANK
  1

  0
CIRCLE
  5
AB3
330
2F2F
100
AcDbEntity
  8
0
  6
ByBlock
 62
     0
100
AcDbCircle
 10
0.0
 20
0.0
 30
0.0
 40
0.5
  0
LINE
  5
AB4
330
2F2F
100
AcDbEntity
  8
0
  6
ByBlock
 62
     0
100
AcDbLine
 10
-0.5
 20
0.0
 30
0.0
 11
-1.0
 21
0.0
 31
0.0
  0
ENDBLK
  5
AB6
330
2F2F
100
AcDbEntity
  8
0
 62
     1
100
AcDbBlockEnd
  0
BLOCK
  5
2F32
330
2F31
100
AcDbEntity
  8
0
 62
     1
100
AcDbBlockBegin
  2
_OPEN30
 70
     0
 10
0.0
 20
0.0
 30
0.0
  3
_OPEN30
  1

  0
LINE
  5
AB8
330
2F31
100
AcDbEntity
  8
0
  6
ByBlock
 62
     0
100
AcDbLine
 10
-1.0
 20
0.26794919
 30
0.0
 11
0.0
 21
0.0
 31
0.0
  0
LINE
  5
AB9
330
2F31
100
AcDbEntity
  8
0
  6
ByBlock
 62
     0
100
AcDbLine
 10
0.0
 20
0.0
 30
0.0
 11
-1.0
 21
-0.26794919
 31
0.0
  0
LINE
  5
ABA
330
2F31
100
AcDbEntity
  8
0
  6
ByBlock
 62
     0
100
AcDbLine
 10
0.0
 20
0.0
 30
0.0
 11
-1.0
 21
0.0
 31
0.0
  0
ENDBLK
  5
ABC
330
2F31
100
AcDbEntity
  8
0
 62
     1
100
AcDbBlockEnd
  0
BLOCK
  5
2F34
330
2F33
100
AcDbEntity
  8
0
100
AcDbBlockBegin
  2
GENAXEH
 70
     0
 10
0.0
 20
0.0
 30
0.0
  3
GENAXEH
  1

  0
LINE
  5
FDB
330
2F33
100
AcDbEntity
  8
0
100
AcDbLine
 10
-1.0
 20
0.0
 30
0.0
 11
1.0
 21
0.0
 31
0.0
  0
ENDBLK
  5
FDD
330
2F33
100
AcDbEntity
  8
0
100
AcDbBlockEnd
  0
BLOCK
  5
2F36
330
2F35
100
AcDbEntity
  8
0
100
AcDbBlockBegin
  2
*U6
 70
     1
 10
0.0
 20
0.0
 30
0.0
  3
*U6
  1

  0
ENDBLK
  5
1ED4
330
2F35
100
AcDbEntity
  8
0
100
AcDbBlockEnd
  0
BLOCK
  5
2F38
330
2F37
100
AcDbEntity
  8
0
100
AcDbBlockBegin
  2
*D7
 70
     1
 10
0.0
 20
0.0
 30
0.0
  3
*D7
  1

  0
LINE
  5
2029
330
2F37
100
AcDbEntity
  8
SIZE
 62
     0
100
AcDbLine
 10
-135.5
 20
-449.4732256776551
 30
0.0
 11
-135.5
 21
-638.0173952306003
 31
0.0
  0
LINE
  5
202A
330
2F37
100
AcDbEntity
  8
SIZE
 62
     0
100
AcDbLine
 10
135.5
 20
-449.4732256776551
 30
0.0
 11
135.5
 21
-638.0173952306003
 31
0.0
  0
LINE
  5
202B
330
2F37
100
AcDbEntity
  8
SIZE
 62
     0
100
AcDbLine
 10
-123.5
 20
-618.0173952306001
 30
0.0
 11
123.5
 21
-618.0173952306001
 31
0.0
  0
INSERT
  5
202C
330
2F37
100
AcDbEntity
  8
SIZE
 62
     0
100
AcDbBlockReference
  2
_DOTBLANK
 10
-135.5
 20
-618.0173952306001
 30
0.0
 41
12.0
 42
12.0
 43
12.0
 50
180.0
  0
INSERT
  5
202D
330
2F37
100
AcDbEntity
  8
SIZE
 62
     0
100
AcDbBlockReference
  2
_DOTBLANK
 10
135.5
 20
-618.0173952306001
 30
0.0
 41
12.0
 42
12.0
 43
12.0
  0
INSERT
  5
202E
330
2F37
100
AcDbEntity
  8
0
100
AcDbBlockReference
  2
*U8
 10
0.0
 20
0.0
 30
0.0
  0
POINT
  5
202F
330
2F37
100
AcDbEntity
  8
DEFPOINTS
 62
     0
100
AcDbPoint
 10
-135.5
 20
-429.473225677655
 30
0.0
  0
POINT
  5
2030
330
2F37
100
AcDbEntity
  8
DEFPOINTS
 62
     0
100
AcDbPoint
 10
135.5
 20
-429.473225677655
 30
0.0
  0
POINT
  5
2031
330
2F37
100
AcDbEntity
  8
DEFPOINTS
 62
     0
100
AcDbPoint
 10
135.5
 20
-618.0173952306001
 30
0.0
  0
ENDBLK
  5
1FDF
330
2F37
100
AcDbEntity
  8
0
100
AcDbBlockEnd
  0
BLOCK
  5
2F3A
330
2F39
100
AcDbEntity
  8
0
100
AcDbBlockBegin
  2
*U8
 70
     1
 10
0.0
 20
0.0
 30
0.0
  3
*U8
  1

  0
TEXT
  5
21A6
330
2F39
100
AcDbEntity
  8
SIZE
 62
     0
100
AcDbText
 10
-61.7142857142857
 20
-608.0173952306003
 30
0.0
 40
64.0
  1
271
 41
0.9
100
AcDbText
  0
ENDBLK
  5
21A8
330
2F39
100
AcDbEntity
  8
0
100
AcDbBlockEnd
  0
BLOCK
  5
2F3C
330
2F3B
100
AcDbEntity
  8
0
100
AcDbBlockBegin
  2
*D9
 70
     1
 10
0.0
 20
0.0
 30
0.0
  3
*D9
  1

  0
LINE
  5
2032
330
2F3B
100
AcDbEntity
  8
SIZE
 62
     0
100
AcDbLine
 10
143.7000000000007
 20
-430.0
 30
0.0
 11
304.6432844803784
 21
-430.0
 31
0.0
  0
LINE
  5
2033
330
2F3B
100
AcDbEntity
  8
SIZE
 62
     0
100
AcDbLine
 10
177.5
 20
-0.0000000000000057
 30
0.0
 11
304.6432844803785
 21
-0.0000000000000417
 31
0.0
  0
LINE
  5
2034
330
2F3B
100
AcDbEntity
  8
SIZE
 62
     0
100
AcDbLine
 10
284.6432844803784
 20
-418.0
 30
0.0
 11
284.6432844803785
 21
-12.00000000000003
 31
0.0
  0
INSERT
  5
2035
330
2F3B
100
AcDbEntity
  8
SIZE
 62
     0
100
AcDbBlockReference
  2
_DOTBLANK
 10
284.6432844803784
 20
-430.0
 30
0.0
 41
12.0
 42
12.0
 43
12.0
 50
270.0
  0
INSERT
  5
2036
330
2F3B
100
AcDbEntity
  8
SIZE
 62
     0
100
AcDbBlockReference
  2
_DOTBLANK
 10
284.6432844803785
 20
-0.000000000000036
 30
0.0
 41
12.0
 42
12.0
 43
12.0
 50
90.0
  0
INSERT
  5
2037
330
2F3B
100
AcDbEntity
  8
0
100
AcDbBlockReference
  2
*U10
 10
0.0
 20
0.0
 30
0.0
  0
POINT
  5
2038
330
2F3B
100
AcDbEntity
  8
DEFPOINTS
 62
     0
100
AcDbPoint
 10
123.7000000000007
 20
-430.0
 30
0.0
  0
POINT
  5
2039
330
2F3B
100
AcDbEntity
  8
DEFPOINTS
 62
     0
100
AcDbPoint
 10
157.5
 20
0.0
 30
0.0
  0
POINT
  5
203A
330
2F3B
100
AcDbEntity
  8
DEFPOINTS
 62
     0
100
AcDbPoint
 10
284.6432844803785
 20
-0.000000000000036
 30
0.0
  0
ENDBLK
  5
1FEB
330
2F3B
100
AcDbEntity
  8
0
100
AcDbBlockEnd
  0
BLOCK
  5
2F3E
330
2F3D
100
AcDbEntity
  8
0
100
AcDbBlockBegin
  2
*U10
 70
     1
 10
0.0
 20
0.0
 30
0.0
  3
*U10
  1

  0
TEXT
  5
21AA
330
2F3D
100
AcDbEntity
  8
SIZE
 62
     0
100
AcDbText
 10
274.6432844803785
 20
-289.0571428571429
 30
0.0
 40
64.0
  1
430
 50
90.0
 41
0.9
100
AcDbText
  0
ENDBLK
  5
21AC
330
2F3D
100
AcDbEntity
  8
0
100
AcDbBlockEnd
  0
BLOCK
  5
2F40
330
2F3F
100
AcDbEntity
  8
0
100
AcDbBlockBegin
  2
*D11
 70
     1
 10
0.0
 20
0.0
 30
0.0
  3
*D11
  1

  0
LINE
  5
203B
330
2F3F
100
AcDbEntity
  8
SIZE
 62
     0
100
AcDbLine
 10
-140.0
 20
32.5
 30
0.0
 11
-140.0
 21
136.4516878685499
 31
0.0
  0
LINE
  5
203C
330
2F3F
100
AcDbEntity
  8
SIZE
 62
     0
100
AcDbLine
 10
140.0
 20
32.5
 30
0.0
 11
140.0
 21
136.4516878685499
 31
0.0
  0
LINE
  5
203D
330
2F3F
100
AcDbEntity
  8
SIZE
 62
     0
100
AcDbLine
 10
-128.0
 20
116.4516878685499
 30
0.0
 11
128.0
 21
116.4516878685499
 31
0.0
  0
INSERT
  5
203E
330
2F3F
100
AcDbEntity
  8
SIZE
 62
     0
100
AcDbBlockReference
  2
_DOTBLANK
 10
-140.0
 20
116.4516878685499
 30
0.0
 41
12.0
 42
12.0
 43
12.0
 50
180.0
  0
INSERT
  5
203F
330
2F3F
100
AcDbEntity
  8
SIZE
 62
     0
100
AcDbBlockReference
  2
_DOTBLANK
 10
140.0
 20
116.4516878685499
 30
0.0
 41
12.0
 42
12.0
 43
12.0
  0
INSERT
  5
2040
330
2F3F
100
AcDbEntity
  8
0
100
AcDbBlockReference
  2
*U12
 10
0.0
 20
0.0
 30
0.0
  0
POINT
  5
2041
330
2F3F
100
AcDbEntity
  8
DEFPOINTS
 62
     0
100
AcDbPoint
 10
-140.0
 20
12.5
 30
0.0
  0
POINT
  5
2042
330
2F3F
100
AcDbEntity
  8
DEFPOINTS
 62
     0
100
AcDbPoint
 10
140.0
 20
12.5
 30
0.0
  0
POINT
  5
2043
330
2F3F
100
AcDbEntity
  8
DEFPOINTS
 62
     0
100
AcDbPoint
 10
140.0
 20
116.4516878685499
 30
0.0
  0
ENDBLK
  5
1FF7
330
2F3F
100
AcDbEntity
  8
0
100
AcDbBlockEnd
  0
BLOCK
  5
2F42
330
2F41
100
AcDbEntity
  8
0
100
AcDbBlockBegin
  2
*U12
 70
     1
 10
0.0
 20
0.0
 30
0.0
  3
*U12
  1

  0
TEXT
  5
21AE
330
2F41
100
AcDbEntity
  8
SIZE
 62
     0
100
AcDbText
 10
-74.05714285714283
 20
126.4516878685499
 30
0.0
 40
64.0
  1
280
 41
0.9
100
AcDbText
  0
ENDBLK
  5
21B0
330
2F41
100
AcDbEntity
  8
0
100
AcDbBlockEnd
  0
BLOCK
  5
2F44
330
2F43
100
AcDbEntity
  8
0
100
AcDbBlockBegin
  2
*D13
 70
     1
 10
0.0
 20
0.0
 30
0.0
  3
*D13
  1

  0
LINE
  5
2044
330
2F43
100
AcDbEntity
  8
SIZE
 62
     0
100
AcDbLine
 10
-157.5
 20
20.0
 30
0.0
 11
-157.5
 21
245.5794621189598
 31
0.0
  0
LINE
  5
2045
330
2F43
100
AcDbEntity
  8
SIZE
 62
     0
100
AcDbLine
 10
157.5
 20
20.0
 30
0.0
 11
157.5
 21
245.5794621189598
 31
0.0
  0
LINE
  5
2046
330
2F43
100
AcDbEntity
  8
SIZE
 62
     0
100
AcDbLine
 10
-145.5
 20
225.5794621189598
 30
0.0
 11
145.5
 21
225.5794621189598
 31
0.0
  0
INSERT
  5
2047
330
2F43
100
AcDbEntity
  8
SIZE
 62
     0
100
AcDbBlockReference
  2
_DOTBLANK
 10
-157.5
 20
225.5794621189598
 30
0.0
 41
12.0
 42
12.0
 43
12.0
 50
180.0
  0
INSERT
  5
2048
330
2F43
100
AcDbEntity
  8
SIZE
 62
     0
100
AcDbBlockReference
  2
_DOTBLANK
 10
157.5
 20
225.5794621189598
 30
0.0
 41
12.0
 42
12.0
 43
12.0
  0
INSERT
  5
2049
330
2F43
100
AcDbEntity
  8
0
100
AcDbBlockReference
  2
*U14
 10
0.0
 20
0.0
 30
0.0
  0
POINT
  5
204A
330
2F43
100
AcDbEntity
  8
DEFPOINTS
 62
     0
100
AcDbPoint
 10
-157.5
 20
0.0
 30
0.0
  0
POINT
  5
204B
330
2F43
100
AcDbEntity
  8
DEFPOINTS
 62
     0
100
AcDbPoint
 10
157.5
 20
0.0
 30
0.0
  0
POINT
  5
204C
330
2F43
100
AcDbEntity
  8
DEFPOINTS
 62
     0
100
AcDbPoint
 10
157.5
 20
225.5794621189598
 30
0.0
  0
ENDBLK
  5
2003
330
2F43
100
AcDbEntity
  8
0
100
AcDbBlockEnd
  0
BLOCK
  5
2F46
330
2F45
100
AcDbEntity
  8
0
100
AcDbBlockBegin
  2
*U14
 70
     1
 10
0.0
 20
0.0
 30
0.0
  3
*U14
  1

  0
TEXT
  5
21B2
330
2F45
100
AcDbEntity
  8
SIZE
 62
     0
100
AcDbText
 10
-68.57142857142857
 20
235.5794621189598
 30
0.0
 40
64.0
  1
315
 41
0.9
100
AcDbText
  0
ENDBLK
  5
21B4
330
2F45
100
AcDbEntity
  8
0
100
AcDbBlockEnd
  0
BLOCK
  5
2F48
330
2F47
100
AcDbEntity
  8
0
100
AcDbBlockBegin
  2
*D15
 70
     1
 10
0.0
 20
0.0
 30
0.0
  3
*D15
  1

  0
LINE
  5
204D
330
2F47
100
AcDbEntity
  8
SIZE
 62
     0
100
AcDbLine
 10
-177.5
 20
0.0000000000000057
 30
0.0
 11
-219.7694545525301
 21
0.0000000000000176
 31
0.0
  0
LINE
  5
204E
330
2F47
100
AcDbEntity
  8
SIZE
 62
     0
100
AcDbLine
 10
-177.5
 20
-7.999999999999993
 30
0.0
 11
-219.7694545525301
 21
-7.999999999999982
 31
0.0
  0
LINE
  5
204F
330
2F47
100
AcDbEntity
  8
SIZE
 62
     0
100
AcDbLine
 10
-199.76945455253
 20
12.00000000000001
 30
0.0
 11
-199.76945455253
 21
24.00000000000001
 31
0.0
  0
LINE
  5
2050
330
2F47
100
AcDbEntity
  8
SIZE
 62
     0
100
AcDbLine
 10
-199.76945455253
 20
-19.99999999999999
 30
0.0
 11
-199.7694545525301
 21
-90.4
 31
0.0
  0
LINE
  5
2051
330
2F47
100
AcDbEntity
  8
SIZE
 62
     0
100
AcDbLine
 10
-199.76945455253
 20
0.000000000000012
 30
0.0
 11
-199.76945455253
 21
-7.999999999999985
 31
0.0
  0
INSERT
  5
2052
330
2F47
100
AcDbEntity
  8
SIZE
 62
     0
100
AcDbBlockReference
  2
_DOTBLANK
 10
-199.76945455253
 20
0.000000000000012
 30
0.0
 41
12.0
 42
12.0
 43
12.0
 50
270.0
  0
INSERT
  5
2053
330
2F47
100
AcDbEntity
  8
SIZE
 62
     0
100
AcDbBlockReference
  2
_DOTBLANK
 10
-199.76945455253
 20
-7.999999999999985
 30
0.0
 41
12.0
 42
12.0
 43
12.0
 50
90.0
  0
INSERT
  5
2054
330
2F47
100
AcDbEntity
  8
0
100
AcDbBlockReference
  2
*U16
 10
0.0
 20
0.0
 30
0.0
  0
POINT
  5
2055
330
2F47
100
AcDbEntity
  8
DEFPOINTS
 62
     0
100
AcDbPoint
 10
-157.5
 20
0.0
 30
0.0
  0
POINT
  5
2056
330
2F47
100
AcDbEntity
  8
DEFPOINTS
 62
     0
100
AcDbPoint
 10
-157.5
 20
-8.0
 30
0.0
  0
POINT
  5
2057
330
2F47
100
AcDbEntity
  8
DEFPOINTS
 62
     0
100
AcDbPoint
 10
-199.76945455253
 20
-7.999999999999985
 30
0.0
  0
ENDBLK
  5
200F
330
2F47
100
AcDbEntity
  8
0
100
AcDbBlockEnd
  0
BLOCK
  5
2F4A
330
2F49
100
AcDbEntity
  8
0
100
AcDbBlockBegin
  2
*U16
 70
     1
 10
0.0
 20
0.0
 30
0.0
  3
*U16
  1

  0
TEXT
  5
21B6
330
2F49
100
AcDbEntity
  8
SIZE
 62
     0
100
AcDbText
 10
-209.7694545525301
 20
-80.4
 30
0.0
 40
64.0
  1
8
 50
90.0
 41
0.9
100
AcDbText
  0
ENDBLK
  5
21B8
330
2F49
100
AcDbEntity
  8
0
100
AcDbBlockEnd
  0
BLOCK
  5
2F4C
330
2F4B
100
AcDbEntity
  8
0
100
AcDbBlockBegin
  2
*D17
 70
     1
 10
0.0
 20
0.0
 30
0.0
  3
*D17
  1

  0
LINE
  5
2058
330
2F4B
100
AcDbEntity
  8
SIZE
 62
     0
100
AcDbLine
 10
143.7000000000007
 20
-430.0
 30
0.0
 11
304.626441221626
 21
-430.0
 31
0.0
  0
LINE
  5
2059
330
2F4B
100
AcDbEntity
  8
SIZE
 62
     0
100
AcDbLine
 10
143.1000000000022
 20
-441.0000000000001
 30
0.0
 11
304.626441221626
 21
-441.0000000000001
 31
0.0
  0
LINE
  5
205A
330
2F4B
100
AcDbEntity
  8
SIZE
 62
     0
100
AcDbLine
 10
284.626441221626
 20
-418.0
 30
0.0
 11
284.626441221626
 21
-406.0
 31
0.0
  0
LINE
  5
205B
330
2F4B
100
AcDbEntity
  8
SIZE
 62
     0
100
AcDbLine
 10
284.626441221626
 20
-453.0
 30
0.0
 11
284.626441221626
 21
-542.6000000000001
 31
0.0
  0
LINE
  5
205C
330
2F4B
100
AcDbEntity
  8
SIZE
 62
     0
100
AcDbLine
 10
284.626441221626
 20
-430.0
 30
0.0
 11
284.626441221626
 21
-441.0000000000001
 31
0.0
  0
INSERT
  5
205D
330
2F4B
100
AcDbEntity
  8
SIZE
 62
     0
100
AcDbBlockReference
  2
_DOTBLANK
 10
284.626441221626
 20
-430.0
 30
0.0
 41
12.0
 42
12.0
 43
12.0
 50
270.0
  0
INSERT
  5
205E
330
2F4B
100
AcDbEntity
  8
SIZE
 62
     0
100
AcDbBlockReference
  2
_DOTBLANK
 10
284.626441221626
 20
-441.0000000000001
 30
0.0
 41
12.0
 42
12.0
 43
12.0
 50
90.0
  0
INSERT
  5
205F
330
2F4B
100
AcDbEntity
  8
0
100
AcDbBlockReference
  2
*U18
 10
0.0
 20
0.0
 30
0.0
  0
POINT
  5
2060
330
2F4B
100
AcDbEntity
  8
DEFPOINTS
 62
     0
100
AcDbPoint
 10
123.7000000000007
 20
-430.0
 30
0.0
  0
POINT
  5
2061
330
2F4B
100
AcDbEntity
  8
DEFPOINTS
 62
     0
100
AcDbPoint
 10
123.1000000000022
 20
-441.0
 30
0.0
  0
POINT
  5
2062
330
2F4B
100
AcDbEntity
  8
DEFPOINTS
 62
     0
100
AcDbPoint
 10
284.626441221626
 20
-441.0000000000001
 30
0.0
  0
ENDBLK
  5
201D
330
2F4B
100
AcDbEntity
  8
0
100
AcDbBlockEnd
  0
BLOCK
  5
2F4E
330
2F4D
100
AcDbEntity
  8
0
100
AcDbBlockBegin
  2
*U18
 70
     1
 10
0.0
 20
0.0
 30
0.0
  3
*U18
  1

  0
TEXT
  5
21BA
330
2F4D
100
AcDbEntity
  8
SIZE
 62
     0
100
AcDbText
 10
274.6264412216261
 20
-532.6
 30
0.0
 40
64.0
  1
11
 50
90.0
 41
0.9
100
AcDbText
  0
ENDBLK
  5
21BC
330
2F4D
100
AcDbEntity
  8
0
100
AcDbBlockEnd
  0
BLOCK
  5
2F50
330
2F4F
100
AcDbEntity
  8
0
100
AcDbBlockBegin
  2
*U19
 70
     1
 10
0.0
 20
0.0
 30
0.0
  3
*U19
  1

  0
INSERT
  5
2199
330
2F4F
100
AcDbEntity
  8
NOTE
100
AcDbBlockReference
  2
_OPEN30
 10
-140.0
 20
0.0
 30
0.0
 41
12.0
 42
12.0
 43
12.0
 50
312.6090116116894
  0
POLYLINE
  5
219A
330
2F4F
100
AcDbEntity
  8
NOTE
100
AcDb2dPolyline
 66
     1
 10
0.0
 20
0.0
 30
0.0
  0
VERTEX
  5
219B
330
219A
100
AcDbEntity
  8
NOTE
100
AcDbVertex
100
AcDb2dVertex
 10
-148.1239008361894
 20
8.831887408915472
 30
0.0
  0
VERTEX
  5
219C
330
219A
100
AcDbEntity
  8
NOTE
100
AcDbVertex
100
AcDb2dVertex
 10
-227.8693999922543
 20
95.5270950580134
 30
0.0
  0
VERTEX
  5
219D
330
219A
100
AcDbEntity
  8
NOTE
100
AcDbVertex
100
AcDb2dVertex
 10
-776.4522571351115
 20
95.5270950580134
 30
0.0
  0
SEQEND
  5
219E
330
219A
100
AcDbEntity
  8
NOTE
  0
ENDBLK
  5
21A0
330
2F4F
100
AcDbEntity
  8
0
100
AcDbBlockEnd
  0
BLOCK
  5
2F52
330
2F51
100
AcDbEntity
  8
0
100
AcDbBlockBegin
  2
*U20
 70
     1
 10
0.0
 20
0.0
 30
0.0
  3
*U20
  1

  0
TEXT
  5
21A2
330
2F51
100
AcDbEntity
  8
NOTE
100
AcDbText
 10
-773.7093999922541
 20
113.5270950580134
 30
0.0
 40
64.0
  1
4×φ10取付穴
 41
0.9
100
AcDbText
  0
ENDBLK
  5
21A4
330
2F51
100
AcDbEntity
  8
0
100
AcDbBlockEnd
  0
BLOCK
  5
2F54
330
2F53
100
AcDbEntity
  8
0
100
AcDbBlockBegin
  2
*X21
 70
     1
 10
0.0
 20
0.0
 30
0.0
  3
*X21
  1

  0
LINE
  5
258E
330
2F53
100
AcDbEntity
  8
0
 62
     0
100
AcDbLine
 10
-111.3000000000047
 20
-412.8030970261443
 30
0.0
 11
-106.6695316305049
 21
-415.0080808012017
 31
0.0
  0
LINE
  5
258F
330
2F53
100
AcDbEntity
  8
0
 62
     0
100
AcDbLine
 10
-111.3000000000065
 20
-402.8031452820105
 30
0.0
 11
-85.66962189351579
 21
-415.0080808012035
 31
0.0
  0
LINE
  5
2590
330
2F53
100
AcDbEntity
  8
0
 62
     0
100
AcDbLine
 10
-111.3000000000047
 20
-392.8031935378767
 30
0.0
 11
-64.66971215652304
 21
-415.0080808012035
 31
0.0
  0
LINE
  5
2591
330
2F53
100
AcDbEntity
  8
0
 62
     0
100
AcDbLine
 10
-111.3000000000065
 20
-382.8032417937412
 30
0.0
 11
-43.66980241953569
 21
-415.0080808012017
 31
0.0
  0
LINE
  5
2592
330
2F53
100
AcDbEntity
  8
0
 62
     0
100
AcDbLine
 10
-111.3000000000047
 20
-372.8032900496073
 30
0.0
 11
-22.66989268254475
 21
-415.0080808012017
 31
0.0
  0
LINE
  5
2593
330
2F53
100
AcDbEntity
  8
0
 62
     0
100
AcDbLine
 10
-111.3000000000065
 20
-362.8033383054717
 30
0.0
 11
-1.669982945553782
 21
-415.0080808012017
 31
0.0
  0
LINE
  5
2594
330
2F53
100
AcDbEntity
  8
0
 62
     0
100
AcDbLine
 10
-111.3000000000065
 20
-352.8033865613379
 30
0.0
 11
19.32992679143898
 21
-415.0080808012035
 31
0.0
  0
LINE
  5
2595
330
2F53
100
AcDbEntity
  8
0
 62
     0
100
AcDbLine
 10
-111.3000000000065
 20
-342.8034348172041
 30
0.0
 11
40.32983652842449
 21
-415.0080808012017
 31
0.0
  0
LINE
  5
2596
330
2F53
100
AcDbEntity
  8
0
 62
     0
100
AcDbLine
 10
-104.5000000000072
 20
-336.0415766035529
 30
0.0
 11
-92.42122712724812
 21
-341.7933701764177
 31
0.0
  0
LINE
  5
2597
330
2F53
100
AcDbEntity
  8
0
 62
     0
100
AcDbLine
 10
-92.42122712724812
 20
-341.7933701764177
 30
0.0
 11
61.32974626541908
 21
-415.0080808012017
 31
0.0
  0
LINE
  5
2598
330
2F53
100
AcDbEntity
  8
0
 62
     0
100
AcDbLine
 10
-111.3000000000065
 20
-332.8034830730694
 30
0.0
 11
-104.5000000000072
 21
-336.0415766035529
 31
0.0
  0
LINE
  5
2599
330
2F53
100
AcDbEntity
  8
0
 62
     0
100
AcDbLine
 10
-104.5000000000054
 20
-326.0416248594192
 30
0.0
 11
-71.42131739025717
 21
-341.7933701764177
 31
0.0
  0
LINE
  5
259A
330
2F53
100
AcDbEntity
  8
0
 62
     0
100
AcDbLine
 10
-71.42131739025717
 20
-341.7933701764177
 30
0.0
 11
82.3296560024082
 21
-415.0080808012017
 31
0.0
  0
LINE
  5
259B
330
2F53
100
AcDbEntity
  8
0
 62
     0
100
AcDbLine
 10
-111.3000000000047
 20
-322.8035313289347
 30
0.0
 11
-104.5000000000054
 21
-326.0416248594192
 31
0.0
  0
LINE
  5
259C
330
2F53
100
AcDbEntity
  8
0
 62
     0
100
AcDbLine
 10
-104.500000000009
 20
-316.0416731152836
 30
0.0
 11
-50.42140765326802
 21
-341.7933701764177
 31
0.0
  0
LINE
  5
259D
330
2F53
100
AcDbEntity
  8
0
 62
     0
100
AcDbLine
 10
-50.42140765326802
 20
-341.7933701764177
 30
0.0
 11
103.3295657393992
 21
-415.0080808012007
 31
0.0
  0
LINE
  5
259E
330
2F53
100
AcDbEntity
  8
0
 62
     0
100
AcDbLine
 10
-111.3000000000083
 20
-312.8035795848
 30
0.0
 11
-104.500000000009
 21
-316.0416731152836
 31
0.0
  0
LINE
  5
259F
330
2F53
100
AcDbEntity
  8
0
 62
     0
100
AcDbLine
 10
-104.5000000000072
 20
-306.041721371148
 30
0.0
 11
-29.42149791627344
 21
-341.7933701764168
 31
0.0
  0
LINE
  5
25A0
330
2F53
100
AcDbEntity
  8
0
 62
     0
100
AcDbLine
 10
-29.42149791627344
 20
-341.7933701764168
 30
0.0
 11
111.2999999999902
 21
-408.8035719415318
 31
0.0
  0
LINE
  5
25A1
330
2F53
100
AcDbEntity
  8
0
 62
     0
100
AcDbLine
 10
-111.3000000000029
 20
-302.8036278406653
 30
0.0
 11
-104.5000000000072
 21
-306.041721371148
 31
0.0
  0
LINE
  5
25A2
330
2F53
100
AcDbEntity
  8
0
 62
     0
100
AcDbLine
 10
-104.5000000000072
 20
-296.041769627016
 30
0.0
 11
-8.421588179284299
 21
-341.7933701764186
 31
0.0
  0
LINE
  5
25A3
330
2F53
100
AcDbEntity
  8
0
 62
     0
100
AcDbLine
 10
-8.421588179284299
 20
-341.7933701764186
 30
0.0
 11
111.2999999999902
 21
-398.8036201974001
 31
0.0
  0
LINE
  5
25A4
330
2F53
100
AcDbEntity
  8
0
 62
     0
100
AcDbLine
 10
-111.3000000000065
 20
-292.8036760965322
 30
0.0
 11
-104.5000000000072
 21
-296.041769627016
 31
0.0
  0
LINE
  5
25A5
330
2F53
100
AcDbEntity
  8
0
 62
     0
100
AcDbLine
 10
-104.500000000009
 20
-286.0418178828804
 30
0.0
 11
12.57832155770848
 21
-341.7933701764186
 31
0.0
  0
LINE
  5
25A6
330
2F53
100
AcDbEntity
  8
0
 62
     0
100
AcDbLine
 10
12.57832155770848
 20
-341.7933701764186
 30
0.0
 11
111.299999999992
 21
-388.8036684532663
 31
0.0
  0
LINE
  5
25A7
330
2F53
100
AcDbEntity
  8
0
 62
     0
100
AcDbLine
 10
-111.3000000000047
 20
-282.8037243523986
 30
0.0
 11
-104.500000000009
 21
-286.0418178828804
 31
0.0
  0
LINE
  5
25A8
330
2F53
100
AcDbEntity
  8
0
 62
     0
100
AcDbLine
 10
-104.5000000000054
 20
-276.0418661387466
 30
0.0
 11
33.57823129469944
 21
-341.7933701764186
 31
0.0
  0
LINE
  5
25A9
330
2F53
100
AcDbEntity
  8
0
 62
     0
100
AcDbLine
 10
33.57823129469944
 20
-341.7933701764186
 30
0.0
 11
111.299999999992
 21
-378.8037167091307
 31
0.0
  0
LINE
  5
25AA
330
2F53
100
AcDbEntity
  8
0
 62
     0
100
AcDbLine
 10
-111.3000000000047
 20
-272.803772608263
 30
0.0
 11
-104.5000000000054
 21
-276.0418661387466
 31
0.0
  0
LINE
  5
25AB
330
2F53
100
AcDbEntity
  8
0
 62
     0
100
AcDbLine
 10
-104.500000000009
 20
-266.0419143946119
 30
0.0
 11
54.57814103168676
 21
-341.7933701764168
 31
0.0
  0
LINE
  5
25AC
330
2F53
100
AcDbEntity
  8
0
 62
     0
100
AcDbLine
 10
54.57814103168676
 20
-341.7933701764168
 30
0.0
 11
111.299999999992
 21
-368.8037649649968
 31
0.0
  0
LINE
  5
25AD
330
2F53
100
AcDbEntity
  8
0
 62
     0
100
AcDbLine
 10
-111.3000000000083
 20
-262.8038208641274
 30
0.0
 11
-104.500000000009
 21
-266.0419143946119
 31
0.0
  0
LINE
  5
25AE
330
2F53
100
AcDbEntity
  8
0
 62
     0
100
AcDbLine
 10
-104.5000000000072
 20
-256.0419626504772
 30
0.0
 11
75.57805076867406
 21
-341.793370176415
 31
0.0
  0
LINE
  5
25AF
330
2F53
100
AcDbEntity
  8
0
 62
     0
100
AcDbLine
 10
75.5780507686777
 20
-341.7933701764168
 30
0.0
 11
111.2999999999938
 21
-358.8038132208631
 31
0.0
  0
LINE
  5
25B0
330
2F53
100
AcDbEntity
  8
0
 62
     0
100
AcDbLine
 10
-111.3000000000047
 20
-252.8038691199936
 30
0.0
 11
-104.500000000009
 21
-256.0419626504763
 31
0.0
  0
LINE
  5
25B1
330
2F53
100
AcDbEntity
  8
0
 62
     0
100
AcDbLine
 10
-104.5000000000072
 20
-246.0420109063443
 30
0.0
 11
96.57796050566687
 21
-341.7933701764168
 31
0.0
  0
LINE
  5
25B2
330
2F53
100
AcDbEntity
  8
0
 62
     0
100
AcDbLine
 10
96.57796050566869
 20
-341.7933701764186
 30
0.0
 11
111.2999999999938
 21
-348.8038614767293
 31
0.0
  0
LINE
  5
25B3
330
2F53
100
AcDbEntity
  8
0
 62
     0
100
AcDbLine
 10
-111.3000000000065
 20
-242.8039173758598
 30
0.0
 11
-104.5000000000072
 21
-246.0420109063443
 31
0.0
  0
LINE
  5
25B4
330
2F53
100
AcDbEntity
  8
0
 62
     0
100
AcDbLine
 10
-104.5000000000072
 20
-236.0420591622096
 30
0.0
 11
111.2999999999883
 21
-338.8039097325927
 31
0.0
  0
LINE
  5
25B5
330
2F53
100
AcDbEntity
  8
0
 62
     0
100
AcDbLine
 10
-111.3000000000065
 20
-232.803965631726
 30
0.0
 11
-104.5000000000127
 21
-236.0420591622069
 31
0.0
  0
LINE
  5
25B6
330
2F53
100
AcDbEntity
  8
0
 62
     0
100
AcDbLine
 10
-104.5000000000072
 20
-226.0421074180749
 30
0.0
 11
111.2999999999865
 21
-328.8039579884571
 31
0.0
  0
LINE
  5
25B7
330
2F53
100
AcDbEntity
  8
0
 62
     0
100
AcDbLine
 10
-111.3000000000065
 20
-222.8040138875904
 30
0.0
 11
-104.5000000000109
 21
-226.0421074180731
 31
0.0
  0
LINE
  5
25B8
330
2F53
100
AcDbEntity
  8
0
 62
     0
100
AcDbLine
 10
-104.500000000009
 20
-216.0421556739393
 30
0.0
 11
111.2999999999865
 21
-318.8040062443215
 31
0.0
  0
LINE
  5
25B9
330
2F53
100
AcDbEntity
  8
0
 62
     0
100
AcDbLine
 10
-111.3000000000047
 20
-212.8040621434566
 30
0.0
 11
-104.5000000000127
 21
-216.0421556739374
 31
0.0
  0
LINE
  5
25BA
330
2F53
100
AcDbEntity
  8
0
 62
     0
100
AcDbLine
 10
-104.500000000009
 20
-206.0422039298055
 30
0.0
 11
111.2999999999865
 21
-308.8040545001877
 31
0.0
  0
LINE
  5
25BB
330
2F53
100
AcDbEntity
  8
0
 62
     0
100
AcDbLine
 10
-111.3000000000065
 20
-202.804110399321
 30
0.0
 11
-104.5000000000109
 21
-206.0422039298037
 31
0.0
  0
LINE
  5
25BC
330
2F53
100
AcDbEntity
  8
0
 62
     0
100
AcDbLine
 10
-104.500000000009
 20
-196.0422521856717
 30
0.0
 11
111.2999999999847
 21
-298.8041027560539
 31
0.0
  0
LINE
  5
25BD
330
2F53
100
AcDbEntity
  8
0
 62
     0
100
AcDbLine
 10
-111.3000000000047
 20
-192.804158655189
 30
0.0
 11
-104.5000000000127
 21
-196.0422521856698
 31
0.0
  0
LINE
  5
25BE
330
2F53
100
AcDbEntity
  8
0
 62
     0
100
AcDbLine
 10
-104.5000000000072
 20
-186.0423004415378
 30
0.0
 11
111.2999999999883
 21
-288.8041510119201
 31
0.0
  0
LINE
  5
25BF
330
2F53
100
AcDbEntity
  8
0
 62
     0
100
AcDbLine
 10
-111.3000000000065
 20
-182.8042069110533
 30
0.0
 11
-104.5000000000127
 21
-186.0423004415343
 31
0.0
  0
LINE
  5
25C0
330
2F53
100
AcDbEntity
  8
0
 62
     0
100
AcDbLine
 10
-104.500000000009
 20
-176.0423486974023
 30
0.0
 11
111.2999999999847
 21
-278.8041992677845
 31
0.0
  0
LINE
  5
25C1
330
2F53
100
AcDbEntity
  8
0
 62
     0
100
AcDbLine
 10
-111.3000000000083
 20
-172.8042551669177
 30
0.0
 11
-104.5000000000127
 21
-176.0423486974005
 31
0.0
  0
LINE
  5
25C2
330
2F53
100
AcDbEntity
  8
0
 62
     0
100
AcDbLine
 10
-104.5000000000054
 20
-166.0423969532685
 30
0.0
 11
111.2999999999883
 21
-268.8042475236507
 31
0.0
  0
LINE
  5
25C3
330
2F53
100
AcDbEntity
  8
0
 62
     0
100
AcDbLine
 10
-111.3000000000047
 20
-162.8043034227839
 30
0.0
 11
-104.5000000000127
 21
-166.0423969532649
 31
0.0
  0
LINE
  5
25C4
330
2F53
100
AcDbEntity
  8
0
 62
     0
100
AcDbLine
 10
-104.5000000000072
 20
-156.0424452091329
 30
0.0
 11
111.2999999999865
 21
-258.8042957795151
 31
0.0
  0
LINE
  5
25C5
330
2F53
100
AcDbEntity
  8
0
 62
     0
100
AcDbLine
 10
-111.3000000000065
 20
-152.8043516786483
 30
0.0
 11
-104.5000000000109
 21
-156.0424452091311
 31
0.0
  0
LINE
  5
25C6
330
2F53
100
AcDbEntity
  8
0
 62
     0
100
AcDbLine
 10
-100.4031567455549
 20
-147.9933701764184
 30
0.0
 11
111.2999999999865
 21
-248.8043440353813
 31
0.0
  0
LINE
  5
25C7
330
2F53
100
AcDbEntity
  8
0
 62
     0
100
AcDbLine
 10
-79.40324700856582
 20
-147.9933701764184
 30
0.0
 11
111.299999999992
 21
-238.8043922912493
 31
0.0
  0
LINE
  5
25C8
330
2F53
100
AcDbEntity
  8
0
 62
     0
100
AcDbLine
 10
-58.40333727157485
 20
-147.9933701764184
 30
0.0
 11
111.2999999999883
 21
-228.8044405471137
 31
0.0
  0
LINE
  5
25C9
330
2F53
100
AcDbEntity
  8
0
 62
     0
100
AcDbLine
 10
-37.4034275345839
 20
-147.9933701764184
 30
0.0
 11
111.2999999999902
 21
-218.8044888029799
 31
0.0
  0
LINE
  5
25CA
330
2F53
100
AcDbEntity
  8
0
 62
     0
100
AcDbLine
 10
-16.40351779759112
 20
-147.9933701764184
 30
0.0
 11
111.2999999999902
 21
-208.8045370588443
 31
0.0
  0
LINE
  5
25CB
330
2F53
100
AcDbEntity
  8
0
 62
     0
100
AcDbLine
 10
4.596391939398014
 20
-147.9933701764184
 30
0.0
 11
111.2999999999902
 21
-198.8045853147104
 31
0.0
  0
LINE
  5
25CC
330
2F53
100
AcDbEntity
  8
0
 62
     0
100
AcDbLine
 10
25.59630167638898
 20
-147.9933701764194
 30
0.0
 11
111.2999999999902
 21
-188.8046335705767
 31
0.0
  0
LINE
  5
25CD
330
2F53
100
AcDbEntity
  8
0
 62
     0
100
AcDbLine
 10
46.59621141338173
 20
-147.9933701764194
 30
0.0
 11
111.299999999992
 21
-178.8046818264429
 31
0.0
  0
LINE
  5
25CE
330
2F53
100
AcDbEntity
  8
0
 62
     0
100
AcDbLine
 10
67.59612115037089
 20
-147.9933701764194
 30
0.0
 11
111.2999999999883
 21
-168.8047300823073
 31
0.0
  0
LINE
  5
25CF
330
2F53
100
AcDbEntity
  8
0
 62
     0
100
AcDbLine
 10
88.59603088736369
 20
-147.9933701764194
 30
0.0
 11
111.299999999992
 21
-158.8047783381734
 31
0.0
  0
LINE
  5
25D0
330
2F53
100
AcDbEntity
  8
0
 62
     0
100
AcDbLine
 10
109.5959406243546
 20
-147.9933701764194
 30
0.0
 11
111.2999999999902
 21
-148.8048265940379
 31
0.0
  0
ENDBLK
  5
25D1
330
2F53
100
AcDbEntity
  8
0
100
AcDbBlockEnd
  0
BLOCK
  5
2F56
330
2F55
100
AcDbEntity
  8
0
100
AcDbBlockBegin
  2
*X22
 70
     1
 10
0.0
 20
0.0
 30
0.0
  3
*X22
  1

  0
LINE
  5
25D4
330
2F55
100
AcDbEntity
  8
0
 62
     0
100
AcDbLine
 10
106.3545697506306
 20
-415.0080808011996
 30
0.0
 11
111.2999999999992
 21
-412.6531152576799
 31
0.0
  0
LINE
  5
25D5
330
2F55
100
AcDbEntity
  8
0
 62
     0
100
AcDbLine
 10
85.35466001363966
 20
-415.0080808012007
 30
0.0
 11
111.3000000000029
 21
-402.6531635135452
 31
0.0
  0
LINE
  5
25D6
330
2F55
100
AcDbEntity
  8
0
 62
     0
100
AcDbLine
 10
64.3547502766487
 20
-415.0080808012007
 30
0.0
 11
111.2999999999956
 21
-392.6532117694114
 31
0.0
  0
LINE
  5
25D7
330
2F55
100
AcDbEntity
  8
0
 62
     0
100
AcDbLine
 10
43.35484053965774
 20
-415.0080808012007
 30
0.0
 11
111.2999999999992
 21
-382.6532600252758
 31
0.0
  0
LINE
  5
25D8
330
2F55
100
AcDbEntity
  8
0
 62
     0
100
AcDbLine
 10
22.35493080266316
 20
-415.0080808012017
 30
0.0
 11
111.2999999999956
 21
-372.6533082811429
 31
0.0
  0
LINE
  5
25D9
330
2F55
100
AcDbEntity
  8
0
 62
     0
100
AcDbLine
 10
1.355021065675827
 20
-415.0080808011996
 30
0.0
 11
111.2999999999992
 21
-362.6533565370072
 31
0.0
  0
LINE
  5
25DA
330
2F55
100
AcDbEntity
  8
0
 62
     0
100
AcDbLine
 10
-19.64488867131149
 20
-415.0080808012007
 30
0.0
 11
111.2999999999992
 21
-352.6534047928744
 31
0.0
  0
LINE
  5
25DB
330
2F55
100
AcDbEntity
  8
0
 62
     0
100
AcDbLine
 10
-40.64479840830609
 20
-415.0080808012007
 30
0.0
 11
111.2999999999956
 21
-342.6534530487388
 31
0.0
  0
LINE
  5
25DC
330
2F55
100
AcDbEntity
  8
0
 62
     0
100
AcDbLine
 10
92.10626524737014
 20
-341.7933701764159
 30
0.0
 11
111.2999999999956
 21
-332.6535013046051
 31
0.0
  0
LINE
  5
25DD
330
2F55
100
AcDbEntity
  8
0
 62
     0
100
AcDbLine
 10
-61.64470814529703
 20
-415.0080808012007
 30
0.0
 11
92.10626524737014
 21
-341.7933701764159
 31
0.0
  0
LINE
  5
25DE
330
2F55
100
AcDbEntity
  8
0
 62
     0
100
AcDbLine
 10
71.10635551037922
 20
-341.7933701764168
 30
0.0
 11
111.2999999999992
 21
-322.6535495604703
 31
0.0
  0
LINE
  5
25DF
330
2F55
100
AcDbEntity
  8
0
 62
     0
100
AcDbLine
 10
-82.64461788228436
 20
-415.0080808012017
 30
0.0
 11
71.10635551037922
 21
-341.7933701764168
 31
0.0
  0
LINE
  5
25E0
330
2F55
100
AcDbEntity
  8
0
 62
     0
100
AcDbLine
 10
50.10644577338462
 20
-341.7933701764168
 30
0.0
 11
111.2999999999992
 21
-312.6535978163347
 31
0.0
  0
LINE
  5
25E1
330
2F55
100
AcDbEntity
  8
0
 62
     0
100
AcDbLine
 10
-103.6445276192752
 20
-415.0080808011996
 30
0.0
 11
50.10644577338462
 21
-341.7933701764168
 31
0.0
  0
LINE
  5
25E2
330
2F55
100
AcDbEntity
  8
0
 62
     0
100
AcDbLine
 10
29.1065360363973
 20
-341.7933701764168
 30
0.0
 11
111.2999999999992
 21
-302.6536460722009
 31
0.0
  0
LINE
  5
25E3
330
2F55
100
AcDbEntity
  8
0
 62
     0
100
AcDbLine
 10
-111.2999999999992
 20
-408.6535901730685
 30
0.0
 11
29.1065360363973
 21
-341.7933701764168
 31
0.0
  0
LINE
  5
25E4
330
2F55
100
AcDbEntity
  8
0
 62
     0
100
AcDbLine
 10
8.106626299406341
 20
-341.7933701764177
 30
0.0
 11
111.2999999999992
 21
-292.6536943280662
 31
0.0
  0
LINE
  5
25E5
330
2F55
100
AcDbEntity
  8
0
 62
     0
100
AcDbLine
 10
-111.2999999999956
 20
-398.6536384289339
 30
0.0
 11
8.106626299406341
 21
-341.7933701764177
 31
0.0
  0
LINE
  5
25E6
330
2F55
100
AcDbEntity
  8
0
 62
     0
100
AcDbLine
 10
-12.89328343758461
 20
-341.7933701764159
 30
0.0
 11
111.2999999999956
 21
-282.6537425839324
 31
0.0
  0
LINE
  5
25E7
330
2F55
100
AcDbEntity
  8
0
 62
     0
100
AcDbLine
 10
-111.2999999999992
 20
-388.6536866848
 30
0.0
 11
-12.89328343758461
 21
-341.7933701764159
 31
0.0
  0
LINE
  5
25E8
330
2F55
100
AcDbEntity
  8
0
 62
     0
100
AcDbLine
 10
-33.89319317457193
 20
-341.7933701764168
 30
0.0
 11
111.2999999999992
 21
-272.6537908397977
 31
0.0
  0
LINE
  5
25E9
330
2F55
100
AcDbEntity
  8
0
 62
     0
100
AcDbLine
 10
-111.2999999999992
 20
-378.6537349406653
 30
0.0
 11
-33.89319317457193
 21
-341.7933701764168
 31
0.0
  0
LINE
  5
25EA
330
2F55
100
AcDbEntity
  8
0
 62
     0
100
AcDbLine
 10
-54.89310291156654
 20
-341.7933701764168
 30
0.0
 11
111.2999999999956
 21
-262.6538390956639
 31
0.0
  0
LINE
  5
25EB
330
2F55
100
AcDbEntity
  8
0
 62
     0
100
AcDbLine
 10
-111.3000000000029
 20
-368.6537831965316
 30
0.0
 11
-54.89310291156654
 21
-341.7933701764168
 31
0.0
  0
LINE
  5
25EC
330
2F55
100
AcDbEntity
  8
0
 62
     0
100
AcDbLine
 10
-75.89301264855386
 20
-341.793370176415
 30
0.0
 11
111.2999999999992
 21
-252.6538873515283
 31
0.0
  0
LINE
  5
25ED
330
2F55
100
AcDbEntity
  8
0
 62
     0
100
AcDbLine
 10
-111.2999999999992
 20
-358.6538314523959
 30
0.0
 11
-75.89301264855747
 21
-341.7933701764168
 31
0.0
  0
LINE
  5
25EE
330
2F55
100
AcDbEntity
  8
0
 62
     0
100
AcDbLine
 10
-96.89292238554479
 20
-341.7933701764159
 30
0.0
 11
111.2999999999992
 21
-242.6539356073936
 31
0.0
  0
LINE
  5
25EF
330
2F55
100
AcDbEntity
  8
0
 62
     0
100
AcDbLine
 10
-111.2999999999956
 20
-348.6538797082612
 30
0.0
 11
-96.89292238554845
 21
-341.7933701764177
 31
0.0
  0
LINE
  5
25F0
330
2F55
100
AcDbEntity
  8
0
 62
     0
100
AcDbLine
 10
-104.4999999999963
 20
-335.4158344336429
 30
0.0
 11
111.2999999999992
 21
-232.6539838632598
 31
0.0
  0
LINE
  5
25F1
330
2F55
100
AcDbEntity
  8
0
 62
     0
100
AcDbLine
 10
-111.2999999999956
 20
-338.6539279641274
 30
0.0
 11
-104.4999999999963
 21
-335.4158344336429
 31
0.0
  0
LINE
  5
25F2
330
2F55
100
AcDbEntity
  8
0
 62
     0
100
AcDbLine
 10
-104.5000000000036
 20
-325.4158826895089
 30
0.0
 11
111.2999999999992
 21
-222.6540321191242
 31
0.0
  0
LINE
  5
25F3
330
2F55
100
AcDbEntity
  8
0
 62
     0
100
AcDbLine
 10
-111.2999999999992
 20
-328.6539762199918
 30
0.0
 11
-104.5000000000036
 21
-325.4158826895089
 31
0.0
  0
LINE
  5
25F4
330
2F55
100
AcDbEntity
  8
0
 62
     0
100
AcDbLine
 10
-104.5
 20
-315.4159309453744
 30
0.0
 11
111.2999999999992
 21
-212.6540803749913
 31
0.0
  0
LINE
  5
25F5
330
2F55
100
AcDbEntity
  8
0
 62
     0
100
AcDbLine
 10
-111.2999999999992
 20
-318.6540244758589
 30
0.0
 11
-104.5
 21
-315.4159309453744
 31
0.0
  0
LINE
  5
25F6
330
2F55
100
AcDbEntity
  8
0
 62
     0
100
AcDbLine
 10
-104.5
 20
-305.4159792012406
 30
0.0
 11
111.2999999999956
 21
-202.6541286308557
 31
0.0
  0
LINE
  5
25F7
330
2F55
100
AcDbEntity
  8
0
 62
     0
100
AcDbLine
 10
-111.2999999999992
 20
-308.6540727317232
 30
0.0
 11
-104.5
 21
-305.4159792012406
 31
0.0
  0
LINE
  5
25F8
330
2F55
100
AcDbEntity
  8
0
 62
     0
100
AcDbLine
 10
-104.5
 20
-295.4160274571077
 30
0.0
 11
111.2999999999956
 21
-192.6541768867228
 31
0.0
  0
LINE
  5
25F9
330
2F55
100
AcDbEntity
  8
0
 62
     0
100
AcDbLine
 10
-111.2999999999992
 20
-298.6541209875904
 30
0.0
 11
-104.5
 21
-295.4160274571077
 31
0.0
  0
LINE
  5
25FA
330
2F55
100
AcDbEntity
  8
0
 62
     0
100
AcDbLine
 10
-104.5
 20
-285.4160757129721
 30
0.0
 11
111.2999999999992
 21
-182.6542251425872
 31
0.0
  0
LINE
  5
25FB
330
2F55
100
AcDbEntity
  8
0
 62
     0
100
AcDbLine
 10
-111.2999999999956
 20
-288.6541692434548
 30
0.0
 11
-104.5
 21
-285.4160757129721
 31
0.0
  0
LINE
  5
25FC
330
2F55
100
AcDbEntity
  8
0
 62
     0
100
AcDbLine
 10
-104.5000000000036
 20
-275.4161239688383
 30
0.0
 11
111.2999999999956
 21
-172.6542733984534
 31
0.0
  0
LINE
  5
25FD
330
2F55
100
AcDbEntity
  8
0
 62
     0
100
AcDbLine
 10
-111.3000000000029
 20
-278.654217499321
 30
0.0
 11
-104.5000000000036
 21
-275.4161239688383
 31
0.0
  0
LINE
  5
25FE
330
2F55
100
AcDbEntity
  8
0
 62
     0
100
AcDbLine
 10
-104.5
 20
-265.4161722247036
 30
0.0
 11
111.2999999999992
 21
-162.6543216543186
 31
0.0
  0
LINE
  5
25FF
330
2F55
100
AcDbEntity
  8
0
 62
     0
100
AcDbLine
 10
-111.2999999999992
 20
-268.6542657551863
 30
0.0
 11
-104.5
 21
-265.4161722247036
 31
0.0
  0
LINE
  5
2600
330
2F55
100
AcDbEntity
  8
0
 62
     0
100
AcDbLine
 10
-104.5
 20
-255.4162204805707
 30
0.0
 11
111.2999999999992
 21
-152.6543699101839
 31
0.0
  0
LINE
  5
2601
330
2F55
100
AcDbEntity
  8
0
 62
     0
100
AcDbLine
 10
-111.2999999999956
 20
-258.6543140110534
 30
0.0
 11
-104.5
 21
-255.4162204805707
 31
0.0
  0
LINE
  5
2602
330
2F55
100
AcDbEntity
  8
0
 62
     0
100
AcDbLine
 10
-104.5
 20
-245.4162687364351
 30
0.0
 11
100.0881948656788
 21
-147.9933701764166
 31
0.0
  0
LINE
  5
2603
330
2F55
100
AcDbEntity
  8
0
 62
     0
100
AcDbLine
 10
-111.2999999999992
 20
-248.6543622669178
 30
0.0
 11
-104.5
 21
-245.4162687364351
 31
0.0
  0
LINE
  5
2604
330
2F55
100
AcDbEntity
  8
0
 62
     0
100
AcDbLine
 10
-104.5
 20
-235.4163169923013
 30
0.0
 11
79.08828512868787
 21
-147.9933701764166
 31
0.0
  0
LINE
  5
2605
330
2F55
100
AcDbEntity
  8
0
 62
     0
100
AcDbLine
 10
-111.2999999999956
 20
-238.654410522784
 30
0.0
 11
-104.5000000000036
 21
-235.4163169923013
 31
0.0
  0
LINE
  5
2606
330
2F55
100
AcDbEntity
  8
0
 62
     0
100
AcDbLine
 10
-104.5
 20
-225.4163652481657
 30
0.0
 11
58.0883753916969
 21
-147.9933701764166
 31
0.0
  0
LINE
  5
2607
330
2F55
100
AcDbEntity
  8
0
 62
     0
100
AcDbLine
 10
-111.2999999999992
 20
-228.6544587786502
 30
0.0
 11
-104.5000000000036
 21
-225.4163652481675
 31
0.0
  0
LINE
  5
2608
330
2F55
100
AcDbEntity
  8
0
 62
     0
100
AcDbLine
 10
-104.5
 20
-215.41641350403
 30
0.0
 11
37.0884656547023
 21
-147.9933701764166
 31
0.0
  0
LINE
  5
2609
330
2F55
100
AcDbEntity
  8
0
 62
     0
100
AcDbLine
 10
-111.2999999999992
 20
-218.6545070345146
 30
0.0
 11
-104.5000000000072
 21
-215.4164135040319
 31
0.0
  0
LINE
  5
260A
330
2F55
100
AcDbEntity
  8
0
 62
     0
100
AcDbLine
 10
-104.5
 20
-205.4164617598963
 30
0.0
 11
16.08855591771498
 21
-147.9933701764166
 31
0.0
  0
LINE
  5
260B
330
2F55
100
AcDbEntity
  8
0
 62
     0
100
AcDbLine
 10
-111.2999999999992
 20
-208.6545552903808
 30
0.0
 11
-104.5000000000036
 21
-205.4164617598981
 31
0.0
  0
LINE
  5
260C
330
2F55
100
AcDbEntity
  8
0
 62
     0
100
AcDbLine
 10
-104.5
 20
-195.4165100157606
 30
0.0
 11
-4.911353819279611
 21
-147.9933701764166
 31
0.0
  0
LINE
  5
260D
330
2F55
100
AcDbEntity
  8
0
 62
     0
100
AcDbLine
 10
-111.2999999999992
 20
-198.6546035462452
 30
0.0
 11
-104.5000000000036
 21
-195.4165100157625
 31
0.0
  0
LINE
  5
260E
330
2F55
100
AcDbEntity
  8
0
 62
     0
100
AcDbLine
 10
-104.5000000000036
 20
-185.4165582716287
 30
0.0
 11
-25.91126355627057
 21
-147.9933701764184
 31
0.0
  0
LINE
  5
260F
330
2F55
100
AcDbEntity
  8
0
 62
     0
100
AcDbLine
 10
-111.2999999999992
 20
-188.6546518021132
 30
0.0
 11
-104.5000000000036
 21
-185.4165582716304
 31
0.0
  0
LINE
  5
2610
330
2F55
100
AcDbEntity
  8
0
 62
     0
100
AcDbLine
 10
-104.5
 20
-175.416606527493
 30
0.0
 11
-46.91117329325789
 21
-147.9933701764184
 31
0.0
  0
LINE
  5
2611
330
2F55
100
AcDbEntity
  8
0
 62
     0
100
AcDbLine
 10
-111.2999999999992
 20
-178.6547000579776
 30
0.0
 11
-104.5000000000036
 21
-175.4166065274949
 31
0.0
  0
LINE
  5
2612
330
2F55
100
AcDbEntity
  8
0
 62
     0
100
AcDbLine
 10
-104.5
 20
-165.4166547833592
 30
0.0
 11
-67.91108303024884
 21
-147.9933701764184
 31
0.0
  0
LINE
  5
2613
330
2F55
100
AcDbEntity
  8
0
 62
     0
100
AcDbLine
 10
-111.2999999999956
 20
-168.654748313842
 30
0.0
 11
-104.5000000000036
 21
-165.4166547833611
 31
0.0
  0
LINE
  5
2614
330
2F55
100
AcDbEntity
  8
0
 62
     0
100
AcDbLine
 10
-104.5
 20
-155.4167030392255
 30
0.0
 11
-88.91099276723982
 21
-147.9933701764184
 31
0.0
  0
LINE
  5
2615
330
2F55
100
AcDbEntity
  8
0
 62
     0
100
AcDbLine
 10
-111.2999999999992
 20
-158.65479656971
 30
0.0
 11
-104.5000000000036
 21
-155.4167030392273
 31
0.0
  0
LINE
  5
2616
330
2F55
100
AcDbEntity
  8
0
 62
     0
100
AcDbLine
 10
-111.2999999999956
 20
-148.6548448255744
 30
0.0
 11
-109.9109025042307
 21
-147.9933701764184
 31
0.0
  0
ENDBLK
  5
2617
330
2F55
100
AcDbEntity
  8
0
100
AcDbBlockEnd
  0
BLOCK
  5
2F58
330
2F57
100
AcDbEntity
  8
0
100
AcDbBlockBegin
  2
*U23
 70
     1
 10
0.0
 20
0.0
 30
0.0
  3
*U23
  1

  0
INSERT
  5
261A
330
2F57
100
AcDbEntity
  8
NOTE
100
AcDbBlockReference
  2
_OPEN30
 10
-140.0
 20
0.0000000000004547
 30
0.0
 41
12.0
 42
12.0
 43
12.0
 50
312.6090116116894
  0
POLYLINE
  5
261B
330
2F57
100
AcDbEntity
  8
NOTE
100
AcDb2dPolyline
 66
     1
 10
0.0
 20
0.0
 30
0.0
  0
VERTEX
  5
261C
330
261B
100
AcDbEntity
  8
NOTE
100
AcDbVertex
100
AcDb2dVertex
 10
-148.1239008361894
 20
8.831887408915928
 30
0.0
  0
VERTEX
  5
261D
330
261B
100
AcDbEntity
  8
NOTE
100
AcDbVertex
100
AcDb2dVertex
 10
-227.8693999922543
 20
95.52709505801384
 30
0.0
  0
VERTEX
  5
261E
330
261B
100
AcDbEntity
  8
NOTE
100
AcDbVertex
100
AcDb2dVertex
 10
-776.4522571351115
 20
95.52709505801384
 30
0.0
  0
SEQEND
  5
261F
330
261B
100
AcDbEntity
  8
NOTE
  0
ENDBLK
  5
2620
330
2F57
100
AcDbEntity
  8
0
100
AcDbBlockEnd
  0
BLOCK
  5
2F5A
330
2F59
100
AcDbEntity
  8
0
100
AcDbBlockBegin
  2
*X24
 70
     1
 10
0.0
 20
0.0
 30
0.0
  3
*X24
  1

  0
LINE
  5
2623
330
2F59
100
AcDbEntity
  8
0
 62
     0
100
AcDbLine
 10
-111.3000000000047
 20
-412.8030970261443
 30
0.0
 11
-106.6695316305049
 21
-415.0080808012017
 31
0.0
  0
LINE
  5
2624
330
2F59
100
AcDbEntity
  8
0
 62
     0
100
AcDbLine
 10
-111.3000000000065
 20
-402.8031452820105
 30
0.0
 11
-85.66962189351579
 21
-415.0080808012035
 31
0.0
  0
LINE
  5
2625
330
2F59
100
AcDbEntity
  8
0
 62
     0
100
AcDbLine
 10
-111.3000000000047
 20
-392.8031935378767
 30
0.0
 11
-64.66971215652304
 21
-415.0080808012035
 31
0.0
  0
LINE
  5
2626
330
2F59
100
AcDbEntity
  8
0
 62
     0
100
AcDbLine
 10
-111.3000000000065
 20
-382.8032417937412
 30
0.0
 11
-43.66980241953569
 21
-415.0080808012017
 31
0.0
  0
LINE
  5
2627
330
2F59
100
AcDbEntity
  8
0
 62
     0
100
AcDbLine
 10
-111.3000000000047
 20
-372.8032900496073
 30
0.0
 11
-22.66989268254475
 21
-415.0080808012017
 31
0.0
  0
LINE
  5
2628
330
2F59
100
AcDbEntity
  8
0
 62
     0
100
AcDbLine
 10
-111.3000000000065
 20
-362.8033383054717
 30
0.0
 11
-1.669982945553782
 21
-415.0080808012017
 31
0.0
  0
LINE
  5
2629
330
2F59
100
AcDbEntity
  8
0
 62
     0
100
AcDbLine
 10
-111.3000000000065
 20
-352.8033865613379
 30
0.0
 11
19.32992679143898
 21
-415.0080808012035
 31
0.0
  0
LINE
  5
262A
330
2F59
100
AcDbEntity
  8
0
 62
     0
100
AcDbLine
 10
-111.3000000000065
 20
-342.8034348172041
 30
0.0
 11
40.32983652842449
 21
-415.0080808012017
 31
0.0
  0
LINE
  5
262B
330
2F59
100
AcDbEntity
  8
0
 62
     0
100
AcDbLine
 10
-104.5000000000072
 20
-336.0415766035529
 30
0.0
 11
-92.42122712724812
 21
-341.7933701764177
 31
0.0
  0
LINE
  5
262C
330
2F59
100
AcDbEntity
  8
0
 62
     0
100
AcDbLine
 10
-92.42122712724812
 20
-341.7933701764177
 30
0.0
 11
61.32974626541908
 21
-415.0080808012017
 31
0.0
  0
LINE
  5
262D
330
2F59
100
AcDbEntity
  8
0
 62
     0
100
AcDbLine
 10
-111.3000000000065
 20
-332.8034830730694
 30
0.0
 11
-104.5000000000072
 21
-336.0415766035529
 31
0.0
  0
LINE
  5
262E
330
2F59
100
AcDbEntity
  8
0
 62
     0
100
AcDbLine
 10
-104.5000000000054
 20
-326.0416248594192
 30
0.0
 11
-71.42131739025717
 21
-341.7933701764177
 31
0.0
  0
LINE
  5
262F
330
2F59
100
AcDbEntity
  8
0
 62
     0
100
AcDbLine
 10
-71.42131739025717
 20
-341.7933701764177
 30
0.0
 11
82.3296560024082
 21
-415.0080808012017
 31
0.0
  0
LINE
  5
2630
330
2F59
100
AcDbEntity
  8
0
 62
     0
100
AcDbLine
 10
-111.3000000000047
 20
-322.8035313289347
 30
0.0
 11
-104.5000000000054
 21
-326.0416248594192
 31
0.0
  0
LINE
  5
2631
330
2F59
100
AcDbEntity
  8
0
 62
     0
100
AcDbLine
 10
-104.500000000009
 20
-316.0416731152836
 30
0.0
 11
-50.42140765326802
 21
-341.7933701764177
 31
0.0
  0
LINE
  5
2632
330
2F59
100
AcDbEntity
  8
0
 62
     0
100
AcDbLine
 10
-50.42140765326802
 20
-341.7933701764177
 30
0.0
 11
103.3295657393992
 21
-415.0080808012007
 31
0.0
  0
LINE
  5
2633
330
2F59
100
AcDbEntity
  8
0
 62
     0
100
AcDbLine
 10
-111.3000000000083
 20
-312.8035795848
 30
0.0
 11
-104.500000000009
 21
-316.0416731152836
 31
0.0
  0
LINE
  5
2634
330
2F59
100
AcDbEntity
  8
0
 62
     0
100
AcDbLine
 10
-104.5000000000072
 20
-306.041721371148
 30
0.0
 11
-29.42149791627344
 21
-341.7933701764168
 31
0.0
  0
LINE
  5
2635
330
2F59
100
AcDbEntity
  8
0
 62
     0
100
AcDbLine
 10
-29.42149791627344
 20
-341.7933701764168
 30
0.0
 11
111.2999999999902
 21
-408.8035719415318
 31
0.0
  0
LINE
  5
2636
330
2F59
100
AcDbEntity
  8
0
 62
     0
100
AcDbLine
 10
-111.3000000000029
 20
-302.8036278406653
 30
0.0
 11
-104.5000000000072
 21
-306.041721371148
 31
0.0
  0
LINE
  5
2637
330
2F59
100
AcDbEntity
  8
0
 62
     0
100
AcDbLine
 10
-104.5000000000072
 20
-296.041769627016
 30
0.0
 11
-8.421588179284299
 21
-341.7933701764186
 31
0.0
  0
LINE
  5
2638
330
2F59
100
AcDbEntity
  8
0
 62
     0
100
AcDbLine
 10
-8.421588179284299
 20
-341.7933701764186
 30
0.0
 11
111.2999999999902
 21
-398.8036201974001
 31
0.0
  0
LINE
  5
2639
330
2F59
100
AcDbEntity
  8
0
 62
     0
100
AcDbLine
 10
-111.3000000000065
 20
-292.8036760965322
 30
0.0
 11
-104.5000000000072
 21
-296.041769627016
 31
0.0
  0
LINE
  5
263A
330
2F59
100
AcDbEntity
  8
0
 62
     0
100
AcDbLine
 10
-104.500000000009
 20
-286.0418178828804
 30
0.0
 11
12.57832155770848
 21
-341.7933701764186
 31
0.0
  0
LINE
  5
263B
330
2F59
100
AcDbEntity
  8
0
 62
     0
100
AcDbLine
 10
12.57832155770848
 20
-341.7933701764186
 30
0.0
 11
111.299999999992
 21
-388.8036684532663
 31
0.0
  0
LINE
  5
263C
330
2F59
100
AcDbEntity
  8
0
 62
     0
100
AcDbLine
 10
-111.3000000000047
 20
-282.8037243523986
 30
0.0
 11
-104.500000000009
 21
-286.0418178828804
 31
0.0
  0
LINE
  5
263D
330
2F59
100
AcDbEntity
  8
0
 62
     0
100
AcDbLine
 10
-104.5000000000054
 20
-276.0418661387466
 30
0.0
 11
33.57823129469944
 21
-341.7933701764186
 31
0.0
  0
LINE
  5
263E
330
2F59
100
AcDbEntity
  8
0
 62
     0
100
AcDbLine
 10
33.57823129469944
 20
-341.7933701764186
 30
0.0
 11
111.299999999992
 21
-378.8037167091307
 31
0.0
  0
LINE
  5
263F
330
2F59
100
AcDbEntity
  8
0
 62
     0
100
AcDbLine
 10
-111.3000000000047
 20
-272.803772608263
 30
0.0
 11
-104.5000000000054
 21
-276.0418661387466
 31
0.0
  0
LINE
  5
2640
330
2F59
100
AcDbEntity
  8
0
 62
     0
100
AcDbLine
 10
-104.500000000009
 20
-266.0419143946119
 30
0.0
 11
54.57814103168676
 21
-341.7933701764168
 31
0.0
  0
LINE
  5
2641
330
2F59
100
AcDbEntity
  8
0
 62
     0
100
AcDbLine
 10
54.57814103168676
 20
-341.7933701764168
 30
0.0
 11
111.299999999992
 21
-368.8037649649968
 31
0.0
  0
LINE
  5
2642
330
2F59
100
AcDbEntity
  8
0
 62
     0
100
AcDbLine
 10
-111.3000000000083
 20
-262.8038208641274
 30
0.0
 11
-104.500000000009
 21
-266.0419143946119
 31
0.0
  0
LINE
  5
2643
330
2F59
100
AcDbEntity
  8
0
 62
     0
100
AcDbLine
 10
-104.5000000000072
 20
-256.0419626504772
 30
0.0
 11
75.57805076867406
 21
-341.793370176415
 31
0.0
  0
LINE
  5
2644
330
2F59
100
AcDbEntity
  8
0
 62
     0
100
AcDbLine
 10
75.5780507686777
 20
-341.7933701764168
 30
0.0
 11
111.2999999999938
 21
-358.8038132208631
 31
0.0
  0
LINE
  5
2645
330
2F59
100
AcDbEntity
  8
0
 62
     0
100
AcDbLine
 10
-111.3000000000047
 20
-252.8038691199936
 30
0.0
 11
-104.500000000009
 21
-256.0419626504763
 31
0.0
  0
LINE
  5
2646
330
2F59
100
AcDbEntity
  8
0
 62
     0
100
AcDbLine
 10
-104.5000000000072
 20
-246.0420109063443
 30
0.0
 11
96.57796050566687
 21
-341.7933701764168
 31
0.0
  0
LINE
  5
2647
330
2F59
100
AcDbEntity
  8
0
 62
     0
100
AcDbLine
 10
96.57796050566869
 20
-341.7933701764186
 30
0.0
 11
111.2999999999938
 21
-348.8038614767293
 31
0.0
  0
LINE
  5
2648
330
2F59
100
AcDbEntity
  8
0
 62
     0
100
AcDbLine
 10
-111.3000000000065
 20
-242.8039173758598
 30
0.0
 11
-104.5000000000072
 21
-246.0420109063443
 31
0.0
  0
LINE
  5
2649
330
2F59
100
AcDbEntity
  8
0
 62
     0
100
AcDbLine
 10
-104.5000000000072
 20
-236.0420591622096
 30
0.0
 11
111.2999999999883
 21
-338.8039097325927
 31
0.0
  0
LINE
  5
264A
330
2F59
100
AcDbEntity
  8
0
 62
     0
100
AcDbLine
 10
-111.3000000000065
 20
-232.803965631726
 30
0.0
 11
-104.5000000000127
 21
-236.0420591622069
 31
0.0
  0
LINE
  5
264B
330
2F59
100
AcDbEntity
  8
0
 62
     0
100
AcDbLine
 10
-104.5000000000072
 20
-226.0421074180749
 30
0.0
 11
111.2999999999865
 21
-328.8039579884571
 31
0.0
  0
LINE
  5
264C
330
2F59
100
AcDbEntity
  8
0
 62
     0
100
AcDbLine
 10
-111.3000000000065
 20
-222.8040138875904
 30
0.0
 11
-104.5000000000109
 21
-226.0421074180731
 31
0.0
  0
LINE
  5
264D
330
2F59
100
AcDbEntity
  8
0
 62
     0
100
AcDbLine
 10
-104.500000000009
 20
-216.0421556739393
 30
0.0
 11
111.2999999999865
 21
-318.8040062443215
 31
0.0
  0
LINE
  5
264E
330
2F59
100
AcDbEntity
  8
0
 62
     0
100
AcDbLine
 10
-111.3000000000047
 20
-212.8040621434566
 30
0.0
 11
-104.5000000000127
 21
-216.0421556739374
 31
0.0
  0
LINE
  5
264F
330
2F59
100
AcDbEntity
  8
0
 62
     0
100
AcDbLine
 10
-104.500000000009
 20
-206.0422039298055
 30
0.0
 11
111.2999999999865
 21
-308.8040545001877
 31
0.0
  0
LINE
  5
2650
330
2F59
100
AcDbEntity
  8
0
 62
     0
100
AcDbLine
 10
-111.3000000000065
 20
-202.804110399321
 30
0.0
 11
-104.5000000000109
 21
-206.0422039298037
 31
0.0
  0
LINE
  5
2651
330
2F59
100
AcDbEntity
  8
0
 62
     0
100
AcDbLine
 10
-104.500000000009
 20
-196.0422521856717
 30
0.0
 11
111.2999999999847
 21
-298.8041027560539
 31
0.0
  0
LINE
  5
2652
330
2F59
100
AcDbEntity
  8
0
 62
     0
100
AcDbLine
 10
-111.3000000000047
 20
-192.804158655189
 30
0.0
 11
-104.5000000000127
 21
-196.0422521856698
 31
0.0
  0
LINE
  5
2653
330
2F59
100
AcDbEntity
  8
0
 62
     0
100
AcDbLine
 10
-104.5000000000072
 20
-186.0423004415378
 30
0.0
 11
111.2999999999883
 21
-288.8041510119201
 31
0.0
  0
LINE
  5
2654
330
2F59
100
AcDbEntity
  8
0
 62
     0
100
AcDbLine
 10
-111.3000000000065
 20
-182.8042069110533
 30
0.0
 11
-104.5000000000127
 21
-186.0423004415343
 31
0.0
  0
LINE
  5
2655
330
2F59
100
AcDbEntity
  8
0
 62
     0
100
AcDbLine
 10
-104.500000000009
 20
-176.0423486974023
 30
0.0
 11
111.2999999999847
 21
-278.8041992677845
 31
0.0
  0
LINE
  5
2656
330
2F59
100
AcDbEntity
  8
0
 62
     0
100
AcDbLine
 10
-111.3000000000083
 20
-172.8042551669177
 30
0.0
 11
-104.5000000000127
 21
-176.0423486974005
 31
0.0
  0
LINE
  5
2657
330
2F59
100
AcDbEntity
  8
0
 62
     0
100
AcDbLine
 10
-104.5000000000054
 20
-166.0423969532685
 30
0.0
 11
111.2999999999883
 21
-268.8042475236507
 31
0.0
  0
LINE
  5
2658
330
2F59
100
AcDbEntity
  8
0
 62
     0
100
AcDbLine
 10
-111.3000000000047
 20
-162.8043034227839
 30
0.0
 11
-104.5000000000127
 21
-166.0423969532649
 31
0.0
  0
LINE
  5
2659
330
2F59
100
AcDbEntity
  8
0
 62
     0
100
AcDbLine
 10
-104.5000000000072
 20
-156.0424452091329
 30
0.0
 11
111.2999999999865
 21
-258.8042957795151
 31
0.0
  0
LINE
  5
265A
330
2F59
100
AcDbEntity
  8
0
 62
     0
100
AcDbLine
 10
-111.3000000000065
 20
-152.8043516786483
 30
0.0
 11
-104.5000000000109
 21
-156.0424452091311
 31
0.0
  0
LINE
  5
265B
330
2F59
100
AcDbEntity
  8
0
 62
     0
100
AcDbLine
 10
-100.4031567455549
 20
-147.9933701764184
 30
0.0
 11
111.2999999999865
 21
-248.8043440353813
 31
0.0
  0
LINE
  5
265C
330
2F59
100
AcDbEntity
  8
0
 62
     0
100
AcDbLine
 10
-79.40324700856582
 20
-147.9933701764184
 30
0.0
 11
111.299999999992
 21
-238.8043922912493
 31
0.0
  0
LINE
  5
265D
330
2F59
100
AcDbEntity
  8
0
 62
     0
100
AcDbLine
 10
-58.40333727157485
 20
-147.9933701764184
 30
0.0
 11
111.2999999999883
 21
-228.8044405471137
 31
0.0
  0
LINE
  5
265E
330
2F59
100
AcDbEntity
  8
0
 62
     0
100
AcDbLine
 10
-37.4034275345839
 20
-147.9933701764184
 30
0.0
 11
111.2999999999902
 21
-218.8044888029799
 31
0.0
  0
LINE
  5
265F
330
2F59
100
AcDbEntity
  8
0
 62
     0
100
AcDbLine
 10
-16.40351779759112
 20
-147.9933701764184
 30
0.0
 11
111.2999999999902
 21
-208.8045370588443
 31
0.0
  0
LINE
  5
2660
330
2F59
100
AcDbEntity
  8
0
 62
     0
100
AcDbLine
 10
4.596391939398014
 20
-147.9933701764184
 30
0.0
 11
111.2999999999902
 21
-198.8045853147104
 31
0.0
  0
LINE
  5
2661
330
2F59
100
AcDbEntity
  8
0
 62
     0
100
AcDbLine
 10
25.59630167638898
 20
-147.9933701764194
 30
0.0
 11
111.2999999999902
 21
-188.8046335705767
 31
0.0
  0
LINE
  5
2662
330
2F59
100
AcDbEntity
  8
0
 62
     0
100
AcDbLine
 10
46.59621141338173
 20
-147.9933701764194
 30
0.0
 11
111.299999999992
 21
-178.8046818264429
 31
0.0
  0
LINE
  5
2663
330
2F59
100
AcDbEntity
  8
0
 62
     0
100
AcDbLine
 10
67.59612115037089
 20
-147.9933701764194
 30
0.0
 11
111.2999999999883
 21
-168.8047300823073
 31
0.0
  0
LINE
  5
2664
330
2F59
100
AcDbEntity
  8
0
 62
     0
100
AcDbLine
 10
88.59603088736369
 20
-147.9933701764194
 30
0.0
 11
111.299999999992
 21
-158.8047783381734
 31
0.0
  0
LINE
  5
2665
330
2F59
100
AcDbEntity
  8
0
 62
     0
100
AcDbLine
 10
109.5959406243546
 20
-147.9933701764194
 30
0.0
 11
111.2999999999902
 21
-148.8048265940379
 31
0.0
  0
ENDBLK
  5
2666
330
2F59
100
AcDbEntity
  8
0
100
AcDbBlockEnd
  0
BLOCK
  5
2F5C
330
2F5B
100
AcDbEntity
  8
0
100
AcDbBlockBegin
  2
*X25
 70
     1
 10
0.0
 20
0.0
 30
0.0
  3
*X25
  1

  0
LINE
  5
2669
330
2F5B
100
AcDbEntity
  8
0
 62
     0
100
AcDbLine
 10
106.3545697506306
 20
-415.0080808011996
 30
0.0
 11
111.2999999999992
 21
-412.6531152576799
 31
0.0
  0
LINE
  5
266A
330
2F5B
100
AcDbEntity
  8
0
 62
     0
100
AcDbLine
 10
85.35466001363966
 20
-415.0080808012007
 30
0.0
 11
111.3000000000029
 21
-402.6531635135452
 31
0.0
  0
LINE
  5
266B
330
2F5B
100
AcDbEntity
  8
0
 62
     0
100
AcDbLine
 10
64.3547502766487
 20
-415.0080808012007
 30
0.0
 11
111.2999999999956
 21
-392.6532117694114
 31
0.0
  0
LINE
  5
266C
330
2F5B
100
AcDbEntity
  8
0
 62
     0
100
AcDbLine
 10
43.35484053965774
 20
-415.0080808012007
 30
0.0
 11
111.2999999999992
 21
-382.6532600252758
 31
0.0
  0
LINE
  5
266D
330
2F5B
100
AcDbEntity
  8
0
 62
     0
100
AcDbLine
 10
22.35493080266316
 20
-415.0080808012017
 30
0.0
 11
111.2999999999956
 21
-372.6533082811429
 31
0.0
  0
LINE
  5
266E
330
2F5B
100
AcDbEntity
  8
0
 62
     0
100
AcDbLine
 10
1.355021065675827
 20
-415.0080808011996
 30
0.0
 11
111.2999999999992
 21
-362.6533565370072
 31
0.0
  0
LINE
  5
266F
330
2F5B
100
AcDbEntity
  8
0
 62
     0
100
AcDbLine
 10
-19.64488867131149
 20
-415.0080808012007
 30
0.0
 11
111.2999999999992
 21
-352.6534047928744
 31
0.0
  0
LINE
  5
2670
330
2F5B
100
AcDbEntity
  8
0
 62
     0
100
AcDbLine
 10
-40.64479840830609
 20
-415.0080808012007
 30
0.0
 11
111.2999999999956
 21
-342.6534530487388
 31
0.0
  0
LINE
  5
2671
330
2F5B
100
AcDbEntity
  8
0
 62
     0
100
AcDbLine
 10
92.10626524737014
 20
-341.7933701764159
 30
0.0
 11
111.2999999999956
 21
-332.6535013046051
 31
0.0
  0
LINE
  5
2672
330
2F5B
100
AcDbEntity
  8
0
 62
     0
100
AcDbLine
 10
-61.64470814529703
 20
-415.0080808012007
 30
0.0
 11
92.10626524737014
 21
-341.7933701764159
 31
0.0
  0
LINE
  5
2673
330
2F5B
100
AcDbEntity
  8
0
 62
     0
100
AcDbLine
 10
71.10635551037922
 20
-341.7933701764168
 30
0.0
 11
111.2999999999992
 21
-322.6535495604703
 31
0.0
  0
LINE
  5
2674
330
2F5B
100
AcDbEntity
  8
0
 62
     0
100
AcDbLine
 10
-82.64461788228436
 20
-415.0080808012017
 30
0.0
 11
71.10635551037922
 21
-341.7933701764168
 31
0.0
  0
LINE
  5
2675
330
2F5B
100
AcDbEntity
  8
0
 62
     0
100
AcDbLine
 10
50.10644577338462
 20
-341.7933701764168
 30
0.0
 11
111.2999999999992
 21
-312.6535978163347
 31
0.0
  0
LINE
  5
2676
330
2F5B
100
AcDbEntity
  8
0
 62
     0
100
AcDbLine
 10
-103.6445276192752
 20
-415.0080808011996
 30
0.0
 11
50.10644577338462
 21
-341.7933701764168
 31
0.0
  0
LINE
  5
2677
330
2F5B
100
AcDbEntity
  8
0
 62
     0
100
AcDbLine
 10
29.1065360363973
 20
-341.7933701764168
 30
0.0
 11
111.2999999999992
 21
-302.6536460722009
 31
0.0
  0
LINE
  5
2678
330
2F5B
100
AcDbEntity
  8
0
 62
     0
100
AcDbLine
 10
-111.2999999999992
 20
-408.6535901730685
 30
0.0
 11
29.1065360363973
 21
-341.7933701764168
 31
0.0
  0
LINE
  5
2679
330
2F5B
100
AcDbEntity
  8
0
 62
     0
100
AcDbLine
 10
8.106626299406341
 20
-341.7933701764177
 30
0.0
 11
111.2999999999992
 21
-292.6536943280662
 31
0.0
  0
LINE
  5
267A
330
2F5B
100
AcDbEntity
  8
0
 62
     0
100
AcDbLine
 10
-111.2999999999956
 20
-398.6536384289339
 30
0.0
 11
8.106626299406341
 21
-341.7933701764177
 31
0.0
  0
LINE
  5
267B
330
2F5B
100
AcDbEntity
  8
0
 62
     0
100
AcDbLine
 10
-12.89328343758461
 20
-341.7933701764159
 30
0.0
 11
111.2999999999956
 21
-282.6537425839324
 31
0.0
  0
LINE
  5
267C
330
2F5B
100
AcDbEntity
  8
0
 62
     0
100
AcDbLine
 10
-111.2999999999992
 20
-388.6536866848
 30
0.0
 11
-12.89328343758461
 21
-341.7933701764159
 31
0.0
  0
LINE
  5
267D
330
2F5B
100
AcDbEntity
  8
0
 62
     0
100
AcDbLine
 10
-33.89319317457193
 20
-341.7933701764168
 30
0.0
 11
111.2999999999992
 21
-272.6537908397977
 31
0.0
  0
LINE
  5
267E
330
2F5B
100
AcDbEntity
  8
0
 62
     0
100
AcDbLine
 10
-111.2999999999992
 20
-378.6537349406653
 30
0.0
 11
-33.89319317457193
 21
-341.7933701764168
 31
0.0
  0
LINE
  5
267F
330
2F5B
100
AcDbEntity
  8
0
 62
     0
100
AcDbLine
 10
-54.89310291156654
 20
-341.7933701764168
 30
0.0
 11
111.2999999999956
 21
-262.6538390956639
 31
0.0
  0
LINE
  5
2680
330
2F5B
100
AcDbEntity
  8
0
 62
     0
100
AcDbLine
 10
-111.3000000000029
 20
-368.6537831965316
 30
0.0
 11
-54.89310291156654
 21
-341.7933701764168
 31
0.0
  0
LINE
  5
2681
330
2F5B
100
AcDbEntity
  8
0
 62
     0
100
AcDbLine
 10
-75.89301264855386
 20
-341.793370176415
 30
0.0
 11
111.2999999999992
 21
-252.6538873515283
 31
0.0
  0
LINE
  5
2682
330
2F5B
100
AcDbEntity
  8
0
 62
     0
100
AcDbLine
 10
-111.2999999999992
 20
-358.6538314523959
 30
0.0
 11
-75.89301264855747
 21
-341.7933701764168
 31
0.0
  0
LINE
  5
2683
330
2F5B
100
AcDbEntity
  8
0
 62
     0
100
AcDbLine
 10
-96.89292238554479
 20
-341.7933701764159
 30
0.0
 11
111.2999999999992
 21
-242.6539356073936
 31
0.0
  0
LINE
  5
2684
330
2F5B
100
AcDbEntity
  8
0
 62
     0
100
AcDbLine
 10
-111.2999999999956
 20
-348.6538797082612
 30
0.0
 11
-96.89292238554845
 21
-341.7933701764177
 31
0.0
  0
LINE
  5
2685
330
2F5B
100
AcDbEntity
  8
0
 62
     0
100
AcDbLine
 10
-104.4999999999963
 20
-335.4158344336429
 30
0.0
 11
111.2999999999992
 21
-232.6539838632598
 31
0.0
  0
LINE
  5
2686
330
2F5B
100
AcDbEntity
  8
0
 62
     0
100
AcDbLine
 10
-111.2999999999956
 20
-338.6539279641274
 30
0.0
 11
-104.4999999999963
 21
-335.4158344336429
 31
0.0
  0
LINE
  5
2687
330
2F5B
100
AcDbEntity
  8
0
 62
     0
100
AcDbLine
 10
-104.5000000000036
 20
-325.4158826895089
 30
0.0
 11
111.2999999999992
 21
-222.6540321191242
 31
0.0
  0
LINE
  5
2688
330
2F5B
100
AcDbEntity
  8
0
 62
     0
100
AcDbLine
 10
-111.2999999999992
 20
-328.6539762199918
 30
0.0
 11
-104.5000000000036
 21
-325.4158826895089
 31
0.0
  0
LINE
  5
2689
330
2F5B
100
AcDbEntity
  8
0
 62
     0
100
AcDbLine
 10
-104.5
 20
-315.4159309453744
 30
0.0
 11
111.2999999999992
 21
-212.6540803749913
 31
0.0
  0
LINE
  5
268A
330
2F5B
100
AcDbEntity
  8
0
 62
     0
100
AcDbLine
 10
-111.2999999999992
 20
-318.6540244758589
 30
0.0
 11
-104.5
 21
-315.4159309453744
 31
0.0
  0
LINE
  5
268B
330
2F5B
100
AcDbEntity
  8
0
 62
     0
100
AcDbLine
 10
-104.5
 20
-305.4159792012406
 30
0.0
 11
111.2999999999956
 21
-202.6541286308557
 31
0.0
  0
LINE
  5
268C
330
2F5B
100
AcDbEntity
  8
0
 62
     0
100
AcDbLine
 10
-111.2999999999992
 20
-308.6540727317232
 30
0.0
 11
-104.5
 21
-305.4159792012406
 31
0.0
  0
LINE
  5
268D
330
2F5B
100
AcDbEntity
  8
0
 62
     0
100
AcDbLine
 10
-104.5
 20
-295.4160274571077
 30
0.0
 11
111.2999999999956
 21
-192.6541768867228
 31
0.0
  0
LINE
  5
268E
330
2F5B
100
AcDbEntity
  8
0
 62
     0
100
AcDbLine
 10
-111.2999999999992
 20
-298.6541209875904
 30
0.0
 11
-104.5
 21
-295.4160274571077
 31
0.0
  0
LINE
  5
268F
330
2F5B
100
AcDbEntity
  8
0
 62
     0
100
AcDbLine
 10
-104.5
 20
-285.4160757129721
 30
0.0
 11
111.2999999999992
 21
-182.6542251425872
 31
0.0
  0
LINE
  5
2690
330
2F5B
100
AcDbEntity
  8
0
 62
     0
100
AcDbLine
 10
-111.2999999999956
 20
-288.6541692434548
 30
0.0
 11
-104.5
 21
-285.4160757129721
 31
0.0
  0
LINE
  5
2691
330
2F5B
100
AcDbEntity
  8
0
 62
     0
100
AcDbLine
 10
-104.5000000000036
 20
-275.4161239688383
 30
0.0
 11
111.2999999999956
 21
-172.6542733984534
 31
0.0
  0
LINE
  5
2692
330
2F5B
100
AcDbEntity
  8
0
 62
     0
100
AcDbLine
 10
-111.3000000000029
 20
-278.654217499321
 30
0.0
 11
-104.5000000000036
 21
-275.4161239688383
 31
0.0
  0
LINE
  5
2693
330
2F5B
100
AcDbEntity
  8
0
 62
     0
100
AcDbLine
 10
-104.5
 20
-265.4161722247036
 30
0.0
 11
111.2999999999992
 21
-162.6543216543186
 31
0.0
  0
LINE
  5
2694
330
2F5B
100
AcDbEntity
  8
0
 62
     0
100
AcDbLine
 10
-111.2999999999992
 20
-268.6542657551863
 30
0.0
 11
-104.5
 21
-265.4161722247036
 31
0.0
  0
LINE
  5
2695
330
2F5B
100
AcDbEntity
  8
0
 62
     0
100
AcDbLine
 10
-104.5
 20
-255.4162204805707
 30
0.0
 11
111.2999999999992
 21
-152.6543699101839
 31
0.0
  0
LINE
  5
2696
330
2F5B
100
AcDbEntity
  8
0
 62
     0
100
AcDbLine
 10
-111.2999999999956
 20
-258.6543140110534
 30
0.0
 11
-104.5
 21
-255.4162204805707
 31
0.0
  0
LINE
  5
2697
330
2F5B
100
AcDbEntity
  8
0
 62
     0
100
AcDbLine
 10
-104.5
 20
-245.4162687364351
 30
0.0
 11
100.0881948656788
 21
-147.9933701764166
 31
0.0
  0
LINE
  5
2698
330
2F5B
100
AcDbEntity
  8
0
 62
     0
100
AcDbLine
 10
-111.2999999999992
 20
-248.6543622669178
 30
0.0
 11
-104.5
 21
-245.4162687364351
 31
0.0
  0
LINE
  5
2699
330
2F5B
100
AcDbEntity
  8
0
 62
     0
100
AcDbLine
 10
-104.5
 20
-235.4163169923013
 30
0.0
 11
79.08828512868787
 21
-147.9933701764166
 31
0.0
  0
LINE
  5
269A
330
2F5B
100
AcDbEntity
  8
0
 62
     0
100
AcDbLine
 10
-111.2999999999956
 20
-238.654410522784
 30
0.0
 11
-104.5000000000036
 21
-235.4163169923013
 31
0.0
  0
LINE
  5
269B
330
2F5B
100
AcDbEntity
  8
0
 62
     0
100
AcDbLine
 10
-104.5
 20
-225.4163652481657
 30
0.0
 11
58.0883753916969
 21
-147.9933701764166
 31
0.0
  0
LINE
  5
269C
330
2F5B
100
AcDbEntity
  8
0
 62
     0
100
AcDbLine
 10
-111.2999999999992
 20
-228.6544587786502
 30
0.0
 11
-104.5000000000036
 21
-225.4163652481675
 31
0.0
  0
LINE
  5
269D
330
2F5B
100
AcDbEntity
  8
0
 62
     0
100
AcDbLine
 10
-104.5
 20
-215.41641350403
 30
0.0
 11
37.0884656547023
 21
-147.9933701764166
 31
0.0
  0
LINE
  5
269E
330
2F5B
100
AcDbEntity
  8
0
 62
     0
100
AcDbLine
 10
-111.2999999999992
 20
-218.6545070345146
 30
0.0
 11
-104.5000000000072
 21
-215.4164135040319
 31
0.0
  0
LINE
  5
269F
330
2F5B
100
AcDbEntity
  8
0
 62
     0
100
AcDbLine
 10
-104.5
 20
-205.4164617598963
 30
0.0
 11
16.08855591771498
 21
-147.9933701764166
 31
0.0
  0
LINE
  5
26A0
330
2F5B
100
AcDbEntity
  8
0
 62
     0
100
AcDbLine
 10
-111.2999999999992
 20
-208.6545552903808
 30
0.0
 11
-104.5000000000036
 21
-205.4164617598981
 31
0.0
  0
LINE
  5
26A1
330
2F5B
100
AcDbEntity
  8
0
 62
     0
100
AcDbLine
 10
-104.5
 20
-195.4165100157606
 30
0.0
 11
-4.911353819279611
 21
-147.9933701764166
 31
0.0
  0
LINE
  5
26A2
330
2F5B
100
AcDbEntity
  8
0
 62
     0
100
AcDbLine
 10
-111.2999999999992
 20
-198.6546035462452
 30
0.0
 11
-104.5000000000036
 21
-195.4165100157625
 31
0.0
  0
LINE
  5
26A3
330
2F5B
100
AcDbEntity
  8
0
 62
     0
100
AcDbLine
 10
-104.5000000000036
 20
-185.4165582716287
 30
0.0
 11
-25.91126355627057
 21
-147.9933701764184
 31
0.0
  0
LINE
  5
26A4
330
2F5B
100
AcDbEntity
  8
0
 62
     0
100
AcDbLine
 10
-111.2999999999992
 20
-188.6546518021132
 30
0.0
 11
-104.5000000000036
 21
-185.4165582716304
 31
0.0
  0
LINE
  5
26A5
330
2F5B
100
AcDbEntity
  8
0
 62
     0
100
AcDbLine
 10
-104.5
 20
-175.416606527493
 30
0.0
 11
-46.91117329325789
 21
-147.9933701764184
 31
0.0
  0
LINE
  5
26A6
330
2F5B
100
AcDbEntity
  8
0
 62
     0
100
AcDbLine
 10
-111.2999999999992
 20
-178.6547000579776
 30
0.0
 11
-104.5000000000036
 21
-175.4166065274949
 31
0.0
  0
LINE
  5
26A7
330
2F5B
100
AcDbEntity
  8
0
 62
     0
100
AcDbLine
 10
-104.5
 20
-165.4166547833592
 30
0.0
 11
-67.91108303024884
 21
-147.9933701764184
 31
0.0
  0
LINE
  5
26A8
330
2F5B
100
AcDbEntity
  8
0
 62
     0
100
AcDbLine
 10
-111.2999999999956
 20
-168.654748313842
 30
0.0
 11
-104.5000000000036
 21
-165.4166547833611
 31
0.0
  0
LINE
  5
26A9
330
2F5B
100
AcDbEntity
  8
0
 62
     0
100
AcDbLine
 10
-104.5
 20
-155.4167030392255
 30
0.0
 11
-88.91099276723982
 21
-147.9933701764184
 31
0.0
  0
LINE
  5
26AA
330
2F5B
100
AcDbEntity
  8
0
 62
     0
100
AcDbLine
 10
-111.2999999999992
 20
-158.65479656971
 30
0.0
 11
-104.5000000000036
 21
-155.4167030392273
 31
0.0
  0
LINE
  5
26AB
330
2F5B
100
AcDbEntity
  8
0
 62
     0
100
AcDbLine
 10
-111.2999999999956
 20
-148.6548448255744
 30
0.0
 11
-109.9109025042307
 21
-147.9933701764184
 31
0.0
  0
ENDBLK
  5
26AC
330
2F5B
100
AcDbEntity
  8
0
100
AcDbBlockEnd
  0
BLOCK
  5
2F5E
330
2F5D
100
AcDbEntity
  8
0
100
AcDbBlockBegin
  2
*X26
 70
     1
 10
0.0
 20
0.0
 30
0.0
  3
*X26
  1

  0
LINE
  5
29D6
330
2F5D
100
AcDbEntity
  8
0
 62
     0
100
AcDbLine
 10
-111.3000000000047
 20
-412.8030970261443
 30
0.0
 11
-106.6695316305049
 21
-415.0080808012017
 31
0.0
  0
LINE
  5
29D7
330
2F5D
100
AcDbEntity
  8
0
 62
     0
100
AcDbLine
 10
-111.3000000000065
 20
-402.8031452820105
 30
0.0
 11
-85.66962189351579
 21
-415.0080808012035
 31
0.0
  0
LINE
  5
29D8
330
2F5D
100
AcDbEntity
  8
0
 62
     0
100
AcDbLine
 10
-111.3000000000047
 20
-392.8031935378767
 30
0.0
 11
-64.66971215652304
 21
-415.0080808012035
 31
0.0
  0
LINE
  5
29D9
330
2F5D
100
AcDbEntity
  8
0
 62
     0
100
AcDbLine
 10
-111.3000000000065
 20
-382.8032417937412
 30
0.0
 11
-43.66980241953569
 21
-415.0080808012017
 31
0.0
  0
LINE
  5
29DA
330
2F5D
100
AcDbEntity
  8
0
 62
     0
100
AcDbLine
 10
-111.3000000000047
 20
-372.8032900496073
 30
0.0
 11
-22.66989268254475
 21
-415.0080808012017
 31
0.0
  0
LINE
  5
29DB
330
2F5D
100
AcDbEntity
  8
0
 62
     0
100
AcDbLine
 10
-111.3000000000065
 20
-362.8033383054717
 30
0.0
 11
-1.669982945553782
 21
-415.0080808012017
 31
0.0
  0
LINE
  5
29DC
330
2F5D
100
AcDbEntity
  8
0
 62
     0
100
AcDbLine
 10
-111.3000000000065
 20
-352.8033865613379
 30
0.0
 11
19.32992679143898
 21
-415.0080808012035
 31
0.0
  0
LINE
  5
29DD
330
2F5D
100
AcDbEntity
  8
0
 62
     0
100
AcDbLine
 10
-111.3000000000065
 20
-342.8034348172041
 30
0.0
 11
40.32983652842449
 21
-415.0080808012017
 31
0.0
  0
LINE
  5
29DE
330
2F5D
100
AcDbEntity
  8
0
 62
     0
100
AcDbLine
 10
-104.5000000000072
 20
-336.0415766035529
 30
0.0
 11
-92.42122712724812
 21
-341.7933701764177
 31
0.0
  0
LINE
  5
29DF
330
2F5D
100
AcDbEntity
  8
0
 62
     0
100
AcDbLine
 10
-92.42122712724812
 20
-341.7933701764177
 30
0.0
 11
61.32974626541908
 21
-415.0080808012017
 31
0.0
  0
LINE
  5
29E0
330
2F5D
100
AcDbEntity
  8
0
 62
     0
100
AcDbLine
 10
-111.3000000000065
 20
-332.8034830730694
 30
0.0
 11
-104.5000000000072
 21
-336.0415766035529
 31
0.0
  0
LINE
  5
29E1
330
2F5D
100
AcDbEntity
  8
0
 62
     0
100
AcDbLine
 10
-104.5000000000054
 20
-326.0416248594192
 30
0.0
 11
-71.42131739025717
 21
-341.7933701764177
 31
0.0
  0
LINE
  5
29E2
330
2F5D
100
AcDbEntity
  8
0
 62
     0
100
AcDbLine
 10
-71.42131739025717
 20
-341.7933701764177
 30
0.0
 11
82.3296560024082
 21
-415.0080808012017
 31
0.0
  0
LINE
  5
29E3
330
2F5D
100
AcDbEntity
  8
0
 62
     0
100
AcDbLine
 10
-111.3000000000047
 20
-322.8035313289347
 30
0.0
 11
-104.5000000000054
 21
-326.0416248594192
 31
0.0
  0
LINE
  5
29E4
330
2F5D
100
AcDbEntity
  8
0
 62
     0
100
AcDbLine
 10
-104.500000000009
 20
-316.0416731152836
 30
0.0
 11
-50.42140765326802
 21
-341.7933701764177
 31
0.0
  0
LINE
  5
29E5
330
2F5D
100
AcDbEntity
  8
0
 62
     0
100
AcDbLine
 10
-50.42140765326802
 20
-341.7933701764177
 30
0.0
 11
103.3295657393992
 21
-415.0080808012007
 31
0.0
  0
LINE
  5
29E6
330
2F5D
100
AcDbEntity
  8
0
 62
     0
100
AcDbLine
 10
-111.3000000000083
 20
-312.8035795848
 30
0.0
 11
-104.500000000009
 21
-316.0416731152836
 31
0.0
  0
LINE
  5
29E7
330
2F5D
100
AcDbEntity
  8
0
 62
     0
100
AcDbLine
 10
-104.5000000000072
 20
-306.041721371148
 30
0.0
 11
-29.42149791627344
 21
-341.7933701764168
 31
0.0
  0
LINE
  5
29E8
330
2F5D
100
AcDbEntity
  8
0
 62
     0
100
AcDbLine
 10
-29.42149791627344
 20
-341.7933701764168
 30
0.0
 11
111.2999999999902
 21
-408.8035719415318
 31
0.0
  0
LINE
  5
29E9
330
2F5D
100
AcDbEntity
  8
0
 62
     0
100
AcDbLine
 10
-111.3000000000029
 20
-302.8036278406653
 30
0.0
 11
-104.5000000000072
 21
-306.041721371148
 31
0.0
  0
LINE
  5
29EA
330
2F5D
100
AcDbEntity
  8
0
 62
     0
100
AcDbLine
 10
-104.5000000000072
 20
-296.041769627016
 30
0.0
 11
-8.421588179284299
 21
-341.7933701764186
 31
0.0
  0
LINE
  5
29EB
330
2F5D
100
AcDbEntity
  8
0
 62
     0
100
AcDbLine
 10
-8.421588179284299
 20
-341.7933701764186
 30
0.0
 11
111.2999999999902
 21
-398.8036201974001
 31
0.0
  0
LINE
  5
29EC
330
2F5D
100
AcDbEntity
  8
0
 62
     0
100
AcDbLine
 10
-111.3000000000065
 20
-292.8036760965322
 30
0.0
 11
-104.5000000000072
 21
-296.041769627016
 31
0.0
  0
LINE
  5
29ED
330
2F5D
100
AcDbEntity
  8
0
 62
     0
100
AcDbLine
 10
-104.500000000009
 20
-286.0418178828804
 30
0.0
 11
12.57832155770848
 21
-341.7933701764186
 31
0.0
  0
LINE
  5
29EE
330
2F5D
100
AcDbEntity
  8
0
 62
     0
100
AcDbLine
 10
12.57832155770848
 20
-341.7933701764186
 30
0.0
 11
111.299999999992
 21
-388.8036684532663
 31
0.0
  0
LINE
  5
29EF
330
2F5D
100
AcDbEntity
  8
0
 62
     0
100
AcDbLine
 10
-111.3000000000047
 20
-282.8037243523986
 30
0.0
 11
-104.500000000009
 21
-286.0418178828804
 31
0.0
  0
LINE
  5
29F0
330
2F5D
100
AcDbEntity
  8
0
 62
     0
100
AcDbLine
 10
-104.5000000000054
 20
-276.0418661387466
 30
0.0
 11
33.57823129469944
 21
-341.7933701764186
 31
0.0
  0
LINE
  5
29F1
330
2F5D
100
AcDbEntity
  8
0
 62
     0
100
AcDbLine
 10
33.57823129469944
 20
-341.7933701764186
 30
0.0
 11
111.299999999992
 21
-378.8037167091307
 31
0.0
  0
LINE
  5
29F2
330
2F5D
100
AcDbEntity
  8
0
 62
     0
100
AcDbLine
 10
-111.3000000000047
 20
-272.803772608263
 30
0.0
 11
-104.5000000000054
 21
-276.0418661387466
 31
0.0
  0
LINE
  5
29F3
330
2F5D
100
AcDbEntity
  8
0
 62
     0
100
AcDbLine
 10
-104.500000000009
 20
-266.0419143946119
 30
0.0
 11
54.57814103168676
 21
-341.7933701764168
 31
0.0
  0
LINE
  5
29F4
330
2F5D
100
AcDbEntity
  8
0
 62
     0
100
AcDbLine
 10
54.57814103168676
 20
-341.7933701764168
 30
0.0
 11
111.299999999992
 21
-368.8037649649968
 31
0.0
  0
LINE
  5
29F5
330
2F5D
100
AcDbEntity
  8
0
 62
     0
100
AcDbLine
 10
-111.3000000000083
 20
-262.8038208641274
 30
0.0
 11
-104.500000000009
 21
-266.0419143946119
 31
0.0
  0
LINE
  5
29F6
330
2F5D
100
AcDbEntity
  8
0
 62
     0
100
AcDbLine
 10
-104.5000000000072
 20
-256.0419626504772
 30
0.0
 11
75.57805076867406
 21
-341.793370176415
 31
0.0
  0
LINE
  5
29F7
330
2F5D
100
AcDbEntity
  8
0
 62
     0
100
AcDbLine
 10
75.5780507686777
 20
-341.7933701764168
 30
0.0
 11
111.2999999999938
 21
-358.8038132208631
 31
0.0
  0
LINE
  5
29F8
330
2F5D
100
AcDbEntity
  8
0
 62
     0
100
AcDbLine
 10
-111.3000000000047
 20
-252.8038691199936
 30
0.0
 11
-104.500000000009
 21
-256.0419626504763
 31
0.0
  0
LINE
  5
29F9
330
2F5D
100
AcDbEntity
  8
0
 62
     0
100
AcDbLine
 10
-104.5000000000072
 20
-246.0420109063443
 30
0.0
 11
96.57796050566687
 21
-341.7933701764168
 31
0.0
  0
LINE
  5
29FA
330
2F5D
100
AcDbEntity
  8
0
 62
     0
100
AcDbLine
 10
96.57796050566869
 20
-341.7933701764186
 30
0.0
 11
111.2999999999938
 21
-348.8038614767293
 31
0.0
  0
LINE
  5
29FB
330
2F5D
100
AcDbEntity
  8
0
 62
     0
100
AcDbLine
 10
-111.3000000000065
 20
-242.8039173758598
 30
0.0
 11
-104.5000000000072
 21
-246.0420109063443
 31
0.0
  0
LINE
  5
29FC
330
2F5D
100
AcDbEntity
  8
0
 62
     0
100
AcDbLine
 10
-104.5000000000072
 20
-236.0420591622096
 30
0.0
 11
111.2999999999883
 21
-338.8039097325927
 31
0.0
  0
LINE
  5
29FD
330
2F5D
100
AcDbEntity
  8
0
 62
     0
100
AcDbLine
 10
-111.3000000000065
 20
-232.803965631726
 30
0.0
 11
-104.5000000000127
 21
-236.0420591622069
 31
0.0
  0
LINE
  5
29FE
330
2F5D
100
AcDbEntity
  8
0
 62
     0
100
AcDbLine
 10
-104.5000000000072
 20
-226.0421074180749
 30
0.0
 11
111.2999999999865
 21
-328.8039579884571
 31
0.0
  0
LINE
  5
29FF
330
2F5D
100
AcDbEntity
  8
0
 62
     0
100
AcDbLine
 10
-111.3000000000065
 20
-222.8040138875904
 30
0.0
 11
-104.5000000000109
 21
-226.0421074180731
 31
0.0
  0
LINE
  5
2A00
330
2F5D
100
AcDbEntity
  8
0
 62
     0
100
AcDbLine
 10
-104.500000000009
 20
-216.0421556739393
 30
0.0
 11
111.2999999999865
 21
-318.8040062443215
 31
0.0
  0
LINE
  5
2A01
330
2F5D
100
AcDbEntity
  8
0
 62
     0
100
AcDbLine
 10
-111.3000000000047
 20
-212.8040621434566
 30
0.0
 11
-104.5000000000127
 21
-216.0421556739374
 31
0.0
  0
LINE
  5
2A02
330
2F5D
100
AcDbEntity
  8
0
 62
     0
100
AcDbLine
 10
-104.500000000009
 20
-206.0422039298055
 30
0.0
 11
111.2999999999865
 21
-308.8040545001877
 31
0.0
  0
LINE
  5
2A03
330
2F5D
100
AcDbEntity
  8
0
 62
     0
100
AcDbLine
 10
-111.3000000000065
 20
-202.804110399321
 30
0.0
 11
-104.5000000000109
 21
-206.0422039298037
 31
0.0
  0
LINE
  5
2A04
330
2F5D
100
AcDbEntity
  8
0
 62
     0
100
AcDbLine
 10
-104.500000000009
 20
-196.0422521856717
 30
0.0
 11
111.2999999999847
 21
-298.8041027560539
 31
0.0
  0
LINE
  5
2A05
330
2F5D
100
AcDbEntity
  8
0
 62
     0
100
AcDbLine
 10
-111.3000000000047
 20
-192.804158655189
 30
0.0
 11
-104.5000000000127
 21
-196.0422521856698
 31
0.0
  0
LINE
  5
2A06
330
2F5D
100
AcDbEntity
  8
0
 62
     0
100
AcDbLine
 10
-104.5000000000072
 20
-186.0423004415378
 30
0.0
 11
111.2999999999883
 21
-288.8041510119201
 31
0.0
  0
LINE
  5
2A07
330
2F5D
100
AcDbEntity
  8
0
 62
     0
100
AcDbLine
 10
-111.3000000000065
 20
-182.8042069110533
 30
0.0
 11
-104.5000000000127
 21
-186.0423004415343
 31
0.0
  0
LINE
  5
2A08
330
2F5D
100
AcDbEntity
  8
0
 62
     0
100
AcDbLine
 10
-104.500000000009
 20
-176.0423486974023
 30
0.0
 11
111.2999999999847
 21
-278.8041992677845
 31
0.0
  0
LINE
  5
2A09
330
2F5D
100
AcDbEntity
  8
0
 62
     0
100
AcDbLine
 10
-111.3000000000083
 20
-172.8042551669177
 30
0.0
 11
-104.5000000000127
 21
-176.0423486974005
 31
0.0
  0
LINE
  5
2A0A
330
2F5D
100
AcDbEntity
  8
0
 62
     0
100
AcDbLine
 10
-104.5000000000054
 20
-166.0423969532685
 30
0.0
 11
111.2999999999883
 21
-268.8042475236507
 31
0.0
  0
LINE
  5
2A0B
330
2F5D
100
AcDbEntity
  8
0
 62
     0
100
AcDbLine
 10
-111.3000000000047
 20
-162.8043034227839
 30
0.0
 11
-104.5000000000127
 21
-166.0423969532649
 31
0.0
  0
LINE
  5
2A0C
330
2F5D
100
AcDbEntity
  8
0
 62
     0
100
AcDbLine
 10
-104.5000000000072
 20
-156.0424452091329
 30
0.0
 11
111.2999999999865
 21
-258.8042957795151
 31
0.0
  0
LINE
  5
2A0D
330
2F5D
100
AcDbEntity
  8
0
 62
     0
100
AcDbLine
 10
-111.3000000000065
 20
-152.8043516786483
 30
0.0
 11
-104.5000000000109
 21
-156.0424452091311
 31
0.0
  0
LINE
  5
2A0E
330
2F5D
100
AcDbEntity
  8
0
 62
     0
100
AcDbLine
 10
-100.4031567455549
 20
-147.9933701764184
 30
0.0
 11
111.2999999999865
 21
-248.8043440353813
 31
0.0
  0
LINE
  5
2A0F
330
2F5D
100
AcDbEntity
  8
0
 62
     0
100
AcDbLine
 10
-79.40324700856582
 20
-147.9933701764184
 30
0.0
 11
111.299999999992
 21
-238.8043922912493
 31
0.0
  0
LINE
  5
2A10
330
2F5D
100
AcDbEntity
  8
0
 62
     0
100
AcDbLine
 10
-58.40333727157485
 20
-147.9933701764184
 30
0.0
 11
111.2999999999883
 21
-228.8044405471137
 31
0.0
  0
LINE
  5
2A11
330
2F5D
100
AcDbEntity
  8
0
 62
     0
100
AcDbLine
 10
-37.4034275345839
 20
-147.9933701764184
 30
0.0
 11
111.2999999999902
 21
-218.8044888029799
 31
0.0
  0
LINE
  5
2A12
330
2F5D
100
AcDbEntity
  8
0
 62
     0
100
AcDbLine
 10
-16.40351779759112
 20
-147.9933701764184
 30
0.0
 11
111.2999999999902
 21
-208.8045370588443
 31
0.0
  0
LINE
  5
2A13
330
2F5D
100
AcDbEntity
  8
0
 62
     0
100
AcDbLine
 10
4.596391939398014
 20
-147.9933701764184
 30
0.0
 11
111.2999999999902
 21
-198.8045853147104
 31
0.0
  0
LINE
  5
2A14
330
2F5D
100
AcDbEntity
  8
0
 62
     0
100
AcDbLine
 10
25.59630167638898
 20
-147.9933701764194
 30
0.0
 11
111.2999999999902
 21
-188.8046335705767
 31
0.0
  0
LINE
  5
2A15
330
2F5D
100
AcDbEntity
  8
0
 62
     0
100
AcDbLine
 10
46.59621141338173
 20
-147.9933701764194
 30
0.0
 11
111.299999999992
 21
-178.8046818264429
 31
0.0
  0
LINE
  5
2A16
330
2F5D
100
AcDbEntity
  8
0
 62
     0
100
AcDbLine
 10
67.59612115037089
 20
-147.9933701764194
 30
0.0
 11
111.2999999999883
 21
-168.8047300823073
 31
0.0
  0
LINE
  5
2A17
330
2F5D
100
AcDbEntity
  8
0
 62
     0
100
AcDbLine
 10
88.59603088736369
 20
-147.9933701764194
 30
0.0
 11
111.299999999992
 21
-158.8047783381734
 31
0.0
  0
LINE
  5
2A18
330
2F5D
100
AcDbEntity
  8
0
 62
     0
100
AcDbLine
 10
109.5959406243546
 20
-147.9933701764194
 30
0.0
 11
111.2999999999902
 21
-148.8048265940379
 31
0.0
  0
ENDBLK
  5
2A19
330
2F5D
100
AcDbEntity
  8
0
100
AcDbBlockEnd
  0
BLOCK
  5
2F60
330
2F5F
100
AcDbEntity
  8
0
100
AcDbBlockBegin
  2
*X27
 70
     1
 10
0.0
 20
0.0
 30
0.0
  3
*X27
  1

  0
LINE
  5
2A1C
330
2F5F
100
AcDbEntity
  8
0
 62
     0
100
AcDbLine
 10
106.3545697506306
 20
-415.0080808011996
 30
0.0
 11
111.2999999999992
 21
-412.6531152576799
 31
0.0
  0
LINE
  5
2A1D
330
2F5F
100
AcDbEntity
  8
0
 62
     0
100
AcDbLine
 10
85.35466001363966
 20
-415.0080808012007
 30
0.0
 11
111.3000000000029
 21
-402.6531635135452
 31
0.0
  0
LINE
  5
2A1E
330
2F5F
100
AcDbEntity
  8
0
 62
     0
100
AcDbLine
 10
64.3547502766487
 20
-415.0080808012007
 30
0.0
 11
111.2999999999956
 21
-392.6532117694114
 31
0.0
  0
LINE
  5
2A1F
330
2F5F
100
AcDbEntity
  8
0
 62
     0
100
AcDbLine
 10
43.35484053965774
 20
-415.0080808012007
 30
0.0
 11
111.2999999999992
 21
-382.6532600252758
 31
0.0
  0
LINE
  5
2A20
330
2F5F
100
AcDbEntity
  8
0
 62
     0
100
AcDbLine
 10
22.35493080266316
 20
-415.0080808012017
 30
0.0
 11
111.2999999999956
 21
-372.6533082811429
 31
0.0
  0
LINE
  5
2A21
330
2F5F
100
AcDbEntity
  8
0
 62
     0
100
AcDbLine
 10
1.355021065675827
 20
-415.0080808011996
 30
0.0
 11
111.2999999999992
 21
-362.6533565370072
 31
0.0
  0
LINE
  5
2A22
330
2F5F
100
AcDbEntity
  8
0
 62
     0
100
AcDbLine
 10
-19.64488867131149
 20
-415.0080808012007
 30
0.0
 11
111.2999999999992
 21
-352.6534047928744
 31
0.0
  0
LINE
  5
2A23
330
2F5F
100
AcDbEntity
  8
0
 62
     0
100
AcDbLine
 10
-40.64479840830609
 20
-415.0080808012007
 30
0.0
 11
111.2999999999956
 21
-342.6534530487388
 31
0.0
  0
LINE
  5
2A24
330
2F5F
100
AcDbEntity
  8
0
 62
     0
100
AcDbLine
 10
92.10626524737014
 20
-341.7933701764159
 30
0.0
 11
111.2999999999956
 21
-332.6535013046051
 31
0.0
  0
LINE
  5
2A25
330
2F5F
100
AcDbEntity
  8
0
 62
     0
100
AcDbLine
 10
-61.64470814529703
 20
-415.0080808012007
 30
0.0
 11
92.10626524737014
 21
-341.7933701764159
 31
0.0
  0
LINE
  5
2A26
330
2F5F
100
AcDbEntity
  8
0
 62
     0
100
AcDbLine
 10
71.10635551037922
 20
-341.7933701764168
 30
0.0
 11
111.2999999999992
 21
-322.6535495604703
 31
0.0
  0
LINE
  5
2A27
330
2F5F
100
AcDbEntity
  8
0
 62
     0
100
AcDbLine
 10
-82.64461788228436
 20
-415.0080808012017
 30
0.0
 11
71.10635551037922
 21
-341.7933701764168
 31
0.0
  0
LINE
  5
2A28
330
2F5F
100
AcDbEntity
  8
0
 62
     0
100
AcDbLine
 10
50.10644577338462
 20
-341.7933701764168
 30
0.0
 11
111.2999999999992
 21
-312.6535978163347
 31
0.0
  0
LINE
  5
2A29
330
2F5F
100
AcDbEntity
  8
0
 62
     0
100
AcDbLine
 10
-103.6445276192752
 20
-415.0080808011996
 30
0.0
 11
50.10644577338462
 21
-341.7933701764168
 31
0.0
  0
LINE
  5
2A2A
330
2F5F
100
AcDbEntity
  8
0
 62
     0
100
AcDbLine
 10
29.1065360363973
 20
-341.7933701764168
 30
0.0
 11
111.2999999999992
 21
-302.6536460722009
 31
0.0
  0
LINE
  5
2A2B
330
2F5F
100
AcDbEntity
  8
0
 62
     0
100
AcDbLine
 10
-111.2999999999992
 20
-408.6535901730685
 30
0.0
 11
29.1065360363973
 21
-341.7933701764168
 31
0.0
  0
LINE
  5
2A2C
330
2F5F
100
AcDbEntity
  8
0
 62
     0
100
AcDbLine
 10
8.106626299406341
 20
-341.7933701764177
 30
0.0
 11
111.2999999999992
 21
-292.6536943280662
 31
0.0
  0
LINE
  5
2A2D
330
2F5F
100
AcDbEntity
  8
0
 62
     0
100
AcDbLine
 10
-111.2999999999956
 20
-398.6536384289339
 30
0.0
 11
8.106626299406341
 21
-341.7933701764177
 31
0.0
  0
LINE
  5
2A2E
330
2F5F
100
AcDbEntity
  8
0
 62
     0
100
AcDbLine
 10
-12.89328343758461
 20
-341.7933701764159
 30
0.0
 11
111.2999999999956
 21
-282.6537425839324
 31
0.0
  0
LINE
  5
2A2F
330
2F5F
100
AcDbEntity
  8
0
 62
     0
100
AcDbLine
 10
-111.2999999999992
 20
-388.6536866848
 30
0.0
 11
-12.89328343758461
 21
-341.7933701764159
 31
0.0
  0
LINE
  5
2A30
330
2F5F
100
AcDbEntity
  8
0
 62
     0
100
AcDbLine
 10
-33.89319317457193
 20
-341.7933701764168
 30
0.0
 11
111.2999999999992
 21
-272.6537908397977
 31
0.0
  0
LINE
  5
2A31
330
2F5F
100
AcDbEntity
  8
0
 62
     0
100
AcDbLine
 10
-111.2999999999992
 20
-378.6537349406653
 30
0.0
 11
-33.89319317457193
 21
-341.7933701764168
 31
0.0
  0
LINE
  5
2A32
330
2F5F
100
AcDbEntity
  8
0
 62
     0
100
AcDbLine
 10
-54.89310291156654
 20
-341.7933701764168
 30
0.0
 11
111.2999999999956
 21
-262.6538390956639
 31
0.0
  0
LINE
  5
2A33
330
2F5F
100
AcDbEntity
  8
0
 62
     0
100
AcDbLine
 10
-111.3000000000029
 20
-368.6537831965316
 30
0.0
 11
-54.89310291156654
 21
-341.7933701764168
 31
0.0
  0
LINE
  5
2A34
330
2F5F
100
AcDbEntity
  8
0
 62
     0
100
AcDbLine
 10
-75.89301264855386
 20
-341.793370176415
 30
0.0
 11
111.2999999999992
 21
-252.6538873515283
 31
0.0
  0
LINE
  5
2A35
330
2F5F
100
AcDbEntity
  8
0
 62
     0
100
AcDbLine
 10
-111.2999999999992
 20
-358.6538314523959
 30
0.0
 11
-75.89301264855747
 21
-341.7933701764168
 31
0.0
  0
LINE
  5
2A36
330
2F5F
100
AcDbEntity
  8
0
 62
     0
100
AcDbLine
 10
-96.89292238554479
 20
-341.7933701764159
 30
0.0
 11
111.2999999999992
 21
-242.6539356073936
 31
0.0
  0
LINE
  5
2A37
330
2F5F
100
AcDbEntity
  8
0
 62
     0
100
AcDbLine
 10
-111.2999999999956
 20
-348.6538797082612
 30
0.0
 11
-96.89292238554845
 21
-341.7933701764177
 31
0.0
  0
LINE
  5
2A38
330
2F5F
100
AcDbEntity
  8
0
 62
     0
100
AcDbLine
 10
-104.4999999999963
 20
-335.4158344336429
 30
0.0
 11
111.2999999999992
 21
-232.6539838632598
 31
0.0
  0
LINE
  5
2A39
330
2F5F
100
AcDbEntity
  8
0
 62
     0
100
AcDbLine
 10
-111.2999999999956
 20
-338.6539279641274
 30
0.0
 11
-104.4999999999963
 21
-335.4158344336429
 31
0.0
  0
LINE
  5
2A3A
330
2F5F
100
AcDbEntity
  8
0
 62
     0
100
AcDbLine
 10
-104.5000000000036
 20
-325.4158826895089
 30
0.0
 11
111.2999999999992
 21
-222.6540321191242
 31
0.0
  0
LINE
  5
2A3B
330
2F5F
100
AcDbEntity
  8
0
 62
     0
100
AcDbLine
 10
-111.2999999999992
 20
-328.6539762199918
 30
0.0
 11
-104.5000000000036
 21
-325.4158826895089
 31
0.0
  0
LINE
  5
2A3C
330
2F5F
100
AcDbEntity
  8
0
 62
     0
100
AcDbLine
 10
-104.5
 20
-315.4159309453744
 30
0.0
 11
111.2999999999992
 21
-212.6540803749913
 31
0.0
  0
LINE
  5
2A3D
330
2F5F
100
AcDbEntity
  8
0
 62
     0
100
AcDbLine
 10
-111.2999999999992
 20
-318.6540244758589
 30
0.0
 11
-104.5
 21
-315.4159309453744
 31
0.0
  0
LINE
  5
2A3E
330
2F5F
100
AcDbEntity
  8
0
 62
     0
100
AcDbLine
 10
-104.5
 20
-305.4159792012406
 30
0.0
 11
111.2999999999956
 21
-202.6541286308557
 31
0.0
  0
LINE
  5
2A3F
330
2F5F
100
AcDbEntity
  8
0
 62
     0
100
AcDbLine
 10
-111.2999999999992
 20
-308.6540727317232
 30
0.0
 11
-104.5
 21
-305.4159792012406
 31
0.0
  0
LINE
  5
2A40
330
2F5F
100
AcDbEntity
  8
0
 62
     0
100
AcDbLine
 10
-104.5
 20
-295.4160274571077
 30
0.0
 11
111.2999999999956
 21
-192.6541768867228
 31
0.0
  0
LINE
  5
2A41
330
2F5F
100
AcDbEntity
  8
0
 62
     0
100
AcDbLine
 10
-111.2999999999992
 20
-298.6541209875904
 30
0.0
 11
-104.5
 21
-295.4160274571077
 31
0.0
  0
LINE
  5
2A42
330
2F5F
100
AcDbEntity
  8
0
 62
     0
100
AcDbLine
 10
-104.5
 20
-285.4160757129721
 30
0.0
 11
111.2999999999992
 21
-182.6542251425872
 31
0.0
  0
LINE
  5
2A43
330
2F5F
100
AcDbEntity
  8
0
 62
     0
100
AcDbLine
 10
-111.2999999999956
 20
-288.6541692434548
 30
0.0
 11
-104.5
 21
-285.4160757129721
 31
0.0
  0
LINE
  5
2A44
330
2F5F
100
AcDbEntity
  8
0
 62
     0
100
AcDbLine
 10
-104.5000000000036
 20
-275.4161239688383
 30
0.0
 11
111.2999999999956
 21
-172.6542733984534
 31
0.0
  0
LINE
  5
2A45
330
2F5F
100
AcDbEntity
  8
0
 62
     0
100
AcDbLine
 10
-111.3000000000029
 20
-278.654217499321
 30
0.0
 11
-104.5000000000036
 21
-275.4161239688383
 31
0.0
  0
LINE
  5
2A46
330
2F5F
100
AcDbEntity
  8
0
 62
     0
100
AcDbLine
 10
-104.5
 20
-265.4161722247036
 30
0.0
 11
111.2999999999992
 21
-162.6543216543186
 31
0.0
  0
LINE
  5
2A47
330
2F5F
100
AcDbEntity
  8
0
 62
     0
100
AcDbLine
 10
-111.2999999999992
 20
-268.6542657551863
 30
0.0
 11
-104.5
 21
-265.4161722247036
 31
0.0
  0
LINE
  5
2A48
330
2F5F
100
AcDbEntity
  8
0
 62
     0
100
AcDbLine
 10
-104.5
 20
-255.4162204805707
 30
0.0
 11
111.2999999999992
 21
-152.6543699101839
 31
0.0
  0
LINE
  5
2A49
330
2F5F
100
AcDbEntity
  8
0
 62
     0
100
AcDbLine
 10
-111.2999999999956
 20
-258.6543140110534
 30
0.0
 11
-104.5
 21
-255.4162204805707
 31
0.0
  0
LINE
  5
2A4A
330
2F5F
100
AcDbEntity
  8
0
 62
     0
100
AcDbLine
 10
-104.5
 20
-245.4162687364351
 30
0.0
 11
100.0881948656788
 21
-147.9933701764166
 31
0.0
  0
LINE
  5
2A4B
330
2F5F
100
AcDbEntity
  8
0
 62
     0
100
AcDbLine
 10
-111.2999999999992
 20
-248.6543622669178
 30
0.0
 11
-104.5
 21
-245.4162687364351
 31
0.0
  0
LINE
  5
2A4C
330
2F5F
100
AcDbEntity
  8
0
 62
     0
100
AcDbLine
 10
-104.5
 20
-235.4163169923013
 30
0.0
 11
79.08828512868787
 21
-147.9933701764166
 31
0.0
  0
LINE
  5
2A4D
330
2F5F
100
AcDbEntity
  8
0
 62
     0
100
AcDbLine
 10
-111.2999999999956
 20
-238.654410522784
 30
0.0
 11
-104.5000000000036
 21
-235.4163169923013
 31
0.0
  0
LINE
  5
2A4E
330
2F5F
100
AcDbEntity
  8
0
 62
     0
100
AcDbLine
 10
-104.5
 20
-225.4163652481657
 30
0.0
 11
58.0883753916969
 21
-147.9933701764166
 31
0.0
  0
LINE
  5
2A4F
330
2F5F
100
AcDbEntity
  8
0
 62
     0
100
AcDbLine
 10
-111.2999999999992
 20
-228.6544587786502
 30
0.0
 11
-104.5000000000036
 21
-225.4163652481675
 31
0.0
  0
LINE
  5
2A50
330
2F5F
100
AcDbEntity
  8
0
 62
     0
100
AcDbLine
 10
-104.5
 20
-215.41641350403
 30
0.0
 11
37.0884656547023
 21
-147.9933701764166
 31
0.0
  0
LINE
  5
2A51
330
2F5F
100
AcDbEntity
  8
0
 62
     0
100
AcDbLine
 10
-111.2999999999992
 20
-218.6545070345146
 30
0.0
 11
-104.5000000000072
 21
-215.4164135040319
 31
0.0
  0
LINE
  5
2A52
330
2F5F
100
AcDbEntity
  8
0
 62
     0
100
AcDbLine
 10
-104.5
 20
-205.4164617598963
 30
0.0
 11
16.08855591771498
 21
-147.9933701764166
 31
0.0
  0
LINE
  5
2A53
330
2F5F
100
AcDbEntity
  8
0
 62
     0
100
AcDbLine
 10
-111.2999999999992
 20
-208.6545552903808
 30
0.0
 11
-104.5000000000036
 21
-205.4164617598981
 31
0.0
  0
LINE
  5
2A54
330
2F5F
100
AcDbEntity
  8
0
 62
     0
100
AcDbLine
 10
-104.5
 20
-195.4165100157606
 30
0.0
 11
-4.911353819279611
 21
-147.9933701764166
 31
0.0
  0
LINE
  5
2A55
330
2F5F
100
AcDbEntity
  8
0
 62
     0
100
AcDbLine
 10
-111.2999999999992
 20
-198.6546035462452
 30
0.0
 11
-104.5000000000036
 21
-195.4165100157625
 31
0.0
  0
LINE
  5
2A56
330
2F5F
100
AcDbEntity
  8
0
 62
     0
100
AcDbLine
 10
-104.5000000000036
 20
-185.4165582716287
 30
0.0
 11
-25.91126355627057
 21
-147.9933701764184
 31
0.0
  0
LINE
  5
2A57
330
2F5F
100
AcDbEntity
  8
0
 62
     0
100
AcDbLine
 10
-111.2999999999992
 20
-188.6546518021132
 30
0.0
 11
-104.5000000000036
 21
-185.4165582716304
 31
0.0
  0
LINE
  5
2A58
330
2F5F
100
AcDbEntity
  8
0
 62
     0
100
AcDbLine
 10
-104.5
 20
-175.416606527493
 30
0.0
 11
-46.91117329325789
 21
-147.9933701764184
 31
0.0
  0
LINE
  5
2A59
330
2F5F
100
AcDbEntity
  8
0
 62
     0
100
AcDbLine
 10
-111.2999999999992
 20
-178.6547000579776
 30
0.0
 11
-104.5000000000036
 21
-175.4166065274949
 31
0.0
  0
LINE
  5
2A5A
330
2F5F
100
AcDbEntity
  8
0
 62
     0
100
AcDbLine
 10
-104.5
 20
-165.4166547833592
 30
0.0
 11
-67.91108303024884
 21
-147.9933701764184
 31
0.0
  0
LINE
  5
2A5B
330
2F5F
100
AcDbEntity
  8
0
 62
     0
100
AcDbLine
 10
-111.2999999999956
 20
-168.654748313842
 30
0.0
 11
-104.5000000000036
 21
-165.4166547833611
 31
0.0
  0
LINE
  5
2A5C
330
2F5F
100
AcDbEntity
  8
0
 62
     0
100
AcDbLine
 10
-104.5
 20
-155.4167030392255
 30
0.0
 11
-88.91099276723982
 21
-147.9933701764184
 31
0.0
  0
LINE
  5
2A5D
330
2F5F
100
AcDbEntity
  8
0
 62
     0
100
AcDbLine
 10
-111.2999999999992
 20
-158.65479656971
 30
0.0
 11
-104.5000000000036
 21
-155.4167030392273
 31
0.0
  0
LINE
  5
2A5E
330
2F5F
100
AcDbEntity
  8
0
 62
     0
100
AcDbLine
 10
-111.2999999999956
 20
-148.6548448255744
 30
0.0
 11
-109.9109025042307
 21
-147.9933701764184
 31
0.0
  0
ENDBLK
  5
2A5F
330
2F5F
100
AcDbEntity
  8
0
100
AcDbBlockEnd
  0
BLOCK
  5
2F62
330
2F61
100
AcDbEntity
  8
0
100
AcDbBlockBegin
  2
*U28
 70
     1
 10
0.0
 20
0.0
 30
0.0
  3
*U28
  1

  0
INSERT
  5
2A62
330
2F61
100
AcDbEntity
  8
NOTE
100
AcDbBlockReference
  2
_OPEN30
 10
-140.0
 20
0.0000000000004547
 30
0.0
 41
12.0
 42
12.0
 43
12.0
 50
312.6090116116894
  0
POLYLINE
  5
2A63
330
2F61
100
AcDbEntity
  8
NOTE
100
AcDb2dPolyline
 66
     1
 10
0.0
 20
0.0
 30
0.0
  0
VERTEX
  5
2A64
330
2A63
100
AcDbEntity
  8
NOTE
100
AcDbVertex
100
AcDb2dVertex
 10
-148.1239008361894
 20
8.831887408915928
 30
0.0
  0
VERTEX
  5
2A65
330
2A63
100
AcDbEntity
  8
NOTE
100
AcDbVertex
100
AcDb2dVertex
 10
-227.8693999922543
 20
95.52709505801384
 30
0.0
  0
VERTEX
  5
2A66
330
2A63
100
AcDbEntity
  8
NOTE
100
AcDbVertex
100
AcDb2dVertex
 10
-776.4522571351115
 20
95.52709505801384
 30
0.0
  0
SEQEND
  5
2A67
330
2A63
100
AcDbEntity
  8
NOTE
  0
ENDBLK
  5
2A68
330
2F61
100
AcDbEntity
  8
0
100
AcDbBlockEnd
  0
BLOCK
  5
2F64
330
2F63
100
AcDbEntity
  8
0
100
AcDbBlockBegin
  2
*X29
 70
     1
 10
0.0
 20
0.0
 30
0.0
  3
*X29
  1

  0
LINE
  5
2A6B
330
2F63
100
AcDbEntity
  8
0
 62
     0
100
AcDbLine
 10
-111.3000000000047
 20
-412.8030970261443
 30
0.0
 11
-106.6695316305049
 21
-415.0080808012017
 31
0.0
  0
LINE
  5
2A6C
330
2F63
100
AcDbEntity
  8
0
 62
     0
100
AcDbLine
 10
-111.3000000000065
 20
-402.8031452820105
 30
0.0
 11
-85.66962189351579
 21
-415.0080808012035
 31
0.0
  0
LINE
  5
2A6D
330
2F63
100
AcDbEntity
  8
0
 62
     0
100
AcDbLine
 10
-111.3000000000047
 20
-392.8031935378767
 30
0.0
 11
-64.66971215652304
 21
-415.0080808012035
 31
0.0
  0
LINE
  5
2A6E
330
2F63
100
AcDbEntity
  8
0
 62
     0
100
AcDbLine
 10
-111.3000000000065
 20
-382.8032417937412
 30
0.0
 11
-43.66980241953569
 21
-415.0080808012017
 31
0.0
  0
LINE
  5
2A6F
330
2F63
100
AcDbEntity
  8
0
 62
     0
100
AcDbLine
 10
-111.3000000000047
 20
-372.8032900496073
 30
0.0
 11
-22.66989268254475
 21
-415.0080808012017
 31
0.0
  0
LINE
  5
2A70
330
2F63
100
AcDbEntity
  8
0
 62
     0
100
AcDbLine
 10
-111.3000000000065
 20
-362.8033383054717
 30
0.0
 11
-1.669982945553782
 21
-415.0080808012017
 31
0.0
  0
LINE
  5
2A71
330
2F63
100
AcDbEntity
  8
0
 62
     0
100
AcDbLine
 10
-111.3000000000065
 20
-352.8033865613379
 30
0.0
 11
19.32992679143898
 21
-415.0080808012035
 31
0.0
  0
LINE
  5
2A72
330
2F63
100
AcDbEntity
  8
0
 62
     0
100
AcDbLine
 10
-111.3000000000065
 20
-342.8034348172041
 30
0.0
 11
40.32983652842449
 21
-415.0080808012017
 31
0.0
  0
LINE
  5
2A73
330
2F63
100
AcDbEntity
  8
0
 62
     0
100
AcDbLine
 10
-104.5000000000072
 20
-336.0415766035529
 30
0.0
 11
-92.42122712724812
 21
-341.7933701764177
 31
0.0
  0
LINE
  5
2A74
330
2F63
100
AcDbEntity
  8
0
 62
     0
100
AcDbLine
 10
-92.42122712724812
 20
-341.7933701764177
 30
0.0
 11
61.32974626541908
 21
-415.0080808012017
 31
0.0
  0
LINE
  5
2A75
330
2F63
100
AcDbEntity
  8
0
 62
     0
100
AcDbLine
 10
-111.3000000000065
 20
-332.8034830730694
 30
0.0
 11
-104.5000000000072
 21
-336.0415766035529
 31
0.0
  0
LINE
  5
2A76
330
2F63
100
AcDbEntity
  8
0
 62
     0
100
AcDbLine
 10
-104.5000000000054
 20
-326.0416248594192
 30
0.0
 11
-71.42131739025717
 21
-341.7933701764177
 31
0.0
  0
LINE
  5
2A77
330
2F63
100
AcDbEntity
  8
0
 62
     0
100
AcDbLine
 10
-71.42131739025717
 20
-341.7933701764177
 30
0.0
 11
82.3296560024082
 21
-415.0080808012017
 31
0.0
  0
LINE
  5
2A78
330
2F63
100
AcDbEntity
  8
0
 62
     0
100
AcDbLine
 10
-111.3000000000047
 20
-322.8035313289347
 30
0.0
 11
-104.5000000000054
 21
-326.0416248594192
 31
0.0
  0
LINE
  5
2A79
330
2F63
100
AcDbEntity
  8
0
 62
     0
100
AcDbLine
 10
-104.500000000009
 20
-316.0416731152836
 30
0.0
 11
-50.42140765326802
 21
-341.7933701764177
 31
0.0
  0
LINE
  5
2A7A
330
2F63
100
AcDbEntity
  8
0
 62
     0
100
AcDbLine
 10
-50.42140765326802
 20
-341.7933701764177
 30
0.0
 11
103.3295657393992
 21
-415.0080808012007
 31
0.0
  0
LINE
  5
2A7B
330
2F63
100
AcDbEntity
  8
0
 62
     0
100
AcDbLine
 10
-111.3000000000083
 20
-312.8035795848
 30
0.0
 11
-104.500000000009
 21
-316.0416731152836
 31
0.0
  0
LINE
  5
2A7C
330
2F63
100
AcDbEntity
  8
0
 62
     0
100
AcDbLine
 10
-104.5000000000072
 20
-306.041721371148
 30
0.0
 11
-29.42149791627344
 21
-341.7933701764168
 31
0.0
  0
LINE
  5
2A7D
330
2F63
100
AcDbEntity
  8
0
 62
     0
100
AcDbLine
 10
-29.42149791627344
 20
-341.7933701764168
 30
0.0
 11
111.2999999999902
 21
-408.8035719415318
 31
0.0
  0
LINE
  5
2A7E
330
2F63
100
AcDbEntity
  8
0
 62
     0
100
AcDbLine
 10
-111.3000000000029
 20
-302.8036278406653
 30
0.0
 11
-104.5000000000072
 21
-306.041721371148
 31
0.0
  0
LINE
  5
2A7F
330
2F63
100
AcDbEntity
  8
0
 62
     0
100
AcDbLine
 10
-104.5000000000072
 20
-296.041769627016
 30
0.0
 11
-8.421588179284299
 21
-341.7933701764186
 31
0.0
  0
LINE
  5
2A80
330
2F63
100
AcDbEntity
  8
0
 62
     0
100
AcDbLine
 10
-8.421588179284299
 20
-341.7933701764186
 30
0.0
 11
111.2999999999902
 21
-398.8036201974001
 31
0.0
  0
LINE
  5
2A81
330
2F63
100
AcDbEntity
  8
0
 62
     0
100
AcDbLine
 10
-111.3000000000065
 20
-292.8036760965322
 30
0.0
 11
-104.5000000000072
 21
-296.041769627016
 31
0.0
  0
LINE
  5
2A82
330
2F63
100
AcDbEntity
  8
0
 62
     0
100
AcDbLine
 10
-104.500000000009
 20
-286.0418178828804
 30
0.0
 11
12.57832155770848
 21
-341.7933701764186
 31
0.0
  0
LINE
  5
2A83
330
2F63
100
AcDbEntity
  8
0
 62
     0
100
AcDbLine
 10
12.57832155770848
 20
-341.7933701764186
 30
0.0
 11
111.299999999992
 21
-388.8036684532663
 31
0.0
  0
LINE
  5
2A84
330
2F63
100
AcDbEntity
  8
0
 62
     0
100
AcDbLine
 10
-111.3000000000047
 20
-282.8037243523986
 30
0.0
 11
-104.500000000009
 21
-286.0418178828804
 31
0.0
  0
LINE
  5
2A85
330
2F63
100
AcDbEntity
  8
0
 62
     0
100
AcDbLine
 10
-104.5000000000054
 20
-276.0418661387466
 30
0.0
 11
33.57823129469944
 21
-341.7933701764186
 31
0.0
  0
LINE
  5
2A86
330
2F63
100
AcDbEntity
  8
0
 62
     0
100
AcDbLine
 10
33.57823129469944
 20
-341.7933701764186
 30
0.0
 11
111.299999999992
 21
-378.8037167091307
 31
0.0
  0
LINE
  5
2A87
330
2F63
100
AcDbEntity
  8
0
 62
     0
100
AcDbLine
 10
-111.3000000000047
 20
-272.803772608263
 30
0.0
 11
-104.5000000000054
 21
-276.0418661387466
 31
0.0
  0
LINE
  5
2A88
330
2F63
100
AcDbEntity
  8
0
 62
     0
100
AcDbLine
 10
-104.500000000009
 20
-266.0419143946119
 30
0.0
 11
54.57814103168676
 21
-341.7933701764168
 31
0.0
  0
LINE
  5
2A89
330
2F63
100
AcDbEntity
  8
0
 62
     0
100
AcDbLine
 10
54.57814103168676
 20
-341.7933701764168
 30
0.0
 11
111.299999999992
 21
-368.8037649649968
 31
0.0
  0
LINE
  5
2A8A
330
2F63
100
AcDbEntity
  8
0
 62
     0
100
AcDbLine
 10
-111.3000000000083
 20
-262.8038208641274
 30
0.0
 11
-104.500000000009
 21
-266.0419143946119
 31
0.0
  0
LINE
  5
2A8B
330
2F63
100
AcDbEntity
  8
0
 62
     0
100
AcDbLine
 10
-104.5000000000072
 20
-256.0419626504772
 30
0.0
 11
75.57805076867406
 21
-341.793370176415
 31
0.0
  0
LINE
  5
2A8C
330
2F63
100
AcDbEntity
  8
0
 62
     0
100
AcDbLine
 10
75.5780507686777
 20
-341.7933701764168
 30
0.0
 11
111.2999999999938
 21
-358.8038132208631
 31
0.0
  0
LINE
  5
2A8D
330
2F63
100
AcDbEntity
  8
0
 62
     0
100
AcDbLine
 10
-111.3000000000047
 20
-252.8038691199936
 30
0.0
 11
-104.500000000009
 21
-256.0419626504763
 31
0.0
  0
LINE
  5
2A8E
330
2F63
100
AcDbEntity
  8
0
 62
     0
100
AcDbLine
 10
-104.5000000000072
 20
-246.0420109063443
 30
0.0
 11
96.57796050566687
 21
-341.7933701764168
 31
0.0
  0
LINE
  5
2A8F
330
2F63
100
AcDbEntity
  8
0
 62
     0
100
AcDbLine
 10
96.57796050566869
 20
-341.7933701764186
 30
0.0
 11
111.2999999999938
 21
-348.8038614767293
 31
0.0
  0
LINE
  5
2A90
330
2F63
100
AcDbEntity
  8
0
 62
     0
100
AcDbLine
 10
-111.3000000000065
 20
-242.8039173758598
 30
0.0
 11
-104.5000000000072
 21
-246.0420109063443
 31
0.0
  0
LINE
  5
2A91
330
2F63
100
AcDbEntity
  8
0
 62
     0
100
AcDbLine
 10
-104.5000000000072
 20
-236.0420591622096
 30
0.0
 11
111.2999999999883
 21
-338.8039097325927
 31
0.0
  0
LINE
  5
2A92
330
2F63
100
AcDbEntity
  8
0
 62
     0
100
AcDbLine
 10
-111.3000000000065
 20
-232.803965631726
 30
0.0
 11
-104.5000000000127
 21
-236.0420591622069
 31
0.0
  0
LINE
  5
2A93
330
2F63
100
AcDbEntity
  8
0
 62
     0
100
AcDbLine
 10
-104.5000000000072
 20
-226.0421074180749
 30
0.0
 11
111.2999999999865
 21
-328.8039579884571
 31
0.0
  0
LINE
  5
2A94
330
2F63
100
AcDbEntity
  8
0
 62
     0
100
AcDbLine
 10
-111.3000000000065
 20
-222.8040138875904
 30
0.0
 11
-104.5000000000109
 21
-226.0421074180731
 31
0.0
  0
LINE
  5
2A95
330
2F63
100
AcDbEntity
  8
0
 62
     0
100
AcDbLine
 10
-104.500000000009
 20
-216.0421556739393
 30
0.0
 11
111.2999999999865
 21
-318.8040062443215
 31
0.0
  0
LINE
  5
2A96
330
2F63
100
AcDbEntity
  8
0
 62
     0
100
AcDbLine
 10
-111.3000000000047
 20
-212.8040621434566
 30
0.0
 11
-104.5000000000127
 21
-216.0421556739374
 31
0.0
  0
LINE
  5
2A97
330
2F63
100
AcDbEntity
  8
0
 62
     0
100
AcDbLine
 10
-104.500000000009
 20
-206.0422039298055
 30
0.0
 11
111.2999999999865
 21
-308.8040545001877
 31
0.0
  0
LINE
  5
2A98
330
2F63
100
AcDbEntity
  8
0
 62
     0
100
AcDbLine
 10
-111.3000000000065
 20
-202.804110399321
 30
0.0
 11
-104.5000000000109
 21
-206.0422039298037
 31
0.0
  0
LINE
  5
2A99
330
2F63
100
AcDbEntity
  8
0
 62
     0
100
AcDbLine
 10
-104.500000000009
 20
-196.0422521856717
 30
0.0
 11
111.2999999999847
 21
-298.8041027560539
 31
0.0
  0
LINE
  5
2A9A
330
2F63
100
AcDbEntity
  8
0
 62
     0
100
AcDbLine
 10
-111.3000000000047
 20
-192.804158655189
 30
0.0
 11
-104.5000000000127
 21
-196.0422521856698
 31
0.0
  0
LINE
  5
2A9B
330
2F63
100
AcDbEntity
  8
0
 62
     0
100
AcDbLine
 10
-104.5000000000072
 20
-186.0423004415378
 30
0.0
 11
111.2999999999883
 21
-288.8041510119201
 31
0.0
  0
LINE
  5
2A9C
330
2F63
100
AcDbEntity
  8
0
 62
     0
100
AcDbLine
 10
-111.3000000000065
 20
-182.8042069110533
 30
0.0
 11
-104.5000000000127
 21
-186.0423004415343
 31
0.0
  0
LINE
  5
2A9D
330
2F63
100
AcDbEntity
  8
0
 62
     0
100
AcDbLine
 10
-104.500000000009
 20
-176.0423486974023
 30
0.0
 11
111.2999999999847
 21
-278.8041992677845
 31
0.0
  0
LINE
  5
2A9E
330
2F63
100
AcDbEntity
  8
0
 62
     0
100
AcDbLine
 10
-111.3000000000083
 20
-172.8042551669177
 30
0.0
 11
-104.5000000000127
 21
-176.0423486974005
 31
0.0
  0
LINE
  5
2A9F
330
2F63
100
AcDbEntity
  8
0
 62
     0
100
AcDbLine
 10
-104.5000000000054
 20
-166.0423969532685
 30
0.0
 11
111.2999999999883
 21
-268.8042475236507
 31
0.0
  0
LINE
  5
2AA0
330
2F63
100
AcDbEntity
  8
0
 62
     0
100
AcDbLine
 10
-111.3000000000047
 20
-162.8043034227839
 30
0.0
 11
-104.5000000000127
 21
-166.0423969532649
 31
0.0
  0
LINE
  5
2AA1
330
2F63
100
AcDbEntity
  8
0
 62
     0
100
AcDbLine
 10
-104.5000000000072
 20
-156.0424452091329
 30
0.0
 11
111.2999999999865
 21
-258.8042957795151
 31
0.0
  0
LINE
  5
2AA2
330
2F63
100
AcDbEntity
  8
0
 62
     0
100
AcDbLine
 10
-111.3000000000065
 20
-152.8043516786483
 30
0.0
 11
-104.5000000000109
 21
-156.0424452091311
 31
0.0
  0
LINE
  5
2AA3
330
2F63
100
AcDbEntity
  8
0
 62
     0
100
AcDbLine
 10
-100.4031567455549
 20
-147.9933701764184
 30
0.0
 11
111.2999999999865
 21
-248.8043440353813
 31
0.0
  0
LINE
  5
2AA4
330
2F63
100
AcDbEntity
  8
0
 62
     0
100
AcDbLine
 10
-79.40324700856582
 20
-147.9933701764184
 30
0.0
 11
111.299999999992
 21
-238.8043922912493
 31
0.0
  0
LINE
  5
2AA5
330
2F63
100
AcDbEntity
  8
0
 62
     0
100
AcDbLine
 10
-58.40333727157485
 20
-147.9933701764184
 30
0.0
 11
111.2999999999883
 21
-228.8044405471137
 31
0.0
  0
LINE
  5
2AA6
330
2F63
100
AcDbEntity
  8
0
 62
     0
100
AcDbLine
 10
-37.4034275345839
 20
-147.9933701764184
 30
0.0
 11
111.2999999999902
 21
-218.8044888029799
 31
0.0
  0
LINE
  5
2AA7
330
2F63
100
AcDbEntity
  8
0
 62
     0
100
AcDbLine
 10
-16.40351779759112
 20
-147.9933701764184
 30
0.0
 11
111.2999999999902
 21
-208.8045370588443
 31
0.0
  0
LINE
  5
2AA8
330
2F63
100
AcDbEntity
  8
0
 62
     0
100
AcDbLine
 10
4.596391939398014
 20
-147.9933701764184
 30
0.0
 11
111.2999999999902
 21
-198.8045853147104
 31
0.0
  0
LINE
  5
2AA9
330
2F63
100
AcDbEntity
  8
0
 62
     0
100
AcDbLine
 10
25.59630167638898
 20
-147.9933701764194
 30
0.0
 11
111.2999999999902
 21
-188.8046335705767
 31
0.0
  0
LINE
  5
2AAA
330
2F63
100
AcDbEntity
  8
0
 62
     0
100
AcDbLine
 10
46.59621141338173
 20
-147.9933701764194
 30
0.0
 11
111.299999999992
 21
-178.8046818264429
 31
0.0
  0
LINE
  5
2AAB
330
2F63
100
AcDbEntity
  8
0
 62
     0
100
AcDbLine
 10
67.59612115037089
 20
-147.9933701764194
 30
0.0
 11
111.2999999999883
 21
-168.8047300823073
 31
0.0
  0
LINE
  5
2AAC
330
2F63
100
AcDbEntity
  8
0
 62
     0
100
AcDbLine
 10
88.59603088736369
 20
-147.9933701764194
 30
0.0
 11
111.299999999992
 21
-158.8047783381734
 31
0.0
  0
LINE
  5
2AAD
330
2F63
100
AcDbEntity
  8
0
 62
     0
100
AcDbLine
 10
109.5959406243546
 20
-147.9933701764194
 30
0.0
 11
111.2999999999902
 21
-148.8048265940379
 31
0.0
  0
ENDBLK
  5
2AAE
330
2F63
100
AcDbEntity
  8
0
100
AcDbBlockEnd
  0
BLOCK
  5
2F66
330
2F65
100
AcDbEntity
  8
0
100
AcDbBlockBegin
  2
*X30
 70
     1
 10
0.0
 20
0.0
 30
0.0
  3
*X30
  1

  0
LINE
  5
2AB1
330
2F65
100
AcDbEntity
  8
0
 62
     0
100
AcDbLine
 10
106.3545697506306
 20
-415.0080808011996
 30
0.0
 11
111.2999999999992
 21
-412.6531152576799
 31
0.0
  0
LINE
  5
2AB2
330
2F65
100
AcDbEntity
  8
0
 62
     0
100
AcDbLine
 10
85.35466001363966
 20
-415.0080808012007
 30
0.0
 11
111.3000000000029
 21
-402.6531635135452
 31
0.0
  0
LINE
  5
2AB3
330
2F65
100
AcDbEntity
  8
0
 62
     0
100
AcDbLine
 10
64.3547502766487
 20
-415.0080808012007
 30
0.0
 11
111.2999999999956
 21
-392.6532117694114
 31
0.0
  0
LINE
  5
2AB4
330
2F65
100
AcDbEntity
  8
0
 62
     0
100
AcDbLine
 10
43.35484053965774
 20
-415.0080808012007
 30
0.0
 11
111.2999999999992
 21
-382.6532600252758
 31
0.0
  0
LINE
  5
2AB5
330
2F65
100
AcDbEntity
  8
0
 62
     0
100
AcDbLine
 10
22.35493080266316
 20
-415.0080808012017
 30
0.0
 11
111.2999999999956
 21
-372.6533082811429
 31
0.0
  0
LINE
  5
2AB6
330
2F65
100
AcDbEntity
  8
0
 62
     0
100
AcDbLine
 10
1.355021065675827
 20
-415.0080808011996
 30
0.0
 11
111.2999999999992
 21
-362.6533565370072
 31
0.0
  0
LINE
  5
2AB7
330
2F65
100
AcDbEntity
  8
0
 62
     0
100
AcDbLine
 10
-19.64488867131149
 20
-415.0080808012007
 30
0.0
 11
111.2999999999992
 21
-352.6534047928744
 31
0.0
  0
LINE
  5
2AB8
330
2F65
100
AcDbEntity
  8
0
 62
     0
100
AcDbLine
 10
-40.64479840830609
 20
-415.0080808012007
 30
0.0
 11
111.2999999999956
 21
-342.6534530487388
 31
0.0
  0
LINE
  5
2AB9
330
2F65
100
AcDbEntity
  8
0
 62
     0
100
AcDbLine
 10
92.10626524737014
 20
-341.7933701764159
 30
0.0
 11
111.2999999999956
 21
-332.6535013046051
 31
0.0
  0
LINE
  5
2ABA
330
2F65
100
AcDbEntity
  8
0
 62
     0
100
AcDbLine
 10
-61.64470814529703
 20
-415.0080808012007
 30
0.0
 11
92.10626524737014
 21
-341.7933701764159
 31
0.0
  0
LINE
  5
2ABB
330
2F65
100
AcDbEntity
  8
0
 62
     0
100
AcDbLine
 10
71.10635551037922
 20
-341.7933701764168
 30
0.0
 11
111.2999999999992
 21
-322.6535495604703
 31
0.0
  0
LINE
  5
2ABC
330
2F65
100
AcDbEntity
  8
0
 62
     0
100
AcDbLine
 10
-82.64461788228436
 20
-415.0080808012017
 30
0.0
 11
71.10635551037922
 21
-341.7933701764168
 31
0.0
  0
LINE
  5
2ABD
330
2F65
100
AcDbEntity
  8
0
 62
     0
100
AcDbLine
 10
50.10644577338462
 20
-341.7933701764168
 30
0.0
 11
111.2999999999992
 21
-312.6535978163347
 31
0.0
  0
LINE
  5
2ABE
330
2F65
100
AcDbEntity
  8
0
 62
     0
100
AcDbLine
 10
-103.6445276192752
 20
-415.0080808011996
 30
0.0
 11
50.10644577338462
 21
-341.7933701764168
 31
0.0
  0
LINE
  5
2ABF
330
2F65
100
AcDbEntity
  8
0
 62
     0
100
AcDbLine
 10
29.1065360363973
 20
-341.7933701764168
 30
0.0
 11
111.2999999999992
 21
-302.6536460722009
 31
0.0
  0
LINE
  5
2AC0
330
2F65
100
AcDbEntity
  8
0
 62
     0
100
AcDbLine
 10
-111.2999999999992
 20
-408.6535901730685
 30
0.0
 11
29.1065360363973
 21
-341.7933701764168
 31
0.0
  0
LINE
  5
2AC1
330
2F65
100
AcDbEntity
  8
0
 62
     0
100
AcDbLine
 10
8.106626299406341
 20
-341.7933701764177
 30
0.0
 11
111.2999999999992
 21
-292.6536943280662
 31
0.0
  0
LINE
  5
2AC2
330
2F65
100
AcDbEntity
  8
0
 62
     0
100
AcDbLine
 10
-111.2999999999956
 20
-398.6536384289339
 30
0.0
 11
8.106626299406341
 21
-341.7933701764177
 31
0.0
  0
LINE
  5
2AC3
330
2F65
100
AcDbEntity
  8
0
 62
     0
100
AcDbLine
 10
-12.89328343758461
 20
-341.7933701764159
 30
0.0
 11
111.2999999999956
 21
-282.6537425839324
 31
0.0
  0
LINE
  5
2AC4
330
2F65
100
AcDbEntity
  8
0
 62
     0
100
AcDbLine
 10
-111.2999999999992
 20
-388.6536866848
 30
0.0
 11
-12.89328343758461
 21
-341.7933701764159
 31
0.0
  0
LINE
  5
2AC5
330
2F65
100
AcDbEntity
  8
0
 62
     0
100
AcDbLine
 10
-33.89319317457193
 20
-341.7933701764168
 30
0.0
 11
111.2999999999992
 21
-272.6537908397977
 31
0.0
  0
LINE
  5
2AC6
330
2F65
100
AcDbEntity
  8
0
 62
     0
100
AcDbLine
 10
-111.2999999999992
 20
-378.6537349406653
 30
0.0
 11
-33.89319317457193
 21
-341.7933701764168
 31
0.0
  0
LINE
  5
2AC7
330
2F65
100
AcDbEntity
  8
0
 62
     0
100
AcDbLine
 10
-54.89310291156654
 20
-341.7933701764168
 30
0.0
 11
111.2999999999956
 21
-262.6538390956639
 31
0.0
  0
LINE
  5
2AC8
330
2F65
100
AcDbEntity
  8
0
 62
     0
100
AcDbLine
 10
-111.3000000000029
 20
-368.6537831965316
 30
0.0
 11
-54.89310291156654
 21
-341.7933701764168
 31
0.0
  0
LINE
  5
2AC9
330
2F65
100
AcDbEntity
  8
0
 62
     0
100
AcDbLine
 10
-75.89301264855386
 20
-341.793370176415
 30
0.0
 11
111.2999999999992
 21
-252.6538873515283
 31
0.0
  0
LINE
  5
2ACA
330
2F65
100
AcDbEntity
  8
0
 62
     0
100
AcDbLine
 10
-111.2999999999992
 20
-358.6538314523959
 30
0.0
 11
-75.89301264855747
 21
-341.7933701764168
 31
0.0
  0
LINE
  5
2ACB
330
2F65
100
AcDbEntity
  8
0
 62
     0
100
AcDbLine
 10
-96.89292238554479
 20
-341.7933701764159
 30
0.0
 11
111.2999999999992
 21
-242.6539356073936
 31
0.0
  0
LINE
  5
2ACC
330
2F65
100
AcDbEntity
  8
0
 62
     0
100
AcDbLine
 10
-111.2999999999956
 20
-348.6538797082612
 30
0.0
 11
-96.89292238554845
 21
-341.7933701764177
 31
0.0
  0
LINE
  5
2ACD
330
2F65
100
AcDbEntity
  8
0
 62
     0
100
AcDbLine
 10
-104.4999999999963
 20
-335.4158344336429
 30
0.0
 11
111.2999999999992
 21
-232.6539838632598
 31
0.0
  0
LINE
  5
2ACE
330
2F65
100
AcDbEntity
  8
0
 62
     0
100
AcDbLine
 10
-111.2999999999956
 20
-338.6539279641274
 30
0.0
 11
-104.4999999999963
 21
-335.4158344336429
 31
0.0
  0
LINE
  5
2ACF
330
2F65
100
AcDbEntity
  8
0
 62
     0
100
AcDbLine
 10
-104.5000000000036
 20
-325.4158826895089
 30
0.0
 11
111.2999999999992
 21
-222.6540321191242
 31
0.0
  0
LINE
  5
2AD0
330
2F65
100
AcDbEntity
  8
0
 62
     0
100
AcDbLine
 10
-111.2999999999992
 20
-328.6539762199918
 30
0.0
 11
-104.5000000000036
 21
-325.4158826895089
 31
0.0
  0
LINE
  5
2AD1
330
2F65
100
AcDbEntity
  8
0
 62
     0
100
AcDbLine
 10
-104.5
 20
-315.4159309453744
 30
0.0
 11
111.2999999999992
 21
-212.6540803749913
 31
0.0
  0
LINE
  5
2AD2
330
2F65
100
AcDbEntity
  8
0
 62
     0
100
AcDbLine
 10
-111.2999999999992
 20
-318.6540244758589
 30
0.0
 11
-104.5
 21
-315.4159309453744
 31
0.0
  0
LINE
  5
2AD3
330
2F65
100
AcDbEntity
  8
0
 62
     0
100
AcDbLine
 10
-104.5
 20
-305.4159792012406
 30
0.0
 11
111.2999999999956
 21
-202.6541286308557
 31
0.0
  0
LINE
  5
2AD4
330
2F65
100
AcDbEntity
  8
0
 62
     0
100
AcDbLine
 10
-111.2999999999992
 20
-308.6540727317232
 30
0.0
 11
-104.5
 21
-305.4159792012406
 31
0.0
  0
LINE
  5
2AD5
330
2F65
100
AcDbEntity
  8
0
 62
     0
100
AcDbLine
 10
-104.5
 20
-295.4160274571077
 30
0.0
 11
111.2999999999956
 21
-192.6541768867228
 31
0.0
  0
LINE
  5
2AD6
330
2F65
100
AcDbEntity
  8
0
 62
     0
100
AcDbLine
 10
-111.2999999999992
 20
-298.6541209875904
 30
0.0
 11
-104.5
 21
-295.4160274571077
 31
0.0
  0
LINE
  5
2AD7
330
2F65
100
AcDbEntity
  8
0
 62
     0
100
AcDbLine
 10
-104.5
 20
-285.4160757129721
 30
0.0
 11
111.2999999999992
 21
-182.6542251425872
 31
0.0
  0
LINE
  5
2AD8
330
2F65
100
AcDbEntity
  8
0
 62
     0
100
AcDbLine
 10
-111.2999999999956
 20
-288.6541692434548
 30
0.0
 11
-104.5
 21
-285.4160757129721
 31
0.0
  0
LINE
  5
2AD9
330
2F65
100
AcDbEntity
  8
0
 62
     0
100
AcDbLine
 10
-104.5000000000036
 20
-275.4161239688383
 30
0.0
 11
111.2999999999956
 21
-172.6542733984534
 31
0.0
  0
LINE
  5
2ADA
330
2F65
100
AcDbEntity
  8
0
 62
     0
100
AcDbLine
 10
-111.3000000000029
 20
-278.654217499321
 30
0.0
 11
-104.5000000000036
 21
-275.4161239688383
 31
0.0
  0
LINE
  5
2ADB
330
2F65
100
AcDbEntity
  8
0
 62
     0
100
AcDbLine
 10
-104.5
 20
-265.4161722247036
 30
0.0
 11
111.2999999999992
 21
-162.6543216543186
 31
0.0
  0
LINE
  5
2ADC
330
2F65
100
AcDbEntity
  8
0
 62
     0
100
AcDbLine
 10
-111.2999999999992
 20
-268.6542657551863
 30
0.0
 11
-104.5
 21
-265.4161722247036
 31
0.0
  0
LINE
  5
2ADD
330
2F65
100
AcDbEntity
  8
0
 62
     0
100
AcDbLine
 10
-104.5
 20
-255.4162204805707
 30
0.0
 11
111.2999999999992
 21
-152.6543699101839
 31
0.0
  0
LINE
  5
2ADE
330
2F65
100
AcDbEntity
  8
0
 62
     0
100
AcDbLine
 10
-111.2999999999956
 20
-258.6543140110534
 30
0.0
 11
-104.5
 21
-255.4162204805707
 31
0.0
  0
LINE
  5
2ADF
330
2F65
100
AcDbEntity
  8
0
 62
     0
100
AcDbLine
 10
-104.5
 20
-245.4162687364351
 30
0.0
 11
100.0881948656788
 21
-147.9933701764166
 31
0.0
  0
LINE
  5
2AE0
330
2F65
100
AcDbEntity
  8
0
 62
     0
100
AcDbLine
 10
-111.2999999999992
 20
-248.6543622669178
 30
0.0
 11
-104.5
 21
-245.4162687364351
 31
0.0
  0
LINE
  5
2AE1
330
2F65
100
AcDbEntity
  8
0
 62
     0
100
AcDbLine
 10
-104.5
 20
-235.4163169923013
 30
0.0
 11
79.08828512868787
 21
-147.9933701764166
 31
0.0
  0
LINE
  5
2AE2
330
2F65
100
AcDbEntity
  8
0
 62
     0
100
AcDbLine
 10
-111.2999999999956
 20
-238.654410522784
 30
0.0
 11
-104.5000000000036
 21
-235.4163169923013
 31
0.0
  0
LINE
  5
2AE3
330
2F65
100
AcDbEntity
  8
0
 62
     0
100
AcDbLine
 10
-104.5
 20
-225.4163652481657
 30
0.0
 11
58.0883753916969
 21
-147.9933701764166
 31
0.0
  0
LINE
  5
2AE4
330
2F65
100
AcDbEntity
  8
0
 62
     0
100
AcDbLine
 10
-111.2999999999992
 20
-228.6544587786502
 30
0.0
 11
-104.5000000000036
 21
-225.4163652481675
 31
0.0
  0
LINE
  5
2AE5
330
2F65
100
AcDbEntity
  8
0
 62
     0
100
AcDbLine
 10
-104.5
 20
-215.41641350403
 30
0.0
 11
37.0884656547023
 21
-147.9933701764166
 31
0.0
  0
LINE
  5
2AE6
330
2F65
100
AcDbEntity
  8
0
 62
     0
100
AcDbLine
 10
-111.2999999999992
 20
-218.6545070345146
 30
0.0
 11
-104.5000000000072
 21
-215.4164135040319
 31
0.0
  0
LINE
  5
2AE7
330
2F65
100
AcDbEntity
  8
0
 62
     0
100
AcDbLine
 10
-104.5
 20
-205.4164617598963
 30
0.0
 11
16.08855591771498
 21
-147.9933701764166
 31
0.0
  0
LINE
  5
2AE8
330
2F65
100
AcDbEntity
  8
0
 62
     0
100
AcDbLine
 10
-111.2999999999992
 20
-208.6545552903808
 30
0.0
 11
-104.5000000000036
 21
-205.4164617598981
 31
0.0
  0
LINE
  5
2AE9
330
2F65
100
AcDbEntity
  8
0
 62
     0
100
AcDbLine
 10
-104.5
 20
-195.4165100157606
 30
0.0
 11
-4.911353819279611
 21
-147.9933701764166
 31
0.0
  0
LINE
  5
2AEA
330
2F65
100
AcDbEntity
  8
0
 62
     0
100
AcDbLine
 10
-111.2999999999992
 20
-198.6546035462452
 30
0.0
 11
-104.5000000000036
 21
-195.4165100157625
 31
0.0
  0
LINE
  5
2AEB
330
2F65
100
AcDbEntity
  8
0
 62
     0
100
AcDbLine
 10
-104.5000000000036
 20
-185.4165582716287
 30
0.0
 11
-25.91126355627057
 21
-147.9933701764184
 31
0.0
  0
LINE
  5
2AEC
330
2F65
100
AcDbEntity
  8
0
 62
     0
100
AcDbLine
 10
-111.2999999999992
 20
-188.6546518021132
 30
0.0
 11
-104.5000000000036
 21
-185.4165582716304
 31
0.0
  0
LINE
  5
2AED
330
2F65
100
AcDbEntity
  8
0
 62
     0
100
AcDbLine
 10
-104.5
 20
-175.416606527493
 30
0.0
 11
-46.91117329325789
 21
-147.9933701764184
 31
0.0
  0
LINE
  5
2AEE
330
2F65
100
AcDbEntity
  8
0
 62
     0
100
AcDbLine
 10
-111.2999999999992
 20
-178.6547000579776
 30
0.0
 11
-104.5000000000036
 21
-175.4166065274949
 31
0.0
  0
LINE
  5
2AEF
330
2F65
100
AcDbEntity
  8
0
 62
     0
100
AcDbLine
 10
-104.5
 20
-165.4166547833592
 30
0.0
 11
-67.91108303024884
 21
-147.9933701764184
 31
0.0
  0
LINE
  5
2AF0
330
2F65
100
AcDbEntity
  8
0
 62
     0
100
AcDbLine
 10
-111.2999999999956
 20
-168.654748313842
 30
0.0
 11
-104.5000000000036
 21
-165.4166547833611
 31
0.0
  0
LINE
  5
2AF1
330
2F65
100
AcDbEntity
  8
0
 62
     0
100
AcDbLine
 10
-104.5
 20
-155.4167030392255
 30
0.0
 11
-88.91099276723982
 21
-147.9933701764184
 31
0.0
  0
LINE
  5
2AF2
330
2F65
100
AcDbEntity
  8
0
 62
     0
100
AcDbLine
 10
-111.2999999999992
 20
-158.65479656971
 30
0.0
 11
-104.5000000000036
 21
-155.4167030392273
 31
0.0
  0
LINE
  5
2AF3
330
2F65
100
AcDbEntity
  8
0
 62
     0
100
AcDbLine
 10
-111.2999999999956
 20
-148.6548448255744
 30
0.0
 11
-109.9109025042307
 21
-147.9933701764184
 31
0.0
  0
ENDBLK
  5
2AF4
330
2F65
100
AcDbEntity
  8
0
100
AcDbBlockEnd
  0
ENDSEC
  0
SECTION
  2
ENTITIES
  0
TEXT
  5
953
330
2EDD
100
AcDbEntity
  8
OUTLINE
  6
Continuous
 62
     3
100
AcDbText
 10
-418.231467
 20
13.715189
 30
0.0
 40
64.0
  1
 
 41
0.9
100
AcDbText
  0
TEXT
  5
954
330
2EDD
100
AcDbEntity
  8
OUTLINE
  6
Continuous
 62
     3
100
AcDbText
 10
-418.231467
 20
13.715189
 30
0.0
 40
64.0
  1
 
 41
0.9
100
AcDbText
  0
TEXT
  5
955
330
2EDD
100
AcDbEntity
  8
OUTLINE
  6
Continuous
 62
     3
100
AcDbText
 10
1341.41903
 20
-706.0588199999997
 30
0.0
 40
64.0
  1
 
 41
0.9
100
AcDbText
  0
TEXT
  5
956
330
2EDD
100
AcDbEntity
  8
OUTLINE
  6
Continuous
 62
     3
100
AcDbText
 10
1341.41903
 20
-706.0588199999997
 30
0.0
 40
64.0
  1
 
 41
0.9
100
AcDbText
  0
TEXT
  5
957
330
2EDD
100
AcDbEntity
  8
OUTLINE
  6
Continuous
 62
     3
100
AcDbText
 10
1341.41903
 20
-706.0588199999997
 30
0.0
 40
64.0
  1
 
 41
0.9
100
AcDbText
  0
TEXT
  5
958
330
2EDD
100
AcDbEntity
  8
OUTLINE
  6
Continuous
 62
     3
100
AcDbText
 10
1341.41903
 20
-706.0588199999997
 30
0.0
 40
64.0
  1
 
 41
0.9
100
AcDbText
  0
INSERT
  5
2B8C
330
2EDD
100
AcDbEntity
  8
DETAIL___1
  6
Continuous
100
AcDbBlockReference
  2
*X26
 10
0.0
 20
-0.0000000000002274
 30
0.0
1001
ACADANNOTATIVE
1000
AnnotativeData
1002
{
1070
     1
1070
     0
1002
}
1001
ACAD
1000
HATCH
1002
{
1070
    19
1000
LINE
1040
72.22849999999998
1040
5.838766301980094
1000
R14_HATCH_DATA
1000
2D49
1011
1.0
1021
-0.0000000000002274
1031
0.0
1011
0.0
1021
0.9999999999997726
1031
0.0
1011
0.0
1021
-0.0000000000002274
1031
1.0
1040
0.0
1010
0.0
1020
0.0
1030
1.0
1000
LINE
1070
     0
1070
     0
1071
        2
1071
        7
1070
     0
1070
     1
1071
        6
1040
111.3000000000029
1040
-341.7933701764172
1040
-104.5
1040
-341.7933701764177
1040
-104.5000000000036
1040
-147.9933701764175
1040
-111.2999999999992
1040
-147.9933701764166
1040
-111.2999999999992
1040
-415.0080808012007
1040
111.2999999999992
1040
-415.0080808012007
1071
        0
1071
       23
1070
     0
1070
     1
1071
        4
1040
111.2999999999956
1040
-341.7933701764182
1040
111.2999999999992
1040
-147.9933701764175
1040
-104.5
1040
-147.9933701764175
1040
-104.5
1040
-341.7933701764172
1071
        0
1070
     0
1070
     1
1040
5.838766301980094
1040
72.22849999999998
1070
     0
1070
     1
1040
5.838766301980094
1040
20464.2545577575
1040
2269.258723828424
1040
3.881680532789153
1040
8.151533417570705
1070
     0
1040
0.3443172173238636
1071
        2
1040
-4.023394951716905
1040
-372.4378573869472
1040
0.0
1040
9.675166477096354
1040
-264.6946887788217
1040
0.0
1002
}
  0
INSERT
  5
2B8D
330
2EDD
100
AcDbEntity
  8
DETAIL___1
  6
Continuous
100
AcDbBlockReference
  2
*X27
 10
0.0
 20
-0.0000000000002274
 30
0.0
1001
ACADANNOTATIVE
1000
AnnotativeData
1002
{
1070
     1
1070
     0
1002
}
1001
ACAD
1000
HATCH
1002
{
1070
    19
1000
LINE
1040
72.22849999999998
1040
0.4444190051994898
1000
R14_HATCH_DATA
1000
2D4F
1011
1.0
1021
-0.0000000000002274
1031
0.0
1011
0.0
1021
0.9999999999997726
1031
0.0
1011
0.0
1021
-0.0000000000002274
1031
1.0
1040
0.0
1010
0.0
1020
0.0
1030
1.0
1000
LINE
1070
     0
1070
     0
1071
        2
1071
        7
1070
     0
1070
     1
1071
        6
1040
111.2999999999992
1040
-341.7933701764172
1040
-104.5
1040
-341.7933701764177
1040
-104.5000000000036
1040
-147.9933701764175
1040
-111.2999999999992
1040
-147.9933701764166
1040
-111.2999999999992
1040
-415.0080808012007
1040
111.2999999999992
1040
-415.0080808012007
1071
        0
1071
       23
1070
     0
1070
     1
1071
        4
1040
111.2999999999992
1040
-147.9933701764175
1040
-104.5
1040
-147.9933701764175
1040
-104.5
1040
-341.7933701764172
1040
111.2999999999992
1040
-341.7933701764177
1071
        0
1070
     0
1070
     1
1040
0.4444190051994898
1040
72.22849999999998
1070
     0
1070
     1
1040
0.4444190051994898
1040
20464.2545577575
1040
2269.258723828424
1040
-3.881680532789157
1040
8.151533417570702
1070
     0
1040
0.3917004879315207
1071
        2
1040
40.8286924921667
1040
-386.2040499920768
1040
0.0
1040
34.66755731207012
1040
-264.3171997486352
1040
0.0
1002
}
  0
LINE
  5
2B8E
330
2EDD
100
AcDbEntity
  8
DETAIL
100
AcDbLine
 10
111.2999999999988
 20
-147.9933701764177
 30
0.0
 11
111.2999999999988
 21
-341.7933701764179
 31
0.0
  0
LINE
  5
2B8F
330
2EDD
100
AcDbEntity
  8
DETAIL
100
AcDbLine
 10
111.2999999999988
 20
-147.9933701764177
 30
0.0
 11
-104.5000000000002
 21
-147.9933701764177
 31
0.0
  0
TEXT
  5
2B90
330
2EDD
100
AcDbEntity
  8
ETC
100
AcDbText
 10
256.2468308916468
 20
526.6033796518071
 30
0.0
 40
64.0
  1
システム部材
 41
0.9
100
AcDbText
  0
TEXT
  5
2B91
330
2EDD
100
AcDbEntity
  8
ETC
100
AcDbText
 10
262.4548288916485
 20
627.4867056518072
 30
0.0
 40
64.0
  1
QWH-20SA_6
 41
0.9
100
AcDbText
  0
TEXT
  5
2B92
330
2EDD
100
AcDbEntity
  8
ETC
100
AcDbText
 10
262.4548288916485
 20
427.4867056518069
 30
0.0
 40
64.0
  1
QWH-20SA
 41
0.9
100
AcDbText
  0
CIRCLE
  5
2B93
330
2EDD
100
AcDbEntity
  8
ARRANGE
100
AcDbCircle
 10
0.0
 20
-0.0000000986731266
 30
0.0
 40
40.0
  0
LINE
  5
2B94
330
2EDD
100
AcDbEntity
  8
NOTE
100
AcDbLine
 10
140.0
 20
12.49999999999977
 30
0.0
 11
140.0
 21
-12.50000000000023
 31
0.0
  0
LINE
  5
2B95
330
2EDD
100
AcDbEntity
  8
NOTE
100
AcDbLine
 10
-140.0000000000002
 20
12.50000000000023
 30
0.0
 11
-140.0000000000002
 21
-12.49999999999977
 31
0.0
  0
POINT
  5
2B96
330
2EDD
100
AcDbEntity
  8
ARRANGE
100
AcDbPoint
 10
0.0
 20
0.0000000000002274
 30
0.0
 39
50.0
  0
LINE
  5
2B97
330
2EDD
100
AcDbEntity
  8
BASIS
100
AcDbLine
 10
0.0
 20
-465.9999999999993
 30
0.0
 11
0.0
 21
24.99999999999977
 31
0.0
  0
LINE
  5
2B98
330
2EDD
100
AcDbEntity
  8
DETAIL
100
AcDbLine
 10
-123.0999999999987
 20
-440.9999999999993
 30
0.0
 11
-123.0999999999987
 21
-429.9999999999997
 31
0.0
  0
LINE
  5
2B99
330
2EDD
100
AcDbEntity
  8
DETAIL
100
AcDbLine
 10
123.0999999999985
 20
-440.9999999999993
 30
0.0
 11
-123.0999999999987
 21
-440.9999999999993
 31
0.0
  0
LINE
  5
2B9A
330
2EDD
100
AcDbEntity
  8
DETAIL
100
AcDbLine
 10
123.0999999999985
 20
-429.9999999999997
 30
0.0
 11
123.0999999999985
 21
-440.9999999999993
 31
0.0
  0
LINE
  5
2B9B
330
2EDD
100
AcDbEntity
  8
DETAIL
100
AcDbLine
 10
123.0999999999985
 20
-99.75147186257643
 30
0.0
 11
-123.0999999999987
 21
-99.75147186257643
 31
0.0
  0
LINE
  5
2B9C
330
2EDD
100
AcDbEntity
  8
DETAIL
100
AcDbLine
 10
123.7000000000007
 20
-99.75147186257643
 30
0.0
 11
123.7000000000007
 21
-122.0000000000002
 31
0.0
  0
LINE
  5
2B9D
330
2EDD
100
AcDbEntity
  8
DETAIL
100
AcDbLine
 10
-123.7000000000009
 20
-99.75147186257643
 30
0.0
 11
-123.7000000000009
 21
-8.000000000000227
 31
0.0
  0
LINE
  5
2B9E
330
2EDD
100
AcDbEntity
  8
DETAIL
100
AcDbLine
 10
-123.7000000000009
 20
-122.0000000000002
 30
0.0
 11
-123.7000000000009
 21
-99.75147186257551
 31
0.0
  0
LINE
  5
2B9F
330
2EDD
100
AcDbEntity
  8
DETAIL
100
AcDbLine
 10
-123.0999999999987
 20
-99.75147186257643
 30
0.0
 11
-123.7000000000009
 21
-99.75147186257643
 31
0.0
  0
LINE
  5
2BA0
330
2EDD
100
AcDbEntity
  8
DETAIL
100
AcDbLine
 10
123.7000000000007
 20
-8.000000000000227
 30
0.0
 11
123.7000000000007
 21
-99.75147186257643
 31
0.0
  0
LINE
  5
2BA1
330
2EDD
100
AcDbEntity
  8
DETAIL
100
AcDbLine
 10
123.0999999999985
 20
-99.75147186257643
 30
0.0
 11
123.7000000000007
 21
-99.75147186257643
 31
0.0
  0
LINE
  5
2BA2
330
2EDD
100
AcDbEntity
  8
DETAIL
100
AcDbLine
 10
157.5
 20
-0.0000000000002274
 30
0.0
 11
-157.5000000000002
 21
0.0000000000002274
 31
0.0
  0
LINE
  5
2BA3
330
2EDD
100
AcDbEntity
  8
DETAIL
100
AcDbLine
 10
157.5
 20
-8.000000000000227
 30
0.0
 11
-157.5000000000002
 21
-7.999999999999769
 31
0.0
  0
LINE
  5
2BA4
330
2EDD
100
AcDbEntity
  8
DETAIL
100
AcDbLine
 10
-157.5000000000002
 20
-0.0000000000002274
 30
0.0
 11
-157.5000000000002
 21
-8.000000000000227
 31
0.0
  0
LINE
  5
2BA5
330
2EDD
100
AcDbEntity
  8
DETAIL
100
AcDbLine
 10
157.5
 20
-0.0000000000002274
 30
0.0
 11
157.5
 21
-8.000000000000227
 31
0.0
  0
LINE
  5
2BA6
330
2EDD
100
AcDbEntity
  8
DETAIL
100
AcDbLine
 10
126.0999999999985
 20
-133.2062410677597
 30
0.0
 11
126.0999999999985
 21
-147.8958358562706
 31
0.0
  0
LINE
  5
2BA7
330
2EDD
100
AcDbEntity
  8
DETAIL
100
AcDbLine
 10
-126.0999999999987
 20
-133.2062410677597
 30
0.0
 11
-126.0999999999987
 21
-147.8958358562706
 31
0.0
  0
LINE
  5
2BA8
330
2EDD
100
AcDbEntity
  8
DETAIL
100
AcDbLine
 10
-126.0999999999987
 20
-122.0000000000002
 30
0.0
 11
-126.0999999999987
 21
-133.2062410677597
 31
0.0
  0
LINE
  5
2BA9
330
2EDD
100
AcDbEntity
  8
DETAIL
100
AcDbLine
 10
126.0999999999985
 20
-121.9999999999997
 30
0.0
 11
126.0999999999985
 21
-133.2062410677597
 31
0.0
  0
LINE
  5
2BAA
330
2EDD
100
AcDbEntity
  8
DETAIL
100
AcDbLine
 10
-126.0999999999987
 20
-147.8958358562706
 30
0.0
 11
-126.0999999999987
 21
-147.9933701764173
 31
0.0
  0
LINE
  5
2BAB
330
2EDD
100
AcDbEntity
  8
DETAIL
100
AcDbLine
 10
-126.0999999999987
 20
-147.9933701764173
 30
0.0
 11
126.0999999999985
 21
-147.9933701764177
 31
0.0
  0
LINE
  5
2BAC
330
2EDD
100
AcDbEntity
  8
DETAIL
100
AcDbLine
 10
126.0999999999985
 20
-147.8958358562706
 30
0.0
 11
126.0999999999985
 21
-147.9933701764173
 31
0.0
  0
LINE
  5
2BAD
330
2EDD
100
AcDbEntity
  8
DETAIL
100
AcDbLine
 10
-135.5000000000002
 20
-429.9999999999997
 30
0.0
 11
-135.5000000000002
 21
-122.0000000000002
 31
0.0
  0
LINE
  5
2BAE
330
2EDD
100
AcDbEntity
  8
DETAIL
100
AcDbLine
 10
-111.2999999999992
 20
-428.5827617420475
 30
0.0
 11
-126.0999999999987
 21
-428.5827617420475
 31
0.0
  0
LINE
  5
2BAF
330
2EDD
100
AcDbEntity
  8
OUTLINE
100
AcDbLine
 10
-111.2999999999992
 20
-428.4852274218992
 30
0.0
 11
-111.2999999999992
 21
-428.5827617420475
 31
0.0
  0
LINE
  5
2BB0
330
2EDD
100
AcDbEntity
  8
DETAIL
100
AcDbLine
 10
-126.0999999999987
 20
-428.5827617420475
 30
0.0
 11
-126.0999999999987
 21
-147.9933701764164
 31
0.0
  0
LINE
  5
2BB1
330
2EDD
100
AcDbEntity
  8
DETAIL
100
AcDbLine
 10
-126.0999999999987
 20
-428.4852274218992
 30
0.0
 11
-111.2999999999992
 21
-428.4852274218992
 31
0.0
  0
LINE
  5
2BB2
330
2EDD
100
AcDbEntity
  8
DETAIL
100
AcDbLine
 10
-111.2999999999992
 20
-428.4852274218992
 30
0.0
 11
-111.2999999999992
 21
-147.9933701764173
 31
0.0
  0
LINE
  5
2BB3
330
2EDD
100
AcDbEntity
  8
DETAIL
100
AcDbLine
 10
135.5
 20
-121.9999999999997
 30
0.0
 11
135.5
 21
-429.9999999999997
 31
0.0
  0
LINE
  5
2BB4
330
2EDD
100
AcDbEntity
  8
DETAIL
100
AcDbLine
 10
111.2999999999988
 20
-428.5827617420475
 30
0.0
 11
126.0999999999985
 21
-428.5827617420475
 31
0.0
  0
LINE
  5
2BB5
330
2EDD
100
AcDbEntity
  8
OUTLINE
100
AcDbLine
 10
111.2999999999988
 20
-428.4852274218992
 30
0.0
 11
111.2999999999988
 21
-428.5827617420475
 31
0.0
  0
LINE
  5
2BB6
330
2EDD
100
AcDbEntity
  8
DETAIL
100
AcDbLine
 10
111.2999999999988
 20
-147.9933701764173
 30
0.0
 11
111.2999999999988
 21
-428.4852274219008
 31
0.0
  0
LINE
  5
2BB7
330
2EDD
100
AcDbEntity
  8
DETAIL
100
AcDbLine
 10
126.0999999999985
 20
-428.4852274218992
 30
0.0
 11
111.2999999999988
 21
-428.4852274218992
 31
0.0
  0
LINE
  5
2BB8
330
2EDD
100
AcDbEntity
  8
DETAIL
100
AcDbLine
 10
126.0999999999985
 20
-147.9933701764173
 30
0.0
 11
126.0999999999985
 21
-428.5827617420475
 31
0.0
  0
LINE
  5
2BB9
330
2EDD
100
AcDbEntity
  8
DETAIL
100
AcDbLine
 10
111.2999999999988
 20
-427.9559752541866
 30
0.0
 11
-111.2999999999992
 21
-427.9559752541866
 31
0.0
  0
LINE
  5
2BBA
330
2EDD
100
AcDbEntity
  8
DETAIL
100
AcDbLine
 10
-111.2999999999992
 20
-415.0080808012009
 30
0.0
 11
111.2999999999988
 21
-415.0080808012009
 31
0.0
  0
LINE
  5
2BBB
330
2EDD
100
AcDbEntity
  8
DETAIL
100
AcDbLine
 10
-135.5000000000002
 20
-429.9999999999991
 30
0.0
 11
135.5
 21
-429.9999999999997
 31
0.0
  0
LINE
  5
2BBC
330
2EDD
100
AcDbEntity
  8
DETAIL
100
AcDbLine
 10
126.0999999999985
 20
-135.0000000000002
 30
0.0
 11
-126.0999999999987
 21
-134.9999999999997
 31
0.0
  0
LINE
  5
2BBD
330
2EDD
100
AcDbEntity
  8
DETAIL
100
AcDbLine
 10
135.5
 20
-121.9999999999997
 30
0.0
 11
-135.5000000000002
 21
-122.0000000000002
 31
0.0
  0
LINE
  5
2BBE
330
2EDD
100
AcDbEntity
  8
DETAIL
100
AcDbLine
 10
-111.2999999999992
 20
-147.9933701764173
 30
0.0
 11
111.2999999999988
 21
-147.9933701764173
 31
0.0
  0
LINE
  5
2BBF
330
2EDD
100
AcDbEntity
  8
DETAIL
100
AcDbLine
 10
-111.2999999999992
 20
-147.9933701764173
 30
0.0
 11
-111.2999999999992
 21
-415.0080808012009
 31
0.0
  0
LINE
  5
2BC0
330
2EDD
100
AcDbEntity
  8
DETAIL
100
AcDbLine
 10
111.2999999999988
 20
-147.9933701764173
 30
0.0
 11
111.2999999999988
 21
-415.0080808012009
 31
0.0
  0
LINE
  5
2BC1
330
2EDD
100
AcDbEntity
  8
NOTE
100
AcDbLine
 39
50.0
 10
-152.5000000000002
 20
0.0000000000002274
 30
0.0
 11
-127.5000000000002
 21
0.0000000000002274
 31
0.0
  0
LINE
  5
2BC2
330
2EDD
100
AcDbEntity
  8
NOTE
100
AcDbLine
 39
50.0
 10
127.5
 20
-0.0000000000002274
 30
0.0
 11
152.5
 21
-0.0000000000002274
 31
0.0
  0
LINE
  5
2BC3
330
2EDD
100
AcDbEntity
  8
OUTLINE
100
AcDbLine
 39
50.0
 10
-157.5000000000002
 20
-0.0000000000002274
 30
0.0
 11
157.5
 21
-0.0000000000002274
 31
0.0
  0
LINE
  5
2BC4
330
2EDD
100
AcDbEntity
  8
OUTLINE
100
AcDbLine
 10
-123.0999999999987
 20
-440.9999999999993
 30
0.0
 11
-123.0999999999987
 21
-429.9999999999997
 31
0.0
  0
LINE
  5
2BC5
330
2EDD
100
AcDbEntity
  8
OUTLINE
100
AcDbLine
 10
123.0999999999985
 20
-440.9999999999993
 30
0.0
 11
-123.0999999999987
 21
-440.9999999999993
 31
0.0
  0
LINE
  5
2BC6
330
2EDD
100
AcDbEntity
  8
OUTLINE
100
AcDbLine
 10
123.0999999999985
 20
-429.9999999999997
 30
0.0
 11
123.0999999999985
 21
-440.9999999999993
 31
0.0
  0
LINE
  5
2BC7
330
2EDD
100
AcDbEntity
  8
OUTLINE
100
AcDbLine
 10
123.0999999999985
 20
-99.75147186257643
 30
0.0
 11
-123.0999999999987
 21
-99.75147186257643
 31
0.0
  0
LINE
  5
2BC8
330
2EDD
100
AcDbEntity
  8
OUTLINE
100
AcDbLine
 10
123.7000000000007
 20
-99.75147186257643
 30
0.0
 11
123.7000000000007
 21
-122.0000000000002
 31
0.0
  0
LINE
  5
2BC9
330
2EDD
100
AcDbEntity
  8
OUTLINE
100
AcDbLine
 10
-123.7000000000009
 20
-99.75147186257643
 30
0.0
 11
-123.7000000000009
 21
-8.000000000000227
 31
0.0
  0
LINE
  5
2BCA
330
2EDD
100
AcDbEntity
  8
OUTLINE
100
AcDbLine
 10
-123.7000000000009
 20
-122.0000000000002
 30
0.0
 11
-123.7000000000009
 21
-99.75147186257551
 31
0.0
  0
LINE
  5
2BCB
330
2EDD
100
AcDbEntity
  8
OUTLINE
100
AcDbLine
 10
123.7000000000007
 20
-8.000000000000227
 30
0.0
 11
123.7000000000007
 21
-99.75147186257643
 31
0.0
  0
LINE
  5
2BCC
330
2EDD
100
AcDbEntity
  8
OUTLINE
100
AcDbLine
 10
157.5
 20
-8.000000000000227
 30
0.0
 11
-157.5000000000002
 21
-7.999999999999769
 31
0.0
  0
LINE
  5
2BCD
330
2EDD
100
AcDbEntity
  8
OUTLINE
100
AcDbLine
 10
-157.5000000000002
 20
-0.0000000000002274
 30
0.0
 11
-157.5000000000002
 21
-8.000000000000227
 31
0.0
  0
LINE
  5
2BCE
330
2EDD
100
AcDbEntity
  8
OUTLINE
100
AcDbLine
 10
157.5
 20
-0.0000000000002274
 30
0.0
 11
157.5
 21
-8.000000000000227
 31
0.0
  0
LINE
  5
2BCF
330
2EDD
100
AcDbEntity
  8
OUTLINE
100
AcDbLine
 10
126.0999999999985
 20
-133.2062410677597
 30
0.0
 11
126.0999999999985
 21
-147.8958358562706
 31
0.0
  0
LINE
  5
2BD0
330
2EDD
100
AcDbEntity
  8
OUTLINE
100
AcDbLine
 10
-126.0999999999987
 20
-133.2062410677597
 30
0.0
 11
-126.0999999999987
 21
-147.8958358562706
 31
0.0
  0
LINE
  5
2BD1
330
2EDD
100
AcDbEntity
  8
OUTLINE
100
AcDbLine
 10
-126.0999999999987
 20
-122.0000000000002
 30
0.0
 11
-126.0999999999987
 21
-133.2062410677597
 31
0.0
  0
LINE
  5
2BD2
330
2EDD
100
AcDbEntity
  8
OUTLINE
100
AcDbLine
 10
126.0999999999985
 20
-121.9999999999997
 30
0.0
 11
126.0999999999985
 21
-133.2062410677597
 31
0.0
  0
LINE
  5
2BD3
330
2EDD
100
AcDbEntity
  8
OUTLINE
100
AcDbLine
 10
-135.5000000000002
 20
-429.9999999999997
 30
0.0
 11
-135.5000000000002
 21
-122.0000000000002
 31
0.0
  0
LINE
  5
2BD4
330
2EDD
100
AcDbEntity
  8
OUTLINE
100
AcDbLine
 10
-111.2999999999992
 20
-428.5827617420475
 30
0.0
 11
-126.0999999999987
 21
-428.5827617420475
 31
0.0
  0
LINE
  5
2BD5
330
2EDD
100
AcDbEntity
  8
OUTLINE
100
AcDbLine
 10
-126.0999999999987
 20
-428.5827617420475
 30
0.0
 11
-126.0999999999987
 21
-147.9933701764164
 31
0.0
  0
LINE
  5
2BD6
330
2EDD
100
AcDbEntity
  8
OUTLINE
100
AcDbLine
 10
-126.0999999999987
 20
-428.4852274218992
 30
0.0
 11
-111.2999999999992
 21
-428.4852274218992
 31
0.0
  0
LINE
  5
2BD7
330
2EDD
100
AcDbEntity
  8
OUTLINE
100
AcDbLine
 10
135.5
 20
-121.9999999999997
 30
0.0
 11
135.5
 21
-429.9999999999997
 31
0.0
  0
LINE
  5
2BD8
330
2EDD
100
AcDbEntity
  8
OUTLINE
100
AcDbLine
 10
111.2999999999988
 20
-428.5827617420475
 30
0.0
 11
126.0999999999985
 21
-428.5827617420475
 31
0.0
  0
LINE
  5
2BD9
330
2EDD
100
AcDbEntity
  8
OUTLINE
100
AcDbLine
 10
126.0999999999985
 20
-428.4852274218992
 30
0.0
 11
111.2999999999988
 21
-428.4852274218992
 31
0.0
  0
LINE
  5
2BDA
330
2EDD
100
AcDbEntity
  8
OUTLINE
100
AcDbLine
 10
126.0999999999985
 20
-147.9933701764173
 30
0.0
 11
126.0999999999985
 21
-428.5827617420475
 31
0.0
  0
LINE
  5
2BDB
330
2EDD
100
AcDbEntity
  8
OUTLINE
100
AcDbLine
 10
111.2999999999988
 20
-427.9559752541866
 30
0.0
 11
-111.2999999999992
 21
-427.9559752541866
 31
0.0
  0
LINE
  5
2BDC
330
2EDD
100
AcDbEntity
  8
OUTLINE
100
AcDbLine
 10
-135.5000000000002
 20
-429.9999999999991
 30
0.0
 11
135.5
 21
-429.9999999999997
 31
0.0
  0
LINE
  5
2BDD
330
2EDD
100
AcDbEntity
  8
OUTLINE
100
AcDbLine
 10
126.0999999999985
 20
-135.0000000000002
 30
0.0
 11
-126.0999999999987
 21
-134.9999999999997
 31
0.0
  0
LINE
  5
2BDE
330
2EDD
100
AcDbEntity
  8
OUTLINE
100
AcDbLine
 10
135.5
 20
-121.9999999999997
 30
0.0
 11
-135.5000000000002
 21
-122.0000000000002
 31
0.0
  0
LINE
  5
2BDF
330
2EDD
100
AcDbEntity
  8
OUTLINE
100
AcDbLine
 10
-123.0999999999987
 20
-99.75147186257643
 30
0.0
 11
-123.7000000000009
 21
-99.75147186257643
 31
0.0
  0
LINE
  5
2BE0
330
2EDD
100
AcDbEntity
  8
OUTLINE
100
AcDbLine
 10
123.0999999999985
 20
-99.75147186257643
 30
0.0
 11
123.7000000000007
 21
-99.75147186257643
 31
0.0
  0
LINE
  5
2BE1
330
2EDD
100
AcDbEntity
  8
OUTLINE
100
AcDbLine
 10
-126.0999999999987
 20
-147.8958358562706
 30
0.0
 11
-126.0999999999987
 21
-147.9933701764173
 31
0.0
  0
LINE
  5
2BE2
330
2EDD
100
AcDbEntity
  8
OUTLINE
100
AcDbLine
 10
126.0999999999985
 20
-147.8958358562706
 30
0.0
 11
126.0999999999985
 21
-147.9933701764173
 31
0.0
  0
INSERT
  5
2BE3
330
2EDD
100
AcDbEntity
  8
0
100
AcDbBlockReference
  2
*U28
 10
0.0
 20
-0.0000000000002274
 30
0.0
1001
ACAD
1000
DSTYLE
1002
{
1070
    41
1040
12.0
1070
    42
1040
20.0
1070
    43
1040
200.0
1070
    44
1040
20.0
1070
    73
1070
     0
1070
    74
1070
     0
1070
    77
1070
     1
1070
    78
1070
     8
1070
   140
1040
64.0
1070
   147
1040
50.0
1070
   172
1070
     1
1070
   174
1070
     1
1070
   275
1070
     0
1070
   284
1070
     0
1070
   285
1070
     0
1070
   286
1070
     0
1070
   341
1005
0
1070
   342
1005
0
1002
}
  0
INSERT
  5
2BE4
330
2EDD
100
AcDbEntity
  8
DETAIL___1
  6
Continuous
100
AcDbBlockReference
  2
*X29
 10
0.0
 20
-0.0000000000002274
 30
0.0
1001
ACADANNOTATIVE
1000
AnnotativeData
1002
{
1070
     1
1070
     0
1002
}
1001
ACAD
1000
HATCH
1002
{
1070
    19
1000
LINE
1040
72.22849999999998
1040
5.838766301980094
1000
R14_HATCH_DATA
1000
2DB2
1011
1.0
1021
-0.0000000000002274
1031
0.0
1011
0.0
1021
0.9999999999997726
1031
0.0
1011
0.0
1021
-0.0000000000002274
1031
1.0
1040
0.0
1010
0.0
1020
0.0
1030
1.0
1000
LINE
1070
     0
1070
     0
1071
        2
1071
        7
1070
     0
1070
     1
1071
        6
1040
111.3000000000029
1040
-341.7933701764172
1040
-104.5
1040
-341.7933701764177
1040
-104.5000000000036
1040
-147.9933701764175
1040
-111.2999999999992
1040
-147.9933701764166
1040
-111.2999999999992
1040
-415.0080808012007
1040
111.2999999999992
1040
-415.0080808012007
1071
        0
1071
       23
1070
     0
1070
     1
1071
        4
1040
111.2999999999956
1040
-341.7933701764182
1040
111.2999999999992
1040
-147.9933701764175
1040
-104.5
1040
-147.9933701764175
1040
-104.5
1040
-341.7933701764172
1071
        0
1070
     0
1070
     1
1040
5.838766301980094
1040
72.22849999999998
1070
     0
1070
     1
1040
5.838766301980094
1040
20464.2545577575
1040
2269.258723828424
1040
3.881680532789153
1040
8.151533417570705
1070
     0
1040
0.3443172173238636
1071
        2
1040
-4.023394951716905
1040
-372.4378573869472
1040
0.0
1040
9.675166477096354
1040
-264.6946887788217
1040
0.0
1002
}
  0
INSERT
  5
2BE5
330
2EDD
100
AcDbEntity
  8
DETAIL___1
  6
Continuous
100
AcDbBlockReference
  2
*X30
 10
0.0
 20
-0.0000000000002274
 30
0.0
1001
ACADANNOTATIVE
1000
AnnotativeData
1002
{
1070
     1
1070
     0
1002
}
1001
ACAD
1000
HATCH
1002
{
1070
    19
1000
LINE
1040
72.22849999999998
1040
0.4444190051994898
1000
R14_HATCH_DATA
1000
2DB8
1011
1.0
1021
-0.0000000000002274
1031
0.0
1011
0.0
1021
0.9999999999997726
1031
0.0
1011
0.0
1021
-0.0000000000002274
1031
1.0
1040
0.0
1010
0.0
1020
0.0
1030
1.0
1000
LINE
1070
     0
1070
     0
1071
        2
1071
        7
1070
     0
1070
     1
1071
        6
1040
111.2999999999992
1040
-341.7933701764172
1040
-104.5
1040
-341.7933701764177
1040
-104.5000000000036
1040
-147.9933701764175
1040
-111.2999999999992
1040
-147.9933701764166
1040
-111.2999999999992
1040
-415.0080808012007
1040
111.2999999999992
1040
-415.0080808012007
1071
        0
1071
       23
1070
     0
1070
     1
1071
        4
1040
111.2999999999992
1040
-147.9933701764175
1040
-104.5
1040
-147.9933701764175
1040
-104.5
1040
-341.7933701764172
1040
111.2999999999992
1040
-341.7933701764177
1071
        0
1070
     0
1070
     1
1040
0.4444190051994898
1040
72.22849999999998
1070
     0
1070
     1
1040
0.4444190051994898
1040
20464.2545577575
1040
2269.258723828424
1040
-3.881680532789157
1040
8.151533417570702
1070
     0
1040
0.3917004879315207
1071
        2
1040
40.8286924921667
1040
-386.2040499920768
1040
0.0
1040
34.66755731207012
1040
-264.3171997486352
1040
0.0
1002
}
  0
LINE
  5
2BE6
330
2EDD
100
AcDbEntity
  8
DETAIL
100
AcDbLine
 10
-111.2999999999992
 20
-147.9933701764173
 30
0.0
 11
-111.2999999999992
 21
-415.0080808012009
 31
0.0
  0
LINE
  5
2BE7
330
2EDD
100
AcDbEntity
  8
DETAIL
100
AcDbLine
 39
50.0
 10
-111.2999999999992
 20
-147.9933701764173
 30
0.0
 11
111.2999999999988
 21
-147.9933701764177
 31
0.0
  0
LINE
  5
2BE8
330
2EDD
100
AcDbEntity
  8
DETAIL
100
AcDbLine
 39
50.0
 10
111.2999999999988
 20
-147.9933701764177
 30
0.0
 11
111.2999999999988
 21
-415.0080808012009
 31
0.0
  0
LINE
  5
2BE9
330
2EDD
100
AcDbEntity
  8
OUTLINE
100
AcDbLine
 10
-126.0999999999987
 20
-147.8958358562706
 30
0.0
 11
126.0999999999985
 21
-147.8958358562711
 31
0.0
  0
LINE
  5
2BEA
330
2EDD
100
AcDbEntity
  8
OUTLINE
100
AcDbLine
 10
-111.2999999999992
 20
-428.4852274218992
 30
0.0
 11
-111.2999999999992
 21
-147.9933701764173
 31
0.0
  0
LINE
  5
2BEB
330
2EDD
100
AcDbEntity
  8
DETAIL
100
AcDbLine
 10
-111.2999999999992
 20
-415.0080808012009
 30
0.0
 11
111.2999999999988
 21
-415.0080808012009
 31
0.0
  0
LINE
  5
2BEC
330
2EDD
100
AcDbEntity
  8
OUTLINE
100
AcDbLine
 10
-111.2999999999992
 20
-415.0080808012009
 30
0.0
 11
111.2999999999988
 21
-415.0080808012009
 31
0.0
  0
LINE
  5
2BED
330
2EDD
100
AcDbEntity
  8
OUTLINE
100
AcDbLine
 10
111.2999999999988
 20
-147.9933701764173
 30
0.0
 11
111.2999999999988
 21
-428.4852274219008
 31
0.0
  0
LINE
  5
2BEE
330
2EDD
100
AcDbEntity
  8
SIZE
100
AcDbLine
 10
177.5
 20
-0.0000000000002274
 30
0.0
 11
288.6635928451542
 21
-0.0000000000002274
 31
0.0
  0
LINE
  5
2BEF
330
2EDD
100
AcDbEntity
  8
SIZE
100
AcDbLine
 10
177.5
 20
-8.000000000000227
 30
0.0
 11
288.6635928451542
 21
-8.000000000000227
 31
0.0
  0
LINE
  5
2BF0
330
2EDD
100
AcDbEntity
  8
SIZE
100
AcDbLine
 10
268.6635928451542
 20
11.99999999999977
 30
0.0
 11
268.6635928451542
 21
23.99999999999977
 31
0.0
  0
LINE
  5
2BF1
330
2EDD
100
AcDbEntity
  8
SIZE
100
AcDbLine
 10
268.6635928451542
 20
-20.00000000000023
 30
0.0
 11
268.6635928451542
 21
-90.40000000000024
 31
0.0
  0
LINE
  5
2BF2
330
2EDD
100
AcDbEntity
  8
SIZE
100
AcDbLine
 10
268.6635928451542
 20
-0.0000000000002274
 30
0.0
 11
268.6635928451542
 21
-8.000000000000227
 31
0.0
  0
INSERT
  5
2BF3
330
2EDD
100
AcDbEntity
  8
SIZE
100
AcDbBlockReference
  2
_DOTBLANK
 10
268.6635928451542
 20
-0.0000000000002274
 30
0.0
 41
12.0
 42
12.0
 43
12.0
 50
270.0
  0
INSERT
  5
2BF4
330
2EDD
100
AcDbEntity
  8
SIZE
100
AcDbBlockReference
  2
_DOTBLANK
 10
268.6635928451542
 20
-8.000000000000227
 30
0.0
 41
12.0
 42
12.0
 43
12.0
 50
90.0
  0
LINE
  5
2BF5
330
2EDD
100
AcDbEntity
  8
SIZE
100
AcDbLine
 10
157.5
 20
20.00000000000023
 30
0.0
 11
157.5
 21
298.8865929365172
 31
0.0
  0
LINE
  5
2BF6
330
2EDD
100
AcDbEntity
  8
SIZE
100
AcDbLine
 10
-157.5000000000002
 20
20.00000000000023
 30
0.0
 11
-157.5000000000002
 21
298.8865929365172
 31
0.0
  0
LINE
  5
2BF7
330
2EDD
100
AcDbEntity
  8
SIZE
100
AcDbLine
 10
145.5
 20
278.8865929365172
 30
0.0
 11
-145.5000000000002
 21
278.8865929365172
 31
0.0
  0
INSERT
  5
2BF8
330
2EDD
100
AcDbEntity
  8
SIZE
100
AcDbBlockReference
  2
_DOTBLANK
 10
157.5
 20
278.8865929365172
 30
0.0
 41
12.0
 42
12.0
 43
12.0
  0
INSERT
  5
2BF9
330
2EDD
100
AcDbEntity
  8
SIZE
100
AcDbBlockReference
  2
_DOTBLANK
 10
-157.5000000000002
 20
278.8865929365172
 30
0.0
 41
12.0
 42
12.0
 43
12.0
 50
180.0
  0
LINE
  5
2BFA
330
2EDD
100
AcDbEntity
  8
SIZE
100
AcDbLine
 10
140.0
 20
32.49999999999977
 30
0.0
 11
140.0
 21
180.3320910096172
 31
0.0
  0
LINE
  5
2BFB
330
2EDD
100
AcDbEntity
  8
SIZE
100
AcDbLine
 10
-140.0000000000002
 20
32.50000000000023
 30
0.0
 11
-140.0000000000002
 21
180.3320910096172
 31
0.0
  0
LINE
  5
2BFC
330
2EDD
100
AcDbEntity
  8
SIZE
100
AcDbLine
 10
128.0
 20
160.3320910096173
 30
0.0
 11
-128.0000000000002
 21
160.3320910096173
 31
0.0
  0
INSERT
  5
2BFD
330
2EDD
100
AcDbEntity
  8
SIZE
100
AcDbBlockReference
  2
_DOTBLANK
 10
140.0
 20
160.3320910096173
 30
0.0
 41
12.0
 42
12.0
 43
12.0
  0
INSERT
  5
2BFE
330
2EDD
100
AcDbEntity
  8
SIZE
100
AcDbBlockReference
  2
_DOTBLANK
 10
-140.0000000000002
 20
160.3320910096173
 30
0.0
 41
12.0
 42
12.0
 43
12.0
 50
180.0
  0
LINE
  5
2BFF
330
2EDD
100
AcDbEntity
  8
SIZE
100
AcDbLine
 10
-155.5000000000002
 20
-429.9999999999991
 30
0.0
 11
-343.6294636086025
 21
-429.9999999999991
 31
0.0
  0
LINE
  5
2C00
330
2EDD
100
AcDbEntity
  8
SIZE
100
AcDbLine
 10
-143.0999999999988
 20
-440.9999999999991
 30
0.0
 11
-343.6294636086025
 21
-440.9999999999991
 31
0.0
  0
LINE
  5
2C01
330
2EDD
100
AcDbEntity
  8
SIZE
100
AcDbLine
 10
-323.6294636086025
 20
-417.9999999999991
 30
0.0
 11
-323.6294636086025
 21
-405.9999999999991
 31
0.0
  0
LINE
  5
2C02
330
2EDD
100
AcDbEntity
  8
SIZE
100
AcDbLine
 10
-323.6294636086025
 20
-452.9999999999991
 30
0.0
 11
-323.6294636086025
 21
-542.5999999999991
 31
0.0
  0
LINE
  5
2C03
330
2EDD
100
AcDbEntity
  8
SIZE
100
AcDbLine
 10
-323.6294636086025
 20
-429.9999999999991
 30
0.0
 11
-323.6294636086025
 21
-440.9999999999991
 31
0.0
  0
INSERT
  5
2C04
330
2EDD
100
AcDbEntity
  8
SIZE
100
AcDbBlockReference
  2
_DOTBLANK
 10
-323.6294636086025
 20
-429.9999999999991
 30
0.0
 41
12.0
 42
12.0
 43
12.0
 50
270.0
  0
INSERT
  5
2C05
330
2EDD
100
AcDbEntity
  8
SIZE
100
AcDbBlockReference
  2
_DOTBLANK
 10
-323.6294636086025
 20
-440.9999999999991
 30
0.0
 41
12.0
 42
12.0
 43
12.0
 50
90.0
  0
LINE
  5
2C06
330
2EDD
100
AcDbEntity
  8
SIZE
100
AcDbLine
 10
-177.5000000000002
 20
0.0000000000002274
 30
0.0
 11
-343.6294636086022
 21
0.0000000000002274
 31
0.0
  0
LINE
  5
2C07
330
2EDD
100
AcDbEntity
  8
SIZE
100
AcDbLine
 10
-155.2999999999995
 20
-429.9999999999997
 30
0.0
 11
-343.6294636086025
 21
-429.9999999999997
 31
0.0
  0
LINE
  5
2C08
330
2EDD
100
AcDbEntity
  8
SIZE
100
AcDbLine
 10
-323.6294636086022
 20
-11.99999999999977
 30
0.0
 11
-323.6294636086025
 21
-417.9999999999997
 31
0.0
  0
INSERT
  5
2C09
330
2EDD
100
AcDbEntity
  8
SIZE
100
AcDbBlockReference
  2
_DOTBLANK
 10
-323.6294636086022
 20
0.0000000000002274
 30
0.0
 41
12.0
 42
12.0
 43
12.0
 50
90.0
  0
INSERT
  5
2C0A
330
2EDD
100
AcDbEntity
  8
SIZE
100
AcDbBlockReference
  2
_DOTBLANK
 10
-323.6294636086025
 20
-429.9999999999997
 30
0.0
 41
12.0
 42
12.0
 43
12.0
 50
270.0
  0
LINE
  5
2C0B
330
2EDD
100
AcDbEntity
  8
SIZE
100
AcDbLine
 10
135.5
 20
-449.9999999999996
 30
0.0
 11
135.5
 21
-581.6593666390438
 31
0.0
  0
LINE
  5
2C0C
330
2EDD
100
AcDbEntity
  8
SIZE
100
AcDbLine
 10
-135.5000000000002
 20
-449.9999999999992
 30
0.0
 11
-135.5000000000002
 21
-581.6593666390438
 31
0.0
  0
LINE
  5
2C0D
330
2EDD
100
AcDbEntity
  8
SIZE
100
AcDbLine
 10
123.5
 20
-561.6593666390439
 30
0.0
 11
-123.5000000000002
 21
-561.6593666390439
 31
0.0
  0
INSERT
  5
2C0E
330
2EDD
100
AcDbEntity
  8
SIZE
100
AcDbBlockReference
  2
_DOTBLANK
 10
135.5
 20
-561.6593666390439
 30
0.0
 41
12.0
 42
12.0
 43
12.0
  0
INSERT
  5
2C0F
330
2EDD
100
AcDbEntity
  8
SIZE
100
AcDbBlockReference
  2
_DOTBLANK
 10
-135.5000000000002
 20
-561.6593666390439
 30
0.0
 41
12.0
 42
12.0
 43
12.0
 50
180.0
  0
TEXT
  5
2C10
330
2EDD
100
AcDbEntity
  8
SIZE
100
AcDbText
 10
-61.71428571428577
 20
-551.6593666390439
 30
0.0
 40
64.0
  1
271
 41
0.9
100
AcDbText
  0
TEXT
  5
2C11
330
2EDD
100
AcDbEntity
  8
SIZE
100
AcDbText
 10
-333.6294636086025
 20
-532.5999999999993
 30
0.0
 40
64.0
  1
11
 50
90.0
 41
0.9
100
AcDbText
  0
TEXT
  5
2C12
330
2EDD
100
AcDbEntity
  8
SIZE
100
AcDbText
 10
-333.6294636086023
 20
-289.0571428571425
 30
0.0
 40
64.0
  1
430
 50
90.0
 41
0.9
100
AcDbText
  0
TEXT
  5
2C13
330
2EDD
100
AcDbEntity
  8
SIZE
100
AcDbText
 10
-74.61302049113966
 20
170.3320910096174
 30
0.0
 40
64.0
  1
280
 41
0.9
100
AcDbText
  0
TEXT
  5
2C14
330
2EDD
100
AcDbEntity
  8
SIZE
100
AcDbText
 10
-68.57142857142889
 20
288.8865929365172
 30
0.0
 40
64.0
  1
315
 41
0.9
100
AcDbText
  0
TEXT
  5
2C15
330
2EDD
100
AcDbEntity
  8
SIZE
100
AcDbText
 10
258.6635928451542
 20
-80.40000000000018
 30
0.0
 40
64.0
  1
8
 50
90.0
 41
0.9
100
AcDbText
  0
TEXT
  5
2C16
330
2EDD
100
AcDbEntity
  8
NOTE
100
AcDbText
 10
-773.7093999922541
 20
113.5270950580136
 30
0.0
 40
64.0
  1
4×φ10取付穴
 41
0.9
100
AcDbText
  0
ENDSEC
  0
SECTION
  2
OBJECTS
  0
DICTIONARY
  5
2E75
330
0
100
AcDbDictionary
281
     1
  3
ACAD_2007HEADERVARS_RT
350
307C
  3
ACAD_COLOR
350
2ED3
  3
ACAD_GROUP
350
2E76
  3
ACAD_LAYOUT
350
2ED2
  3
ACAD_MATERIAL
350
2E79
  3
ACAD_MLEADERSTYLE
350
2ED6
  3
ACAD_MLINESTYLE
350
2ECF
  3
ACAD_PLOTSETTINGS
350
2ED1
  3
ACAD_PLOTSTYLENAME
350
2E77
  3
ACAD_SCALELIST
350
2EA3
  3
ACAD_TABLESTYLE
350
2ED4
  3
ACAD_VISUALSTYLE
350
2E92
  3
ACDB_RECOMPOSE_DATA
350
307A
  3
AcDbVariableDictionary
350
3071
  3
AcmDictionary
350
301A
  3
AMG
350
2F67
  3
AMGSNAPSETTINGS
350
3042
  3
DWGPROPS
350
307B
  3
MAPISURF_MODULE
350
2FE7
  0
DICTIONARY
  5
3049
330
2EC5
100
AcDbDictionary
280
     1
281
     1
  3
ADSK_XREC_LAYER_RECONCILED
360
304A
  0
DICTIONARY
  5
304B
330
2EF4
100
AcDbDictionary
280
     1
281
     1
  3
ADSK_XREC_LAYER_RECONCILED
360
304C
  0
DICTIONARY
  5
304D
330
2EF5
100
AcDbDictionary
280
     1
281
     1
  3
ADSK_XREC_LAYER_RECONCILED
360
304E
  0
DICTIONARY
  5
304F
330
2EF6
100
AcDbDictionary
280
     1
281
     1
  3
ADSK_XREC_LAYER_RECONCILED
360
3050
  0
DICTIONARY
  5
3051
330
2EF7
100
AcDbDictionary
280
     1
281
     1
  3
ADSK_XREC_LAYER_RECONCILED
360
3052
  0
DICTIONARY
  5
3053
330
2EF8
100
AcDbDictionary
280
     1
281
     1
  3
ADSK_XREC_LAYER_RECONCILED
360
3054
  0
DICTIONARY
  5
3055
330
2EFA
100
AcDbDictionary
280
     1
281
     1
  3
ADSK_XREC_LAYER_RECONCILED
360
3056
  0
DICTIONARY
  5
3057
330
2EFB
100
AcDbDictionary
280
     1
281
     1
  3
ADSK_XREC_LAYER_RECONCILED
360
3058
  0
DICTIONARY
  5
3059
330
2EFC
100
AcDbDictionary
280
     1
281
     1
  3
ADSK_XREC_LAYER_RECONCILED
360
305A
  0
DICTIONARY
  5
305B
330
2EFD
100
AcDbDictionary
280
     1
281
     1
  3
ADSK_XREC_LAYER_RECONCILED
360
305C
  0
DICTIONARY
  5
305D
330
2EFE
100
AcDbDictionary
280
     1
281
     1
  3
ADSK_XREC_LAYER_RECONCILED
360
305E
  0
DICTIONARY
  5
305F
330
2EFF
100
AcDbDictionary
280
     1
281
     1
  3
ADSK_XREC_LAYER_RECONCILED
360
3060
  0
DICTIONARY
  5
3061
330
2EDD
100
AcDbDictionary
280
     1
281
     1
  3
ACAD_INDEX
360
3062
  0
DICTIONARY
  5
307C
102
{ACAD_REACTORS
330
2E75
102
}
330
2E75
100
AcDbDictionary
281
     1
  3
DIMARCSYM
350
307D
  3
DIMLTEX1
350
307F
  3
DIMLTEX2
350
3080
  3
DIMLTYPE
350
307E
  0
DICTIONARY
  5
2ED3
102
{ACAD_REACTORS
330
2E75
102
}
330
2E75
100
AcDbDictionary
281
     1
  0
DICTIONARY
  5
2E76
102
{ACAD_REACTORS
330
2E75
102
}
330
2E75
100
AcDbDictionary
281
     1
  0
DICTIONARY
  5
2ED2
102
{ACAD_REACTORS
330
2E75
102
}
330
2E75
100
AcDbDictionary
281
     1
  3
Model
350
2EE0
  3
レイアウト1
350
2EDC
  0
DICTIONARY
  5
2E79
102
{ACAD_REACTORS
330
2E75
102
}
330
2E75
100
AcDbDictionary
281
     1
  3
ByBlock
350
2E82
  3
ByLayer
350
2E7A
  3
Global
350
2E8A
  0
DICTIONARY
  5
2ED6
102
{ACAD_REACTORS
330
2E75
102
}
330
2E75
100
AcDbDictionary
281
     1
  3
Standard
350
2ED7
  0
DICTIONARY
  5
2ECF
102
{ACAD_REACTORS
330
2E75
102
}
330
2E75
100
AcDbDictionary
281
     1
  3
Standard
350
2ED0
  0
DICTIONARY
  5
2ED1
102
{ACAD_REACTORS
330
2E75
102
}
330
2E75
100
AcDbDictionary
281
     1
  0
ACDBDICTIONARYWDFLT
  5
2E77
102
{ACAD_REACTORS
330
2E75
102
}
330
2E75
100
AcDbDictionary
281
     1
  3
Normal
350
2E78
100
AcDbDictionaryWithDefault
340
2E78
  0
DICTIONARY
  5
2EA3
102
{ACAD_REACTORS
330
2E75
102
}
330
2E75
100
AcDbDictionary
281
     1
  3
A0
350
2EA4
  3
A1
350
2EA5
  3
A2
350
2EA6
  3
A3
350
2EA7
  3
A4
350
2EA8
  3
A5
350
2EA9
  3
A6
350
2EAA
  3
A7
350
2EAB
  3
A8
350
2EAC
  3
A9
350
2EAD
  3
B0
350
2EAE
  3
B1
350
2EAF
  3
B2
350
2EB0
  3
B3
350
2EB1
  3
B4
350
2EB2
  3
B5
350
2EB3
  3
B6
350
2EB4
  3
B7
350
2EB5
  3
B8
350
2EB6
  3
B9
350
2EB7
  3
C0
350
2EB8
  3
C1
350
2EB9
  3
C2
350
2EBA
  3
C3
350
2EBB
  3
C4
350
2EBC
  3
C5
350
2EBD
  3
C6
350
2EBE
  3
C7
350
2EBF
  3
C8
350
2EC0
  3
C9
350
2EC1
  3
D0
350
2EC2
  3
D1
350
2EC3
  3
D2
350
2EC4
  0
DICTIONARY
  5
2ED4
102
{ACAD_REACTORS
330
2E75
102
}
330
2E75
100
AcDbDictionary
281
     1
  3
Standard
350
2ED5
  0
DICTIONARY
  5
2E92
102
{ACAD_REACTORS
330
2E75
102
}
330
2E75
100
AcDbDictionary
281
     1
  3
2dWireframe
350
2E98
  3
3D Hidden
350
2E9A
  3
3dWireframe
350
2E99
  3
Basic
350
2E97
  3
Brighten
350
2E9E
  3
ColorChange
350
2EA2
  3
Conceptual
350
2E9B
  3
Dim
350
2E9D
  3
Facepattern
350
2EA1
  3
Flat
350
2E93
  3
FlatWithEdges
350
2E94
  3
Gouraud
350
2E95
  3
GouraudWithEdges
350
2E96
  3
Linepattern
350
2EA0
  3
Realistic
350
2E9C
  3
Thicken
350
2E9F
  0
XRECORD
  5
307A
102
{ACAD_REACTORS
330
2E75
102
}
330
2E75
100
AcDbXrecord
280
     1
 90
        1
330
2ED5
  0
DICTIONARY
  5
3071
102
{ACAD_REACTORS
330
2E75
102
}
330
2E75
100
AcDbDictionary
281
     1
  3
CANNOSCALE
350
3074
  3
CMLEADERSTYLE
350
3073
  3
CTABLESTYLE
350
3072
  3
DIMASSOC
350
3077
  3
INDEXCTL
350
3076
  3
SORTENTS
350
3075
  0
DICTIONARY
  5
301A
102
{ACAD_REACTORS
330
2E75
102
}
330
2E75
100
AcDbDictionary
281
     1
  3
AcmStdDictionary
350
3028
  0
DICTIONARY
  5
2F67
102
{ACAD_REACTORS
330
2E75
102
}
330
2E75
100
AcDbDictionary
281
     1
  3
AcMgSettings
350
2F68
  0
DICTIONARY
  5
3042
102
{ACAD_REACTORS
330
2E75
102
}
330
2E75
100
AcDbDictionary
281
     1
  3
DIMENSION
350
3047
  3
FEA
350
3046
  3
HATCH (1)
350
3043
  3
HATCH (2)
350
3044
  3
SIMPLE WELD
350
3048
  3
SYMBOLS
350
3045
  0
XRECORD
  5
307B
102
{ACAD_REACTORS
330
2E75
102
}
330
2E75
100
AcDbXrecord
280
     1
  1
DWGPROPS COOKIE
  2

  3

  4

  6

  7

  8
A090053
  9

300
AmdtFileType=84
301
=
302
=
303
=
304
=
305
=
306
=
307
=
308
=
309
=
 40
1.044273969907407
 41
2452321.396199653
 42
2456213.396253878
  1

 90
        1
  0
XRECORD
  5
304A
102
{ACAD_REACTORS
330
3049
102
}
330
3049
100
AcDbXrecord
280
     1
290
     1
  0
XRECORD
  5
304C
102
{ACAD_REACTORS
330
304B
102
}
330
304B
100
AcDbXrecord
280
     1
290
     1
  0
XRECORD
  5
304E
102
{ACAD_REACTORS
330
304D
102
}
330
304D
100
AcDbXrecord
280
     1
290
     1
  0
XRECORD
  5
3050
102
{ACAD_REACTORS
330
304F
102
}
330
304F
100
AcDbXrecord
280
     1
290
     1
  0
XRECORD
  5
3052
102
{ACAD_REACTORS
330
3051
102
}
330
3051
100
AcDbXrecord
280
     1
290
     1
  0
XRECORD
  5
3054
102
{ACAD_REACTORS
330
3053
102
}
330
3053
100
AcDbXrecord
280
     1
290
     1
  0
XRECORD
  5
3056
102
{ACAD_REACTORS
330
3055
102
}
330
3055
100
AcDbXrecord
280
     1
290
     1
  0
XRECORD
  5
3058
102
{ACAD_REACTORS
330
3057
102
}
330
3057
100
AcDbXrecord
280
     1
290
     1
  0
XRECORD
  5
305A
102
{ACAD_REACTORS
330
3059
102
}
330
3059
100
AcDbXrecord
280
     1
290
     1
  0
XRECORD
  5
305C
102
{ACAD_REACTORS
330
305B
102
}
330
305B
100
AcDbXrecord
280
     1
290
     1
  0
XRECORD
  5
305E
102
{ACAD_REACTORS
330
305D
102
}
330
305D
100
AcDbXrecord
280
     1
290
     1
  0
XRECORD
  5
3060
102
{ACAD_REACTORS
330
305F
102
}
330
305F
100
AcDbXrecord
280
     1
290
     1
  0
DICTIONARY
  5
3062
102
{ACAD_REACTORS
330
3061
102
}
330
3061
100
AcDbDictionary
281
     1
  3
*A1
350
3063
  0
XRECORD
  5
307D
102
{ACAD_REACTORS
330
307C
102
}
330
307C
100
AcDbXrecord
280
     1
 70
     1
  0
XRECORD
  5
307F
102
{ACAD_REACTORS
330
307C
102
}
330
307C
100
AcDbXrecord
280
     1
340
2ECB
  0
XRECORD
  5
3080
102
{ACAD_REACTORS
330
307C
102
}
330
307C
100
AcDbXrecord
280
     1
340
2ECB
  0
XRECORD
  5
307E
102
{ACAD_REACTORS
330
307C
102
}
330
307C
100
AcDbXrecord
280
     1
340
2ECB
  0
LAYOUT
  5
2EE0
102
{ACAD_XDICTIONARY
360
3087
102
}
102
{ACAD_REACTORS
330
2ED2
102
}
330
2ED2
100
AcDbPlotSettings
  1

  2
自動 EPSON LP-9600S (W2450527 上)
  4

  6

 40
0.0
 41
0.0
 42
0.0
 43
0.0
 44
0.0
 45
0.0
 46
0.0
 47
0.0
 48
0.0
 49
0.0
140
0.0
141
0.0
142
1.0
143
1.0
 70
  1712
 72
     0
 73
     0
 74
     0
  7

 75
     0
147
1.0
148
0.0
149
0.0
100
AcDbLayout
  1
Model
 70
     1
 71
     0
 10
0.0
 20
0.0
 11
12.0
 21
9.0
 12
0.0
 22
0.0
 32
0.0
 14
0.0
 24
0.0
 34
0.0
 15
0.0
 25
0.0
 35
0.0
146
0.0
 13
0.0
 23
0.0
 33
0.0
 16
1.0
 26
0.0
 36
0.0
 17
0.0
 27
1.0
 37
0.0
 76
     0
330
2EDD
331
2EE1
  0
LAYOUT
  5
2EDC
102
{ACAD_XDICTIONARY
360
3085
102
}
102
{ACAD_REACTORS
330
2ED2
102
}
330
2ED2
100
AcDbPlotSettings
  1

  2
自動 EPSON LP-9600S (W2450527 上)
  4

  6

 40
0.0
 41
0.0
 42
0.0
 43
0.0
 44
0.0
 45
0.0
 46
0.0
 47
0.0
 48
0.0
 49
0.0
140
0.0
141
0.0
142
1.0
143
1.0
 70
   688
 72
     0
 73
     0
 74
     5
  7

 75
    16
147
1.0
148
0.0
149
0.0
100
AcDbLayout
  1
レイアウト1
 70
     1
 71
     1
 10
0.0
 20
0.0
 11
12.0
 21
9.0
 12
0.0
 22
0.0
 32
0.0
 14
1.000000000000000E+20
 24
1.000000000000000E+20
 34
1.000000000000000E+20
 15
-1.000000000000000E+20
 25
-1.000000000000000E+20
 35
-1.000000000000000E+20
146
0.0
 13
0.0
 23
0.0
 33
0.0
 16
1.0
 26
0.0
 36
0.0
 17
0.0
 27
1.0
 37
0.0
 76
     0
330
2ED9
  0
MATERIAL
  5
2E82
102
{ACAD_XDICTIONARY
360
2E83
102
}
102
{ACAD_REACTORS
330
2E79
102
}
330
2E79
100
AcDbMaterial
  1
ByBlock
 72
     0
 43
0.0208333333333333
 43
0.0
 43
0.0
 43
0.0
 43
0.0
 43
0.0208333333333333
 43
0.0
 43
0.0
 43
0.0
 43
0.0
 43
1.0
 43
0.0
 43
0.0
 43
0.0
 43
0.0
 43
1.0
 77
     0
 47
0.0208333333333333
 47
0.0
 47
0.0
 47
0.0
 47
0.0
 47
0.0208333333333333
 47
0.0
 47
0.0
 47
0.0
 47
0.0
 47
1.0
 47
0.0
 47
0.0
 47
0.0
 47
0.0
 47
1.0
171
     0
 49
0.0208333333333333
 49
0.0
 49
0.0
 49
0.0
 49
0.0
 49
0.0208333333333333
 49
0.0
 49
0.0
 49
0.0
 49
0.0
 49
1.0
 49
0.0
 49
0.0
 49
0.0
 49
0.0
 49
1.0
175
     0
142
0.0208333333333333
142
0.0
142
0.0
142
0.0
142
0.0
142
0.0208333333333333
142
0.0
142
0.0
142
0.0
142
0.0
142
1.0
142
0.0
142
0.0
142
0.0
142
0.0
142
1.0
179
     0
144
0.0208333333333333
144
0.0
144
0.0
144
0.0
144
0.0
144
0.0208333333333333
144
0.0
144
0.0
144
0.0
144
0.0
144
1.0
144
0.0
144
0.0
144
0.0
144
0.0
144
1.0
147
0.0208333333333333
147
0.0
147
0.0
147
0.0
147
0.0
147
0.0208333333333333
147
0.0
147
0.0
147
0.0
147
0.0
147
1.0
147
0.0
147
0.0
147
0.0
147
0.0
147
1.0
  0
MATERIAL
  5
2E7A
102
{ACAD_XDICTIONARY
360
2E7B
102
}
102
{ACAD_REACTORS
330
2E79
102
}
330
2E79
100
AcDbMaterial
  1
ByLayer
 72
     0
 43
0.0208333333333333
 43
0.0
 43
0.0
 43
0.0
 43
0.0
 43
0.0208333333333333
 43
0.0
 43
0.0
 43
0.0
 43
0.0
 43
1.0
 43
0.0
 43
0.0
 43
0.0
 43
0.0
 43
1.0
 77
     0
 47
0.0208333333333333
 47
0.0
 47
0.0
 47
0.0
 47
0.0
 47
0.0208333333333333
 47
0.0
 47
0.0
 47
0.0
 47
0.0
 47
1.0
 47
0.0
 47
0.0
 47
0.0
 47
0.0
 47
1.0
171
     0
 49
0.0208333333333333
 49
0.0
 49
0.0
 49
0.0
 49
0.0
 49
0.0208333333333333
 49
0.0
 49
0.0
 49
0.0
 49
0.0
 49
1.0
 49
0.0
 49
0.0
 49
0.0
 49
0.0
 49
1.0
175
     0
142
0.0208333333333333
142
0.0
142
0.0
142
0.0
142
0.0
142
0.0208333333333333
142
0.0
142
0.0
142
0.0
142
0.0
142
1.0
142
0.0
142
0.0
142
0.0
142
0.0
142
1.0
179
     0
144
0.0208333333333333
144
0.0
144
0.0
144
0.0
144
0.0
144
0.0208333333333333
144
0.0
144
0.0
144
0.0
144
0.0
144
1.0
144
0.0
144
0.0
144
0.0
144
0.0
144
1.0
147
0.0208333333333333
147
0.0
147
0.0
147
0.0
147
0.0
147
0.0208333333333333
147
0.0
147
0.0
147
0.0
147
0.0
147
1.0
147
0.0
147
0.0
147
0.0
147
0.0
147
1.0
  0
MATERIAL
  5
2E8A
102
{ACAD_XDICTIONARY
360
2E8B
102
}
102
{ACAD_REACTORS
330
2E79
102
}
330
2E79
100
AcDbMaterial
  1
Global
 72
     0
 43
0.0208333333333333
 43
0.0
 43
0.0
 43
0.0
 43
0.0
 43
0.0208333333333333
 43
0.0
 43
0.0
 43
0.0
 43
0.0
 43
1.0
 43
0.0
 43
0.0
 43
0.0
 43
0.0
 43
1.0
 77
     0
 47
0.0208333333333333
 47
0.0
 47
0.0
 47
0.0
 47
0.0
 47
0.0208333333333333
 47
0.0
 47
0.0
 47
0.0
 47
0.0
 47
1.0
 47
0.0
 47
0.0
 47
0.0
 47
0.0
 47
1.0
171
     0
 49
0.0208333333333333
 49
0.0
 49
0.0
 49
0.0
 49
0.0
 49
0.0208333333333333
 49
0.0
 49
0.0
 49
0.0
 49
0.0
 49
1.0
 49
0.0
 49
0.0
 49
0.0
 49
0.0
 49
1.0
175
     0
142
0.0208333333333333
142
0.0
142
0.0
142
0.0
142
0.0
142
0.0208333333333333
142
0.0
142
0.0
142
0.0
142
0.0
142
1.0
142
0.0
142
0.0
142
0.0
142
0.0
142
1.0
179
     0
144
0.0208333333333333
144
0.0
144
0.0
144
0.0
144
0.0
144
0.0208333333333333
144
0.0
144
0.0
144
0.0
144
0.0
144
1.0
144
0.0
144
0.0
144
0.0
144
0.0
144
1.0
147
0.0208333333333333
147
0.0
147
0.0
147
0.0
147
0.0
147
0.0208333333333333
147
0.0
147
0.0
147
0.0
147
0.0
147
1.0
147
0.0
147
0.0
147
0.0
147
0.0
147
1.0
  0
MLEADERSTYLE
  5
2ED7
102
{ACAD_REACTORS
330
2ED6
102
}
330
2ED6
100
AcDbMLeaderStyle
170
     2
171
     1
172
     0
 90
        2
 40
0.0
 41
0.0
173
     1
 91
-1056964608
340
2ECB
 92
       -2
290
     1
 42
0.09
291
     1
 43
0.36
  3
Standard
 44
0.18
300

342
2EC6
174
     1
178
     6
175
     1
176
     0
 93
-1056964608
 45
0.18
292
     0
297
     0
 46
0.18
 94
-1056964608
 47
1.0
 49
1.0
140
1.0
293
     1
141
0.0
294
     1
177
     0
142
1.0
295
     0
296
     0
143
0.125
1001
ACAD_MLEADERVER
1070
     2
  0
MLINESTYLE
  5
2ED0
102
{ACAD_REACTORS
330
2ECF
102
}
330
2ECF
100
AcDbMlineStyle
  2
STANDARD
 70
     0
  3

 62
   256
 51
90.0
 52
90.0
 71
     2
 49
0.5
 62
   256
  6
BYLAYER
 49
-0.5
 62
   256
  6
BYLAYER
  0
ACDBPLACEHOLDER
  5
2E78
102
{ACAD_REACTORS
330
2E77
102
}
330
2E77
  0
SCALE
  5
2EA4
102
{ACAD_REACTORS
330
2EA3
102
}
330
2EA3
100
AcDbScale
 70
     0
300
1:1
140
1.0
141
1.0
290
     1
  0
SCALE
  5
2EA5
102
{ACAD_REACTORS
330
2EA3
102
}
330
2EA3
100
AcDbScale
 70
     0
300
1:2
140
1.0
141
2.0
290
     0
  0
SCALE
  5
2EA6
102
{ACAD_REACTORS
330
2EA3
102
}
330
2EA3
100
AcDbScale
 70
     0
300
1:4
140
1.0
141
4.0
290
     0
  0
SCALE
  5
2EA7
102
{ACAD_REACTORS
330
2EA3
102
}
330
2EA3
100
AcDbScale
 70
     0
300
1:5
140
1.0
141
5.0
290
     0
  0
SCALE
  5
2EA8
102
{ACAD_REACTORS
330
2EA3
102
}
330
2EA3
100
AcDbScale
 70
     0
300
1:8
140
1.0
141
8.0
290
     0
  0
SCALE
  5
2EA9
102
{ACAD_REACTORS
330
2EA3
102
}
330
2EA3
100
AcDbScale
 70
     0
300
1:10
140
1.0
141
10.0
290
     0
  0
SCALE
  5
2EAA
102
{ACAD_REACTORS
330
2EA3
102
}
330
2EA3
100
AcDbScale
 70
     0
300
1:16
140
1.0
141
16.0
290
     0
  0
SCALE
  5
2EAB
102
{ACAD_REACTORS
330
2EA3
102
}
330
2EA3
100
AcDbScale
 70
     0
300
1:20
140
1.0
141
20.0
290
     0
  0
SCALE
  5
2EAC
102
{ACAD_REACTORS
330
2EA3
102
}
330
2EA3
100
AcDbScale
 70
     0
300
1:30
140
1.0
141
30.0
290
     0
  0
SCALE
  5
2EAD
102
{ACAD_REACTORS
330
2EA3
102
}
330
2EA3
100
AcDbScale
 70
     0
300
1:40
140
1.0
141
40.0
290
     0
  0
SCALE
  5
2EAE
102
{ACAD_REACTORS
330
2EA3
102
}
330
2EA3
100
AcDbScale
 70
     0
300
1:50
140
1.0
141
50.0
290
     0
  0
SCALE
  5
2EAF
102
{ACAD_REACTORS
330
2EA3
102
}
330
2EA3
100
AcDbScale
 70
     0
300
1:100
140
1.0
141
100.0
290
     0
  0
SCALE
  5
2EB0
102
{ACAD_REACTORS
330
2EA3
102
}
330
2EA3
100
AcDbScale
 70
     0
300
2:1
140
2.0
141
1.0
290
     0
  0
SCALE
  5
2EB1
102
{ACAD_REACTORS
330
2EA3
102
}
330
2EA3
100
AcDbScale
 70
     0
300
4:1
140
4.0
141
1.0
290
     0
  0
SCALE
  5
2EB2
102
{ACAD_REACTORS
330
2EA3
102
}
330
2EA3
100
AcDbScale
 70
     0
300
8:1
140
8.0
141
1.0
290
     0
  0
SCALE
  5
2EB3
102
{ACAD_REACTORS
330
2EA3
102
}
330
2EA3
100
AcDbScale
 70
     0
300
10:1
140
10.0
141
1.0
290
     0
  0
SCALE
  5
2EB4
102
{ACAD_REACTORS
330
2EA3
102
}
330
2EA3
100
AcDbScale
 70
     0
300
100:1
140
100.0
141
1.0
290
     0
  0
SCALE
  5
2EB5
102
{ACAD_REACTORS
330
2EA3
102
}
330
2EA3
100
AcDbScale
 70
     0
300
1/128" = 1'-0"
140
0.0078125
141
12.0
290
     0
  0
SCALE
  5
2EB6
102
{ACAD_REACTORS
330
2EA3
102
}
330
2EA3
100
AcDbScale
 70
     0
300
1/64" = 1'-0"
140
0.015625
141
12.0
290
     0
  0
SCALE
  5
2EB7
102
{ACAD_REACTORS
330
2EA3
102
}
330
2EA3
100
AcDbScale
 70
     0
300
1/32" = 1'-0"
140
0.03125
141
12.0
290
     0
  0
SCALE
  5
2EB8
102
{ACAD_REACTORS
330
2EA3
102
}
330
2EA3
100
AcDbScale
 70
     0
300
1/16" = 1'-0"
140
0.0625
141
12.0
290
     0
  0
SCALE
  5
2EB9
102
{ACAD_REACTORS
330
2EA3
102
}
330
2EA3
100
AcDbScale
 70
     0
300
3/32" = 1'-0"
140
0.09375
141
12.0
290
     0
  0
SCALE
  5
2EBA
102
{ACAD_REACTORS
330
2EA3
102
}
330
2EA3
100
AcDbScale
 70
     0
300
1/8" = 1'-0"
140
0.125
141
12.0
290
     0
  0
SCALE
  5
2EBB
102
{ACAD_REACTORS
330
2EA3
102
}
330
2EA3
100
AcDbScale
 70
     0
300
3/16" = 1'-0"
140
0.1875
141
12.0
290
     0
  0
SCALE
  5
2EBC
102
{ACAD_REACTORS
330
2EA3
102
}
330
2EA3
100
AcDbScale
 70
     0
300
1/4" = 1'-0"
140
0.25
141
12.0
290
     0
  0
SCALE
  5
2EBD
102
{ACAD_REACTORS
330
2EA3
102
}
330
2EA3
100
AcDbScale
 70
     0
300
3/8" = 1'-0"
140
0.375
141
12.0
290
     0
  0
SCALE
  5
2EBE
102
{ACAD_REACTORS
330
2EA3
102
}
330
2EA3
100
AcDbScale
 70
     0
300
1/2" = 1'-0"
140
0.5
141
12.0
290
     0
  0
SCALE
  5
2EBF
102
{ACAD_REACTORS
330
2EA3
102
}
330
2EA3
100
AcDbScale
 70
     0
300
3/4" = 1'-0"
140
0.75
141
12.0
290
     0
  0
SCALE
  5
2EC0
102
{ACAD_REACTORS
330
2EA3
102
}
330
2EA3
100
AcDbScale
 70
     0
300
1" = 1'-0"
140
1.0
141
12.0
290
     0
  0
SCALE
  5
2EC1
102
{ACAD_REACTORS
330
2EA3
102
}
330
2EA3
100
AcDbScale
 70
     0
300
1-1/2" = 1'-0"
140
1.5
141
12.0
290
     0
  0
SCALE
  5
2EC2
102
{ACAD_REACTORS
330
2EA3
102
}
330
2EA3
100
AcDbScale
 70
     0
300
3" = 1'-0"
140
3.0
141
12.0
290
     0
  0
SCALE
  5
2EC3
102
{ACAD_REACTORS
330
2EA3
102
}
330
2EA3
100
AcDbScale
 70
     0
300
6" = 1'-0"
140
6.0
141
12.0
290
     0
  0
SCALE
  5
2EC4
102
{ACAD_REACTORS
330
2EA3
102
}
330
2EA3
100
AcDbScale
 70
     0
300
1'-0" = 1'-0"
140
12.0
141
12.0
290
     0
  0
TABLESTYLE
  5
2ED5
102
{ACAD_XDICTIONARY
360
3078
102
}
102
{ACAD_REACTORS
330
2ED4
102
}
330
2ED4
100
AcDbTableStyle
  3
Standard
 70
     0
 71
     0
 40
0.06
 41
0.06
280
     0
281
     0
  7
STANDARD
140
0.18
170
     2
 62
     0
 63
     7
283
     0
274
    -2
284
     1
 64
     0
275
    -2
285
     1
 65
     0
276
    -2
286
     1
 66
     0
277
    -2
287
     1
 67
     0
278
    -2
288
     1
 68
     0
279
    -2
289
     1
 69
     0
  7
STANDARD
140
0.25
170
     5
 62
     0
 63
     7
283
     0
274
    -2
284
     1
 64
     0
275
    -2
285
     1
 65
     0
276
    -2
286
     1
 66
     0
277
    -2
287
     1
 67
     0
278
    -2
288
     1
 68
     0
279
    -2
289
     1
 69
     0
  7
STANDARD
140
0.18
170
     5
 62
     0
 63
     7
283
     0
274
    -2
284
     1
 64
     0
275
    -2
285
     1
 65
     0
276
    -2
286
     1
 66
     0
277
    -2
287
     1
 67
     0
278
    -2
288
     1
 68
     0
279
    -2
289
     1
 69
     0
  0
VISUALSTYLE
  5
2E98
102
{ACAD_REACTORS
330
2E92
102
}
330
2E92
100
AcDbVisualStyle
  2
2dWireframe
 70
     4
 71
     0
 72
     2
 73
     0
 90
        0
 40
-0.6
 41
-30.0
 62
     5
 63
     7
 74
     1
 91
        4
 64
     7
 65
   257
 75
     1
175
     1
 42
1.0
 92
        0
 66
   257
 43
1.0
 76
     1
 77
     6
 78
     2
 67
     7
 79
     5
170
     0
171
     0
290
     0
174
     0
 93
        1
 44
0.0
173
     0
291
     0
 45
0.0
1001
ACAD
1000
AcDbSavedByObjectVersion
1070
     0
  0
VISUALSTYLE
  5
2E9A
102
{ACAD_REACTORS
330
2E92
102
}
330
2E92
100
AcDbVisualStyle
  2
3D Hidden
 70
     6
 71
     1
 72
     2
 73
     2
 90
        0
 40
-0.6
 41
-30.0
 62
     5
 63
     7
 74
     2
 91
        2
 64
     7
 65
   257
 75
     2
175
     1
 42
40.0
 92
        0
 66
   257
 43
1.0
 76
     1
 77
     6
 78
     2
 67
     7
 79
     3
170
     0
171
     0
290
     0
174
     0
 93
        1
 44
0.0
173
     0
291
     0
 45
0.0
1001
ACAD
1000
AcDbSavedByObjectVersion
1070
     0
  0
VISUALSTYLE
  5
2E99
102
{ACAD_REACTORS
330
2E92
102
}
330
2E92
100
AcDbVisualStyle
  2
3dWireframe
 70
     5
 71
     0
 72
     2
 73
     0
 90
        0
 40
-0.6
 41
-30.0
 62
     5
 63
     7
 74
     1
 91
        4
 64
     7
 65
   257
 75
     1
175
     1
 42
1.0
 92
        0
 66
   257
 43
1.0
 76
     1
 77
     6
 78
     2
 67
     7
 79
     5
170
     0
171
     0
290
     0
174
     0
 93
        1
 44
0.0
173
     0
291
     0
 45
0.0
1001
ACAD
1000
AcDbSavedByObjectVersion
1070
     0
  0
VISUALSTYLE
  5
2E97
102
{ACAD_REACTORS
330
2E92
102
}
330
2E92
100
AcDbVisualStyle
  2
Basic
 70
     7
 71
     1
 72
     0
 73
     1
 90
        0
 40
-0.6
 41
-30.0
 62
     5
 63
     7
 74
     0
 91
        4
 64
     7
 65
   257
 75
     1
175
     1
 42
1.0
 92
        8
 66
     7
 43
1.0
 76
     1
 77
     6
 78
     2
 67
     7
 79
     5
170
     0
171
     0
290
     0
174
     0
 93
        1
 44
0.0
173
     0
291
     1
 45
0.0
1001
ACAD
1000
AcDbSavedByObjectVersion
1070
     0
  0
VISUALSTYLE
  5
2E9E
102
{ACAD_REACTORS
330
2E92
102
}
330
2E92
100
AcDbVisualStyle
  2
Brighten
 70
    12
 71
     2
 72
     2
 73
     0
 90
        0
 40
-0.6
 41
-30.0
 62
     5
 63
     7
 74
     1
 91
        4
 64
     7
 65
   257
 75
     1
175
     1
 42
1.0
 92
        8
 66
     7
 43
1.0
 76
     1
 77
     6
 78
     2
 67
     7
 79
     5
170
     0
171
     0
290
     0
174
     0
 93
        1
 44
50.0
173
     0
291
     1
 45
0.0
1001
ACAD
1000
AcDbSavedByObjectVersion
1070
     0
  0
VISUALSTYLE
  5
2EA2
102
{ACAD_REACTORS
330
2E92
102
}
330
2E92
100
AcDbVisualStyle
  2
ColorChange
 70
    16
 71
     2
 72
     2
 73
     3
 90
        0
 40
-0.6
 41
-30.0
 62
     5
 63
     8
 74
     1
 91
        4
 64
     7
 65
   257
 75
     1
175
     1
 42
1.0
 92
        8
 66
     8
 43
1.0
 76
     1
 77
     6
 78
     2
 67
     7
 79
     5
170
     0
171
     0
290
     0
174
     0
 93
        1
 44
0.0
173
     0
291
     1
 45
0.0
1001
ACAD
1000
AcDbSavedByObjectVersion
1070
     0
  0
VISUALSTYLE
  5
2E9B
102
{ACAD_REACTORS
330
2E92
102
}
330
2E92
100
AcDbVisualStyle
  2
Conceptual
 70
     9
 71
     3
 72
     2
 73
     0
 90
        0
 40
-0.6
 41
-30.0
 62
     5
 63
     7
 74
     2
 91
        2
 64
     7
 65
   257
 75
     1
175
     1
 42
40.0
 92
        8
 66
     7
 43
1.0
 76
     1
 77
     6
 78
     2
 67
     7
 79
     3
170
     0
171
     0
290
     0
174
     0
 93
        1
 44
0.0
173
     0
291
     0
 45
0.0
1001
ACAD
1000
AcDbSavedByObjectVersion
1070
     0
  0
VISUALSTYLE
  5
2E9D
102
{ACAD_REACTORS
330
2E92
102
}
330
2E92
100
AcDbVisualStyle
  2
Dim
 70
    11
 71
     2
 72
     2
 73
     0
 90
        0
 40
-0.6
 41
-30.0
 62
     5
 63
     7
 74
     1
 91
        4
 64
     7
 65
   257
 75
     1
175
     1
 42
1.0
 92
        8
 66
     7
 43
1.0
 76
     1
 77
     6
 78
     2
 67
     7
 79
     5
170
     0
171
     0
290
     0
174
     0
 93
        1
 44
-50.0
173
     0
291
     1
 45
0.0
1001
ACAD
1000
AcDbSavedByObjectVersion
1070
     0
  0
VISUALSTYLE
  5
2EA1
102
{ACAD_REACTORS
330
2E92
102
}
330
2E92
100
AcDbVisualStyle
  2
Facepattern
 70
    15
 71
     2
 72
     2
 73
     0
 90
        0
 40
-0.6
 41
-30.0
 62
     5
 63
     7
 74
     1
 91
        4
 64
     7
 65
   257
 75
     1
175
     1
 42
1.0
 92
        8
 66
     7
 43
1.0
 76
     1
 77
     6
 78
     2
 67
     7
 79
     5
170
     0
171
     0
290
     0
174
     0
 93
        1
 44
0.0
173
     0
291
     1
 45
0.0
1001
ACAD
1000
AcDbSavedByObjectVersion
1070
     0
  0
VISUALSTYLE
  5
2E93
102
{ACAD_REACTORS
330
2E92
102
}
330
2E92
100
AcDbVisualStyle
  2
Flat
 70
     0
 71
     2
 72
     1
 73
     1
 90
        2
 40
-0.6
 41
30.0
 62
     5
 63
     7
 74
     0
 91
        4
 64
     7
 65
   257
 75
     1
175
     1
 42
1.0
 92
        8
 66
     7
 43
1.0
 76
     1
 77
     6
 78
     2
 67
     7
 79
     5
170
     0
171
     0
290
     0
174
     0
 93
       13
 44
0.0
173
     0
291
     1
 45
0.0
1001
ACAD
1000
AcDbSavedByObjectVersion
1070
     0
  0
VISUALSTYLE
  5
2E94
102
{ACAD_REACTORS
330
2E92
102
}
330
2E92
100
AcDbVisualStyle
  2
FlatWithEdges
 70
     1
 71
     2
 72
     1
 73
     1
 90
        2
 40
-0.6
 41
30.0
 62
     5
 63
     7
 74
     1
 91
        4
 64
     7
 65
   257
 75
     1
175
     1
 42
1.0
 92
        0
 66
   257
 43
1.0
 76
     1
 77
     6
 78
     2
 67
     7
 79
     5
170
     0
171
     0
290
     0
174
     0
 93
       13
 44
0.0
173
     0
291
     1
 45
0.0
1001
ACAD
1000
AcDbSavedByObjectVersion
1070
     0
  0
VISUALSTYLE
  5
2E95
102
{ACAD_REACTORS
330
2E92
102
}
330
2E92
100
AcDbVisualStyle
  2
Gouraud
 70
     2
 71
     2
 72
     2
 73
     1
 90
        2
 40
-0.6
 41
30.0
 62
     5
 63
     7
 74
     0
 91
        4
 64
     7
 65
   257
 75
     1
175
     1
 42
1.0
 92
        0
 66
     7
 43
1.0
 76
     1
 77
     6
 78
     2
 67
     7
 79
     5
170
     0
171
     0
290
     0
174
     0
 93
       13
 44
0.0
173
     0
291
     1
 45
0.0
1001
ACAD
1000
AcDbSavedByObjectVersion
1070
     0
  0
VISUALSTYLE
  5
2E96
102
{ACAD_REACTORS
330
2E92
102
}
330
2E92
100
AcDbVisualStyle
  2
GouraudWithEdges
 70
     3
 71
     2
 72
     2
 73
     1
 90
        2
 40
-0.6
 41
30.0
 62
     5
 63
     7
 74
     1
 91
        4
 64
     7
 65
   257
 75
     1
175
     1
 42
1.0
 92
        0
 66
   257
 43
1.0
 76
     1
 77
     6
 78
     2
 67
     7
 79
     5
170
     0
171
     0
290
     0
174
     0
 93
       13
 44
0.0
173
     0
291
     1
 45
0.0
1001
ACAD
1000
AcDbSavedByObjectVersion
1070
     0
  0
VISUALSTYLE
  5
2EA0
102
{ACAD_REACTORS
330
2E92
102
}
330
2E92
100
AcDbVisualStyle
  2
Linepattern
 70
    14
 71
     2
 72
     2
 73
     0
 90
        0
 40
-0.6
 41
-30.0
 62
     5
 63
     7
 74
     1
 91
        4
 64
     7
 65
   257
 75
     7
175
     7
 42
1.0
 92
        8
 66
     7
 43
1.0
 76
     1
 77
     6
 78
     2
 67
     7
 79
     5
170
     0
171
     0
290
     0
174
     0
 93
        1
 44
0.0
173
     0
291
     1
 45
0.0
1001
ACAD
1000
AcDbSavedByObjectVersion
1070
     0
  0
VISUALSTYLE
  5
2E9C
102
{ACAD_REACTORS
330
2E92
102
}
330
2E92
100
AcDbVisualStyle
  2
Realistic
 70
     8
 71
     2
 72
     2
 73
     0
 90
        0
 40
-0.6
 41
-30.0
 62
     5
 63
     7
 74
     1
 91
        0
 64
     7
 65
   257
 75
     1
175
     1
 42
1.0
 92
        8
 66
     8
 43
1.0
 76
     1
 77
     6
 78
     2
 67
     7
 79
     5
170
     0
171
     0
290
     0
174
     0
 93
       13
 44
0.0
173
     0
291
     0
 45
0.0
1001
ACAD
1000
AcDbSavedByObjectVersion
1070
     0
  0
VISUALSTYLE
  5
2E9F
102
{ACAD_REACTORS
330
2E92
102
}
330
2E92
100
AcDbVisualStyle
  2
Thicken
 70
    13
 71
     2
 72
     2
 73
     0
 90
        0
 40
-0.6
 41
-30.0
 62
     5
 63
     7
 74
     1
 91
        4
 64
     7
 65
   257
 75
     1
175
     1
 42
1.0
 92
       12
 66
     7
 43
1.0
 76
     1
 77
     6
 78
     2
 67
     7
 79
     5
170
     0
171
     0
290
     0
174
     0
 93
        1
 44
0.0
173
     0
291
     1
 45
0.0
1001
ACAD
1000
AcDbSavedByObjectVersion
1070
     0
  0
DICTIONARYVAR
  5
3074
102
{ACAD_REACTORS
330
3071
102
}
330
3071
100
DictionaryVariables
280
     0
  1
1:1
  0
DICTIONARYVAR
  5
3073
102
{ACAD_REACTORS
330
3071
102
}
330
3071
100
DictionaryVariables
280
     0
  1
STANDARD
  0
DICTIONARYVAR
  5
3072
102
{ACAD_REACTORS
330
3071
102
}
330
3071
100
DictionaryVariables
280
     0
  1
STANDARD
  0
DICTIONARYVAR
  5
3077
102
{ACAD_REACTORS
330
3071
102
}
330
3071
100
DictionaryVariables
280
     0
  1
1
  0
DICTIONARYVAR
  5
3076
102
{ACAD_REACTORS
330
3071
102
}
330
3071
100
DictionaryVariables
280
     0
  1
1
  0
DICTIONARYVAR
  5
3075
102
{ACAD_REACTORS
330
3071
102
}
330
3071
100
DictionaryVariables
280
     0
  1
127
  0
DICTIONARY
  5
3028
102
{ACAD_REACTORS
330
301A
102
}
330
301A
100
AcDbDictionary
281
     1
  0
DICTIONARY
  5
2F68
102
{ACAD_REACTORS
330
2F67
102
}
330
2F67
100
AcDbDictionary
281
     1
  3
DWGSETTINGS
350
2F69
  3
TRANSSETTINGS
350
2F6A
  0
ACAMGFILTERDAT
  5
3047
102
{ACAD_REACTORS
330
3042
102
}
330
3042
100
AcAmgFilterDat
 70
    15
  1
DIMENSION,AMDT_*_DIM
  2
*
  3
*
  4
*
  5
*
290
     1
  0
ACAMGFILTERDAT
  5
3046
102
{ACAD_REACTORS
330
3042
102
}
330
3042
100
AcAmgFilterDat
 70
    15
  1
*
  2
AM_FEA-AM_*
  3
*
  4
*
  5
*
290
     1
  0
ACAMGFILTERDAT
  5
3043
102
{ACAD_REACTORS
330
3042
102
}
330
3042
100
AcAmgFilterDat
 70
    15
  1
HATCH
  2
*
  3
*
  4
*
  5
*
290
     1
  0
ACAMGFILTERDAT
  5
3044
102
{ACAD_REACTORS
330
3042
102
}
330
3042
100
AcAmgFilterDat
 70
    15
  1
LINE
  2
8,8N,*-8,*-8N,AM_8,AM_8N,*-AM_8,*-AM_8N
  3
*
  4
*
  5
INSERT,STDPART2D
290
     1
  0
ACAMGFILTERDAT
  5
3048
102
{ACAD_REACTORS
330
3042
102
}
330
3042
100
AcAmgFilterDat
 70
    15
  1
ARC
  2
AM_5
  3
*
  4
2
  5
INSERT
290
     0
  0
ACAMGFILTERDAT
  5
3045
102
{ACAD_REACTORS
330
3042
102
}
330
3042
100
AcAmgFilterDat
 70
    15
  1
ACMFCFRAME,ACMDATUMTARGET,ACMDATUMID,ACMWELDSYM,ACMSURFSYM,ACMFEATID,ACMPARTREF,ACMBALLOON,AMDTEDGESYM,AMGSCREWCALCTABLE,ACMMARKSTAMP
  2
*
  3
*
  4
*
  5
*
290
     1
  0
LAYER_INDEX
  5
3063
102
{ACAD_REACTORS
330
3062
102
}
330
3062
100
AcDbIndex
 40
2456213.396253878
100
AcDbLayerIndex
  8
0
360
3064
 90
        1
  8
OUTLINE
360
3065
 90
       44
  8
SIZE
360
3066
 90
       40
  8
BASIS
360
3067
 90
        1
  8
DETAIL
360
3068
 90
       45
  8
ARRANGE
360
3069
 90
        2
  8
DEFPOINTS
360
306A
 90
        0
  8
ETC
360
306B
 90
        3
  8
FIX
360
306C
 90
        0
  8
NOTE
360
306D
 90
        5
  8
SERVICESPACE
360
306E
 90
        0
  8
SYMBOLLINE
360
306F
 90
        0
  8
DETAIL___1
360
3070
 90
        4
  0
DICTIONARY
  5
3087
330
2EE0
100
AcDbDictionary
280
     1
281
     1
  3
ACAD_XREC_ROUNDTRIP
360
3088
  0
DICTIONARY
  5
3085
330
2EDC
100
AcDbDictionary
280
     1
281
     1
  3
ACAD_XREC_ROUNDTRIP
360
3086
  0
DICTIONARY
  5
2E83
330
2E82
100
AcDbDictionary
280
     1
281
     1
  3
ACAD_XREC_ROUNDTRIP
360
3082
  3
BUMPTILE
360
2E85
  3
DIFFUSETILE
360
2E84
  3
OPACITYTILE
360
2E88
  3
REFLECTIONTILE
360
2E87
  3
REFRACTIONTILE
360
2E89
  3
SPECULARTILE
360
2E86
  0
DICTIONARY
  5
2E7B
330
2E7A
100
AcDbDictionary
280
     1
281
     1
  3
ACAD_XREC_ROUNDTRIP
360
3081
  3
BUMPTILE
360
2E7D
  3
DIFFUSETILE
360
2E7C
  3
OPACITYTILE
360
2E80
  3
REFLECTIONTILE
360
2E7F
  3
REFRACTIONTILE
360
2E81
  3
SPECULARTILE
360
2E7E
  0
DICTIONARY
  5
2E8B
330
2E8A
100
AcDbDictionary
280
     1
281
     1
  3
ACAD_XREC_ROUNDTRIP
360
3083
  3
BUMPTILE
360
2E8D
  3
DIFFUSETILE
360
2E8C
  3
OPACITYTILE
360
2E90
  3
REFLECTIONTILE
360
2E8F
  3
REFRACTIONTILE
360
2E91
  3
SPECULARTILE
360
2E8E
  0
DICTIONARY
  5
3078
330
2ED5
100
AcDbDictionary
280
     1
281
     1
  3
ACAD_ROUNDTRIP_2008_TABLESTYLE_CELLSTYLEMAP
360
3079
  3
ACAD_XREC_ROUNDTRIP
360
3084
  0
IDBUFFER
  5
3064
330
0
100
AcDbIdBuffer
330
2BE3
  0
IDBUFFER
  5
3065
330
0
100
AcDbIdBuffer
330
2BCB
330
2BCC
330
2BCD
330
2BCE
330
2BCF
330
2BD0
330
2BD1
330
2BD2
330
2BD3
330
2BD4
330
2BD5
330
2BD6
330
2BD7
330
2BD8
330
2BD9
330
2BDA
330
2BDB
330
2BDC
330
2BDD
330
2BDE
330
2BDF
330
2BE0
330
2BE1
330
2BE2
330
2BE9
330
2BEA
330
2BEC
330
2BED
330
953
330
954
330
955
330
956
330
957
330
958
330
2BAF
330
2BB5
330
2BC3
330
2BC4
330
2BC5
330
2BC6
330
2BC7
330
2BC8
330
2BC9
330
2BCA
  0
IDBUFFER
  5
3066
330
0
100
AcDbIdBuffer
330
2BFE
330
2BFF
330
2C00
330
2C01
330
2C02
330
2C03
330
2C04
330
2C05
330
2C06
330
2C07
330
2C08
330
2C09
330
2C0A
330
2C0B
330
2C0C
330
2C0D
330
2C0E
330
2C0F
330
2C10
330
2C11
330
2C12
330
2C13
330
2C14
330
2C15
330
2BEE
330
2BEF
330
2BF0
330
2BF1
330
2BF2
330
2BF3
330
2BF4
330
2BF5
330
2BF6
330
2BF7
330
2BF8
330
2BF9
330
2BFA
330
2BFB
330
2BFC
330
2BFD
  0
IDBUFFER
  5
3067
330
0
100
AcDbIdBuffer
330
2B97
  0
IDBUFFER
  5
3068
330
0
100
AcDbIdBuffer
330
2BA6
330
2BA7
330
2BA8
330
2BA9
330
2BAA
330
2BAB
330
2BAC
330
2BAD
330
2BAE
330
2BB0
330
2BB1
330
2BB2
330
2BB3
330
2BB4
330
2BB6
330
2BB7
330
2BB8
330
2BB9
330
2BBA
330
2BBB
330
2BBC
330
2BBD
330
2BBE
330
2BBF
330
2BC0
330
2BE6
330
2BE7
330
2BE8
330
2BEB
330
2B8E
330
2B8F
330
2B98
330
2B99
330
2B9A
330
2B9B
330
2B9C
330
2B9D
330
2B9E
330
2B9F
330
2BA0
330
2BA1
330
2BA2
330
2BA3
330
2BA4
330
2BA5
  0
IDBUFFER
  5
3069
330
0
100
AcDbIdBuffer
330
2B93
330
2B96
  0
IDBUFFER
  5
306A
330
0
100
AcDbIdBuffer
  0
IDBUFFER
  5
306B
330
0
100
AcDbIdBuffer
330
2B90
330
2B91
330
2B92
  0
IDBUFFER
  5
306C
330
0
100
AcDbIdBuffer
  0
IDBUFFER
  5
306D
330
0
100
AcDbIdBuffer
330
2B94
330
2B95
330
2BC1
330
2BC2
330
2C16
  0
IDBUFFER
  5
306E
330
0
100
AcDbIdBuffer
  0
IDBUFFER
  5
306F
330
0
100
AcDbIdBuffer
  0
IDBUFFER
  5
3070
330
0
100
AcDbIdBuffer
330
2B8C
330
2B8D
330
2BE4
330
2BE5
  0
XRECORD
  5
3088
102
{ACAD_REACTORS
330
3087
102
}
330
3087
100
AcDbXrecord
280
     1
102
SHADEPLOT
 70
     0
102
SHADEPLOTRESLEVEL
 70
     2
102
SHADEPLOTCUSTOMDPI
 70
   300
  0
XRECORD
  5
3086
102
{ACAD_REACTORS
330
3085
102
}
330
3085
100
AcDbXrecord
280
     1
102
SHADEPLOT
 70
     0
102
SHADEPLOTRESLEVEL
 70
     2
102
SHADEPLOTCUSTOMDPI
 70
   300
  0
XRECORD
  5
3082
102
{ACAD_REACTORS
330
2E83
102
}
330
2E83
100
AcDbXrecord
280
     1
102
MATERIAL
148
0.0
149
0.0
149
0.0
 93
        0
 94
      127
282
     0
 72
     0
 77
     0
171
     0
175
     0
179
     0
273
     0
  0
XRECORD
  5
2E85
102
{ACAD_REACTORS
330
2E83
102
}
330
2E83
100
AcDbXrecord
280
     1
270
     1
271
     1
  0
XRECORD
  5
2E84
102
{ACAD_REACTORS
330
2E83
102
}
330
2E83
100
AcDbXrecord
280
     1
270
     1
271
     1
  0
XRECORD
  5
2E88
102
{ACAD_REACTORS
330
2E83
102
}
330
2E83
100
AcDbXrecord
280
     1
270
     1
271
     1
  0
XRECORD
  5
2E87
102
{ACAD_REACTORS
330
2E83
102
}
330
2E83
100
AcDbXrecord
280
     1
270
     1
271
     1
  0
XRECORD
  5
2E89
102
{ACAD_REACTORS
330
2E83
102
}
330
2E83
100
AcDbXrecord
280
     1
270
     1
271
     1
  0
XRECORD
  5
2E86
102
{ACAD_REACTORS
330
2E83
102
}
330
2E83
100
AcDbXrecord
280
     1
270
     1
271
     1
  0
XRECORD
  5
3081
102
{ACAD_REACTORS
330
2E7B
102
}
330
2E7B
100
AcDbXrecord
280
     1
102
MATERIAL
148
0.0
149
0.0
149
0.0
 93
        0
 94
      127
282
     0
 72
     0
 77
     0
171
     0
175
     0
179
     0
273
     0
  0
XRECORD
  5
2E7D
102
{ACAD_REACTORS
330
2E7B
102
}
330
2E7B
100
AcDbXrecord
280
     1
270
     1
271
     1
  0
XRECORD
  5
2E7C
102
{ACAD_REACTORS
330
2E7B
102
}
330
2E7B
100
AcDbXrecord
280
     1
270
     1
271
     1
  0
XRECORD
  5
2E80
102
{ACAD_REACTORS
330
2E7B
102
}
330
2E7B
100
AcDbXrecord
280
     1
270
     1
271
     1
  0
XRECORD
  5
2E7F
102
{ACAD_REACTORS
330
2E7B
102
}
330
2E7B
100
AcDbXrecord
280
     1
270
     1
271
     1
  0
XRECORD
  5
2E81
102
{ACAD_REACTORS
330
2E7B
102
}
330
2E7B
100
AcDbXrecord
280
     1
270
     1
271
     1
  0
XRECORD
  5
2E7E
102
{ACAD_REACTORS
330
2E7B
102
}
330
2E7B
100
AcDbXrecord
280
     1
270
     1
271
     1
  0
XRECORD
  5
3083
102
{ACAD_REACTORS
330
2E8B
102
}
330
2E8B
100
AcDbXrecord
280
     1
102
MATERIAL
148
0.0
149
0.0
149
0.0
 93
        0
 94
      127
282
     0
 72
     0
 77
     0
171
     0
175
     0
179
     0
273
     0
  0
XRECORD
  5
2E8D
102
{ACAD_REACTORS
330
2E8B
102
}
330
2E8B
100
AcDbXrecord
280
     1
270
     1
271
     1
  0
XRECORD
  5
2E8C
102
{ACAD_REACTORS
330
2E8B
102
}
330
2E8B
100
AcDbXrecord
280
     1
270
     1
271
     1
  0
XRECORD
  5
2E90
102
{ACAD_REACTORS
330
2E8B
102
}
330
2E8B
100
AcDbXrecord
280
     1
270
     1
271
     1
  0
XRECORD
  5
2E8F
102
{ACAD_REACTORS
330
2E8B
102
}
330
2E8B
100
AcDbXrecord
280
     1
270
     1
271
     1
  0
XRECORD
  5
2E91
102
{ACAD_REACTORS
330
2E8B
102
}
330
2E8B
100
AcDbXrecord
280
     1
270
     1
271
     1
  0
XRECORD
  5
2E8E
102
{ACAD_REACTORS
330
2E8B
102
}
330
2E8B
100
AcDbXrecord
280
     1
270
     1
271
     1
  0
CELLSTYLEMAP
  5
3079
102
{ACAD_REACTORS
330
3078
102
}
330
3078
100
AcDbCellStyleMap
 90
        3
300
CELLSTYLE
  1
TABLEFORMAT_BEGIN
 90
        5
170
     1
 91
        0
 92
    32768
 62
   257
 93
        1
300
CONTENTFORMAT
  1
CONTENTFORMAT_BEGIN
 90
        0
 91
        0
 92
      512
 93
        0
300

 40
0.0
140
1.0
 94
        5
 62
     0
340
2EC6
144
0.25
309
CONTENTFORMAT_END
171
     0
 94
        0
309
TABLEFORMAT_END
  1
CELLSTYLE_BEGIN
 90
        1
 91
        1
300
_TITLE
309
CELLSTYLE_END
300
CELLSTYLE
  1
TABLEFORMAT_BEGIN
 90
        5
170
     1
 91
        0
 92
        0
 62
   257
 93
        1
300
CONTENTFORMAT
  1
CONTENTFORMAT_BEGIN
 90
        0
 91
        0
 92
      512
 93
        0
300

 40
0.0
140
1.0
 94
        5
 62
     0
340
2EC6
144
0.18
309
CONTENTFORMAT_END
171
     0
 94
        0
309
TABLEFORMAT_END
  1
CELLSTYLE_BEGIN
 90
        2
 91
        1
300
_HEADER
309
CELLSTYLE_END
300
CELLSTYLE
  1
TABLEFORMAT_BEGIN
 90
        5
170
     1
 91
        0
 92
        0
 62
   257
 93
        1
300
CONTENTFORMAT
  1
CONTENTFORMAT_BEGIN
 90
        0
 91
        0
 92
      512
 93
        0
300

 40
0.0
140
1.0
 94
        2
 62
     0
340
2EC6
144
0.18
309
CONTENTFORMAT_END
171
     0
 94
        0
309
TABLEFORMAT_END
  1
CELLSTYLE_BEGIN
 90
        3
 91
        2
300
_DATA
309
CELLSTYLE_END
  0
XRECORD
  5
3084
102
{ACAD_REACTORS
330
3078
102
}
330
3078
100
AcDbXrecord
280
     1
102
ACAD_ROUNDTRIP_PRE2007_TABLESTYLE
 90
      512
 91
        0
  1

 92
      512
 93
        0
  2

 94
      512
 95
        0
  3

  0
ENDSEC
  0
EOF
