  0
SECTION
  2
HEADER
  9
$ACADVER
  1
AC1015
  9
$ACADMAINTVER
 70
    20
  9
$DWGCODEPAGE
  3
ANSI_932
  9
$INSBASE
 10
0.0
 20
0.0
 30
0.0
  9
$EXTMIN
 10
-773.7093999922541
 20
-581.659366639044
 30
0.0
  9
$EXTMAX
 10
912.5119717487914
 20
691.4867056518074
 30
50.0
  9
$LIMMIN
 10
-2970.0
 20
-2100.0
  9
$LIMMAX
 10
2970.0
 20
2100.0
  9
$ORTHOMODE
 70
     1
  9
$REGENMODE
 70
     0
  9
$FILLMODE
 70
     1
  9
$QTEXTMODE
 70
     0
  9
$MIRRTEXT
 70
     0
  9
$LTSCALE
 40
20.0
  9
$ATTMODE
 70
     1
  9
$TEXTSIZE
 40
64.0
  9
$TRACEWID
 40
0.05
  9
$TEXTSTYLE
  7
STANDARD
  9
$CLAYER
  8
0
  9
$CELTYPE
  6
ByLayer
  9
$CECOLOR
 62
   256
  9
$CELTSCALE
 40
1.0
  9
$DISPSILH
 70
     0
  9
$DIMSCALE
 40
1.0
  9
$DIMASZ
 40
0.12
  9
$DIMEXO
 40
0.05
  9
$DIMDLI
 40
0.5
  9
$DIMRND
 40
0.0
  9
$DIMDLE
 40
0.0
  9
$DIMEXE
 40
0.1
  9
$DIMTP
 40
0.1
  9
$DIMTM
 40
0.1
  9
$DIMTXT
 40
0.12
  9
$DIMCEN
 40
0.0
  9
$DIMTSZ
 40
0.0
  9
$DIMTOL
 70
     0
  9
$DIMLIM
 70
     0
  9
$DIMTIH
 70
     1
  9
$DIMTOH
 70
     1
  9
$DIMSE1
 70
     0
  9
$DIMSE2
 70
     0
  9
$DIMTAD
 70
     0
  9
$DIMZIN
 70
     7
  9
$DIMBLK
  1

  9
$DIMASO
 70
     1
  9
$DIMSHO
 70
     0
  9
$DIMPOST
  1

  9
$DIMAPOST
  1
mm
  9
$DIMALT
 70
     0
  9
$DIMALTD
 70
     2
  9
$DIMALTF
 40
25.4
  9
$DIMLFAC
 40
1.0
  9
$DIMTOFL
 70
     0
  9
$DIMTVP
 40
0.0
  9
$DIMTIX
 70
     0
  9
$DIMSOXD
 70
     0
  9
$DIMSAH
 70
     0
  9
$DIMBLK1
  1

  9
$DIMBLK2
  1

  9
$DIMSTYLE
  2
AM_ANSI
  9
$DIMCLRD
 70
   256
  9
$DIMCLRE
 70
   256
  9
$DIMCLRT
 70
     2
  9
$DIMTFAC
 40
0.71
  9
$DIMGAP
 40
0.06
  9
$DIMJUST
 70
     0
  9
$DIMSD1
 70
     0
  9
$DIMSD2
 70
     0
  9
$DIMTOLJ
 70
     1
  9
$DIMTZIN
 70
     7
  9
$DIMALTZ
 70
     0
  9
$DIMALTTZ
 70
     0
  9
$DIMUPT
 70
     0
  9
$DIMDEC
 70
     4
  9
$DIMTDEC
 70
     4
  9
$DIMALTU
 70
     2
  9
$DIMALTTD
 70
     4
  9
$DIMTXSTY
  7
STANDARD
  9
$DIMAUNIT
 70
     0
  9
$DIMADEC
 70
     0
  9
$DIMALTRND
 40
0.0
  9
$DIMAZIN
 70
     2
  9
$DIMDSEP
 70
    46
  9
$DIMATFIT
 70
     3
  9
$DIMFRAC
 70
     0
  9
$DIMLDRBLK
  1

  9
$DIMLUNIT
 70
     2
  9
$DIMLWD
 70
    -1
  9
$DIMLWE
 70
    -1
  9
$DIMTMOVE
 70
     0
  9
$LUNITS
 70
     2
  9
$LUPREC
 70
     4
  9
$SKETCHINC
 40
0.1
  9
$FILLETRAD
 40
4.0
  9
$AUNITS
 70
     1
  9
$AUPREC
 70
     3
  9
$MENU
  1
ACAD
  9
$ELEVATION
 40
0.0
  9
$PELEVATION
 40
0.0
  9
$THICKNESS
 40
50.0
  9
$LIMCHECK
 70
     0
  9
$CHAMFERA
 40
0.0
  9
$CHAMFERB
 40
0.0
  9
$CHAMFERC
 40
0.0
  9
$CHAMFERD
 40
0.0
  9
$SKPOLY
 70
     0
  9
$TDCREATE
 40
2452321.396199653
  9
$TDUCREATE
 40
2452321.021199653
  9
$TDUPDATE
 40
2456213.397150023
  9
$TDUUPDATE
 40
2456213.022150024
  9
$TDINDWG
 40
1.0436045949
  9
$TDUSRTIMER
 40
1.0435990046
  9
$USRTIMER
 70
     1
  9
$ANGBASE
 50
0.0
  9
$ANGDIR
 70
     0
  9
$PDMODE
 70
     3
  9
$PDSIZE
 40
-2.0
  9
$PLINEWID
 40
0.0
  9
$SPLFRAME
 70
     0
  9
$SPLINETYPE
 70
     6
  9
$SPLINESEGS
 70
     8
  9
$HANDSEED
  5
2F1B
  9
$SURFTAB1
 70
     6
  9
$SURFTAB2
 70
     6
  9
$SURFTYPE
 70
     6
  9
$SURFU
 70
     6
  9
$SURFV
 70
     6
  9
$UCSBASE
  2

  9
$UCSNAME
  2

  9
$UCSORG
 10
0.0
 20
0.0
 30
0.0
  9
$UCSXDIR
 10
1.0
 20
0.0
 30
0.0
  9
$UCSYDIR
 10
0.0
 20
1.0
 30
0.0
  9
$UCSORTHOREF
  2

  9
$UCSORTHOVIEW
 70
     0
  9
$UCSORGTOP
 10
0.0
 20
0.0
 30
0.0
  9
$UCSORGBOTTOM
 10
0.0
 20
0.0
 30
0.0
  9
$UCSORGLEFT
 10
0.0
 20
0.0
 30
0.0
  9
$UCSORGRIGHT
 10
0.0
 20
0.0
 30
0.0
  9
$UCSORGFRONT
 10
0.0
 20
0.0
 30
0.0
  9
$UCSORGBACK
 10
0.0
 20
0.0
 30
0.0
  9
$PUCSBASE
  2

  9
$PUCSNAME
  2

  9
$PUCSORG
 10
0.0
 20
0.0
 30
0.0
  9
$PUCSXDIR
 10
1.0
 20
0.0
 30
0.0
  9
$PUCSYDIR
 10
0.0
 20
1.0
 30
0.0
  9
$PUCSORTHOREF
  2

  9
$PUCSORTHOVIEW
 70
     0
  9
$PUCSORGTOP
 10
0.0
 20
0.0
 30
0.0
  9
$PUCSORGBOTTOM
 10
0.0
 20
0.0
 30
0.0
  9
$PUCSORGLEFT
 10
0.0
 20
0.0
 30
0.0
  9
$PUCSORGRIGHT
 10
0.0
 20
0.0
 30
0.0
  9
$PUCSORGFRONT
 10
0.0
 20
0.0
 30
0.0
  9
$PUCSORGBACK
 10
0.0
 20
0.0
 30
0.0
  9
$USERI1
 70
     0
  9
$USERI2
 70
     0
  9
$USERI3
 70
     0
  9
$USERI4
 70
     0
  9
$USERI5
 70
     0
  9
$USERR1
 40
20.0
  9
$USERR2
 40
0.0
  9
$USERR3
 40
0.0
  9
$USERR4
 40
0.0
  9
$USERR5
 40
0.0
  9
$WORLDVIEW
 70
     1
  9
$SHADEDGE
 70
     3
  9
$SHADEDIF
 70
    70
  9
$TILEMODE
 70
     1
  9
$MAXACTVP
 70
    64
  9
$PINSBASE
 10
0.0
 20
0.0
 30
0.0
  9
$PLIMCHECK
 70
     0
  9
$PEXTMIN
 10
1.000000000000000E+20
 20
1.000000000000000E+20
 30
1.000000000000000E+20
  9
$PEXTMAX
 10
-1.000000000000000E+20
 20
-1.000000000000000E+20
 30
-1.000000000000000E+20
  9
$PLIMMIN
 10
0.0
 20
0.0
  9
$PLIMMAX
 10
12.0
 20
9.0
  9
$UNITMODE
 70
     0
  9
$VISRETAIN
 70
     1
  9
$PLINEGEN
 70
     0
  9
$PSLTSCALE
 70
     1
  9
$TREEDEPTH
 70
  3020
  9
$CMLSTYLE
  2
Standard
  9
$CMLJUST
 70
     0
  9
$CMLSCALE
 40
1.0
  9
$PROXYGRAPHICS
 70
     1
  9
$MEASUREMENT
 70
     0
  9
$CELWEIGHT
370
    -1
  9
$ENDCAPS
280
     0
  9
$JOINSTYLE
280
     0
  9
$LWDISPLAY
290
     0
  9
$INSUNITS
 70
     0
  9
$HYPERLINKBASE
  1

  9
$STYLESHEET
  1

  9
$XEDIT
290
     1
  9
$CEPSNTYPE
380
     0
  9
$PSTYLEMODE
290
     1
  9
$FINGERPRINTGUID
  2
{B26FE655-748F-40B0-BCDC-E479F08E40FB}
  9
$VERSIONGUID
  2
{EE54C65D-B095-47B7-85AE-608F1F8D34DF}
  9
$EXTNAMES
290
     1
  9
$PSVPSCALE
 40
0.0
  9
$OLESTARTUP
290
     0
  0
ENDSEC
  0
SECTION
  2
CLASSES
  0
CLASS
  1
ACDBDICTIONARYWDFLT
  2
AcDbDictionaryWithDefault
  3
ObjectDBX Classes
 90
        0
280
     0
281
     0
  0
CLASS
  1
MATERIAL
  2
AcDbMaterial
  3
ObjectDBX Classes
 90
     1153
280
     0
281
     0
  0
CLASS
  1
VISUALSTYLE
  2
AcDbVisualStyle
  3
ObjectDBX Classes
 90
     4095
280
     0
281
     0
  0
CLASS
  1
SCALE
  2
AcDbScale
  3
ObjectDBX Classes
 90
     1153
280
     0
281
     0
  0
CLASS
  1
TABLESTYLE
  2
AcDbTableStyle
  3
ObjectDBX Classes
 90
     4095
280
     0
281
     0
  0
CLASS
  1
MLEADERSTYLE
  2
AcDbMLeaderStyle
  3
ACDB_MLEADERSTYLE_CLASS
 90
     4095
280
     0
281
     0
  0
CLASS
  1
AMGSETTINGSOBJ
  2
AmgSettingsObj
  3
"AcadM|Product Description: AutoCAD Mechanical|Company: Autodesk, Inc."
 90
     1024
280
     0
281
     0
  0
CLASS
  1
ACME_DOCUMENT
  2
AcMeDbDoc
  3
AcMeServices
 90
     1024
280
     0
281
     0
  0
CLASS
  1
ACMESCOPE
  2
AcMeScope
  3
AcMeServices
 90
     1024
280
     0
281
     0
  0
CLASS
  1
ACMECOMMANDHISTORY
  2
AcMeCommandHistory
  3
AcMeServices
 90
     1024
280
     0
281
     0
  0
CLASS
  1
ACIMSYSVARMAN
  2
AcImSysVarManager
  3
AcMeServices
 90
     1024
280
     0
281
     0
  0
CLASS
  1
ACIMREALSYSVAR
  2
AcImRealSysVar
  3
AcMeServices
 90
     1024
280
     0
281
     0
  0
CLASS
  1
ACIMINTSYSVAR
  2
AcImIntSysVar
  3
AcMeServices
 90
     1024
280
     0
281
     0
  0
CLASS
  1
ACMEDRAWINGMAN
  2
AcMeDrawingMan
  3
AcMeServices
 90
     1024
280
     0
281
     0
  0
CLASS
  1
ACMEVIEW
  2
AcMeView
  3
AcMeServices
 90
     1024
280
     0
281
     0
  0
CLASS
  1
ACDBENTITYCACHE
  2
AcMeEntityCache
  3
AcMeServices
 90
     1024
280
     0
281
     0
  0
CLASS
  1
GSMANAGER
  2
AcMeGSManager
  3
AcMeServices
 90
     1024
280
     0
281
     0
  0
CLASS
  1
AMDTINTERNALREACTOR
  2
AmdtInternalReactor
  3
AcMeServices
 90
     1024
280
     0
281
     0
  0
CLASS
  1
ACMESTATEMGR
  2
AcMeStateMgr
  3
AcMeServices
 90
     1024
280
     0
281
     0
  0
CLASS
  1
ACGREFMASTER
  2
AcGrefMaster
  3
AcAttribServices
 90
     1024
280
     0
281
     0
  0
CLASS
  1
AM_DRAWING_MGR
  2
AcDmDwgMgr
  3
AcMechDwgViewMgmt
 90
     1024
280
     0
281
     0
  0
CLASS
  1
AM_DWG_DOCUMENT
  2
AcDmDwgDocument
  3
AcMechDwgViewMgmt
 90
     1024
280
     0
281
     0
  0
CLASS
  1
AM_DWG_SHEET
  2
AcDmSheet
  3
AcMechDwgViewMgmt
 90
     1024
280
     0
281
     0
  0
CLASS
  1
AM_VIEWDIMPARMAP
  2
AcDmViewDimParMap
  3
AcMechDwgViewMgmt
 90
     1024
280
     0
281
     0
  0
CLASS
  1
AM_DWGMGR_NAME
  2
AcDmDwgMgrName
  3
AcMechDwgViewMgmt
 90
     1024
280
     0
281
     0
  0
CLASS
  1
ACME_DATABASE
  2
AcMeDbDatabase
  3
AcMeServices
 90
     1024
280
     0
281
     0
  0
CLASS
  1
ACRFINSADJUSTERMGR
  2
AcRfInsAdjusterMgr
  3
AcMeServices
 90
     1024
280
     0
281
     0
  0
CLASS
  1
ACGREFACADMASTER
  2
AcGrefacadMaster
  3
AcGrefServices
 90
     1024
280
     0
281
     0
  0
CLASS
  1
AMDTMENUSTATEMGR
  2
AmdtMenuStateMgr
  3
McadcomServices
 90
     1024
280
     0
281
     0
  0
CLASS
  1
AMDTMCOMMENUSTATE
  2
AmdtMcomMenuState
  3
McadcomServices
 90
     1024
280
     0
281
     0
  0
CLASS
  1
AMIMASTER
  2
AmiMaster
  3
AmiServices
 90
     1024
280
     0
281
     0
  0
CLASS
  1
ASAPP
  2
AcAsAppObject
  3
AutoSurfServices
 90
     1024
280
     0
281
     0
  0
CLASS
  1
IM_STATIC_MAN
  2
AcImStaticVarManager
  3
AcMeServices
 90
     1024
280
     0
281
     0
  0
CLASS
  1
ACIMSTRSYSVAR
  2
AcImStrSysVar
  3
AcMeServices
 90
     1024
280
     0
281
     0
  0
CLASS
  1
ACIMDBLSTATICVAR
  2
AcImDblStaticVar
  3
AcMeServices
 90
     1024
280
     0
281
     0
  0
CLASS
  1
ACIMSTRSTATICVAR
  2
AcImStrStaticVar
  3
AcMeServices
 90
     1024
280
     0
281
     0
  0
CLASS
  1
ACIMINTSTATICVAR
  2
AcImIntStaticVar
  3
AcMeServices
 90
     1024
280
     0
281
     0
  0
CLASS
  1
ACASGREFMASTER
  2
AcAsGrefMaster
  3
AutoSurfResolverServices
 90
     1024
280
     0
281
     0
  0
CLASS
  1
ACADGREFMODULE
  2
AcAdGrefModule
  3
AdGrefServices
 90
     1024
280
     0
281
     0
  0
CLASS
  1
AMDTMAPISURFMOUDULE
  2
AmdtMApiSurfModule
  3
MApiSurfServices
 90
     1024
280
     0
281
     0
  0
CLASS
  1
MAPIAMMOUDLE
  2
MApiAmModule
  3
MApiAmServices
 90
     1024
280
     0
281
     0
  0
CLASS
  1
AMDTADMENUSTATE
  2
AmdtAdMenuState
  3
DesignerServices
 90
     1024
280
     0
281
     0
  0
CLASS
  1
ADAPPL
  2
AcAdAppl
  3
DesignerServices
 90
     1024
280
     0
281
     0
  0
CLASS
  1
DEPMGR
  2
AcAdDepMgr
  3
DesignerServices
 90
     1024
280
     0
281
     0
  0
CLASS
  1
PARAMMGR
  2
AcAdParamMgr
  3
DesignerServices
 90
     1024
280
     0
281
     0
  0
CLASS
  1
PARAMSCOPE
  2
AcAdParamScope
  3
DesignerServices
 90
     1024
280
     0
281
     0
  0
CLASS
  1
NAMEDAPPL
  2
AcAdNamedAppl
  3
DesignerServices
 90
     1024
280
     0
281
     0
  0
CLASS
  1
AMDTDMMENUSTATE
  2
AmdtDmMenuState
  3
AcMechDwgViewMgmt
 90
     1024
280
     0
281
     0
  0
CLASS
  1
MAPIADMODULE
  2
MApiAdModule
  3
MApiAdServices
 90
     1024
280
     0
281
     0
  0
CLASS
  1
AMDTAMMENUSTATE
  2
AmdtAmMenuState
  3
DesignerAssemblies
 90
     1024
280
     0
281
     0
  0
CLASS
  1
ACAMPROJECT
  2
AcAmProject
  3
DesignerAssemblies
 90
     1024
280
     0
281
     0
  0
CLASS
  1
ACAMGRCOMPDEF
  2
AcAmGrCompDef
  3
DesignerAssemblies
 90
     1024
280
     0
281
     0
  0
CLASS
  1
ACCMCONTEXT
  2
AcCmContext
  3
DesignerAssemblies
 90
     1024
280
     0
281
     0
  0
CLASS
  1
ACAMCOMPDEF
  2
AcAmCompDef
  3
DesignerAssemblies
 90
     1024
280
     0
281
     0
  0
CLASS
  1
ACAMCOMPDEFMGR
  2
AcAmCompDefMgr
  3
DesignerAssemblies
 90
     1024
280
     0
281
     0
  0
CLASS
  1
AMCONTEXTMGR
  2
AcAmContextMgr
  3
DesignerAssemblies
 90
     1024
280
     0
281
     0
  0
CLASS
  1
ACAMCONTEXTMODELER
  2
AcAmContextModeler
  3
DesignerAssemblies
 90
     1024
280
     0
281
     0
  0
CLASS
  1
ACMDATADICTIONARY
  2
AcmDataDictionary
  3
"AcmSymBB|Product Description: AutoCAD Mechanical|Company: Autodesk, Inc."
 90
     1024
280
     0
281
     0
  0
CLASS
  1
ACMDATAENTRYBLOCK
  2
AcmDataEntryBlock
  3
AcmSymBB|Product Description: AutoCAD Mechanical|Company: Autodesk, Inc.
 90
     1024
280
     0
281
     0
  0
CLASS
  1
ACRFATTGENMGR
  2
AcRfAttGeneralMgr
  3
AcAttribServices
 90
     1024
280
     0
281
     0
  0
CLASS
  1
ACRFOBJATTMGR
  2
AcRfObjAttGroupMgr
  3
AcAttribServices
 90
     1024
280
     0
281
     0
  0
CLASS
  1
ACRFMCADAPIATTHOLDER
  2
AcRfMCADAPIAttHolder
  3
AcAttribServices
 90
     1024
280
     0
281
     0
  0
CLASS
  1
AMDTSYSATTR
  2
AmdtSystemAttribute
  3
AcAttribServices
 90
     1024
280
     0
281
     0
  0
CLASS
  1
CATALOGSTATE
  2
AcAmCatalogState
  3
DesignerAssemblies
 90
     1024
280
     0
281
     0
  0
CLASS
  1
ACAMGRCOMPDEFSET
  2
AcAmGrCompDefSet
  3
DesignerAssemblies
 90
     1024
280
     0
281
     0
  0
CLASS
  1
AMDTBROWSERDBTAB
  2
AmdtBrowserDbTab
  3
McadcomServices
 90
     1024
280
     0
281
     0
  0
CLASS
  1
CBROWSERAPPOBJECT
  2
CBrowserAppObject
  3
McadcomServices
 90
     1024
280
     0
281
     0
  0
CLASS
  1
DM_PLACEHOLDER
  2
AcDmSelsetPlaceholder
  3
AcMechDwgViewMgmt
 90
     1024
280
     0
281
     0
  0
CLASS
  1
ACMSTANDARDANSI
  2
AcmStandardANSI
  3
"Amdt_StdImp|Product Description: AutoCAD Mechanical|Company: Autodesk, Inc."
 90
     1024
280
     0
281
     0
  0
CLASS
  1
ACMSURFSTANDARDANSI
  2
AcmSurfTextStdANSI
  3
"Amdt_StdImp|Product Description: AutoCAD Mechanical|Company: Autodesk, Inc."
 90
     1024
280
     0
281
     0
  0
CLASS
  1
ACMFCFSTANDARDANSI
  2
AcmFCFStdANSI
  3
"Amdt_StdImp|Product Description: AutoCAD Mechanical|Company: Autodesk, Inc."
 90
     1024
280
     0
281
     0
  0
CLASS
  1
ACMWELDSTANDARDANSI
  2
AcmWeldingStdANSI
  3
"Amdt_StdImp|Product Description: AutoCAD Mechanical|Company: Autodesk, Inc."
 90
     1024
280
     0
281
     0
  0
CLASS
  1
ACMIDSTANDARDANSI
  2
AcmIdStdANSI
  3
"Amdt_StdImp|Product Description: AutoCAD Mechanical|Company: Autodesk, Inc."
 90
     1024
280
     0
281
     0
  0
CLASS
  1
ACMDATUMSTANDARDANSI
  2
AcmDatumStdANSI
  3
"Amdt_StdImp|Product Description: AutoCAD Mechanical|Company: Autodesk, Inc."
 90
     1024
280
     0
281
     0
  0
CLASS
  1
ACMBOMSTANDARDANSI
  2
AcmBOMStdANSI
  3
"Amdt_StdImp|Product Description: AutoCAD Mechanical|Company: Autodesk, Inc."
 90
     1024
280
     0
281
     0
  0
CLASS
  1
ACMDETAILSTANDARDANSI
  2
AmdtDetailSymStdANSI
  3
"Amdt_StdImp|Product Description: AutoCAD Mechanical|Company: Autodesk, Inc."
 90
     1024
280
     0
281
     0
  0
CLASS
  1
ACMSECTIONSTANDARDANSI
  2
AmdtSectionSymStdANSI
  3
"Amdt_StdImp|Product Description: AutoCAD Mechanical|Company: Autodesk, Inc."
 90
     1024
280
     0
281
     0
  0
CLASS
  1
ACMCENTERLINESTANDARDANSI
  2
AmdtCenterLineStdANSI
  3
"Amdt_StdImp|Product Description: AutoCAD Mechanical|Company: Autodesk, Inc."
 90
     1024
280
     0
281
     0
  0
CLASS
  1
ACMTHREADLINESTANDARDANSI
  2
AmdtThreadLineStdANSI
  3
"Amdt_StdImp|Product Description: AutoCAD Mechanical|Company: Autodesk, Inc."
 90
     1024
280
     0
281
     0
  0
CLASS
  1
ACMNOTESTANDARDANSI
  2
AmdtNoteStdANSI
  3
"Amdt_StdImp|Product Description: AutoCAD Mechanical|Company: Autodesk, Inc."
 90
     1024
280
     0
281
     0
  0
CLASS
  1
ACMTAPERSTANDARDANSI
  2
AcmTaperStdANSI
  3
"Amdt_StdImp|Product Description: AutoCAD Mechanical|Company: Autodesk, Inc."
 90
     1024
280
     0
281
     0
  0
CLASS
  1
ACMANOOTATIONVIEWSTANDARDANSI
  2
AmdtAnViewStdANSI
  3
"Amdt_StdImp|Product Description: AutoCAD Mechanical|Company: Autodesk, Inc."
 90
     1024
280
     0
281
     0
  0
CLASS
  1
ACAMGLAYSTD
  2
AcAmgLayStd
  3
"AmgLay|Product Description: AutoCAD Mechanical|Company: Autodesk, Inc."
 90
     1024
280
     0
281
     0
  0
CLASS
  1
ACAMGDIMSTD
  2
AcAmgDimStd
  3
"AmgDim|Product Description: AutoCAD Mechanical|Company: Autodesk, Inc."
 90
     1024
280
     0
281
     0
  0
CLASS
  1
ACAMGHOLECHARTSTDANSI
  2
AcAmgHoleChartStdANSI
  3
AmgDim|Product Description: AutoCAD Mechanical|Company: Autodesk, Inc.
 90
     1024
280
     0
281
     0
  0
CLASS
  1
AMGOBJPROPCFG
  2
AmgObjPropCfg
  3
"AmgLay|Product Description: AutoCAD Mechanical|Company: Autodesk, Inc."
 90
     1025
280
     0
281
     0
  0
CLASS
  1
ACAMGTITLESTD
  2
AcAmgTitleStd
  3
"AmgTitle|Product Description: AutoCAD Mechanical|Company: Autodesk, Inc."
 90
     4095
280
     0
281
     0
  0
CLASS
  1
AMDTNOTETEMPLATEDB
  2
AmdtNoteTemplateDB
  3
AcmSymBB|Product Description: AutoCAD Mechanical|Company: Autodesk, Inc.
 90
     1024
280
     0
281
     0
  0
CLASS
  1
LAYER_INDEX
  2
AcDbLayerIndex
  3
ObjectDBX Classes
 90
        0
280
     0
281
     0
  0
CLASS
  1
IDBUFFER
  2
AcDbIdBuffer
  3
ObjectDBX Classes
 90
        0
280
     0
281
     0
  0
CLASS
  1
DICTIONARYVAR
  2
AcDbDictionaryVar
  3
ObjectDBX Classes
 90
        0
280
     0
281
     0
  0
CLASS
  1
CELLSTYLEMAP
  2
AcDbCellStyleMap
  3
ObjectDBX Classes
 90
     1152
280
     0
281
     0
  0
CLASS
  1
ACDBPLACEHOLDER
  2
AcDbPlaceHolder
  3
ObjectDBX Classes
 90
        0
280
     0
281
     0
  0
CLASS
  1
LAYOUT
  2
AcDbLayout
  3
ObjectDBX Classes
 90
        0
280
     0
281
     0
  0
ENDSEC
  0
SECTION
  2
TABLES
  0
TABLE
  2
VPORT
  5
2D11
330
0
100
AcDbSymbolTable
 70
     1
  0
VPORT
  5
2D81
330
2D11
100
AcDbSymbolTableRecord
100
AcDbViewportTableRecord
  2
*ACTIVE
 70
     0
 10
0.0
 20
0.0
 11
1.0
 21
1.0
 12
0.0
 22
0.0
 13
0.0
 23
0.0
 14
1.0
 24
1.0
 15
0.0
 25
0.0
 16
0.0
 26
0.0
 36
1.0
 17
69.33747728976493
 27
54.79432136611285
 37
0.0
 40
1281.812305609029
 41
1.712555066079295
 42
50.0
 43
0.0
 44
0.0
 50
0.0
 51
0.0
 71
     0
 72
   100
 73
     1
 74
     0
 75
     0
 76
     0
 77
     0
 78
     0
281
     0
 65
     0
110
0.0
120
0.0
130
0.0
111
1.0
121
0.0
131
0.0
112
0.0
122
1.0
132
0.0
 79
     0
146
0.0
  0
ENDTAB
  0
TABLE
  2
LTYPE
  5
2D0E
330
0
100
AcDbSymbolTable
 70
    19
  0
LTYPE
  5
2D6B
330
2D0E
100
AcDbSymbolTableRecord
100
AcDbLinetypeTableRecord
  2
ByBlock
 70
     0
  3

 72
    65
 73
     0
 40
0.0
  0
LTYPE
  5
2D6C
330
2D0E
100
AcDbSymbolTableRecord
100
AcDbLinetypeTableRecord
  2
ByLayer
 70
     0
  3

 72
    65
 73
     0
 40
0.0
  0
LTYPE
  5
2D6D
330
2D0E
100
AcDbSymbolTableRecord
100
AcDbLinetypeTableRecord
  2
CONTINUOUS
 70
     0
  3
実線
 72
    65
 73
     0
 40
0.0
  0
LTYPE
  5
2D82
330
2D0E
100
AcDbSymbolTableRecord
100
AcDbLinetypeTableRecord
  2
DASHDOT
 70
     0
  3
____ _ ____ _ ____ _ ____ _ ____ _ ____ _ ____
 72
    65
 73
     4
 40
5.5
 49
4.0
 74
     0
 49
-0.6
 74
     0
 49
0.3
 74
     0
 49
-0.6
 74
     0
  0
LTYPE
  5
2D83
330
2D0E
100
AcDbSymbolTableRecord
100
AcDbLinetypeTableRecord
  2
HIDDEN
 70
     0
  3
Hidden __ __ __ __ __ __ __ __ __ __ __ __ __ _
 72
    65
 73
     2
 40
0.375
 49
0.25
 74
     0
 49
-0.125
 74
     0
  0
LTYPE
  5
2D84
330
2D0E
100
AcDbSymbolTableRecord
100
AcDbLinetypeTableRecord
  2
PHANTOM2
 70
     0
  3
Phantom (.5x) ___ _ _ ___ _ _ ___ _ _ ___ _ _
 72
    65
 73
     6
 40
1.25
 49
0.625
 74
     0
 49
-0.125
 74
     0
 49
0.125
 74
     0
 49
-0.125
 74
     0
 49
0.125
 74
     0
 49
-0.125
 74
     0
  0
LTYPE
  5
2D85
330
2D0E
100
AcDbSymbolTableRecord
100
AcDbLinetypeTableRecord
  2
CENTER
 70
     0
  3
Center ____ _ ____ _ ____ _ ____ _ ____ _ ____
 72
    65
 73
     4
 40
2.0
 49
1.25
 74
     0
 49
-0.25
 74
     0
 49
0.25
 74
     0
 49
-0.25
 74
     0
  0
LTYPE
  5
2D86
330
2D0E
100
AcDbSymbolTableRecord
100
AcDbLinetypeTableRecord
  2
ASULTYPE
 70
     0
  3
実線
 72
    65
 73
     2
 40
3.0
 49
2.5
 74
     0
 49
0.5
 74
     0
  0
LTYPE
  5
2D87
330
2D0E
100
AcDbSymbolTableRecord
100
AcDbLinetypeTableRecord
  2
ASVLTYPE
 70
     0
  3
__ __ __ __ __ __ __ __ __ __ __ __ __ __ __ __ __ __ __ __ __
 72
    65
 73
     2
 40
0.75
 49
0.5
 74
     0
 49
-0.25
 74
     0
  0
LTYPE
  5
2D88
330
2D0E
100
AcDbSymbolTableRecord
100
AcDbLinetypeTableRecord
  2
AM_ISO02W050
 70
     0
  3
__ __ __ __ __ __ __ __ __ __ __ __ __ __ __
 72
    65
 73
     2
 40
7.5
 49
6.0
 74
     0
 49
-1.5
 74
     0
  0
LTYPE
  5
2D89
330
2D0E
100
AcDbSymbolTableRecord
100
AcDbLinetypeTableRecord
  2
AM_ISO08W050
 70
     0
  3
____ . ____ . ____ . ____ . ____ . ____ . ____
 72
    65
 73
     4
 40
18.0
 49
12.0
 74
     0
 49
-1.5
 74
     0
 49
3.0
 74
     0
 49
-1.5
 74
     0
  0
LTYPE
  5
2D8A
330
2D0E
100
AcDbSymbolTableRecord
100
AcDbLinetypeTableRecord
  2
AM_ISO09W050
 70
     0
  3
_____ . . _____ . . _____ . . ____ .. ____
 72
    65
 73
     6
 40
22.5
 49
12.0
 74
     0
 49
-1.5
 74
     0
 49
3.0
 74
     0
 49
-1.5
 74
     0
 49
3.0
 74
     0
 49
-1.5
 74
     0
  0
LTYPE
  5
2D8B
330
2D0E
100
AcDbSymbolTableRecord
100
AcDbLinetypeTableRecord
  2
AMCONSTR
 70
     0
  3
_______________________
 72
    65
 73
     2
 40
9999.0
 49
9999.0
 74
     0
 49
0.0
 74
     0
  0
LTYPE
  5
2D8C
330
2D0E
100
AcDbSymbolTableRecord
100
AcDbLinetypeTableRecord
  2
AM_ISO08W050X2
 70
     0
  3
__ . __ . __ . __ . __ . __
 72
    65
 73
     4
 40
9.0
 49
6.0
 74
     0
 49
-0.75
 74
     0
 49
1.5
 74
     0
 49
-0.75
 74
     0
  0
LTYPE
  5
2D8D
330
2D0E
100
AcDbSymbolTableRecord
100
AcDbLinetypeTableRecord
  2
AM_ISO02W050X2
 70
     0
  3
 _ _ _ _ _ _ _ _ _ _ _ _
 72
    65
 73
     2
 40
3.75
 49
3.0
 74
     0
 49
-0.75
 74
     0
  0
LTYPE
  5
2D8E
330
2D0E
100
AcDbSymbolTableRecord
100
AcDbLinetypeTableRecord
  2
AMZIGZAG
 70
     0
  3
/\/-/\/-/\/-/\/-/\/-/\/
 72
    65
 73
     2
 40
11.0001
 49
0.0001
 74
     0
 49
-11.0
 74
     0
  0
LTYPE
  5
2D8F
330
2D0E
100
AcDbSymbolTableRecord
100
AcDbLinetypeTableRecord
  2
CENTER2
 70
     0
  3
Center (.5x) ___ _ ___ _ ___ _ ___ _ ___ _ ___
 72
    65
 73
     4
 40
1.125
 49
0.75
 74
     0
 49
-0.125
 74
     0
 49
0.125
 74
     0
 49
-0.125
 74
     0
  0
LTYPE
  5
2D90
330
2D0E
100
AcDbSymbolTableRecord
100
AcDbLinetypeTableRecord
  2
HIDDEN2
 70
     0
  3
Hidden (.5x) _ _ _ _ _ _ _ _ _ _ _ _ _ _ _ _ _
 72
    65
 73
     2
 40
0.1875
 49
0.125
 74
     0
 49
-0.0625
 74
     0
  0
LTYPE
  5
2D91
330
2D0E
100
AcDbSymbolTableRecord
100
AcDbLinetypeTableRecord
  2
AMZIGZAG2
 70
     0
  3
/\/-/\/-/\/-/\/-/\/-/\/
 72
    65
 73
     2
 40
0.4401
 49
0.0001
 74
     0
 49
-0.4400000000000003
 74
     0
  0
LTYPE
  5
2D92
330
2D0E
100
AcDbSymbolTableRecord
100
AcDbLinetypeTableRecord
  2
ACANSTGB
 70
     0
  3
__ . . __ . .
 72
    65
 73
     6
 40
0.35433070866
 49
0.15748031496
 74
     0
 49
-0.03937007874
 74
     0
 49
0.03937007874
 74
     0
 49
-0.03937007874
 74
     0
 49
0.03937007874
 74
     0
 49
-0.03937007874
 74
     0
  0
LTYPE
  5
2D93
330
2D0E
100
AcDbSymbolTableRecord
100
AcDbLinetypeTableRecord
  2
ACANSTGL
 70
     0
  3
_ _ _ _ _
 72
    65
 73
     2
 40
0.11811023622
 49
0.07874015748
 74
     0
 49
-0.03937007874
 74
     0
  0
ENDTAB
  0
TABLE
  2
LAYER
  5
2D0B
330
0
100
AcDbSymbolTable
 70
    13
  0
LAYER
  5
2D65
102
{ACAD_XDICTIONARY
360
2ED7
102
}
330
2D0B
100
AcDbSymbolTableRecord
100
AcDbLayerTableRecord
  2
0
 70
     0
 62
     7
  6
CONTINUOUS
370
    -3
390
2D18
  0
LAYER
  5
2D94
102
{ACAD_XDICTIONARY
360
2ED9
102
}
330
2D0B
100
AcDbSymbolTableRecord
100
AcDbLayerTableRecord
  2
OUTLINE
 70
     0
 62
     3
  6
CONTINUOUS
370
    -3
390
2D18
  0
LAYER
  5
2D95
102
{ACAD_XDICTIONARY
360
2EDB
102
}
330
2D0B
100
AcDbSymbolTableRecord
100
AcDbLayerTableRecord
  2
SIZE
 70
     0
 62
    30
  6
CONTINUOUS
370
    -3
390
2D18
  0
LAYER
  5
2D96
102
{ACAD_XDICTIONARY
360
2EDD
102
}
330
2D0B
100
AcDbSymbolTableRecord
100
AcDbLayerTableRecord
  2
BASIS
 70
     0
 62
     6
  6
DASHDOT
370
    -3
390
2D18
  0
LAYER
  5
2D97
102
{ACAD_XDICTIONARY
360
2EDF
102
}
330
2D0B
100
AcDbSymbolTableRecord
100
AcDbLayerTableRecord
  2
DETAIL
 70
     0
 62
     5
  6
CONTINUOUS
370
    -3
390
2D18
  0
LAYER
  5
2D98
102
{ACAD_XDICTIONARY
360
2EE1
102
}
330
2D0B
100
AcDbSymbolTableRecord
100
AcDbLayerTableRecord
  2
ARRANGE
 70
     0
 62
     1
  6
CONTINUOUS
370
    -3
390
2D18
  0
LAYER
  5
2D99
330
2D0B
100
AcDbSymbolTableRecord
100
AcDbLayerTableRecord
  2
DEFPOINTS
 70
     0
 62
     7
  6
CONTINUOUS
290
     0
370
    -3
390
2D18
  0
LAYER
  5
2D9A
102
{ACAD_XDICTIONARY
360
2EE3
102
}
330
2D0B
100
AcDbSymbolTableRecord
100
AcDbLayerTableRecord
  2
ETC
 70
     0
 62
    61
  6
CONTINUOUS
370
    -3
390
2D18
  0
LAYER
  5
2D9B
102
{ACAD_XDICTIONARY
360
2EE5
102
}
330
2D0B
100
AcDbSymbolTableRecord
100
AcDbLayerTableRecord
  2
FIX
 70
     0
 62
    11
  6
CONTINUOUS
370
    -3
390
2D18
  0
LAYER
  5
2D9C
102
{ACAD_XDICTIONARY
360
2EE7
102
}
330
2D0B
100
AcDbSymbolTableRecord
100
AcDbLayerTableRecord
  2
NOTE
 70
     0
 62
     4
  6
CONTINUOUS
370
    -3
390
2D18
  0
LAYER
  5
2D9D
102
{ACAD_XDICTIONARY
360
2EE9
102
}
330
2D0B
100
AcDbSymbolTableRecord
100
AcDbLayerTableRecord
  2
SERVICESPACE
 70
     0
 62
     2
  6
DASHDOT
370
    -3
390
2D18
  0
LAYER
  5
2D9E
102
{ACAD_XDICTIONARY
360
2EEB
102
}
330
2D0B
100
AcDbSymbolTableRecord
100
AcDbLayerTableRecord
  2
SYMBOLLINE
 70
     0
 62
    15
  6
CONTINUOUS
370
    -3
390
2D18
  0
LAYER
  5
2D9F
102
{ACAD_XDICTIONARY
360
2EED
102
}
330
2D0B
100
AcDbSymbolTableRecord
100
AcDbLayerTableRecord
  2
DETAIL___1
 70
     0
 62
     5
  6
CONTINUOUS
370
    -3
390
2D18
  0
ENDTAB
  0
TABLE
  2
STYLE
  5
2D0C
330
0
100
AcDbSymbolTable
 70
     5
  0
STYLE
  5
2D66
330
2D0C
100
AcDbSymbolTableRecord
100
AcDbTextStyleTableRecord
  2
STANDARD
 70
     0
 40
64.0
 41
0.9
 50
0.0
 71
     0
 42
64.0
  3
SIMPLEX.shx
  4
BIGFONT.shx
  0
STYLE
  5
2D6A
330
2D0C
100
AcDbSymbolTableRecord
100
AcDbTextStyleTableRecord
  2
ANNOTATIVE
 70
     0
 40
0.0
 41
1.0
 50
0.0
 71
     0
 42
0.2
  3
txt
  4

1001
ACADANNOTATIVE
1000
AnnotativeData
1002
{
1070
     1
1070
     1
1002
}
  0
STYLE
  5
2DA0
330
2D0C
100
AcDbSymbolTableRecord
100
AcDbTextStyleTableRecord
  2

 70
     1
 40
0.0
 41
1.0
 50
0.0
 71
     0
 42
64.0
  3
genltshp.shx
  4

  0
STYLE
  5
2DA1
330
2D0C
100
AcDbSymbolTableRecord
100
AcDbTextStyleTableRecord
  2
ACANSTS
 70
     0
 40
1.0
 41
1.0
 50
0.0
 71
     0
 42
64.0
  3
romans.shx
  4
extfont.shx
  0
STYLE
  5
2DA2
330
2D0C
100
AcDbSymbolTableRecord
100
AcDbTextStyleTableRecord
  2
ACANSGDT
 70
     0
 40
0.0
 41
1.0
 50
0.0
 71
     0
 42
64.0
  3
amgdt.shx
  4

  0
ENDTAB
  0
TABLE
  2
VIEW
  5
2D0F
330
0
100
AcDbSymbolTable
 70
     1
  0
VIEW
  5
2DA3
330
2D0F
100
AcDbSymbolTableRecord
100
AcDbViewTableRecord
  2
ALL
 70
     0
 40
4282.619807999997
 10
0.0
 20
41.30990399999999
 41
5940.0
 11
0.0
 21
0.0
 31
1.0
 12
0.0
 22
0.0
 32
0.0
 42
50.0
 43
0.0
 44
0.0
 50
0.0
 71
     0
281
     0
 72
     1
110
0.0
120
0.0
130
0.0
111
1.0
121
0.0
131
0.0
112
0.0
122
1.0
132
0.0
 79
     0
146
0.0
  0
ENDTAB
  0
TABLE
  2
UCS
  5
2D10
330
0
100
AcDbSymbolTable
 70
     0
  0
ENDTAB
  0
TABLE
  2
APPID
  5
2D12
330
0
100
AcDbSymbolTable
 70
    31
  0
APPID
  5
2D67
330
2D12
100
AcDbSymbolTableRecord
100
AcDbRegAppTableRecord
  2
ACAD
 70
     0
  0
APPID
  5
2D6E
330
2D12
100
AcDbSymbolTableRecord
100
AcDbRegAppTableRecord
  2
ACADANNOTATIVE
 70
     0
  0
APPID
  5
2D78
330
2D12
100
AcDbSymbolTableRecord
100
AcDbRegAppTableRecord
  2
ACAD_MLEADERVER
 70
     0
  0
APPID
  5
2DA4
330
2D12
100
AcDbSymbolTableRecord
100
AcDbRegAppTableRecord
  2
GENIUS_GENDIM_13
 70
     0
  0
APPID
  5
2DA5
330
2D12
100
AcDbSymbolTableRecord
100
AcDbRegAppTableRecord
  2
GENIUS_GENDTOL_13
 70
     0
  0
APPID
  5
2DA6
330
2D12
100
AcDbSymbolTableRecord
100
AcDbRegAppTableRecord
  2
GENIUS_GE3DTOL_13
 70
     0
  0
APPID
  5
2DA7
330
2D12
100
AcDbSymbolTableRecord
100
AcDbRegAppTableRecord
  2
MCAD_NO_VIS
 70
     0
  0
APPID
  5
2DA8
330
2D12
100
AcDbSymbolTableRecord
100
AcDbRegAppTableRecord
  2
ACAD_TEMP_GRAPHIC
 70
     0
  0
APPID
  5
2DA9
330
2D12
100
AcDbSymbolTableRecord
100
AcDbRegAppTableRecord
  2
AD_DRAW
 70
     0
  0
APPID
  5
2DAA
330
2D12
100
AcDbSymbolTableRecord
100
AcDbRegAppTableRecord
  2
ACATTRIBSERVICES
 70
     0
  0
APPID
  5
2DAB
330
2D12
100
AcDbSymbolTableRecord
100
AcDbRegAppTableRecord
  2
ASURF_PCURVE_APPNAME
 70
     0
  0
APPID
  5
2DAC
330
2D12
100
AcDbSymbolTableRecord
100
AcDbRegAppTableRecord
  2
AMG_3D2D_5_0
 70
     0
  0
APPID
  5
2DAD
330
2D12
100
AcDbSymbolTableRecord
100
AcDbRegAppTableRecord
  2
DESIGNERASSEMBLIES
 70
     0
  0
APPID
  5
2DAE
330
2D12
100
AcDbSymbolTableRecord
100
AcDbRegAppTableRecord
  2
ACADM_DIM_EDIT
 70
     0
  0
APPID
  5
2DAF
330
2D12
100
AcDbSymbolTableRecord
100
AcDbRegAppTableRecord
  2
AMDT_DM_ADJ
 70
     0
  0
APPID
  5
2DB0
330
2D12
100
AcDbSymbolTableRecord
100
AcDbRegAppTableRecord
  2
ACAD_DSTYLE_DIMARC_LENGTH_
 70
     0
  0
APPID
  5
2DB1
330
2D12
100
AcDbSymbolTableRecord
100
AcDbRegAppTableRecord
  2
ACAD_DSTYLE_DIMJOGGED_JOGA
 70
     0
  0
APPID
  5
2DB2
330
2D12
100
AcDbSymbolTableRecord
100
AcDbRegAppTableRecord
  2
ACAD_PSEXT
 70
     0
  0
APPID
  5
2DB3
330
2D12
100
AcDbSymbolTableRecord
100
AcDbRegAppTableRecord
  2
ACAD_EXEMPT_FROM_CAD_STANDARDS
 70
     0
  0
APPID
  5
2DB4
330
2D12
100
AcDbSymbolTableRecord
100
AcDbRegAppTableRecord
  2
ACAD_DSTYLE_DIMJAG
 70
     0
  0
APPID
  5
2DB5
330
2D12
100
AcDbSymbolTableRecord
100
AcDbRegAppTableRecord
  2
ACAD_DSTYLE_DIMTALN
 70
     0
  0
APPID
  5
2DB6
330
2D12
100
AcDbSymbolTableRecord
100
AcDbRegAppTableRecord
  2
AMG_3D2D_5_00
 70
     0
  0
APPID
  5
2DB7
330
2D12
100
AcDbSymbolTableRecord
100
AcDbRegAppTableRecord
  2
AMG_3D2D_5_01
 70
     0
  0
APPID
  5
2DB8
330
2D12
100
AcDbSymbolTableRecord
100
AcDbRegAppTableRecord
  2
AMG_3D2D_5_02
 70
     0
  0
APPID
  5
2DB9
330
2D12
100
AcDbSymbolTableRecord
100
AcDbRegAppTableRecord
  2
ACAD_DSTYLE_DIMJOGGED_JOG0
 70
     0
  0
APPID
  5
2DBA
330
2D12
100
AcDbSymbolTableRecord
100
AcDbRegAppTableRecord
  2
ACADANNOTATIVEDECOMPOSITION
 70
     0
  0
APPID
  5
2E7E
330
2D12
100
AcDbSymbolTableRecord
100
AcDbRegAppTableRecord
  2
AMG_3D2D_5.0
 70
     0
  0
APPID
  5
2F17
330
2D12
100
AcDbSymbolTableRecord
100
AcDbRegAppTableRecord
  2
ACAD_DSTYLE_DIMARC_LENGTH_SYMBOL
 70
     0
  0
APPID
  5
2F18
330
2D12
100
AcDbSymbolTableRecord
100
AcDbRegAppTableRecord
  2
ACAD_DSTYLE_DIM_LINETYPE
 70
     0
  0
APPID
  5
2F19
330
2D12
100
AcDbSymbolTableRecord
100
AcDbRegAppTableRecord
  2
ACAD_DSTYLE_DIM_EXT1_LINETYPE
 70
     0
  0
APPID
  5
2F1A
330
2D12
100
AcDbSymbolTableRecord
100
AcDbRegAppTableRecord
  2
ACAD_DSTYLE_DIM_EXT2_LINETYPE
 70
     0
  0
ENDTAB
  0
TABLE
  2
DIMSTYLE
  5
2D13
330
0
100
AcDbSymbolTable
 70
    10
100
AcDbDimStyleTable
 71
     1
340
2DBB
  0
DIMSTYLE
105
2D68
330
2D13
100
AcDbSymbolTableRecord
100
AcDbDimStyleTableRecord
  2
STANDARD
 70
     0
 41
12.0
 42
20.0
 44
20.0
 77
     1
 78
     8
140
64.0
141
0.0
147
10.0
172
     1
275
     1
279
     2
284
     7
285
     7
286
     7
340
2D66
  0
DIMSTYLE
105
2D69
330
2D13
100
AcDbSymbolTableRecord
100
AcDbDimStyleTableRecord
  2
ANNOTATIVE
 70
     0
275
     1
279
     2
284
     7
285
     7
286
     7
340
2D66
1001
ACADANNOTATIVE
1000
AnnotativeData
1002
{
1070
     1
1070
     1
1002
}
  0
DIMSTYLE
105
2DBB
330
2D13
100
AcDbSymbolTableRecord
100
AcDbDimStyleTableRecord
  2
AM_ANSI
 70
     0
  4
mm
 41
0.12
 42
0.05
 43
0.5
 44
0.1
 47
0.1
 48
0.1
 78
     7
 79
     2
140
0.12
141
0.0
146
0.71
147
0.06
176
   256
177
   256
178
     2
274
     4
284
     7
340
2D66
371
    -1
372
    -1
1001
ACAD_DSTYLE_DIMARC_LENGTH_SYMBOL
1070
   379
1070
     1
1001
ACAD_DSTYLE_DIM_LINETYPE
1070
   380
1005
2D6B
1001
ACAD_DSTYLE_DIM_EXT1_LINETYPE
1070
   381
1005
2D6B
1001
ACAD_DSTYLE_DIM_EXT2_LINETYPE
1070
   382
1005
2D6B
  0
DIMSTYLE
105
2DBC
330
2D13
100
AcDbSymbolTableRecord
100
AcDbDimStyleTableRecord
  2
AM_ANSI$3
 70
     0
  4
mm
 41
0.12
 42
0.05
 43
0.5
 44
0.1
 47
0.1
 48
0.1
 78
     7
 79
     2
140
0.12
141
0.0
146
0.71
147
0.06
176
   256
177
   256
178
     2
274
     4
284
     7
288
     1
289
     0
340
2D66
371
    -1
372
    -1
1001
ACAD_DSTYLE_DIMARC_LENGTH_SYMBOL
1070
   379
1070
     1
1001
ACAD_DSTYLE_DIM_LINETYPE
1070
   380
1005
2D6B
1001
ACAD_DSTYLE_DIM_EXT1_LINETYPE
1070
   381
1005
2D6B
1001
ACAD_DSTYLE_DIM_EXT2_LINETYPE
1070
   382
1005
2D6B
  0
DIMSTYLE
105
2DBD
330
2D13
100
AcDbSymbolTableRecord
100
AcDbDimStyleTableRecord
  2
AM_ANSI$4
 70
     0
  4
mm
 41
0.12
 42
0.05
 43
0.5
 44
0.1
 47
0.1
 48
0.1
 78
     7
 79
     2
140
0.12
141
0.0
146
0.71
147
0.06
176
   256
177
   256
178
     2
274
     4
284
     7
340
2D66
371
    -1
372
    -1
1001
ACAD_DSTYLE_DIMARC_LENGTH_SYMBOL
1070
   379
1070
     1
1001
ACAD_DSTYLE_DIM_LINETYPE
1070
   380
1005
2D6B
1001
ACAD_DSTYLE_DIM_EXT1_LINETYPE
1070
   381
1005
2D6B
1001
ACAD_DSTYLE_DIM_EXT2_LINETYPE
1070
   382
1005
2D6B
  0
DIMSTYLE
105
2DBE
330
2D13
100
AcDbSymbolTableRecord
100
AcDbDimStyleTableRecord
  2
AM_ANSI$7
 70
     0
  4
mm
 41
0.12
 42
0.05
 43
0.5
 44
0.1
 47
0.1
 48
0.1
 78
     7
 79
     2
140
0.12
141
0.0
146
0.71
147
0.06
176
   256
177
   256
178
     2
274
     4
284
     7
340
2D66
371
    -1
372
    -1
1001
ACAD_DSTYLE_DIMARC_LENGTH_SYMBOL
1070
   379
1070
     1
1001
ACAD_DSTYLE_DIM_LINETYPE
1070
   380
1005
2D6B
1001
ACAD_DSTYLE_DIM_EXT1_LINETYPE
1070
   381
1005
2D6B
1001
ACAD_DSTYLE_DIM_EXT2_LINETYPE
1070
   382
1005
2D6B
  0
DIMSTYLE
105
2DBF
330
2D13
100
AcDbSymbolTableRecord
100
AcDbDimStyleTableRecord
  2
AM_ANSI$SF
 70
     0
  4
mm
 41
0.12
 42
0.05
 43
0.5
 44
0.1
 47
0.1
 48
0.1
 75
     1
 76
     1
 78
     7
 79
     2
140
0.12
141
0.0
146
0.71
147
0.06
176
   256
177
   256
178
     2
274
     4
284
     7
340
2D66
371
    -1
372
    -1
1001
ACAD_DSTYLE_DIMARC_LENGTH_SYMBOL
1070
   379
1070
     1
1001
ACAD_DSTYLE_DIM_LINETYPE
1070
   380
1005
2D6B
1001
ACAD_DSTYLE_DIM_EXT1_LINETYPE
1070
   381
1005
2D6B
1001
ACAD_DSTYLE_DIM_EXT2_LINETYPE
1070
   382
1005
2D6B
  0
DIMSTYLE
105
2DC0
330
2D13
100
AcDbSymbolTableRecord
100
AcDbDimStyleTableRecord
  2
AM_ANSI$SH
 70
     0
  4
mm
 41
0.12
 42
0.05
 43
0.5
 44
0.1
 47
0.1
 48
0.1
 75
     1
 76
     1
 78
     7
 79
     2
140
0.12
141
0.0
146
0.71
147
0.06
173
     1
176
   256
177
   256
178
     2
274
     4
284
     7
340
2D66
343
2DD4
371
    -1
372
    -1
1001
ACAD_DSTYLE_DIMARC_LENGTH_SYMBOL
1070
   379
1070
     1
1001
ACAD_DSTYLE_DIM_LINETYPE
1070
   380
1005
2D6B
1001
ACAD_DSTYLE_DIM_EXT1_LINETYPE
1070
   381
1005
2D6B
1001
ACAD_DSTYLE_DIM_EXT2_LINETYPE
1070
   382
1005
2D6B
  0
DIMSTYLE
105
2DC1
330
2D13
100
AcDbSymbolTableRecord
100
AcDbDimStyleTableRecord
  2
STANDARD1
 70
     0
 40
6.0
 41
2.5
 42
0.625
 43
6.0
 44
1.25
 47
1.0
 48
0.5
 77
     1
 78
     8
140
2.5
141
0.0
146
0.6
147
1.0
173
     1
275
     1
279
     2
284
     7
285
     7
286
     7
340
2D66
  0
DIMSTYLE
105
2DC2
330
2D13
100
AcDbSymbolTableRecord
100
AcDbDimStyleTableRecord
  2
STANDARD$0
 70
     0
 41
12.0
 42
20.0
 44
20.0
 73
     0
 74
     0
 77
     1
 78
     8
140
64.0
141
0.0
147
10.0
172
     1
275
     1
279
     2
284
     7
285
     7
286
     7
340
2D66
  0
ENDTAB
  0
TABLE
  2
BLOCK_RECORD
  5
2D0A
330
0
100
AcDbSymbolTable
 70
    26
  0
BLOCK_RECORD
  5
2D7D
102
{ACAD_XDICTIONARY
360
2EEF
102
}
330
2D0A
100
AcDbSymbolTableRecord
100
AcDbBlockTableRecord
  2
*Model_Space
340
2D80
  0
BLOCK_RECORD
  5
2D79
330
2D0A
100
AcDbSymbolTableRecord
100
AcDbBlockTableRecord
  2
*Paper_Space
340
2D7C
  0
BLOCK_RECORD
  5
2DCA
330
2D0A
100
AcDbSymbolTableRecord
100
AcDbBlockTableRecord
  2
$MODEL_SPACE
340
0
  0
BLOCK_RECORD
  5
2DCC
330
2D0A
100
AcDbSymbolTableRecord
100
AcDbBlockTableRecord
  2
$PAPER_SPACE
340
0
  0
BLOCK_RECORD
  5
2DCE
330
2D0A
100
AcDbSymbolTableRecord
100
AcDbBlockTableRecord
  2
_ORIGIN
340
0
  0
BLOCK_RECORD
  5
2DD0
330
2D0A
100
AcDbSymbolTableRecord
100
AcDbBlockTableRecord
  2
_DOTBLANK
340
0
102
{BLKREFS
331
202C
331
202D
331
2035
331
2036
331
203E
331
203F
331
2047
331
2048
331
2052
331
2053
331
205D
331
205E
331
283A
331
283B
331
2841
331
2842
331
2847
331
2848
331
2851
331
2852
331
2882
331
2883
331
288A
331
288B
102
}
  0
BLOCK_RECORD
  5
2DD2
330
2D0A
100
AcDbSymbolTableRecord
100
AcDbBlockTableRecord
  2
_OPEN30
340
0
102
{BLKREFS
331
2199
331
28AF
102
}
  0
BLOCK_RECORD
  5
2DD4
330
2D0A
100
AcDbSymbolTableRecord
100
AcDbBlockTableRecord
  2
GENAXEH
340
0
  0
BLOCK_RECORD
  5
2DD6
330
2D0A
100
AcDbSymbolTableRecord
100
AcDbBlockTableRecord
  2
*U6
340
0
  0
BLOCK_RECORD
  5
2DD8
330
2D0A
100
AcDbSymbolTableRecord
100
AcDbBlockTableRecord
  2
*D7
340
0
  0
BLOCK_RECORD
  5
2DDA
330
2D0A
100
AcDbSymbolTableRecord
100
AcDbBlockTableRecord
  2
*U8
340
0
102
{BLKREFS
331
202E
102
}
  0
BLOCK_RECORD
  5
2DDC
330
2D0A
100
AcDbSymbolTableRecord
100
AcDbBlockTableRecord
  2
*D9
340
0
  0
BLOCK_RECORD
  5
2DDE
330
2D0A
100
AcDbSymbolTableRecord
100
AcDbBlockTableRecord
  2
*U10
340
0
102
{BLKREFS
331
2037
102
}
  0
BLOCK_RECORD
  5
2DE0
330
2D0A
100
AcDbSymbolTableRecord
100
AcDbBlockTableRecord
  2
*D11
340
0
  0
BLOCK_RECORD
  5
2DE2
330
2D0A
100
AcDbSymbolTableRecord
100
AcDbBlockTableRecord
  2
*U12
340
0
102
{BLKREFS
331
2040
102
}
  0
BLOCK_RECORD
  5
2DE4
330
2D0A
100
AcDbSymbolTableRecord
100
AcDbBlockTableRecord
  2
*D13
340
0
  0
BLOCK_RECORD
  5
2DE6
330
2D0A
100
AcDbSymbolTableRecord
100
AcDbBlockTableRecord
  2
*U14
340
0
102
{BLKREFS
331
2049
102
}
  0
BLOCK_RECORD
  5
2DE8
330
2D0A
100
AcDbSymbolTableRecord
100
AcDbBlockTableRecord
  2
*D15
340
0
  0
BLOCK_RECORD
  5
2DEA
330
2D0A
100
AcDbSymbolTableRecord
100
AcDbBlockTableRecord
  2
*U16
340
0
102
{BLKREFS
331
2054
102
}
  0
BLOCK_RECORD
  5
2DEC
330
2D0A
100
AcDbSymbolTableRecord
100
AcDbBlockTableRecord
  2
*D17
340
0
  0
BLOCK_RECORD
  5
2DEE
330
2D0A
100
AcDbSymbolTableRecord
100
AcDbBlockTableRecord
  2
*U18
340
0
102
{BLKREFS
331
205F
102
}
  0
BLOCK_RECORD
  5
2DF0
330
2D0A
100
AcDbSymbolTableRecord
100
AcDbBlockTableRecord
  2
*U19
340
0
  0
BLOCK_RECORD
  5
2DF2
330
2D0A
100
AcDbSymbolTableRecord
100
AcDbBlockTableRecord
  2
*U20
340
0
  0
BLOCK_RECORD
  5
2DF4
330
2D0A
100
AcDbSymbolTableRecord
100
AcDbBlockTableRecord
  2
*X21
340
0
  0
BLOCK_RECORD
  5
2DF6
330
2D0A
100
AcDbSymbolTableRecord
100
AcDbBlockTableRecord
  2
*X22
340
0
  0
BLOCK_RECORD
  5
2DF8
330
2D0A
100
AcDbSymbolTableRecord
100
AcDbBlockTableRecord
  2
*X23
340
0
102
{BLKREFS
331
28B2
102
}
  0
BLOCK_RECORD
  5
2DFA
330
2D0A
100
AcDbSymbolTableRecord
100
AcDbBlockTableRecord
  2
*X24
340
0
102
{BLKREFS
331
28B8
102
}
  0
ENDTAB
  0
ENDSEC
  0
SECTION
  2
BLOCKS
  0
BLOCK
  5
2D7E
330
2D7D
100
AcDbEntity
  8
0
100
AcDbBlockBegin
  2
*Model_Space
 70
     0
 10
0.0
 20
0.0
 30
0.0
  3
*Model_Space
  1

  0
ENDBLK
  5
2D7F
330
2D7D
100
AcDbEntity
  8
0
100
AcDbBlockEnd
  0
BLOCK
  5
2D7A
330
2D79
100
AcDbEntity
 67
     1
  8
0
100
AcDbBlockBegin
  2
*Paper_Space
 70
     0
 10
0.0
 20
0.0
 30
0.0
  3
*Paper_Space
  1

  0
ENDBLK
  5
2D7B
330
2D79
100
AcDbEntity
 67
     1
  8
0
100
AcDbBlockEnd
  0
BLOCK
  5
2DCB
330
2DCA
100
AcDbEntity
  8
0
100
AcDbBlockBegin
  2
$MODEL_SPACE
 70
     0
 10
0.0
 20
0.0
 30
0.0
  3
$MODEL_SPACE
  1

  0
ENDBLK
  5
263B
330
2DCA
100
AcDbEntity
  8
0
100
AcDbBlockEnd
  0
BLOCK
  5
2DCD
330
2DCC
100
AcDbEntity
  8
0
100
AcDbBlockBegin
  2
$PAPER_SPACE
 70
     0
 10
0.0
 20
0.0
 30
0.0
  3
$PAPER_SPACE
  1

  0
ENDBLK
  5
2637
330
2DCC
100
AcDbEntity
  8
0
100
AcDbBlockEnd
  0
BLOCK
  5
2DCF
330
2DCE
100
AcDbEntity
  8
0
100
AcDbBlockBegin
  2
_ORIGIN
 70
     0
 10
0.0
 20
0.0
 30
0.0
  3
_ORIGIN
  1

  0
CIRCLE
  5
880
330
2DCE
100
AcDbEntity
  8
0
  6
Continuous
 62
     7
100
AcDbCircle
 10
0.0
 20
0.0
 30
0.0
 40
0.5
  0
LINE
  5
881
330
2DCE
100
AcDbEntity
  8
0
  6
Continuous
 62
     7
100
AcDbLine
 10
0.0
 20
0.0
 30
0.0
 11
-1.0
 21
0.0
 31
0.0
  0
ENDBLK
  5
882
330
2DCE
100
AcDbEntity
  8
0
100
AcDbBlockEnd
  0
BLOCK
  5
2DD1
330
2DD0
100
AcDbEntity
  8
0
 62
     1
100
AcDbBlockBegin
  2
_DOTBLANK
 70
     0
 10
0.0
 20
0.0
 30
0.0
  3
_DOTBLANK
  1

  0
CIRCLE
  5
AB3
330
2DD0
100
AcDbEntity
  8
0
  6
ByBlock
 62
     0
100
AcDbCircle
 10
0.0
 20
0.0
 30
0.0
 40
0.5
  0
LINE
  5
AB4
330
2DD0
100
AcDbEntity
  8
0
  6
ByBlock
 62
     0
100
AcDbLine
 10
-0.5
 20
0.0
 30
0.0
 11
-1.0
 21
0.0
 31
0.0
  0
ENDBLK
  5
AB6
330
2DD0
100
AcDbEntity
  8
0
 62
     1
100
AcDbBlockEnd
  0
BLOCK
  5
2DD3
330
2DD2
100
AcDbEntity
  8
0
 62
     1
100
AcDbBlockBegin
  2
_OPEN30
 70
     0
 10
0.0
 20
0.0
 30
0.0
  3
_OPEN30
  1

  0
LINE
  5
AB8
330
2DD2
100
AcDbEntity
  8
0
  6
ByBlock
 62
     0
100
AcDbLine
 10
-1.0
 20
0.26794919
 30
0.0
 11
0.0
 21
0.0
 31
0.0
  0
LINE
  5
AB9
330
2DD2
100
AcDbEntity
  8
0
  6
ByBlock
 62
     0
100
AcDbLine
 10
0.0
 20
0.0
 30
0.0
 11
-1.0
 21
-0.26794919
 31
0.0
  0
LINE
  5
ABA
330
2DD2
100
AcDbEntity
  8
0
  6
ByBlock
 62
     0
100
AcDbLine
 10
0.0
 20
0.0
 30
0.0
 11
-1.0
 21
0.0
 31
0.0
  0
ENDBLK
  5
ABC
330
2DD2
100
AcDbEntity
  8
0
 62
     1
100
AcDbBlockEnd
  0
BLOCK
  5
2DD5
330
2DD4
100
AcDbEntity
  8
0
100
AcDbBlockBegin
  2
GENAXEH
 70
     0
 10
0.0
 20
0.0
 30
0.0
  3
GENAXEH
  1

  0
LINE
  5
FDB
330
2DD4
100
AcDbEntity
  8
0
100
AcDbLine
 10
-1.0
 20
0.0
 30
0.0
 11
1.0
 21
0.0
 31
0.0
  0
ENDBLK
  5
FDD
330
2DD4
100
AcDbEntity
  8
0
100
AcDbBlockEnd
  0
BLOCK
  5
2DD7
330
2DD6
100
AcDbEntity
  8
0
100
AcDbBlockBegin
  2
*U6
 70
     1
 10
0.0
 20
0.0
 30
0.0
  3
*U6
  1

  0
ENDBLK
  5
1ED4
330
2DD6
100
AcDbEntity
  8
0
100
AcDbBlockEnd
  0
BLOCK
  5
2DD9
330
2DD8
100
AcDbEntity
  8
0
100
AcDbBlockBegin
  2
*D7
 70
     1
 10
0.0
 20
0.0
 30
0.0
  3
*D7
  1

  0
LINE
  5
2029
330
2DD8
100
AcDbEntity
  8
SIZE
 62
     0
100
AcDbLine
 10
-135.5
 20
-449.4732256776551
 30
0.0
 11
-135.5
 21
-638.0173952306003
 31
0.0
  0
LINE
  5
202A
330
2DD8
100
AcDbEntity
  8
SIZE
 62
     0
100
AcDbLine
 10
135.5
 20
-449.4732256776551
 30
0.0
 11
135.5
 21
-638.0173952306003
 31
0.0
  0
LINE
  5
202B
330
2DD8
100
AcDbEntity
  8
SIZE
 62
     0
100
AcDbLine
 10
-123.5
 20
-618.0173952306001
 30
0.0
 11
123.5
 21
-618.0173952306001
 31
0.0
  0
INSERT
  5
202C
330
2DD8
100
AcDbEntity
  8
SIZE
 62
     0
100
AcDbBlockReference
  2
_DOTBLANK
 10
-135.5
 20
-618.0173952306001
 30
0.0
 41
12.0
 42
12.0
 43
12.0
 50
180.0
  0
INSERT
  5
202D
330
2DD8
100
AcDbEntity
  8
SIZE
 62
     0
100
AcDbBlockReference
  2
_DOTBLANK
 10
135.5
 20
-618.0173952306001
 30
0.0
 41
12.0
 42
12.0
 43
12.0
  0
INSERT
  5
202E
330
2DD8
100
AcDbEntity
  8
0
100
AcDbBlockReference
  2
*U8
 10
0.0
 20
0.0
 30
0.0
  0
POINT
  5
202F
330
2DD8
100
AcDbEntity
  8
DEFPOINTS
 62
     0
100
AcDbPoint
 10
-135.5
 20
-429.473225677655
 30
0.0
  0
POINT
  5
2030
330
2DD8
100
AcDbEntity
  8
DEFPOINTS
 62
     0
100
AcDbPoint
 10
135.5
 20
-429.473225677655
 30
0.0
  0
POINT
  5
2031
330
2DD8
100
AcDbEntity
  8
DEFPOINTS
 62
     0
100
AcDbPoint
 10
135.5
 20
-618.0173952306001
 30
0.0
  0
ENDBLK
  5
1FDF
330
2DD8
100
AcDbEntity
  8
0
100
AcDbBlockEnd
  0
BLOCK
  5
2DDB
330
2DDA
100
AcDbEntity
  8
0
100
AcDbBlockBegin
  2
*U8
 70
     1
 10
0.0
 20
0.0
 30
0.0
  3
*U8
  1

  0
TEXT
  5
21A6
330
2DDA
100
AcDbEntity
  8
SIZE
 62
     0
100
AcDbText
 10
-61.7142857142857
 20
-608.0173952306003
 30
0.0
 40
64.0
  1
271
 41
0.9
100
AcDbText
  0
ENDBLK
  5
21A8
330
2DDA
100
AcDbEntity
  8
0
100
AcDbBlockEnd
  0
BLOCK
  5
2DDD
330
2DDC
100
AcDbEntity
  8
0
100
AcDbBlockBegin
  2
*D9
 70
     1
 10
0.0
 20
0.0
 30
0.0
  3
*D9
  1

  0
LINE
  5
2032
330
2DDC
100
AcDbEntity
  8
SIZE
 62
     0
100
AcDbLine
 10
143.7000000000007
 20
-430.0
 30
0.0
 11
304.6432844803784
 21
-430.0
 31
0.0
  0
LINE
  5
2033
330
2DDC
100
AcDbEntity
  8
SIZE
 62
     0
100
AcDbLine
 10
177.5
 20
-0.0000000000000057
 30
0.0
 11
304.6432844803785
 21
-0.0000000000000417
 31
0.0
  0
LINE
  5
2034
330
2DDC
100
AcDbEntity
  8
SIZE
 62
     0
100
AcDbLine
 10
284.6432844803784
 20
-418.0
 30
0.0
 11
284.6432844803785
 21
-12.00000000000003
 31
0.0
  0
INSERT
  5
2035
330
2DDC
100
AcDbEntity
  8
SIZE
 62
     0
100
AcDbBlockReference
  2
_DOTBLANK
 10
284.6432844803784
 20
-430.0
 30
0.0
 41
12.0
 42
12.0
 43
12.0
 50
270.0
  0
INSERT
  5
2036
330
2DDC
100
AcDbEntity
  8
SIZE
 62
     0
100
AcDbBlockReference
  2
_DOTBLANK
 10
284.6432844803785
 20
-0.000000000000036
 30
0.0
 41
12.0
 42
12.0
 43
12.0
 50
90.0
  0
INSERT
  5
2037
330
2DDC
100
AcDbEntity
  8
0
100
AcDbBlockReference
  2
*U10
 10
0.0
 20
0.0
 30
0.0
  0
POINT
  5
2038
330
2DDC
100
AcDbEntity
  8
DEFPOINTS
 62
     0
100
AcDbPoint
 10
123.7000000000007
 20
-430.0
 30
0.0
  0
POINT
  5
2039
330
2DDC
100
AcDbEntity
  8
DEFPOINTS
 62
     0
100
AcDbPoint
 10
157.5
 20
0.0
 30
0.0
  0
POINT
  5
203A
330
2DDC
100
AcDbEntity
  8
DEFPOINTS
 62
     0
100
AcDbPoint
 10
284.6432844803785
 20
-0.000000000000036
 30
0.0
  0
ENDBLK
  5
1FEB
330
2DDC
100
AcDbEntity
  8
0
100
AcDbBlockEnd
  0
BLOCK
  5
2DDF
330
2DDE
100
AcDbEntity
  8
0
100
AcDbBlockBegin
  2
*U10
 70
     1
 10
0.0
 20
0.0
 30
0.0
  3
*U10
  1

  0
TEXT
  5
21AA
330
2DDE
100
AcDbEntity
  8
SIZE
 62
     0
100
AcDbText
 10
274.6432844803785
 20
-289.0571428571429
 30
0.0
 40
64.0
  1
430
 50
90.0
 41
0.9
100
AcDbText
  0
ENDBLK
  5
21AC
330
2DDE
100
AcDbEntity
  8
0
100
AcDbBlockEnd
  0
BLOCK
  5
2DE1
330
2DE0
100
AcDbEntity
  8
0
100
AcDbBlockBegin
  2
*D11
 70
     1
 10
0.0
 20
0.0
 30
0.0
  3
*D11
  1

  0
LINE
  5
203B
330
2DE0
100
AcDbEntity
  8
SIZE
 62
     0
100
AcDbLine
 10
-140.0
 20
32.5
 30
0.0
 11
-140.0
 21
136.4516878685499
 31
0.0
  0
LINE
  5
203C
330
2DE0
100
AcDbEntity
  8
SIZE
 62
     0
100
AcDbLine
 10
140.0
 20
32.5
 30
0.0
 11
140.0
 21
136.4516878685499
 31
0.0
  0
LINE
  5
203D
330
2DE0
100
AcDbEntity
  8
SIZE
 62
     0
100
AcDbLine
 10
-128.0
 20
116.4516878685499
 30
0.0
 11
128.0
 21
116.4516878685499
 31
0.0
  0
INSERT
  5
203E
330
2DE0
100
AcDbEntity
  8
SIZE
 62
     0
100
AcDbBlockReference
  2
_DOTBLANK
 10
-140.0
 20
116.4516878685499
 30
0.0
 41
12.0
 42
12.0
 43
12.0
 50
180.0
  0
INSERT
  5
203F
330
2DE0
100
AcDbEntity
  8
SIZE
 62
     0
100
AcDbBlockReference
  2
_DOTBLANK
 10
140.0
 20
116.4516878685499
 30
0.0
 41
12.0
 42
12.0
 43
12.0
  0
INSERT
  5
2040
330
2DE0
100
AcDbEntity
  8
0
100
AcDbBlockReference
  2
*U12
 10
0.0
 20
0.0
 30
0.0
  0
POINT
  5
2041
330
2DE0
100
AcDbEntity
  8
DEFPOINTS
 62
     0
100
AcDbPoint
 10
-140.0
 20
12.5
 30
0.0
  0
POINT
  5
2042
330
2DE0
100
AcDbEntity
  8
DEFPOINTS
 62
     0
100
AcDbPoint
 10
140.0
 20
12.5
 30
0.0
  0
POINT
  5
2043
330
2DE0
100
AcDbEntity
  8
DEFPOINTS
 62
     0
100
AcDbPoint
 10
140.0
 20
116.4516878685499
 30
0.0
  0
ENDBLK
  5
1FF7
330
2DE0
100
AcDbEntity
  8
0
100
AcDbBlockEnd
  0
BLOCK
  5
2DE3
330
2DE2
100
AcDbEntity
  8
0
100
AcDbBlockBegin
  2
*U12
 70
     1
 10
0.0
 20
0.0
 30
0.0
  3
*U12
  1

  0
TEXT
  5
21AE
330
2DE2
100
AcDbEntity
  8
SIZE
 62
     0
100
AcDbText
 10
-74.05714285714283
 20
126.4516878685499
 30
0.0
 40
64.0
  1
280
 41
0.9
100
AcDbText
  0
ENDBLK
  5
21B0
330
2DE2
100
AcDbEntity
  8
0
100
AcDbBlockEnd
  0
BLOCK
  5
2DE5
330
2DE4
100
AcDbEntity
  8
0
100
AcDbBlockBegin
  2
*D13
 70
     1
 10
0.0
 20
0.0
 30
0.0
  3
*D13
  1

  0
LINE
  5
2044
330
2DE4
100
AcDbEntity
  8
SIZE
 62
     0
100
AcDbLine
 10
-157.5
 20
20.0
 30
0.0
 11
-157.5
 21
245.5794621189598
 31
0.0
  0
LINE
  5
2045
330
2DE4
100
AcDbEntity
  8
SIZE
 62
     0
100
AcDbLine
 10
157.5
 20
20.0
 30
0.0
 11
157.5
 21
245.5794621189598
 31
0.0
  0
LINE
  5
2046
330
2DE4
100
AcDbEntity
  8
SIZE
 62
     0
100
AcDbLine
 10
-145.5
 20
225.5794621189598
 30
0.0
 11
145.5
 21
225.5794621189598
 31
0.0
  0
INSERT
  5
2047
330
2DE4
100
AcDbEntity
  8
SIZE
 62
     0
100
AcDbBlockReference
  2
_DOTBLANK
 10
-157.5
 20
225.5794621189598
 30
0.0
 41
12.0
 42
12.0
 43
12.0
 50
180.0
  0
INSERT
  5
2048
330
2DE4
100
AcDbEntity
  8
SIZE
 62
     0
100
AcDbBlockReference
  2
_DOTBLANK
 10
157.5
 20
225.5794621189598
 30
0.0
 41
12.0
 42
12.0
 43
12.0
  0
INSERT
  5
2049
330
2DE4
100
AcDbEntity
  8
0
100
AcDbBlockReference
  2
*U14
 10
0.0
 20
0.0
 30
0.0
  0
POINT
  5
204A
330
2DE4
100
AcDbEntity
  8
DEFPOINTS
 62
     0
100
AcDbPoint
 10
-157.5
 20
0.0
 30
0.0
  0
POINT
  5
204B
330
2DE4
100
AcDbEntity
  8
DEFPOINTS
 62
     0
100
AcDbPoint
 10
157.5
 20
0.0
 30
0.0
  0
POINT
  5
204C
330
2DE4
100
AcDbEntity
  8
DEFPOINTS
 62
     0
100
AcDbPoint
 10
157.5
 20
225.5794621189598
 30
0.0
  0
ENDBLK
  5
2003
330
2DE4
100
AcDbEntity
  8
0
100
AcDbBlockEnd
  0
BLOCK
  5
2DE7
330
2DE6
100
AcDbEntity
  8
0
100
AcDbBlockBegin
  2
*U14
 70
     1
 10
0.0
 20
0.0
 30
0.0
  3
*U14
  1

  0
TEXT
  5
21B2
330
2DE6
100
AcDbEntity
  8
SIZE
 62
     0
100
AcDbText
 10
-68.57142857142857
 20
235.5794621189598
 30
0.0
 40
64.0
  1
315
 41
0.9
100
AcDbText
  0
ENDBLK
  5
21B4
330
2DE6
100
AcDbEntity
  8
0
100
AcDbBlockEnd
  0
BLOCK
  5
2DE9
330
2DE8
100
AcDbEntity
  8
0
100
AcDbBlockBegin
  2
*D15
 70
     1
 10
0.0
 20
0.0
 30
0.0
  3
*D15
  1

  0
LINE
  5
204D
330
2DE8
100
AcDbEntity
  8
SIZE
 62
     0
100
AcDbLine
 10
-177.5
 20
0.0000000000000057
 30
0.0
 11
-219.7694545525301
 21
0.0000000000000176
 31
0.0
  0
LINE
  5
204E
330
2DE8
100
AcDbEntity
  8
SIZE
 62
     0
100
AcDbLine
 10
-177.5
 20
-7.999999999999993
 30
0.0
 11
-219.7694545525301
 21
-7.999999999999982
 31
0.0
  0
LINE
  5
204F
330
2DE8
100
AcDbEntity
  8
SIZE
 62
     0
100
AcDbLine
 10
-199.76945455253
 20
12.00000000000001
 30
0.0
 11
-199.76945455253
 21
24.00000000000001
 31
0.0
  0
LINE
  5
2050
330
2DE8
100
AcDbEntity
  8
SIZE
 62
     0
100
AcDbLine
 10
-199.76945455253
 20
-19.99999999999999
 30
0.0
 11
-199.7694545525301
 21
-90.4
 31
0.0
  0
LINE
  5
2051
330
2DE8
100
AcDbEntity
  8
SIZE
 62
     0
100
AcDbLine
 10
-199.76945455253
 20
0.000000000000012
 30
0.0
 11
-199.76945455253
 21
-7.999999999999985
 31
0.0
  0
INSERT
  5
2052
330
2DE8
100
AcDbEntity
  8
SIZE
 62
     0
100
AcDbBlockReference
  2
_DOTBLANK
 10
-199.76945455253
 20
0.000000000000012
 30
0.0
 41
12.0
 42
12.0
 43
12.0
 50
270.0
  0
INSERT
  5
2053
330
2DE8
100
AcDbEntity
  8
SIZE
 62
     0
100
AcDbBlockReference
  2
_DOTBLANK
 10
-199.76945455253
 20
-7.999999999999985
 30
0.0
 41
12.0
 42
12.0
 43
12.0
 50
90.0
  0
INSERT
  5
2054
330
2DE8
100
AcDbEntity
  8
0
100
AcDbBlockReference
  2
*U16
 10
0.0
 20
0.0
 30
0.0
  0
POINT
  5
2055
330
2DE8
100
AcDbEntity
  8
DEFPOINTS
 62
     0
100
AcDbPoint
 10
-157.5
 20
0.0
 30
0.0
  0
POINT
  5
2056
330
2DE8
100
AcDbEntity
  8
DEFPOINTS
 62
     0
100
AcDbPoint
 10
-157.5
 20
-8.0
 30
0.0
  0
POINT
  5
2057
330
2DE8
100
AcDbEntity
  8
DEFPOINTS
 62
     0
100
AcDbPoint
 10
-199.76945455253
 20
-7.999999999999985
 30
0.0
  0
ENDBLK
  5
200F
330
2DE8
100
AcDbEntity
  8
0
100
AcDbBlockEnd
  0
BLOCK
  5
2DEB
330
2DEA
100
AcDbEntity
  8
0
100
AcDbBlockBegin
  2
*U16
 70
     1
 10
0.0
 20
0.0
 30
0.0
  3
*U16
  1

  0
TEXT
  5
21B6
330
2DEA
100
AcDbEntity
  8
SIZE
 62
     0
100
AcDbText
 10
-209.7694545525301
 20
-80.4
 30
0.0
 40
64.0
  1
8
 50
90.0
 41
0.9
100
AcDbText
  0
ENDBLK
  5
21B8
330
2DEA
100
AcDbEntity
  8
0
100
AcDbBlockEnd
  0
BLOCK
  5
2DED
330
2DEC
100
AcDbEntity
  8
0
100
AcDbBlockBegin
  2
*D17
 70
     1
 10
0.0
 20
0.0
 30
0.0
  3
*D17
  1

  0
LINE
  5
2058
330
2DEC
100
AcDbEntity
  8
SIZE
 62
     0
100
AcDbLine
 10
143.7000000000007
 20
-430.0
 30
0.0
 11
304.626441221626
 21
-430.0
 31
0.0
  0
LINE
  5
2059
330
2DEC
100
AcDbEntity
  8
SIZE
 62
     0
100
AcDbLine
 10
143.1000000000022
 20
-441.0000000000001
 30
0.0
 11
304.626441221626
 21
-441.0000000000001
 31
0.0
  0
LINE
  5
205A
330
2DEC
100
AcDbEntity
  8
SIZE
 62
     0
100
AcDbLine
 10
284.626441221626
 20
-418.0
 30
0.0
 11
284.626441221626
 21
-406.0
 31
0.0
  0
LINE
  5
205B
330
2DEC
100
AcDbEntity
  8
SIZE
 62
     0
100
AcDbLine
 10
284.626441221626
 20
-453.0
 30
0.0
 11
284.626441221626
 21
-542.6000000000001
 31
0.0
  0
LINE
  5
205C
330
2DEC
100
AcDbEntity
  8
SIZE
 62
     0
100
AcDbLine
 10
284.626441221626
 20
-430.0
 30
0.0
 11
284.626441221626
 21
-441.0000000000001
 31
0.0
  0
INSERT
  5
205D
330
2DEC
100
AcDbEntity
  8
SIZE
 62
     0
100
AcDbBlockReference
  2
_DOTBLANK
 10
284.626441221626
 20
-430.0
 30
0.0
 41
12.0
 42
12.0
 43
12.0
 50
270.0
  0
INSERT
  5
205E
330
2DEC
100
AcDbEntity
  8
SIZE
 62
     0
100
AcDbBlockReference
  2
_DOTBLANK
 10
284.626441221626
 20
-441.0000000000001
 30
0.0
 41
12.0
 42
12.0
 43
12.0
 50
90.0
  0
INSERT
  5
205F
330
2DEC
100
AcDbEntity
  8
0
100
AcDbBlockReference
  2
*U18
 10
0.0
 20
0.0
 30
0.0
  0
POINT
  5
2060
330
2DEC
100
AcDbEntity
  8
DEFPOINTS
 62
     0
100
AcDbPoint
 10
123.7000000000007
 20
-430.0
 30
0.0
  0
POINT
  5
2061
330
2DEC
100
AcDbEntity
  8
DEFPOINTS
 62
     0
100
AcDbPoint
 10
123.1000000000022
 20
-441.0
 30
0.0
  0
POINT
  5
2062
330
2DEC
100
AcDbEntity
  8
DEFPOINTS
 62
     0
100
AcDbPoint
 10
284.626441221626
 20
-441.0000000000001
 30
0.0
  0
ENDBLK
  5
201D
330
2DEC
100
AcDbEntity
  8
0
100
AcDbBlockEnd
  0
BLOCK
  5
2DEF
330
2DEE
100
AcDbEntity
  8
0
100
AcDbBlockBegin
  2
*U18
 70
     1
 10
0.0
 20
0.0
 30
0.0
  3
*U18
  1

  0
TEXT
  5
21BA
330
2DEE
100
AcDbEntity
  8
SIZE
 62
     0
100
AcDbText
 10
274.6264412216261
 20
-532.6
 30
0.0
 40
64.0
  1
11
 50
90.0
 41
0.9
100
AcDbText
  0
ENDBLK
  5
21BC
330
2DEE
100
AcDbEntity
  8
0
100
AcDbBlockEnd
  0
BLOCK
  5
2DF1
330
2DF0
100
AcDbEntity
  8
0
100
AcDbBlockBegin
  2
*U19
 70
     1
 10
0.0
 20
0.0
 30
0.0
  3
*U19
  1

  0
INSERT
  5
2199
330
2DF0
100
AcDbEntity
  8
NOTE
100
AcDbBlockReference
  2
_OPEN30
 10
-140.0
 20
0.0
 30
0.0
 41
12.0
 42
12.0
 43
12.0
 50
312.6090116116894
  0
POLYLINE
  5
219A
330
2DF0
100
AcDbEntity
  8
NOTE
100
AcDb2dPolyline
 66
     1
 10
0.0
 20
0.0
 30
0.0
  0
VERTEX
  5
219B
330
219A
100
AcDbEntity
  8
NOTE
100
AcDbVertex
100
AcDb2dVertex
 10
-148.1239008361894
 20
8.831887408915472
 30
0.0
  0
VERTEX
  5
219C
330
219A
100
AcDbEntity
  8
NOTE
100
AcDbVertex
100
AcDb2dVertex
 10
-227.8693999922543
 20
95.5270950580134
 30
0.0
  0
VERTEX
  5
219D
330
219A
100
AcDbEntity
  8
NOTE
100
AcDbVertex
100
AcDb2dVertex
 10
-776.4522571351115
 20
95.5270950580134
 30
0.0
  0
SEQEND
  5
219E
330
219A
100
AcDbEntity
  8
NOTE
  0
ENDBLK
  5
21A0
330
2DF0
100
AcDbEntity
  8
0
100
AcDbBlockEnd
  0
BLOCK
  5
2DF3
330
2DF2
100
AcDbEntity
  8
0
100
AcDbBlockBegin
  2
*U20
 70
     1
 10
0.0
 20
0.0
 30
0.0
  3
*U20
  1

  0
TEXT
  5
21A2
330
2DF2
100
AcDbEntity
  8
NOTE
100
AcDbText
 10
-773.7093999922541
 20
113.5270950580134
 30
0.0
 40
64.0
  1
4×φ10取付穴
 41
0.9
100
AcDbText
  0
ENDBLK
  5
21A4
330
2DF2
100
AcDbEntity
  8
0
100
AcDbBlockEnd
  0
BLOCK
  5
2DF5
330
2DF4
100
AcDbEntity
  8
0
100
AcDbBlockBegin
  2
*X21
 70
     1
 10
0.0
 20
0.0
 30
0.0
  3
*X21
  1

  0
LINE
  5
290D
330
2DF4
100
AcDbEntity
  8
0
 62
     0
100
AcDbLine
 10
883.6735423696302
 20
166.6512854300217
 30
0.0
 11
885.0094016739822
 21
167.5418560254893
 31
0.0
  0
LINE
  5
290E
330
2DF4
100
AcDbEntity
  8
0
 62
     0
100
AcDbLine
 10
879.1735810757456
 20
166.6512854300199
 30
0.0
 11
885.0094016739804
 21
170.5418225609046
 31
0.0
  0
LINE
  5
290F
330
2DF4
100
AcDbEntity
  8
0
 62
     0
100
AcDbLine
 10
874.6736197818663
 20
166.6512854300254
 30
0.0
 11
885.009401673984
 21
173.5417890963217
 31
0.0
  0
LINE
  5
2910
330
2DF4
100
AcDbEntity
  8
0
 62
     0
100
AcDbLine
 10
870.1736584879709
 20
166.6512854300217
 30
0.0
 11
885.0094016739785
 21
176.541755631737
 31
0.0
  0
LINE
  5
2911
330
2DF4
100
AcDbEntity
  8
0
 62
     0
100
AcDbLine
 10
865.6736971940917
 20
166.6512854300254
 30
0.0
 11
885.0094016739822
 21
179.5417221671559
 31
0.0
  0
LINE
  5
2912
330
2DF4
100
AcDbEntity
  8
0
 62
     0
100
AcDbLine
 10
861.1737359002072
 20
166.6512854300235
 30
0.0
 11
885.009401673984
 21
182.5416887025712
 31
0.0
  0
LINE
  5
2913
330
2DF4
100
AcDbEntity
  8
0
 62
     0
100
AcDbLine
 10
856.6737746063171
 20
166.6512854300217
 30
0.0
 11
885.0094016739804
 21
185.5416552379864
 31
0.0
  0
LINE
  5
2914
330
2DF4
100
AcDbEntity
  8
0
 62
     0
100
AcDbLine
 10
852.1738133124326
 20
166.6512854300235
 30
0.0
 11
885.0094016739822
 21
188.5416217734037
 31
0.0
  0
LINE
  5
2915
330
2DF4
100
AcDbEntity
  8
0
 62
     0
100
AcDbLine
 10
847.6738520185481
 20
166.6512854300235
 30
0.0
 11
885.0094016739822
 21
191.541588308819
 31
0.0
  0
LINE
  5
2916
330
2DF4
100
AcDbEntity
  8
0
 62
     0
100
AcDbLine
 10
843.1738907246618
 20
166.6512854300217
 30
0.0
 11
885.009401673984
 21
194.5415548442361
 31
0.0
  0
LINE
  5
2917
330
2DF4
100
AcDbEntity
  8
0
 62
     0
100
AcDbLine
 10
838.6739294307734
 20
166.6512854300199
 30
0.0
 11
885.0094016739804
 21
197.5415213796495
 31
0.0
  0
LINE
  5
2918
330
2DF4
100
AcDbEntity
  8
0
 62
     0
100
AcDbLine
 10
834.1739681368943
 20
166.6512854300235
 30
0.0
 11
885.0094016739822
 21
200.5414879150685
 31
0.0
  0
LINE
  5
2919
330
2DF4
100
AcDbEntity
  8
0
 62
     0
100
AcDbLine
 10
829.6740068430079
 20
166.6512854300254
 30
0.0
 11
885.0094016739822
 21
203.5414544504838
 31
0.0
  0
LINE
  5
291A
330
2DF4
100
AcDbEntity
  8
0
 62
     0
100
AcDbLine
 10
825.1740455491235
 20
166.6512854300235
 30
0.0
 11
885.009401673984
 21
206.5414209858991
 31
0.0
  0
LINE
  5
291B
330
2DF4
100
AcDbEntity
  8
0
 62
     0
100
AcDbLine
 10
820.6740842552333
 20
166.6512854300217
 30
0.0
 11
885.0094016739804
 21
209.5413875213144
 31
0.0
  0
LINE
  5
291C
330
2DF4
100
AcDbEntity
  8
0
 62
     0
100
AcDbLine
 10
816.1741229613491
 20
166.6512854300217
 30
0.0
 11
885.0094016739822
 21
212.5413540567315
 31
0.0
  0
LINE
  5
291D
330
2DF4
100
AcDbEntity
  8
0
 62
     0
100
AcDbLine
 10
811.6741616674644
 20
166.6512854300217
 30
0.0
 11
885.009401673984
 21
215.5413205921504
 31
0.0
  0
LINE
  5
291E
330
2DF4
100
AcDbEntity
  8
0
 62
     0
100
AcDbLine
 10
807.1742003735744
 20
166.6512854300235
 30
0.0
 11
885.0094016739804
 21
218.5412871275657
 31
0.0
  0
LINE
  5
291F
330
2DF4
100
AcDbEntity
  8
0
 62
     0
100
AcDbLine
 10
802.6742390796897
 20
166.6512854300217
 30
0.0
 11
885.0094016739804
 21
221.5412536629792
 31
0.0
  0
LINE
  5
2920
330
2DF4
100
AcDbEntity
  8
0
 62
     0
100
AcDbLine
 10
798.1742777858106
 20
166.6512854300235
 30
0.0
 11
885.0094016739785
 21
224.5412201983945
 31
0.0
  0
LINE
  5
2921
330
2DF4
100
AcDbEntity
  8
0
 62
     0
100
AcDbLine
 10
793.6743164919207
 20
166.6512854300235
 30
0.0
 11
885.0094016739785
 21
227.5411867338116
 31
0.0
  0
LINE
  5
2922
330
2DF4
100
AcDbEntity
  8
0
 62
     0
100
AcDbLine
 10
789.1743551980362
 20
166.6512854300235
 30
0.0
 11
885.0094016739767
 21
230.5411532692287
 31
0.0
  0
LINE
  5
2923
330
2DF4
100
AcDbEntity
  8
0
 62
     0
100
AcDbLine
 10
784.6743939041514
 20
166.6512854300235
 30
0.0
 11
885.0094016739804
 21
233.541119804644
 31
0.0
  0
LINE
  5
2924
330
2DF4
100
AcDbEntity
  8
0
 62
     0
100
AcDbLine
 10
780.1744326102616
 20
166.6512854300217
 30
0.0
 11
885.0094016739749
 21
236.5410863400575
 31
0.0
  0
LINE
  5
2925
330
2DF4
100
AcDbEntity
  8
0
 62
     0
100
AcDbLine
 10
775.6744713163771
 20
166.6512854300217
 30
0.0
 11
885.0094016739785
 21
239.5410528754764
 31
0.0
  0
LINE
  5
2926
330
2DF4
100
AcDbEntity
  8
0
 62
     0
100
AcDbLine
 10
880.9968563937182
 20
239.8659960548084
 30
0.0
 11
885.0094016739767
 21
242.5410194108918
 31
0.0
  0
LINE
  5
2927
330
2DF4
100
AcDbEntity
  8
0
 62
     0
100
AcDbLine
 10
771.1745100224907
 20
166.6512854300217
 30
0.0
 11
880.9968563937182
 21
239.8659960548084
 31
0.0
  0
LINE
  5
2928
330
2DF4
100
AcDbEntity
  8
0
 62
     0
100
AcDbLine
 10
876.4968950998335
 20
239.8659960548066
 30
0.0
 11
885.0094016739804
 21
245.5409859463089
 31
0.0
  0
LINE
  5
2929
330
2DF4
100
AcDbEntity
  8
0
 62
     0
100
AcDbLine
 10
766.6745487286114
 20
166.6512854300235
 30
0.0
 11
876.4968950998335
 21
239.8659960548066
 31
0.0
  0
LINE
  5
292A
330
2DF4
100
AcDbEntity
  8
0
 62
     0
100
AcDbLine
 10
871.9969338059437
 20
239.8659960548048
 30
0.0
 11
885.0094016739749
 21
248.5409524817224
 31
0.0
  0
LINE
  5
292B
330
2DF4
100
AcDbEntity
  8
0
 62
     0
100
AcDbLine
 10
762.1745874347233
 20
166.6512854300235
 30
0.0
 11
871.9969338059437
 21
239.8659960548048
 31
0.0
  0
LINE
  5
292C
330
2DF4
100
AcDbEntity
  8
0
 62
     0
100
AcDbLine
 10
867.4969725120588
 20
239.8659960548048
 30
0.0
 11
885.0094016739785
 21
251.5409190171395
 31
0.0
  0
LINE
  5
292D
330
2DF4
100
AcDbEntity
  8
0
 62
     0
100
AcDbLine
 10
757.6746261408369
 20
166.6512854300235
 30
0.0
 11
867.4969725120588
 21
239.8659960548048
 31
0.0
  0
LINE
  5
292E
330
2DF4
100
AcDbEntity
  8
0
 62
     0
100
AcDbLine
 10
862.9970112181764
 20
239.8659960548084
 30
0.0
 11
885.0094016739804
 21
254.5408855525584
 31
0.0
  0
LINE
  5
292F
330
2DF4
100
AcDbEntity
  8
0
 62
     0
100
AcDbLine
 10
753.1746648469525
 20
166.6512854300235
 30
0.0
 11
862.9970112181764
 21
239.8659960548084
 31
0.0
  0
LINE
  5
2930
330
2DF4
100
AcDbEntity
  8
0
 62
     0
100
AcDbLine
 10
858.4970499242915
 20
239.8659960548084
 30
0.0
 11
885.0094016739785
 21
257.5408520879737
 31
0.0
  0
LINE
  5
2931
330
2DF4
100
AcDbEntity
  8
0
 62
     0
100
AcDbLine
 10
748.6747035530679
 20
166.6512854300235
 30
0.0
 11
858.4970499242915
 21
239.8659960548084
 31
0.0
  0
LINE
  5
2932
330
2DF4
100
AcDbEntity
  8
0
 62
     0
100
AcDbLine
 10
853.9970886304017
 20
239.8659960548066
 30
0.0
 11
885.0094016739785
 21
260.5408186233908
 31
0.0
  0
LINE
  5
2933
330
2DF4
100
AcDbEntity
  8
0
 62
     0
100
AcDbLine
 10
744.1747422591778
 20
166.6512854300217
 30
0.0
 11
853.9970886304017
 21
239.8659960548066
 31
0.0
  0
LINE
  5
2934
330
2DF4
100
AcDbEntity
  8
0
 62
     0
100
AcDbLine
 10
849.4971273365205
 20
239.8659960548066
 30
0.0
 11
885.0094016739767
 21
263.5407851588043
 31
0.0
  0
LINE
  5
2935
330
2DF4
100
AcDbEntity
  8
0
 62
     0
100
AcDbLine
 10
739.6747809652934
 20
166.6512854300199
 30
0.0
 11
849.4971273365205
 21
239.8659960548066
 31
0.0
  0
LINE
  5
2936
330
2DF4
100
AcDbEntity
  8
0
 62
     0
100
AcDbLine
 10
844.9971660426342
 20
239.8659960548066
 30
0.0
 11
885.0094016739804
 21
266.5407516942214
 31
0.0
  0
LINE
  5
2937
330
2DF4
100
AcDbEntity
  8
0
 62
     0
100
AcDbLine
 10
735.174819671407
 20
166.6512854300217
 30
0.0
 11
844.9971660426342
 21
239.8659960548066
 31
0.0
  0
LINE
  5
2938
330
2DF4
100
AcDbEntity
  8
0
 62
     0
100
AcDbLine
 10
840.4972047487499
 20
239.8659960548102
 30
0.0
 11
885.0094016739749
 21
269.5407182296384
 31
0.0
  0
LINE
  5
2939
330
2DF4
100
AcDbEntity
  8
0
 62
     0
100
AcDbLine
 10
730.6748583775243
 20
166.6512854300254
 30
0.0
 11
840.4972047487461
 21
239.8659960548066
 31
0.0
  0
LINE
  5
293A
330
2DF4
100
AcDbEntity
  8
0
 62
     0
100
AcDbLine
 10
835.9972434548618
 20
239.8659960548066
 30
0.0
 11
885.0094016739785
 21
272.5406847650538
 31
0.0
  0
LINE
  5
293B
330
2DF4
100
AcDbEntity
  8
0
 62
     0
100
AcDbLine
 10
726.1748970836397
 20
166.6512854300235
 30
0.0
 11
835.9972434548618
 21
239.8659960548066
 31
0.0
  0
LINE
  5
293C
330
2DF4
100
AcDbEntity
  8
0
 62
     0
100
AcDbLine
 10
831.497282160979
 20
239.8659960548066
 30
0.0
 11
885.0094016739767
 21
275.5406513004691
 31
0.0
  0
LINE
  5
293D
330
2DF4
100
AcDbEntity
  8
0
 62
     0
100
AcDbLine
 10
721.6749357897549
 20
166.6512854300217
 30
0.0
 11
831.497282160979
 21
239.8659960548066
 31
0.0
  0
LINE
  5
293E
330
2DF4
100
AcDbEntity
  8
0
 62
     0
100
AcDbLine
 10
826.9973208670888
 20
239.8659960548066
 30
0.0
 11
885.0094016739767
 21
278.5406178358863
 31
0.0
  0
LINE
  5
293F
330
2DF4
100
AcDbEntity
  8
0
 62
     0
100
AcDbLine
 10
717.1749744958653
 20
166.6512854300235
 30
0.0
 11
826.9973208670888
 21
239.8659960548066
 31
0.0
  0
LINE
  5
2940
330
2DF4
100
AcDbEntity
  8
0
 62
     0
100
AcDbLine
 10
822.4973595732045
 20
239.8659960548066
 30
0.0
 11
885.0094016739749
 21
281.5405843713015
 31
0.0
  0
LINE
  5
2941
330
2DF4
100
AcDbEntity
  8
0
 62
     0
100
AcDbLine
 10
712.6750132019806
 20
166.6512854300235
 30
0.0
 11
822.4973595732045
 21
239.8659960548066
 31
0.0
  0
LINE
  5
2942
330
2DF4
100
AcDbEntity
  8
0
 62
     0
100
AcDbLine
 10
817.9973982793196
 20
239.8659960548048
 30
0.0
 11
885.0094016739785
 21
284.5405509067187
 31
0.0
  0
LINE
  5
2943
330
2DF4
100
AcDbEntity
  8
0
 62
     0
100
AcDbLine
 10
708.1750519081015
 20
166.6512854300254
 30
0.0
 11
817.9973982793196
 21
239.8659960548048
 31
0.0
  0
LINE
  5
2944
330
2DF4
100
AcDbEntity
  8
0
 62
     0
100
AcDbLine
 10
813.4974369854335
 20
239.8659960548066
 30
0.0
 11
885.0094016739767
 21
287.5405174421339
 31
0.0
  0
LINE
  5
2945
330
2DF4
100
AcDbEntity
  8
0
 62
     0
100
AcDbLine
 10
703.675090614206
 20
166.6512854300199
 30
0.0
 11
813.4974369854335
 21
239.8659960548066
 31
0.0
  0
LINE
  5
2946
330
2DF4
100
AcDbEntity
  8
0
 62
     0
100
AcDbLine
 10
808.9974756915468
 20
239.8659960548066
 30
0.0
 11
885.0094016739767
 21
290.5404839775509
 31
0.0
  0
LINE
  5
2947
330
2DF4
100
AcDbEntity
  8
0
 62
     0
100
AcDbLine
 10
699.1751293203268
 20
166.6512854300235
 30
0.0
 11
808.9974756915468
 21
239.8659960548066
 31
0.0
  0
LINE
  5
2948
330
2DF4
100
AcDbEntity
  8
0
 62
     0
100
AcDbLine
 10
804.4975143976623
 20
239.8659960548066
 30
0.0
 11
885.0094016739785
 21
293.5404505129683
 31
0.0
  0
LINE
  5
2949
330
2DF4
100
AcDbEntity
  8
0
 62
     0
100
AcDbLine
 10
694.6751680264404
 20
166.6512854300254
 30
0.0
 11
804.4975143976623
 21
239.8659960548066
 31
0.0
  0
LINE
  5
294A
330
2DF4
100
AcDbEntity
  8
0
 62
     0
100
AcDbLine
 10
799.9975531037779
 20
239.8659960548066
 30
0.0
 11
885.0094016739785
 21
296.5404170483834
 31
0.0
  0
LINE
  5
294B
330
2DF4
100
AcDbEntity
  8
0
 62
     0
100
AcDbLine
 10
690.175206732556
 20
166.6512854300254
 30
0.0
 11
799.9975531037779
 21
239.8659960548066
 31
0.0
  0
LINE
  5
294C
330
2DF4
100
AcDbEntity
  8
0
 62
     0
100
AcDbLine
 10
795.4975918098953
 20
239.8659960548084
 30
0.0
 11
885.0094016739804
 21
299.5403835838005
 31
0.0
  0
LINE
  5
294D
330
2DF4
100
AcDbEntity
  8
0
 62
     0
100
AcDbLine
 10
685.6752454386715
 20
166.6512854300235
 30
0.0
 11
795.4975918098953
 21
239.8659960548084
 31
0.0
  0
LINE
  5
294E
330
2DF4
100
AcDbEntity
  8
0
 62
     0
100
AcDbLine
 10
790.9976305160053
 20
239.8659960548066
 30
0.0
 11
885.0094016739767
 21
302.540350119214
 31
0.0
  0
LINE
  5
294F
330
2DF4
100
AcDbEntity
  8
0
 62
     0
100
AcDbLine
 10
681.1752841447813
 20
166.6512854300217
 30
0.0
 11
790.9976305160053
 21
239.8659960548066
 31
0.0
  0
LINE
  5
2950
330
2DF4
100
AcDbEntity
  8
0
 62
     0
100
AcDbLine
 10
786.4976692221206
 20
239.8659960548066
 30
0.0
 11
885.0094016739785
 21
305.5403166546329
 31
0.0
  0
LINE
  5
2951
330
2DF4
100
AcDbEntity
  8
0
 62
     0
100
AcDbLine
 10
676.6753228508969
 20
166.6512854300217
 30
0.0
 11
786.4976692221206
 21
239.8659960548066
 31
0.0
  0
LINE
  5
2952
330
2DF4
100
AcDbEntity
  8
0
 62
     0
100
AcDbLine
 10
781.997707928238
 20
239.8659960548084
 30
0.0
 11
885.0094016739804
 21
308.5402831900501
 31
0.0
  0
LINE
  5
2953
330
2DF4
100
AcDbEntity
  8
0
 62
     0
100
AcDbLine
 10
672.1753615570105
 20
166.6512854300217
 30
0.0
 11
781.997707928238
 21
239.8659960548084
 31
0.0
  0
LINE
  5
2954
330
2DF4
100
AcDbEntity
  8
0
 62
     0
100
AcDbLine
 10
777.4977466343498
 20
239.8659960548066
 30
0.0
 11
885.0094016739767
 21
311.5402497254637
 31
0.0
  0
LINE
  5
2955
330
2DF4
100
AcDbEntity
  8
0
 62
     0
100
AcDbLine
 10
667.6754002631223
 20
166.6512854300217
 30
0.0
 11
777.4977466343498
 21
239.8659960548066
 31
0.0
  0
LINE
  5
2956
330
2DF4
100
AcDbEntity
  8
0
 62
     0
100
AcDbLine
 10
772.9977853404634
 20
239.8659960548048
 30
0.0
 11
885.0094016739785
 21
314.5402162608807
 31
0.0
  0
LINE
  5
2957
330
2DF4
100
AcDbEntity
  8
0
 62
     0
100
AcDbLine
 10
663.1754389692432
 20
166.6512854300235
 30
0.0
 11
772.9977853404634
 21
239.8659960548048
 31
0.0
  0
LINE
  5
2958
330
2DF4
100
AcDbEntity
  8
0
 62
     0
100
AcDbLine
 10
768.4978240465787
 20
239.8659960548066
 30
0.0
 11
885.0094016739785
 21
317.540182796296
 31
0.0
  0
LINE
  5
2959
330
2DF4
100
AcDbEntity
  8
0
 62
     0
100
AcDbLine
 10
662.4094016739818
 20
169.1405617393284
 30
0.0
 11
768.4978240465787
 21
239.8659960548066
 31
0.0
  0
LINE
  5
295A
330
2DF4
100
AcDbEntity
  8
0
 62
     0
100
AcDbLine
 10
763.9978627526925
 20
239.8659960548084
 30
0.0
 11
885.0094016739767
 21
320.5401493317149
 31
0.0
  0
LINE
  5
295B
330
2DF4
100
AcDbEntity
  8
0
 62
     0
100
AcDbLine
 10
662.40940167398
 20
172.1405282747473
 30
0.0
 11
763.9978627526925
 21
239.8659960548084
 31
0.0
  0
LINE
  5
295C
330
2DF4
100
AcDbEntity
  8
0
 62
     0
100
AcDbLine
 10
759.4979014588078
 20
239.8659960548066
 30
0.0
 11
885.0094016739767
 21
323.5401158671284
 31
0.0
  0
LINE
  5
295D
330
2DF4
100
AcDbEntity
  8
0
 62
     0
100
AcDbLine
 10
662.40940167398
 20
175.1404948101608
 30
0.0
 11
759.4979014588078
 21
239.8659960548066
 31
0.0
  0
LINE
  5
295E
330
2DF4
100
AcDbEntity
  8
0
 62
     0
100
AcDbLine
 10
754.9979401649234
 20
239.8659960548048
 30
0.0
 11
885.0094016739785
 21
326.5400824025455
 31
0.0
  0
LINE
  5
295F
330
2DF4
100
AcDbEntity
  8
0
 62
     0
100
AcDbLine
 10
662.4094016739818
 20
178.1404613455779
 30
0.0
 11
754.9979401649234
 21
239.8659960548048
 31
0.0
  0
LINE
  5
2960
330
2DF4
100
AcDbEntity
  8
0
 62
     0
100
AcDbLine
 10
750.4979788710333
 20
239.8659960548048
 30
0.0
 11
885.0094016739749
 21
329.5400489379608
 31
0.0
  0
LINE
  5
2961
330
2DF4
100
AcDbEntity
  8
0
 62
     0
100
AcDbLine
 10
662.4094016739783
 20
181.1404278809932
 30
0.0
 11
750.4979788710333
 21
239.8659960548048
 31
0.0
  0
LINE
  5
2962
330
2DF4
100
AcDbEntity
  8
0
 62
     0
100
AcDbLine
 10
745.9980175771505
 20
239.8659960548084
 30
0.0
 11
885.0094016739767
 21
332.5400154733779
 31
0.0
  0
LINE
  5
2963
330
2DF4
100
AcDbEntity
  8
0
 62
     0
100
AcDbLine
 10
662.40940167398
 20
184.1403944164103
 30
0.0
 11
745.9980175771505
 21
239.8659960548084
 31
0.0
  0
LINE
  5
2964
330
2DF4
100
AcDbEntity
  8
0
 62
     0
100
AcDbLine
 10
741.4980562832661
 20
239.8659960548084
 30
0.0
 11
885.0094016739767
 21
335.5399820087951
 31
0.0
  0
LINE
  5
2965
330
2DF4
100
AcDbEntity
  8
0
 62
     0
100
AcDbLine
 10
662.40940167398
 20
187.1403609518274
 30
0.0
 11
741.4980562832661
 21
239.8659960548084
 31
0.0
  0
LINE
  5
2966
330
2DF4
100
AcDbEntity
  8
0
 62
     0
100
AcDbLine
 10
736.9980949893779
 20
239.8659960548066
 30
0.0
 11
885.0094016739749
 21
338.5399485442103
 31
0.0
  0
LINE
  5
2967
330
2DF4
100
AcDbEntity
  8
0
 62
     0
100
AcDbLine
 10
662.4094016739783
 20
190.1403274872427
 30
0.0
 11
736.9980949893779
 21
239.8659960548066
 31
0.0
  0
LINE
  5
2968
330
2DF4
100
AcDbEntity
  8
0
 62
     0
100
AcDbLine
 10
732.4981336954953
 20
239.8659960548066
 30
0.0
 11
885.0094016739785
 21
341.5399150796275
 31
0.0
  0
LINE
  5
2969
330
2DF4
100
AcDbEntity
  8
0
 62
     0
100
AcDbLine
 10
662.4094016739783
 20
193.140294022658
 30
0.0
 11
732.4981336954953
 21
239.8659960548066
 31
0.0
  0
LINE
  5
296A
330
2DF4
100
AcDbEntity
  8
0
 62
     0
100
AcDbLine
 10
727.9981724016087
 20
239.8659960548066
 30
0.0
 11
885.0094016739767
 21
344.5398816150428
 31
0.0
  0
LINE
  5
296B
330
2DF4
100
AcDbEntity
  8
0
 62
     0
100
AcDbLine
 10
662.40940167398
 20
196.1402605580751
 30
0.0
 11
727.9981724016087
 21
239.8659960548066
 31
0.0
  0
LINE
  5
296C
330
2DF4
100
AcDbEntity
  8
0
 62
     0
100
AcDbLine
 10
723.4982111077242
 20
239.8659960548084
 30
0.0
 11
885.0094016739804
 21
347.5398481504599
 31
0.0
  0
LINE
  5
296D
330
2DF4
100
AcDbEntity
  8
0
 62
     0
100
AcDbLine
 10
662.40940167398
 20
199.1402270934904
 30
0.0
 11
723.4982111077242
 21
239.8659960548084
 31
0.0
  0
LINE
  5
296E
330
2DF4
100
AcDbEntity
  8
0
 62
     0
100
AcDbLine
 10
718.9982498138395
 20
239.8659960548066
 30
0.0
 11
885.0094016739785
 21
350.5398146858752
 31
0.0
  0
LINE
  5
296F
330
2DF4
100
AcDbEntity
  8
0
 62
     0
100
AcDbLine
 10
662.4094016739818
 20
202.1401936289076
 30
0.0
 11
718.9982498138395
 21
239.8659960548066
 31
0.0
  0
LINE
  5
2970
330
2DF4
100
AcDbEntity
  8
0
 62
     0
100
AcDbLine
 10
714.4982885199533
 20
239.8659960548066
 30
0.0
 11
885.0094016739785
 21
353.5397812212905
 31
0.0
  0
LINE
  5
2971
330
2DF4
100
AcDbEntity
  8
0
 62
     0
100
AcDbLine
 10
662.4094016739818
 20
205.1401601643229
 30
0.0
 11
714.4982885199533
 21
239.8659960548066
 31
0.0
  0
LINE
  5
2972
330
2DF4
100
AcDbEntity
  8
0
 62
     0
100
AcDbLine
 10
709.9983272260669
 20
239.8659960548066
 30
0.0
 11
885.0094016739767
 21
356.5397477567076
 31
0.0
  0
LINE
  5
2973
330
2DF4
100
AcDbEntity
  8
0
 62
     0
100
AcDbLine
 10
662.40940167398
 20
208.14012669974
 30
0.0
 11
709.9983272260669
 21
239.8659960548066
 31
0.0
  0
LINE
  5
2974
330
2DF4
100
AcDbEntity
  8
0
 62
     0
100
AcDbLine
 10
705.4983659321822
 20
239.8659960548066
 30
0.0
 11
885.0094016739804
 21
359.5397142921247
 31
0.0
  0
LINE
  5
2975
330
2DF4
100
AcDbEntity
  8
0
 62
     0
100
AcDbLine
 10
662.4094016739836
 20
211.1400932351571
 30
0.0
 11
705.4983659321822
 21
239.8659960548066
 31
0.0
  0
LINE
  5
2976
330
2DF4
100
AcDbEntity
  8
0
 62
     0
100
AcDbLine
 10
700.9984046382942
 20
239.8659960548066
 30
0.0
 11
885.0094016739749
 21
362.5396808275382
 31
0.0
  0
LINE
  5
2977
330
2DF4
100
AcDbEntity
  8
0
 62
     0
100
AcDbLine
 10
662.4094016739783
 20
214.1400597705706
 30
0.0
 11
700.9984046382942
 21
239.8659960548066
 31
0.0
  0
LINE
  5
2978
330
2DF4
100
AcDbEntity
  8
0
 62
     0
100
AcDbLine
 10
696.4984433444115
 20
239.8659960548066
 30
0.0
 11
885.0094016739785
 21
365.5396473629553
 31
0.0
  0
LINE
  5
2979
330
2DF4
100
AcDbEntity
  8
0
 62
     0
100
AcDbLine
 10
662.4094016739818
 20
217.1400263059877
 30
0.0
 11
696.4984433444115
 21
239.8659960548066
 31
0.0
  0
LINE
  5
297A
330
2DF4
100
AcDbEntity
  8
0
 62
     0
100
AcDbLine
 10
691.9984820505232
 20
239.8659960548048
 30
0.0
 11
885.0094016739767
 21
368.5396138983706
 31
0.0
  0
LINE
  5
297B
330
2DF4
100
AcDbEntity
  8
0
 62
     0
100
AcDbLine
 10
662.40940167398
 20
220.139992841403
 30
0.0
 11
691.9984820505232
 21
239.8659960548048
 31
0.0
  0
LINE
  5
297C
330
2DF4
100
AcDbEntity
  8
0
 62
     0
100
AcDbLine
 10
687.4985207566369
 20
239.8659960548066
 30
0.0
 11
885.0094016739767
 21
371.5395804337895
 31
0.0
  0
LINE
  5
297D
330
2DF4
100
AcDbEntity
  8
0
 62
     0
100
AcDbLine
 10
662.40940167398
 20
223.139959376822
 30
0.0
 11
687.4985207566369
 21
239.8659960548066
 31
0.0
  0
LINE
  5
297E
330
2DF4
100
AcDbEntity
  8
0
 62
     0
100
AcDbLine
 10
682.9985594627522
 20
239.8659960548066
 30
0.0
 11
885.0094016739785
 21
374.5395469692065
 31
0.0
  0
LINE
  5
297F
330
2DF4
100
AcDbEntity
  8
0
 62
     0
100
AcDbLine
 10
662.4094016739818
 20
226.1399259122391
 30
0.0
 11
682.9985594627522
 21
239.8659960548066
 31
0.0
  0
LINE
  5
2980
330
2DF4
100
AcDbEntity
  8
0
 62
     0
100
AcDbLine
 10
678.4985981688696
 20
239.8659960548084
 30
0.0
 11
885.0094016739767
 21
377.53951350462
 31
0.0
  0
LINE
  5
2981
330
2DF4
100
AcDbEntity
  8
0
 62
     0
100
AcDbLine
 10
662.4094016739818
 20
229.1398924476525
 30
0.0
 11
678.4985981688696
 21
239.8659960548084
 31
0.0
  0
LINE
  5
2982
330
2DF4
100
AcDbEntity
  8
0
 62
     0
100
AcDbLine
 10
673.9986368749812
 20
239.8659960548066
 30
0.0
 11
885.0094016739767
 21
380.5394800400372
 31
0.0
  0
LINE
  5
2983
330
2DF4
100
AcDbEntity
  8
0
 62
     0
100
AcDbLine
 10
662.40940167398
 20
232.1398589830697
 30
0.0
 11
673.9986368749812
 21
239.8659960548066
 31
0.0
  0
LINE
  5
2984
330
2DF4
100
AcDbEntity
  8
0
 62
     0
100
AcDbLine
 10
669.4986755810949
 20
239.8659960548066
 30
0.0
 11
885.0094016739749
 21
383.5394465754525
 31
0.0
  0
LINE
  5
2985
330
2DF4
100
AcDbEntity
  8
0
 62
     0
100
AcDbLine
 10
662.40940167398
 20
235.1398255184849
 30
0.0
 11
669.4986755810949
 21
239.8659960548066
 31
0.0
  0
LINE
  5
2986
330
2DF4
100
AcDbEntity
  8
0
 62
     0
100
AcDbLine
 10
669.2094016739793
 20
242.6731138112573
 30
0.0
 11
885.0094016739785
 21
386.5394131108715
 31
0.0
  0
LINE
  5
2987
330
2DF4
100
AcDbEntity
  8
0
 62
     0
100
AcDbLine
 10
662.4094016739818
 20
238.1397920539039
 30
0.0
 11
669.2094016739793
 21
242.6731138112573
 31
0.0
  0
LINE
  5
2988
330
2DF4
100
AcDbEntity
  8
0
 62
     0
100
AcDbLine
 10
669.2094016739773
 20
245.6730803466726
 30
0.0
 11
885.0094016739713
 21
389.5393796462831
 31
0.0
  0
LINE
  5
2989
330
2DF4
100
AcDbEntity
  8
0
 62
     0
100
AcDbLine
 10
662.4094016739783
 20
241.1397585893173
 30
0.0
 11
669.2094016739773
 21
245.6730803466726
 31
0.0
  0
LINE
  5
298A
330
2DF4
100
AcDbEntity
  8
0
 62
     0
100
AcDbLine
 10
669.2094016739773
 20
248.6730468820879
 30
0.0
 11
885.0094016739731
 21
392.5393461816984
 31
0.0
  0
LINE
  5
298B
330
2DF4
100
AcDbEntity
  8
0
 62
     0
100
AcDbLine
 10
662.40940167398
 20
244.1397251247327
 30
0.0
 11
669.2094016739773
 21
248.6730468820879
 31
0.0
  0
LINE
  5
298C
330
2DF4
100
AcDbEntity
  8
0
 62
     0
100
AcDbLine
 10
669.2094016739793
 20
251.673013417505
 30
0.0
 11
885.0094016739731
 21
395.5393127171154
 31
0.0
  0
LINE
  5
298D
330
2DF4
100
AcDbEntity
  8
0
 62
     0
100
AcDbLine
 10
662.4094016739818
 20
247.1396916601516
 30
0.0
 11
669.2094016739793
 21
251.673013417505
 31
0.0
  0
LINE
  5
298E
330
2DF4
100
AcDbEntity
  8
0
 62
     0
100
AcDbLine
 10
669.2094016739793
 20
254.6729799529202
 30
0.0
 11
885.0094016739749
 21
398.5392792525327
 31
0.0
  0
LINE
  5
298F
330
2DF4
100
AcDbEntity
  8
0
 62
     0
100
AcDbLine
 10
662.4094016739818
 20
250.1396581955669
 30
0.0
 11
669.2094016739793
 21
254.6729799529202
 31
0.0
  0
LINE
  5
2990
330
2DF4
100
AcDbEntity
  8
0
 62
     0
100
AcDbLine
 10
669.2094016739811
 20
257.6729464883374
 30
0.0
 11
885.0094016739767
 21
401.5392457879498
 31
0.0
  0
LINE
  5
2991
330
2DF4
100
AcDbEntity
  8
0
 62
     0
100
AcDbLine
 10
662.4094016739836
 20
253.139624730984
 30
0.0
 11
669.2094016739811
 21
257.6729464883374
 31
0.0
  0
LINE
  5
2992
330
2DF4
100
AcDbEntity
  8
0
 62
     0
100
AcDbLine
 10
669.2094016739793
 20
260.6729130237527
 30
0.0
 11
885.0094016739731
 21
404.5392123233631
 31
0.0
  0
LINE
  5
2993
330
2DF4
100
AcDbEntity
  8
0
 62
     0
100
AcDbLine
 10
662.40940167398
 20
256.1395912663975
 30
0.0
 11
669.2094016739793
 21
260.6729130237527
 31
0.0
  0
LINE
  5
2994
330
2DF4
100
AcDbEntity
  8
0
 62
     0
100
AcDbLine
 10
669.2094016739793
 20
263.6728795591698
 30
0.0
 11
885.0094016739749
 21
407.5391788587802
 31
0.0
  0
LINE
  5
2995
330
2DF4
100
AcDbEntity
  8
0
 62
     0
100
AcDbLine
 10
662.4094016739818
 20
259.1395578018164
 30
0.0
 11
669.2094016739793
 21
263.6728795591698
 31
0.0
  0
LINE
  5
2996
330
2DF4
100
AcDbEntity
  8
0
 62
     0
100
AcDbLine
 10
669.2094016739811
 20
266.6728460945869
 30
0.0
 11
885.0094016739749
 21
410.5391453941974
 31
0.0
  0
LINE
  5
2997
330
2DF4
100
AcDbEntity
  8
0
 62
     0
100
AcDbLine
 10
662.4094016739818
 20
262.1395243372317
 30
0.0
 11
669.2094016739811
 21
266.6728460945869
 31
0.0
  0
LINE
  5
2998
330
2DF4
100
AcDbEntity
  8
0
 62
     0
100
AcDbLine
 10
669.2094016739773
 20
269.672812630004
 30
0.0
 11
885.0094016739731
 21
413.5391119296144
 31
0.0
  0
LINE
  5
2999
330
2DF4
100
AcDbEntity
  8
0
 62
     0
100
AcDbLine
 10
662.40940167398
 20
265.1394908726488
 30
0.0
 11
669.2094016739773
 21
269.672812630004
 31
0.0
  0
LINE
  5
299A
330
2DF4
100
AcDbEntity
  8
0
 62
     0
100
AcDbLine
 10
669.2094016739793
 20
272.6727791654194
 30
0.0
 11
885.0094016739731
 21
416.5390784650281
 31
0.0
  0
LINE
  5
299B
330
2DF4
100
AcDbEntity
  8
0
 62
     0
100
AcDbLine
 10
662.40940167398
 20
268.1394574080641
 30
0.0
 11
669.2094016739793
 21
272.6727791654194
 31
0.0
  0
LINE
  5
299C
330
2DF4
100
AcDbEntity
  8
0
 62
     0
100
AcDbLine
 10
669.2094016739793
 20
275.6727457008328
 30
0.0
 11
885.0094016739749
 21
419.5390450004452
 31
0.0
  0
LINE
  5
299D
330
2DF4
100
AcDbEntity
  8
0
 62
     0
100
AcDbLine
 10
662.4094016739818
 20
271.1394239434794
 30
0.0
 11
669.2094016739793
 21
275.6727457008328
 31
0.0
  0
LINE
  5
299E
330
2DF4
100
AcDbEntity
  8
0
 62
     0
100
AcDbLine
 10
669.2094016739773
 20
278.6727122362517
 30
0.0
 11
885.0094016739713
 21
422.5390115358605
 31
0.0
  0
LINE
  5
299F
330
2DF4
100
AcDbEntity
  8
0
 62
     0
100
AcDbLine
 10
662.4094016739783
 20
274.1393904788947
 30
0.0
 11
669.2094016739773
 21
278.6727122362517
 31
0.0
  0
LINE
  5
29A0
330
2DF4
100
AcDbEntity
  8
0
 62
     0
100
AcDbLine
 10
669.2094016739773
 20
281.6726787716671
 30
0.0
 11
885.0094016739731
 21
425.5389780712794
 31
0.0
  0
LINE
  5
29A1
330
2DF4
100
AcDbEntity
  8
0
 62
     0
100
AcDbLine
 10
662.40940167398
 20
277.1393570143136
 30
0.0
 11
669.2094016739773
 21
281.6726787716671
 31
0.0
  0
LINE
  5
29A2
330
2DF4
100
AcDbEntity
  8
0
 62
     0
100
AcDbLine
 10
669.2094016739793
 20
284.6726453070841
 30
0.0
 11
885.0094016739731
 21
428.5389446066928
 31
0.0
  0
LINE
  5
29A3
330
2DF4
100
AcDbEntity
  8
0
 62
     0
100
AcDbLine
 10
662.4094016739818
 20
280.139323549729
 30
0.0
 11
669.2094016739793
 21
284.6726453070841
 31
0.0
  0
LINE
  5
29A4
330
2DF4
100
AcDbEntity
  8
0
 62
     0
100
AcDbLine
 10
669.2094016739755
 20
287.6726118424977
 30
0.0
 11
885.0094016739713
 21
431.53891114211
 31
0.0
  0
LINE
  5
29A5
330
2DF4
100
AcDbEntity
  8
0
 62
     0
100
AcDbLine
 10
662.4094016739783
 20
283.1392900851442
 30
0.0
 11
669.2094016739755
 21
287.6726118424977
 31
0.0
  0
LINE
  5
29A6
330
2DF4
100
AcDbEntity
  8
0
 62
     0
100
AcDbLine
 10
669.2094016739773
 20
290.6725783779148
 30
0.0
 11
883.7000758964931
 21
433.665996054804
 31
0.0
  0
LINE
  5
29A7
330
2DF4
100
AcDbEntity
  8
0
 62
     0
100
AcDbLine
 10
662.40940167398
 20
286.1392566205613
 30
0.0
 11
669.2094016739773
 21
290.6725783779148
 31
0.0
  0
LINE
  5
29A8
330
2DF4
100
AcDbEntity
  8
0
 62
     0
100
AcDbLine
 10
669.2094016739793
 20
293.6725449133337
 30
0.0
 11
879.2001146026105
 21
433.6659960548058
 31
0.0
  0
LINE
  5
29A9
330
2DF4
100
AcDbEntity
  8
0
 62
     0
100
AcDbLine
 10
662.40940167398
 20
289.1392231559785
 30
0.0
 11
669.2094016739793
 21
293.6725449133337
 31
0.0
  0
LINE
  5
29AA
330
2DF4
100
AcDbEntity
  8
0
 62
     0
100
AcDbLine
 10
669.2094016739793
 20
296.6725114487472
 30
0.0
 11
874.7001533087257
 21
433.665996054804
 31
0.0
  0
LINE
  5
29AB
330
2DF4
100
AcDbEntity
  8
0
 62
     0
100
AcDbLine
 10
662.4094016739818
 20
292.1391896913938
 30
0.0
 11
669.2094016739793
 21
296.6725114487472
 31
0.0
  0
LINE
  5
29AC
330
2DF4
100
AcDbEntity
  8
0
 62
     0
100
AcDbLine
 10
669.2094016739773
 20
299.6724779841642
 30
0.0
 11
870.2001920148394
 21
433.665996054804
 31
0.0
  0
LINE
  5
29AD
330
2DF4
100
AcDbEntity
  8
0
 62
     0
100
AcDbLine
 10
662.4094016739783
 20
295.1391562268073
 30
0.0
 11
669.2094016739773
 21
299.6724779841642
 31
0.0
  0
LINE
  5
29AE
330
2DF4
100
AcDbEntity
  8
0
 62
     0
100
AcDbLine
 10
669.2094016739773
 20
302.6724445195796
 30
0.0
 11
865.7002307209513
 21
433.6659960548021
 31
0.0
  0
LINE
  5
29AF
330
2DF4
100
AcDbEntity
  8
0
 62
     0
100
AcDbLine
 10
662.40940167398
 20
298.1391227622262
 30
0.0
 11
669.2094016739773
 21
302.6724445195796
 31
0.0
  0
LINE
  5
29B0
330
2DF4
100
AcDbEntity
  8
0
 62
     0
100
AcDbLine
 10
669.2094016739793
 20
305.6724110549967
 30
0.0
 11
861.2002694270685
 21
433.6659960548058
 31
0.0
  0
LINE
  5
29B1
330
2DF4
100
AcDbEntity
  8
0
 62
     0
100
AcDbLine
 10
662.4094016739836
 20
301.1390892976433
 30
0.0
 11
669.2094016739793
 21
305.6724110549967
 31
0.0
  0
LINE
  5
29B2
330
2DF4
100
AcDbEntity
  8
0
 62
     0
100
AcDbLine
 10
669.2094016739793
 20
308.672377590412
 30
0.0
 11
856.7003081331838
 21
433.665996054804
 31
0.0
  0
LINE
  5
29B3
330
2DF4
100
AcDbEntity
  8
0
 62
     0
100
AcDbLine
 10
662.4094016739818
 20
304.1390558330586
 30
0.0
 11
669.2094016739793
 21
308.672377590412
 31
0.0
  0
LINE
  5
29B4
330
2DF4
100
AcDbEntity
  8
0
 62
     0
100
AcDbLine
 10
669.2094016739773
 20
311.6723441258291
 30
0.0
 11
852.2003468392977
 21
433.6659960548058
 31
0.0
  0
LINE
  5
29B5
330
2DF4
100
AcDbEntity
  8
0
 62
     0
100
AcDbLine
 10
662.4094016739818
 20
307.1390223684757
 30
0.0
 11
669.2094016739773
 21
311.6723441258291
 31
0.0
  0
LINE
  5
29B6
330
2DF4
100
AcDbEntity
  8
0
 62
     0
100
AcDbLine
 10
669.2094016739811
 20
314.6723106612463
 30
0.0
 11
847.700385545413
 21
433.665996054804
 31
0.0
  0
LINE
  5
29B7
330
2DF4
100
AcDbEntity
  8
0
 62
     0
100
AcDbLine
 10
662.40940167398
 20
310.1389889038892
 30
0.0
 11
669.2094016739811
 21
314.6723106612463
 31
0.0
  0
LINE
  5
29B8
330
2DF4
100
AcDbEntity
  8
0
 62
     0
100
AcDbLine
 10
669.2094016739793
 20
317.6722771966616
 30
0.0
 11
843.2004242515263
 21
433.665996054804
 31
0.0
  0
LINE
  5
29B9
330
2DF4
100
AcDbEntity
  8
0
 62
     0
100
AcDbLine
 10
662.4094016739836
 20
313.1389554393081
 30
0.0
 11
669.2094016739793
 21
317.6722771966616
 31
0.0
  0
LINE
  5
29BA
330
2DF4
100
AcDbEntity
  8
0
 62
     0
100
AcDbLine
 10
669.2094016739793
 20
320.6722437320785
 30
0.0
 11
838.7004629576422
 21
433.6659960548076
 31
0.0
  0
LINE
  5
29BB
330
2DF4
100
AcDbEntity
  8
0
 62
     0
100
AcDbLine
 10
662.4094016739783
 20
316.1389219747234
 30
0.0
 11
669.2094016739755
 21
320.6722437320768
 31
0.0
  0
LINE
  5
29BC
330
2DF4
100
AcDbEntity
  8
0
 62
     0
100
AcDbLine
 10
669.2094016739773
 20
323.6722102674939
 30
0.0
 11
834.2005016637559
 21
433.6659960548058
 31
0.0
  0
LINE
  5
29BD
330
2DF4
100
AcDbEntity
  8
0
 62
     0
100
AcDbLine
 10
662.4094016739818
 20
319.1388885101405
 30
0.0
 11
669.2094016739773
 21
323.6722102674939
 31
0.0
  0
LINE
  5
29BE
330
2DF4
100
AcDbEntity
  8
0
 62
     0
100
AcDbLine
 10
669.2094016739811
 20
326.6721768029092
 30
0.0
 11
829.7005403698713
 21
433.665996054804
 31
0.0
  0
LINE
  5
29BF
330
2DF4
100
AcDbEntity
  8
0
 62
     0
100
AcDbLine
 10
662.40940167398
 20
322.138855045554
 30
0.0
 11
669.2094016739811
 21
326.6721768029092
 31
0.0
  0
LINE
  5
29C0
330
2DF4
100
AcDbEntity
  8
0
 62
     0
100
AcDbLine
 10
669.2094016739755
 20
329.6721433383264
 30
0.0
 11
825.2005790759813
 21
433.665996054804
 31
0.0
  0
LINE
  5
29C1
330
2DF4
100
AcDbEntity
  8
0
 62
     0
100
AcDbLine
 10
662.40940167398
 20
325.1388215809712
 30
0.0
 11
669.2094016739755
 21
329.6721433383264
 31
0.0
  0
LINE
  5
29C2
330
2DF4
100
AcDbEntity
  8
0
 62
     0
100
AcDbLine
 10
669.2094016739793
 20
332.6721098737435
 30
0.0
 11
820.7006177821
 21
433.6659960548058
 31
0.0
  0
LINE
  5
29C3
330
2DF4
100
AcDbEntity
  8
0
 62
     0
100
AcDbLine
 10
662.4094016739783
 20
328.1387881163882
 30
0.0
 11
669.2094016739793
 21
332.6721098737435
 31
0.0
  0
LINE
  5
29C4
330
2DF4
100
AcDbEntity
  8
0
 62
     0
100
AcDbLine
 10
669.2094016739773
 20
335.672076409157
 30
0.0
 11
816.2006564882121
 21
433.665996054804
 31
0.0
  0
LINE
  5
29C5
330
2DF4
100
AcDbEntity
  8
0
 62
     0
100
AcDbLine
 10
662.4094016739818
 20
331.1387546518036
 30
0.0
 11
669.2094016739773
 21
335.672076409157
 31
0.0
  0
LINE
  5
29C6
330
2DF4
100
AcDbEntity
  8
0
 62
     0
100
AcDbLine
 10
669.2094016739773
 20
338.6720429445741
 30
0.0
 11
811.7006951943256
 21
433.665996054804
 31
0.0
  0
LINE
  5
29C7
330
2DF4
100
AcDbEntity
  8
0
 62
     0
100
AcDbLine
 10
662.40940167398
 20
334.1387211872206
 30
0.0
 11
669.2094016739773
 21
338.6720429445741
 31
0.0
  0
LINE
  5
29C8
330
2DF4
100
AcDbEntity
  8
0
 62
     0
100
AcDbLine
 10
669.2094016739755
 20
341.6720094799893
 30
0.0
 11
807.2007339004393
 21
433.665996054804
 31
0.0
  0
LINE
  5
29C9
330
2DF4
100
AcDbEntity
  8
0
 62
     0
100
AcDbLine
 10
662.40940167398
 20
337.138687722636
 30
0.0
 11
669.2094016739755
 21
341.6720094799893
 31
0.0
  0
LINE
  5
29CA
330
2DF4
100
AcDbEntity
  8
0
 62
     0
100
AcDbLine
 10
669.2094016739793
 20
344.6719760154082
 30
0.0
 11
802.7007726065585
 21
433.6659960548058
 31
0.0
  0
LINE
  5
29CB
330
2DF4
100
AcDbEntity
  8
0
 62
     0
100
AcDbLine
 10
662.4094016739818
 20
340.1386542580531
 30
0.0
 11
669.2094016739793
 21
344.6719760154082
 31
0.0
  0
LINE
  5
29CC
330
2DF4
100
AcDbEntity
  8
0
 62
     0
100
AcDbLine
 10
669.2094016739811
 20
347.6719425508236
 30
0.0
 11
798.2008113126719
 21
433.665996054804
 31
0.0
  0
LINE
  5
29CD
330
2DF4
100
AcDbEntity
  8
0
 62
     0
100
AcDbLine
 10
662.4094016739818
 20
343.1386207934683
 30
0.0
 11
669.2094016739811
 21
347.6719425508236
 31
0.0
  0
LINE
  5
29CE
330
2DF4
100
AcDbEntity
  8
0
 62
     0
100
AcDbLine
 10
669.2094016739773
 20
350.6719090862389
 30
0.0
 11
793.7008500187838
 21
433.6659960548058
 31
0.0
  0
LINE
  5
29CF
330
2DF4
100
AcDbEntity
  8
0
 62
     0
100
AcDbLine
 10
662.40940167398
 20
346.1385873288855
 30
0.0
 11
669.2094016739773
 21
350.6719090862389
 31
0.0
  0
LINE
  5
29D0
330
2DF4
100
AcDbEntity
  8
0
 62
     0
100
AcDbLine
 10
669.2094016739793
 20
353.671875621656
 30
0.0
 11
789.2008887249011
 21
433.6659960548058
 31
0.0
  0
LINE
  5
29D1
330
2DF4
100
AcDbEntity
  8
0
 62
     0
100
AcDbLine
 10
662.40940167398
 20
349.1385538643009
 30
0.0
 11
669.2094016739793
 21
353.671875621656
 31
0.0
  0
LINE
  5
29D2
330
2DF4
100
AcDbEntity
  8
0
 62
     0
100
AcDbLine
 10
669.2094016739793
 20
356.6718421570713
 30
0.0
 11
784.7009274310167
 21
433.6659960548058
 31
0.0
  0
LINE
  5
29D3
330
2DF4
100
AcDbEntity
  8
0
 62
     0
100
AcDbLine
 10
662.4094016739818
 20
352.1385203997179
 30
0.0
 11
669.2094016739793
 21
356.6718421570713
 31
0.0
  0
LINE
  5
29D4
330
2DF4
100
AcDbEntity
  8
0
 62
     0
100
AcDbLine
 10
669.2094016739811
 20
359.6718086924902
 30
0.0
 11
780.2009661371303
 21
433.6659960548058
 31
0.0
  0
LINE
  5
29D5
330
2DF4
100
AcDbEntity
  8
0
 62
     0
100
AcDbLine
 10
662.4094016739836
 20
355.1384869351368
 30
0.0
 11
669.2094016739811
 21
359.6718086924902
 31
0.0
  0
LINE
  5
29D6
330
2DF4
100
AcDbEntity
  8
0
 62
     0
100
AcDbLine
 10
669.2094016739773
 20
362.6717752279037
 30
0.0
 11
775.701004843242
 21
433.665996054804
 31
0.0
  0
LINE
  5
29D7
330
2DF4
100
AcDbEntity
  8
0
 62
     0
100
AcDbLine
 10
662.40940167398
 20
358.1384534705503
 30
0.0
 11
669.2094016739773
 21
362.6717752279037
 31
0.0
  0
LINE
  5
29D8
330
2DF4
100
AcDbEntity
  8
0
 62
     0
100
AcDbLine
 10
669.2094016739793
 20
365.6717417633191
 30
0.0
 11
771.2010435493594
 21
433.6659960548058
 31
0.0
  0
LINE
  5
29D9
330
2DF4
100
AcDbEntity
  8
0
 62
     0
100
AcDbLine
 10
662.4094016739818
 20
361.1384200059656
 30
0.0
 11
669.2094016739793
 21
365.6717417633191
 31
0.0
  0
LINE
  5
29DA
330
2DF4
100
AcDbEntity
  8
0
 62
     0
100
AcDbLine
 10
669.2094016739811
 20
368.6717082987378
 30
0.0
 11
766.7010822554766
 21
433.6659960548076
 31
0.0
  0
LINE
  5
29DB
330
2DF4
100
AcDbEntity
  8
0
 62
     0
100
AcDbLine
 10
662.4094016739818
 20
364.1383865413828
 30
0.0
 11
669.2094016739793
 21
368.6717082987361
 31
0.0
  0
LINE
  5
29DC
330
2DF4
100
AcDbEntity
  8
0
 62
     0
100
AcDbLine
 10
669.2094016739773
 20
371.6716748341533
 30
0.0
 11
762.2011209615884
 21
433.6659960548076
 31
0.0
  0
LINE
  5
29DD
330
2DF4
100
AcDbEntity
  8
0
 62
     0
100
AcDbLine
 10
662.40940167398
 20
367.1383530767998
 30
0.0
 11
669.2094016739773
 21
371.6716748341533
 31
0.0
  0
LINE
  5
29DE
330
2DF4
100
AcDbEntity
  8
0
 62
     0
100
AcDbLine
 10
669.2094016739793
 20
374.6716413695704
 30
0.0
 11
757.7011596677039
 21
433.6659960548058
 31
0.0
  0
LINE
  5
29DF
330
2DF4
100
AcDbEntity
  8
0
 62
     0
100
AcDbLine
 10
662.40940167398
 20
370.1383196122133
 30
0.0
 11
669.2094016739773
 21
374.6716413695685
 31
0.0
  0
LINE
  5
29E0
330
2DF4
100
AcDbEntity
  8
0
 62
     0
100
AcDbLine
 10
669.2094016739793
 20
377.6716079049838
 30
0.0
 11
753.2011983738174
 21
433.665996054804
 31
0.0
  0
LINE
  5
29E1
330
2DF4
100
AcDbEntity
  8
0
 62
     0
100
AcDbLine
 10
662.4094016739818
 20
373.1382861476304
 30
0.0
 11
669.2094016739793
 21
377.6716079049838
 31
0.0
  0
LINE
  5
29E2
330
2DF4
100
AcDbEntity
  8
0
 62
     0
100
AcDbLine
 10
669.2094016739773
 20
380.6715744404028
 30
0.0
 11
748.7012370799292
 21
433.6659960548058
 31
0.0
  0
LINE
  5
29E3
330
2DF4
100
AcDbEntity
  8
0
 62
     0
100
AcDbLine
 10
662.4094016739783
 20
376.1382526830457
 30
0.0
 11
669.2094016739773
 21
380.6715744404028
 31
0.0
  0
LINE
  5
29E4
330
2DF4
100
AcDbEntity
  8
0
 62
     0
100
AcDbLine
 10
669.2094016739773
 20
383.6715409758181
 30
0.0
 11
744.2012757860429
 21
433.6659960548058
 31
0.0
  0
LINE
  5
29E5
330
2DF4
100
AcDbEntity
  8
0
 62
     0
100
AcDbLine
 10
662.40940167398
 20
379.1382192184646
 30
0.0
 11
669.2094016739737
 21
383.6715409758162
 31
0.0
  0
LINE
  5
29E6
330
2DF4
100
AcDbEntity
  8
0
 62
     0
100
AcDbLine
 10
669.2094016739793
 20
386.6715075112335
 30
0.0
 11
739.7013144921583
 21
433.665996054804
 31
0.0
  0
LINE
  5
29E7
330
2DF4
100
AcDbEntity
  8
0
 62
     0
100
AcDbLine
 10
662.40940167398
 20
382.1381857538781
 30
0.0
 11
669.2094016739773
 21
386.6715075112315
 31
0.0
  0
LINE
  5
29E8
330
2DF4
100
AcDbEntity
  8
0
 62
     0
100
AcDbLine
 10
669.2094016739793
 20
389.6714740466522
 30
0.0
 11
735.2013531982755
 21
433.6659960548076
 31
0.0
  0
LINE
  5
29E9
330
2DF4
100
AcDbEntity
  8
0
 62
     0
100
AcDbLine
 10
662.4094016739783
 20
385.1381522892952
 30
0.0
 11
669.209401673972
 21
389.6714740466487
 31
0.0
  0
LINE
  5
29EA
330
2DF4
100
AcDbEntity
  8
0
 62
     0
100
AcDbLine
 10
669.2094016739773
 20
392.6714405820657
 30
0.0
 11
730.701391904391
 21
433.6659960548058
 31
0.0
  0
LINE
  5
29EB
330
2DF4
100
AcDbEntity
  8
0
 62
     0
100
AcDbLine
 10
662.40940167398
 20
388.1381188247124
 30
0.0
 11
669.2094016739755
 21
392.671440582064
 31
0.0
  0
LINE
  5
29EC
330
2DF4
100
AcDbEntity
  8
0
 62
     0
100
AcDbLine
 10
669.2094016739793
 20
395.6714071174847
 30
0.0
 11
726.2014306105046
 21
433.6659960548076
 31
0.0
  0
LINE
  5
29ED
330
2DF4
100
AcDbEntity
  8
0
 62
     0
100
AcDbLine
 10
662.40940167398
 20
391.1380853601277
 30
0.0
 11
669.2094016739737
 21
395.6714071174793
 31
0.0
  0
LINE
  5
29EE
330
2DF4
100
AcDbEntity
  8
0
 62
     0
100
AcDbLine
 10
669.2094016739793
 20
398.6713736529
 30
0.0
 11
721.7014693166202
 21
433.6659960548076
 31
0.0
  0
LINE
  5
29EF
330
2DF4
100
AcDbEntity
  8
0
 62
     0
100
AcDbLine
 10
662.4094016739818
 20
394.1380518955467
 30
0.0
 11
669.2094016739755
 21
398.6713736528982
 31
0.0
  0
LINE
  5
29F0
330
2DF4
100
AcDbEntity
  8
0
 62
     0
100
AcDbLine
 10
669.2094016739811
 20
401.6713401883151
 30
0.0
 11
717.2015080227337
 21
433.6659960548058
 31
0.0
  0
LINE
  5
29F1
330
2DF4
100
AcDbEntity
  8
0
 62
     0
100
AcDbLine
 10
662.4094016739818
 20
397.1380184309601
 30
0.0
 11
669.2094016739755
 21
401.6713401883116
 31
0.0
  0
LINE
  5
29F2
330
2DF4
100
AcDbEntity
  8
0
 62
     0
100
AcDbLine
 10
669.2094016739773
 20
404.6713067237305
 30
0.0
 11
712.7015467288456
 21
433.665996054804
 31
0.0
  0
LINE
  5
29F3
330
2DF4
100
AcDbEntity
  8
0
 62
     0
100
AcDbLine
 10
662.40940167398
 20
400.1379849663772
 30
0.0
 11
669.2094016739737
 21
404.6713067237288
 31
0.0
  0
LINE
  5
29F4
330
2DF4
100
AcDbEntity
  8
0
 62
     0
100
AcDbLine
 10
669.2094016739793
 20
407.6712732591476
 30
0.0
 11
708.2015854349593
 21
433.665996054804
 31
0.0
  0
LINE
  5
29F5
330
2DF4
100
AcDbEntity
  8
0
 62
     0
100
AcDbLine
 10
662.40940167398
 20
403.1379515017923
 30
0.0
 11
669.2094016739773
 21
407.6712732591458
 31
0.0
  0
LINE
  5
29F6
330
2DF4
100
AcDbEntity
  8
0
 62
     0
100
AcDbLine
 10
669.2094016739793
 20
410.6712397945647
 30
0.0
 11
703.7016241410801
 21
433.6659960548095
 31
0.0
  0
LINE
  5
29F7
330
2DF4
100
AcDbEntity
  8
0
 62
     0
100
AcDbLine
 10
662.4094016739818
 20
406.1379180372096
 30
0.0
 11
669.2094016739755
 21
410.6712397945611
 31
0.0
  0
LINE
  5
29F8
330
2DF4
100
AcDbEntity
  8
0
 62
     0
100
AcDbLine
 10
669.2094016739773
 20
413.6712063299801
 30
0.0
 11
699.2016628471918
 21
433.6659960548076
 31
0.0
  0
LINE
  5
29F9
330
2DF4
100
AcDbEntity
  8
0
 62
     0
100
AcDbLine
 10
662.4094016739818
 20
409.1378845726267
 30
0.0
 11
669.2094016739755
 21
413.6712063299783
 31
0.0
  0
LINE
  5
29FA
330
2DF4
100
AcDbEntity
  8
0
 62
     0
100
AcDbLine
 10
669.2094016739773
 20
416.6711728653935
 30
0.0
 11
694.7017015533073
 21
433.6659960548058
 31
0.0
  0
LINE
  5
29FB
330
2DF4
100
AcDbEntity
  8
0
 62
     0
100
AcDbLine
 10
662.40940167398
 20
412.1378511080401
 30
0.0
 11
669.2094016739737
 21
416.6711728653917
 31
0.0
  0
LINE
  5
29FC
330
2DF4
100
AcDbEntity
  8
0
 62
     0
100
AcDbLine
 10
669.2094016739793
 20
419.6711394008125
 30
0.0
 11
690.2017402594209
 21
433.6659960548058
 31
0.0
  0
LINE
  5
29FD
330
2DF4
100
AcDbEntity
  8
0
 62
     0
100
AcDbLine
 10
662.4094016739836
 20
415.137817643459
 30
0.0
 11
669.2094016739773
 21
419.6711394008107
 31
0.0
  0
LINE
  5
29FE
330
2DF4
100
AcDbEntity
  8
0
 62
     0
100
AcDbLine
 10
669.2094016739793
 20
422.6711059362296
 30
0.0
 11
685.7017789655327
 21
433.6659960548058
 31
0.0
  0
LINE
  5
29FF
330
2DF4
100
AcDbEntity
  8
0
 62
     0
100
AcDbLine
 10
662.4094016739783
 20
418.1377841788743
 30
0.0
 11
669.209401673972
 21
422.6711059362258
 31
0.0
  0
LINE
  5
2A00
330
2DF4
100
AcDbEntity
  8
0
 62
     0
100
AcDbLine
 10
669.2094016739773
 20
425.6710724716448
 30
0.0
 11
681.2018176716463
 21
433.6659960548058
 31
0.0
  0
LINE
  5
2A01
330
2DF4
100
AcDbEntity
  8
0
 62
     0
100
AcDbLine
 10
662.4094016739818
 20
421.1377507142897
 30
0.0
 11
669.2094016739755
 21
425.6710724716412
 31
0.0
  0
LINE
  5
2A02
330
2DF4
100
AcDbEntity
  8
0
 62
     0
100
AcDbLine
 10
669.2094016739811
 20
428.6710390070601
 30
0.0
 11
676.7018563777618
 21
433.665996054804
 31
0.0
  0
LINE
  5
2A03
330
2DF4
100
AcDbEntity
  8
0
 62
     0
100
AcDbLine
 10
662.40940167398
 20
424.1377172497049
 30
0.0
 11
669.2094016739773
 21
428.6710390070584
 31
0.0
  0
LINE
  5
2A04
330
2DF4
100
AcDbEntity
  8
0
 62
     0
100
AcDbLine
 10
669.2094016739755
 20
431.6710055424754
 30
0.0
 11
672.2018950838791
 21
433.6659960548076
 31
0.0
  0
LINE
  5
2A05
330
2DF4
100
AcDbEntity
  8
0
 62
     0
100
AcDbLine
 10
662.40940167398
 20
427.137683785122
 30
0.0
 11
669.2094016739737
 21
431.6710055424736
 31
0.0
  0
LINE
  5
2A06
330
2DF4
100
AcDbEntity
  8
0
 62
     0
100
AcDbLine
 10
662.4094016739783
 20
430.1376503205392
 30
0.0
 11
667.7019337899873
 21
433.665996054804
 31
0.0
  0
LINE
  5
2A07
330
2DF4
100
AcDbEntity
  8
0
 62
     0
100
AcDbLine
 10
662.4094016739818
 20
433.1376168559564
 30
0.0
 11
663.2019724961081
 21
433.6659960548076
 31
0.0
  0
ENDBLK
  5
2A09
330
2DF4
100
AcDbEntity
  8
0
100
AcDbBlockEnd
  0
BLOCK
  5
2DF7
330
2DF6
100
AcDbEntity
  8
0
100
AcDbBlockBegin
  2
*X22
 70
     1
 10
0.0
 20
0.0
 30
0.0
  3
*X22
  1

  0
LINE
  5
2A0B
330
2DF6
100
AcDbEntity
  8
0
 62
     0
100
AcDbLine
 10
662.4094016739855
 20
167.8540043613147
 30
0.0
 11
664.2134846776916
 21
166.6512854300244
 31
0.0
  0
LINE
  5
2A0C
330
2DF6
100
AcDbEntity
  8
0
 62
     0
100
AcDbLine
 10
662.4094016739872
 20
170.8539708967319
 30
0.0
 11
668.713445971576
 21
166.6512854300263
 31
0.0
  0
LINE
  5
2A0D
330
2DF6
100
AcDbEntity
  8
0
 62
     0
100
AcDbLine
 10
662.4094016739872
 20
173.8539374321472
 30
0.0
 11
673.2134072654624
 21
166.6512854300254
 31
0.0
  0
LINE
  5
2A0E
330
2DF6
100
AcDbEntity
  8
0
 62
     0
100
AcDbLine
 10
662.4094016739872
 20
176.8539039675642
 30
0.0
 11
677.7133685593488
 21
166.6512854300254
 31
0.0
  0
LINE
  5
2A0F
330
2DF6
100
AcDbEntity
  8
0
 62
     0
100
AcDbLine
 10
662.4094016739872
 20
179.8538705029805
 30
0.0
 11
682.2133298532354
 21
166.6512854300254
 31
0.0
  0
LINE
  5
2A10
330
2DF6
100
AcDbEntity
  8
0
 62
     0
100
AcDbLine
 10
662.4094016739872
 20
182.8538370383958
 30
0.0
 11
686.713291147118
 21
166.6512854300263
 31
0.0
  0
LINE
  5
2A11
330
2DF6
100
AcDbEntity
  8
0
 62
     0
100
AcDbLine
 10
662.4094016739872
 20
185.8538035738128
 30
0.0
 11
691.2132524410082
 21
166.6512854300244
 31
0.0
  0
LINE
  5
2A12
330
2DF6
100
AcDbEntity
  8
0
 62
     0
100
AcDbLine
 10
662.4094016739855
 20
188.8537701092291
 30
0.0
 11
695.7132137348907
 21
166.6512854300244
 31
0.0
  0
LINE
  5
2A13
330
2DF6
100
AcDbEntity
  8
0
 62
     0
100
AcDbLine
 10
662.4094016739855
 20
191.8537366446462
 30
0.0
 11
700.213175028777
 21
166.6512854300254
 31
0.0
  0
LINE
  5
2A14
330
2DF6
100
AcDbEntity
  8
0
 62
     0
100
AcDbLine
 10
662.4094016739872
 20
194.8537031800615
 30
0.0
 11
704.7131363226617
 21
166.6512854300254
 31
0.0
  0
LINE
  5
2A15
330
2DF6
100
AcDbEntity
  8
0
 62
     0
100
AcDbLine
 10
662.4094016739855
 20
197.8536697154777
 30
0.0
 11
709.2130976165463
 21
166.6512854300263
 31
0.0
  0
LINE
  5
2A16
330
2DF6
100
AcDbEntity
  8
0
 62
     0
100
AcDbLine
 10
662.4094016739872
 20
200.853636250893
 30
0.0
 11
713.7130589104343
 21
166.6512854300244
 31
0.0
  0
LINE
  5
2A17
330
2DF6
100
AcDbEntity
  8
0
 62
     0
100
AcDbLine
 10
662.4094016739855
 20
203.8536027863102
 30
0.0
 11
718.2130202043152
 21
166.6512854300272
 31
0.0
  0
LINE
  5
2A18
330
2DF6
100
AcDbEntity
  8
0
 62
     0
100
AcDbLine
 10
662.4094016739872
 20
206.8535693217254
 30
0.0
 11
722.7129814982036
 21
166.6512854300254
 31
0.0
  0
LINE
  5
2A19
330
2DF6
100
AcDbEntity
  8
0
 62
     0
100
AcDbLine
 10
662.4094016739872
 20
209.8535358571425
 30
0.0
 11
727.2129427920898
 21
166.6512854300254
 31
0.0
  0
LINE
  5
2A1A
330
2DF6
100
AcDbEntity
  8
0
 62
     0
100
AcDbLine
 10
662.4094016739872
 20
212.8535023925569
 30
0.0
 11
731.7129040859764
 21
166.6512854300244
 31
0.0
  0
LINE
  5
2A1B
330
2DF6
100
AcDbEntity
  8
0
 62
     0
100
AcDbLine
 10
662.4094016739872
 20
215.853468927975
 30
0.0
 11
736.2128653798588
 21
166.6512854300263
 31
0.0
  0
LINE
  5
2A1C
330
2DF6
100
AcDbEntity
  8
0
 62
     0
100
AcDbLine
 10
662.4094016739855
 20
218.8534354633903
 30
0.0
 11
740.7128266737455
 21
166.6512854300254
 31
0.0
  0
LINE
  5
2A1D
330
2DF6
100
AcDbEntity
  8
0
 62
     0
100
AcDbLine
 10
662.4094016739872
 20
221.8534019988074
 30
0.0
 11
745.2127879676318
 21
166.6512854300254
 31
0.0
  0
LINE
  5
2A1E
330
2DF6
100
AcDbEntity
  8
0
 62
     0
100
AcDbLine
 10
662.4094016739855
 20
224.8533685342245
 30
0.0
 11
749.712749261518
 21
166.6512854300254
 31
0.0
  0
LINE
  5
2A1F
330
2DF6
100
AcDbEntity
  8
0
 62
     0
100
AcDbLine
 10
662.4094016739872
 20
227.8533350696389
 30
0.0
 11
754.2127105554007
 21
166.6512854300263
 31
0.0
  0
LINE
  5
2A20
330
2DF6
100
AcDbEntity
  8
0
 62
     0
100
AcDbLine
 10
662.4094016739872
 20
230.853301605056
 30
0.0
 11
758.7126718492891
 21
166.6512854300263
 31
0.0
  0
LINE
  5
2A21
330
2DF6
100
AcDbEntity
  8
0
 62
     0
100
AcDbLine
 10
662.4094016739872
 20
233.8532681404713
 30
0.0
 11
763.2126331431735
 21
166.6512854300244
 31
0.0
  0
LINE
  5
2A22
330
2DF6
100
AcDbEntity
  8
0
 62
     0
100
AcDbLine
 10
662.4094016739855
 20
236.8532346758893
 30
0.0
 11
767.7125944370581
 21
166.6512854300272
 31
0.0
  0
LINE
  5
2A23
330
2DF6
100
AcDbEntity
  8
0
 62
     0
100
AcDbLine
 10
662.4094016739872
 20
239.8532012113037
 30
0.0
 11
772.2125557309426
 21
166.6512854300254
 31
0.0
  0
LINE
  5
2A24
330
2DF6
100
AcDbEntity
  8
0
 62
     0
100
AcDbLine
 10
662.4094016739855
 20
242.8531677467217
 30
0.0
 11
776.7125170248307
 21
166.6512854300263
 31
0.0
  0
LINE
  5
2A25
330
2DF6
100
AcDbEntity
  8
0
 62
     0
100
AcDbLine
 10
669.2094016739846
 20
241.3198125247818
 30
0.0
 11
671.3901319474915
 21
239.8659960548093
 31
0.0
  0
LINE
  5
2A26
330
2DF6
100
AcDbEntity
  8
0
 62
     0
100
AcDbLine
 10
671.3901319474915
 20
239.8659960548093
 30
0.0
 11
781.2124783187172
 21
166.6512854300244
 31
0.0
  0
LINE
  5
2A27
330
2DF6
100
AcDbEntity
  8
0
 62
     0
100
AcDbLine
 10
662.4094016739872
 20
245.8531342821361
 30
0.0
 11
669.2094016739846
 21
241.3198125247818
 31
0.0
  0
LINE
  5
2A28
330
2DF6
100
AcDbEntity
  8
0
 62
     0
100
AcDbLine
 10
669.2094016739864
 20
244.319779060198
 30
0.0
 11
675.890093241378
 21
239.8659960548102
 31
0.0
  0
LINE
  5
2A29
330
2DF6
100
AcDbEntity
  8
0
 62
     0
100
AcDbLine
 10
675.890093241378
 20
239.8659960548102
 30
0.0
 11
785.7124396125999
 21
166.6512854300272
 31
0.0
  0
LINE
  5
2A2A
330
2DF6
100
AcDbEntity
  8
0
 62
     0
100
AcDbLine
 10
662.4094016739855
 20
248.8531008175532
 30
0.0
 11
669.2094016739864
 21
244.319779060198
 31
0.0
  0
LINE
  5
2A2B
330
2DF6
100
AcDbEntity
  8
0
 62
     0
100
AcDbLine
 10
669.2094016739864
 20
247.3197455956133
 30
0.0
 11
680.3900545352643
 21
239.8659960548084
 31
0.0
  0
LINE
  5
2A2C
330
2DF6
100
AcDbEntity
  8
0
 62
     0
100
AcDbLine
 10
680.3900545352643
 20
239.8659960548084
 30
0.0
 11
790.2124009064863
 21
166.6512854300254
 31
0.0
  0
LINE
  5
2A2D
330
2DF6
100
AcDbEntity
  8
0
 62
     0
100
AcDbLine
 10
662.4094016739872
 20
251.8530673529685
 30
0.0
 11
669.2094016739864
 21
247.3197455956133
 31
0.0
  0
LINE
  5
2A2E
330
2DF6
100
AcDbEntity
  8
0
 62
     0
100
AcDbLine
 10
669.2094016739846
 20
250.3197121310304
 30
0.0
 11
684.8900158291488
 21
239.8659960548084
 31
0.0
  0
LINE
  5
2A2F
330
2DF6
100
AcDbEntity
  8
0
 62
     0
100
AcDbLine
 10
684.8900158291488
 20
239.8659960548084
 30
0.0
 11
794.7123622003728
 21
166.6512854300254
 31
0.0
  0
LINE
  5
2A30
330
2DF6
100
AcDbEntity
  8
0
 62
     0
100
AcDbLine
 10
662.4094016739855
 20
254.8530338883856
 30
0.0
 11
669.2094016739846
 21
250.3197121310304
 31
0.0
  0
LINE
  5
2A31
330
2DF6
100
AcDbEntity
  8
0
 62
     0
100
AcDbLine
 10
669.2094016739864
 20
253.3196786664457
 30
0.0
 11
689.3899771230334
 21
239.8659960548093
 31
0.0
  0
LINE
  5
2A32
330
2DF6
100
AcDbEntity
  8
0
 62
     0
100
AcDbLine
 10
689.3899771230334
 20
239.8659960548093
 30
0.0
 11
799.2123234942591
 21
166.6512854300244
 31
0.0
  0
LINE
  5
2A33
330
2DF6
100
AcDbEntity
  8
0
 62
     0
100
AcDbLine
 10
662.4094016739872
 20
257.853000423801
 30
0.0
 11
669.2094016739864
 21
253.3196786664457
 31
0.0
  0
LINE
  5
2A34
330
2DF6
100
AcDbEntity
  8
0
 62
     0
100
AcDbLine
 10
669.2094016739864
 20
256.3196452018628
 30
0.0
 11
693.8899384169197
 21
239.8659960548093
 31
0.0
  0
LINE
  5
2A35
330
2DF6
100
AcDbEntity
  8
0
 62
     0
100
AcDbLine
 10
693.8899384169197
 20
239.8659960548093
 30
0.0
 11
803.7122847881439
 21
166.6512854300263
 31
0.0
  0
LINE
  5
2A36
330
2DF6
100
AcDbEntity
  8
0
 62
     0
100
AcDbLine
 10
662.4094016739872
 20
260.8529669592172
 30
0.0
 11
669.2094016739864
 21
256.3196452018628
 31
0.0
  0
LINE
  5
2A37
330
2DF6
100
AcDbEntity
  8
0
 62
     0
100
AcDbLine
 10
669.2094016739864
 20
259.31961173728
 30
0.0
 11
698.3898997108061
 21
239.8659960548102
 31
0.0
  0
LINE
  5
2A38
330
2DF6
100
AcDbEntity
  8
0
 62
     0
100
AcDbLine
 10
698.3898997108061
 20
239.8659960548102
 30
0.0
 11
808.2122460820283
 21
166.6512854300263
 31
0.0
  0
LINE
  5
2A39
330
2DF6
100
AcDbEntity
  8
0
 62
     0
100
AcDbLine
 10
662.4094016739855
 20
263.8529334946352
 30
0.0
 11
669.2094016739864
 21
259.31961173728
 31
0.0
  0
LINE
  5
2A3A
330
2DF6
100
AcDbEntity
  8
0
 62
     0
100
AcDbLine
 10
669.2094016739864
 20
262.3195782726944
 30
0.0
 11
702.8898610046907
 21
239.8659960548102
 31
0.0
  0
LINE
  5
2A3B
330
2DF6
100
AcDbEntity
  8
0
 62
     0
100
AcDbLine
 10
702.8898610046907
 20
239.8659960548102
 30
0.0
 11
812.7122073759164
 21
166.6512854300254
 31
0.0
  0
LINE
  5
2A3C
330
2DF6
100
AcDbEntity
  8
0
 62
     0
100
AcDbLine
 10
662.4094016739872
 20
266.8529000300496
 30
0.0
 11
669.2094016739864
 21
262.3195782726944
 31
0.0
  0
LINE
  5
2A3D
330
2DF6
100
AcDbEntity
  8
0
 62
     0
100
AcDbLine
 10
669.2094016739864
 20
265.3195448081115
 30
0.0
 11
707.3898222985754
 21
239.8659960548102
 31
0.0
  0
LINE
  5
2A3E
330
2DF6
100
AcDbEntity
  8
0
 62
     0
100
AcDbLine
 10
707.3898222985754
 20
239.8659960548102
 30
0.0
 11
817.2121686698011
 21
166.6512854300254
 31
0.0
  0
LINE
  5
2A3F
330
2DF6
100
AcDbEntity
  8
0
 62
     0
100
AcDbLine
 10
662.4094016739855
 20
269.8528665654676
 30
0.0
 11
669.2094016739864
 21
265.3195448081115
 31
0.0
  0
LINE
  5
2A40
330
2DF6
100
AcDbEntity
  8
0
 62
     0
100
AcDbLine
 10
669.2094016739846
 20
268.3195113435277
 30
0.0
 11
711.8897835924618
 21
239.8659960548093
 31
0.0
  0
LINE
  5
2A41
330
2DF6
100
AcDbEntity
  8
0
 62
     0
100
AcDbLine
 10
711.8897835924618
 20
239.8659960548093
 30
0.0
 11
821.7121299636854
 21
166.6512854300263
 31
0.0
  0
LINE
  5
2A42
330
2DF6
100
AcDbEntity
  8
0
 62
     0
100
AcDbLine
 10
662.4094016739872
 20
272.8528331008829
 30
0.0
 11
669.2094016739846
 21
268.3195113435277
 31
0.0
  0
LINE
  5
2A43
330
2DF6
100
AcDbEntity
  8
0
 62
     0
100
AcDbLine
 10
669.2094016739846
 20
271.3194778789449
 30
0.0
 11
716.3897448863481
 21
239.8659960548093
 31
0.0
  0
LINE
  5
2A44
330
2DF6
100
AcDbEntity
  8
0
 62
     0
100
AcDbLine
 10
716.3897448863481
 20
239.8659960548093
 30
0.0
 11
826.2120912575701
 21
166.6512854300263
 31
0.0
  0
LINE
  5
2A45
330
2DF6
100
AcDbEntity
  8
0
 62
     0
100
AcDbLine
 10
662.4094016739855
 20
275.8527996362991
 30
0.0
 11
669.2094016739846
 21
271.3194778789449
 31
0.0
  0
LINE
  5
2A46
330
2DF6
100
AcDbEntity
  8
0
 62
     0
100
AcDbLine
 10
669.2094016739846
 20
274.3194444143601
 30
0.0
 11
720.8897061802327
 21
239.8659960548102
 31
0.0
  0
LINE
  5
2A47
330
2DF6
100
AcDbEntity
  8
0
 62
     0
100
AcDbLine
 10
720.8897061802327
 20
239.8659960548102
 30
0.0
 11
830.7120525514584
 21
166.6512854300244
 31
0.0
  0
LINE
  5
2A48
330
2DF6
100
AcDbEntity
  8
0
 62
     0
100
AcDbLine
 10
662.4094016739872
 20
278.8527661717144
 30
0.0
 11
669.2094016739846
 21
274.3194444143601
 31
0.0
  0
LINE
  5
2A49
330
2DF6
100
AcDbEntity
  8
0
 62
     0
100
AcDbLine
 10
669.2094016739864
 20
277.3194109497772
 30
0.0
 11
725.3896674741189
 21
239.8659960548102
 31
0.0
  0
LINE
  5
2A4A
330
2DF6
100
AcDbEntity
  8
0
 62
     0
100
AcDbLine
 10
725.3896674741189
 20
239.8659960548102
 30
0.0
 11
835.2120138453411
 21
166.6512854300272
 31
0.0
  0
LINE
  5
2A4B
330
2DF6
100
AcDbEntity
  8
0
 62
     0
100
AcDbLine
 10
662.4094016739872
 20
281.8527327071315
 30
0.0
 11
669.2094016739864
 21
277.3194109497772
 31
0.0
  0
LINE
  5
2A4C
330
2DF6
100
AcDbEntity
  8
0
 62
     0
100
AcDbLine
 10
669.2094016739846
 20
280.3193774851916
 30
0.0
 11
729.8896287680037
 21
239.8659960548084
 31
0.0
  0
LINE
  5
2A4D
330
2DF6
100
AcDbEntity
  8
0
 62
     0
100
AcDbLine
 10
729.8896287680037
 20
239.8659960548084
 30
0.0
 11
839.7119751392274
 21
166.6512854300254
 31
0.0
  0
LINE
  5
2A4E
330
2DF6
100
AcDbEntity
  8
0
 62
     0
100
AcDbLine
 10
662.4094016739872
 20
284.8526992425468
 30
0.0
 11
669.2094016739846
 21
280.3193774851916
 31
0.0
  0
LINE
  5
2A4F
330
2DF6
100
AcDbEntity
  8
0
 62
     0
100
AcDbLine
 10
669.2094016739864
 20
283.3193440206087
 30
0.0
 11
734.3895900618914
 21
239.8659960548093
 31
0.0
  0
LINE
  5
2A50
330
2DF6
100
AcDbEntity
  8
0
 62
     0
100
AcDbLine
 10
734.3895900618914
 20
239.8659960548093
 30
0.0
 11
844.2119364331137
 21
166.6512854300263
 31
0.0
  0
LINE
  5
2A51
330
2DF6
100
AcDbEntity
  8
0
 62
     0
100
AcDbLine
 10
662.4094016739872
 20
287.8526657779639
 30
0.0
 11
669.2094016739864
 21
283.3193440206087
 31
0.0
  0
LINE
  5
2A52
330
2DF6
100
AcDbEntity
  8
0
 62
     0
100
AcDbLine
 10
669.2094016739846
 20
286.319310556024
 30
0.0
 11
738.8895513557745
 21
239.8659960548093
 31
0.0
  0
LINE
  5
2A53
330
2DF6
100
AcDbEntity
  8
0
 62
     0
100
AcDbLine
 10
738.8895513557745
 20
239.8659960548093
 30
0.0
 11
848.7118977270004
 21
166.6512854300244
 31
0.0
  0
LINE
  5
2A54
330
2DF6
100
AcDbEntity
  8
0
 62
     0
100
AcDbLine
 10
662.4094016739855
 20
290.8526323133801
 30
0.0
 11
669.2094016739846
 21
286.319310556024
 31
0.0
  0
LINE
  5
2A55
330
2DF6
100
AcDbEntity
  8
0
 62
     0
100
AcDbLine
 10
669.2094016739846
 20
289.319277091442
 30
0.0
 11
743.3895126496643
 21
239.8659960548076
 31
0.0
  0
LINE
  5
2A56
330
2DF6
100
AcDbEntity
  8
0
 62
     0
100
AcDbLine
 10
743.3895126496643
 20
239.8659960548076
 30
0.0
 11
853.2118590208829
 21
166.6512854300263
 31
0.0
  0
LINE
  5
2A57
330
2DF6
100
AcDbEntity
  8
0
 62
     0
100
AcDbLine
 10
662.4094016739872
 20
293.8525988487954
 30
0.0
 11
669.2094016739846
 21
289.319277091442
 31
0.0
  0
LINE
  5
2A58
330
2DF6
100
AcDbEntity
  8
0
 62
     0
100
AcDbLine
 10
669.2094016739864
 20
292.3192436268564
 30
0.0
 11
747.8894739435471
 21
239.8659960548084
 31
0.0
  0
LINE
  5
2A59
330
2DF6
100
AcDbEntity
  8
0
 62
     0
100
AcDbLine
 10
747.8894739435471
 20
239.8659960548084
 30
0.0
 11
857.711820314771
 21
166.6512854300254
 31
0.0
  0
LINE
  5
2A5A
330
2DF6
100
AcDbEntity
  8
0
 62
     0
100
AcDbLine
 10
662.4094016739872
 20
296.8525653842116
 30
0.0
 11
669.2094016739864
 21
292.3192436268564
 31
0.0
  0
LINE
  5
2A5B
330
2DF6
100
AcDbEntity
  8
0
 62
     0
100
AcDbLine
 10
669.2094016739846
 20
295.3192101622735
 30
0.0
 11
752.3894352374336
 21
239.8659960548084
 31
0.0
  0
LINE
  5
2A5C
330
2DF6
100
AcDbEntity
  8
0
 62
     0
100
AcDbLine
 10
752.3894352374336
 20
239.8659960548084
 30
0.0
 11
862.2117816086555
 21
166.6512854300254
 31
0.0
  0
LINE
  5
2A5D
330
2DF6
100
AcDbEntity
  8
0
 62
     0
100
AcDbLine
 10
662.4094016739855
 20
299.8525319196287
 30
0.0
 11
669.2094016739846
 21
295.3192101622735
 31
0.0
  0
LINE
  5
2A5E
330
2DF6
100
AcDbEntity
  8
0
 62
     0
100
AcDbLine
 10
669.2094016739846
 20
298.3191766976905
 30
0.0
 11
756.889396531316
 21
239.8659960548112
 31
0.0
  0
LINE
  5
2A5F
330
2DF6
100
AcDbEntity
  8
0
 62
     0
100
AcDbLine
 10
756.889396531316
 20
239.8659960548112
 30
0.0
 11
866.7117429025422
 21
166.6512854300263
 31
0.0
  0
LINE
  5
2A60
330
2DF6
100
AcDbEntity
  8
0
 62
     0
100
AcDbLine
 10
662.4094016739872
 20
302.8524984550458
 30
0.0
 11
669.2094016739846
 21
298.3191766976905
 31
0.0
  0
LINE
  5
2A61
330
2DF6
100
AcDbEntity
  8
0
 62
     0
100
AcDbLine
 10
669.2094016739846
 20
301.3191432331059
 30
0.0
 11
761.3893578252027
 21
239.8659960548093
 31
0.0
  0
LINE
  5
2A62
330
2DF6
100
AcDbEntity
  8
0
 62
     0
100
AcDbLine
 10
761.3893578252027
 20
239.8659960548093
 30
0.0
 11
871.2117041964246
 21
166.6512854300263
 31
0.0
  0
LINE
  5
2A63
330
2DF6
100
AcDbEntity
  8
0
 62
     0
100
AcDbLine
 10
662.4094016739855
 20
305.8524649904612
 30
0.0
 11
669.2094016739846
 21
301.3191432331059
 31
0.0
  0
LINE
  5
2A64
330
2DF6
100
AcDbEntity
  8
0
 62
     0
100
AcDbLine
 10
669.2094016739846
 20
304.3191097685232
 30
0.0
 11
765.889319119089
 21
239.8659960548093
 31
0.0
  0
LINE
  5
2A65
330
2DF6
100
AcDbEntity
  8
0
 62
     0
100
AcDbLine
 10
765.889319119089
 20
239.8659960548093
 30
0.0
 11
875.7116654903128
 21
166.6512854300263
 31
0.0
  0
LINE
  5
2A66
330
2DF6
100
AcDbEntity
  8
0
 62
     0
100
AcDbLine
 10
662.4094016739872
 20
308.8524315258774
 30
0.0
 11
669.2094016739846
 21
304.3191097685232
 31
0.0
  0
LINE
  5
2A67
330
2DF6
100
AcDbEntity
  8
0
 62
     0
100
AcDbLine
 10
669.2094016739846
 20
307.3190763039382
 30
0.0
 11
770.3892804129716
 21
239.8659960548102
 31
0.0
  0
LINE
  5
2A68
330
2DF6
100
AcDbEntity
  8
0
 62
     0
100
AcDbLine
 10
770.3892804129716
 20
239.8659960548102
 30
0.0
 11
880.2116267841975
 21
166.6512854300254
 31
0.0
  0
LINE
  5
2A69
330
2DF6
100
AcDbEntity
  8
0
 62
     0
100
AcDbLine
 10
662.4094016739855
 20
311.8523980612928
 30
0.0
 11
669.2094016739846
 21
307.3190763039382
 31
0.0
  0
LINE
  5
2A6A
330
2DF6
100
AcDbEntity
  8
0
 62
     0
100
AcDbLine
 10
669.2094016739864
 20
310.3190428393546
 30
0.0
 11
774.8892417068582
 21
239.8659960548102
 31
0.0
  0
LINE
  5
2A6B
330
2DF6
100
AcDbEntity
  8
0
 62
     0
100
AcDbLine
 10
774.8892417068582
 20
239.8659960548102
 30
0.0
 11
884.7115880780837
 21
166.6512854300254
 31
0.0
  0
LINE
  5
2A6C
330
2DF6
100
AcDbEntity
  8
0
 62
     0
100
AcDbLine
 10
662.4094016739872
 20
314.8523645967097
 30
0.0
 11
669.2094016739864
 21
310.3190428393546
 31
0.0
  0
LINE
  5
2A6D
330
2DF6
100
AcDbEntity
  8
0
 62
     0
100
AcDbLine
 10
669.2094016739864
 20
313.3190093747697
 30
0.0
 11
779.3892030007463
 21
239.8659960548093
 31
0.0
  0
LINE
  5
2A6E
330
2DF6
100
AcDbEntity
  8
0
 62
     0
100
AcDbLine
 10
779.3892030007463
 20
239.8659960548093
 30
0.0
 11
885.0094016739896
 21
169.4527100751538
 31
0.0
  0
LINE
  5
2A6F
330
2DF6
100
AcDbEntity
  8
0
 62
     0
100
AcDbLine
 10
662.4094016739872
 20
317.852331132126
 30
0.0
 11
669.2094016739864
 21
313.3190093747697
 31
0.0
  0
LINE
  5
2A70
330
2DF6
100
AcDbEntity
  8
0
 62
     0
100
AcDbLine
 10
669.2094016739846
 20
316.3189759101879
 30
0.0
 11
783.8891642946308
 21
239.8659960548093
 31
0.0
  0
LINE
  5
2A71
330
2DF6
100
AcDbEntity
  8
0
 62
     0
100
AcDbLine
 10
783.8891642946308
 20
239.8659960548093
 30
0.0
 11
885.0094016739873
 21
172.4526766105709
 31
0.0
  0
LINE
  5
2A72
330
2DF6
100
AcDbEntity
  8
0
 62
     0
100
AcDbLine
 10
662.4094016739872
 20
320.8522976675412
 30
0.0
 11
669.2094016739846
 21
316.3189759101879
 31
0.0
  0
LINE
  5
2A73
330
2DF6
100
AcDbEntity
  8
0
 62
     0
100
AcDbLine
 10
669.2094016739846
 20
319.3189424456033
 30
0.0
 11
788.3891255885155
 21
239.8659960548102
 31
0.0
  0
LINE
  5
2A74
330
2DF6
100
AcDbEntity
  8
0
 62
     0
100
AcDbLine
 10
788.3891255885155
 20
239.8659960548102
 30
0.0
 11
885.0094016739896
 21
175.4526431459862
 31
0.0
  0
LINE
  5
2A75
330
2DF6
100
AcDbEntity
  8
0
 62
     0
100
AcDbLine
 10
662.4094016739872
 20
323.8522642029575
 30
0.0
 11
669.2094016739846
 21
319.3189424456033
 31
0.0
  0
LINE
  5
2A76
330
2DF6
100
AcDbEntity
  8
0
 62
     0
100
AcDbLine
 10
669.2094016739846
 20
322.3189089810202
 30
0.0
 11
792.8890868824035
 21
239.8659960548084
 31
0.0
  0
LINE
  5
2A77
330
2DF6
100
AcDbEntity
  8
0
 62
     0
100
AcDbLine
 10
792.8890868824035
 20
239.8659960548084
 30
0.0
 11
885.0094016739873
 21
178.4526096814033
 31
0.0
  0
LINE
  5
2A78
330
2DF6
100
AcDbEntity
  8
0
 62
     0
100
AcDbLine
 10
662.4094016739855
 20
326.8522307383747
 30
0.0
 11
669.2094016739846
 21
322.3189089810202
 31
0.0
  0
LINE
  5
2A79
330
2DF6
100
AcDbEntity
  8
0
 62
     0
100
AcDbLine
 10
669.2094016739846
 20
325.3188755164357
 30
0.0
 11
797.3890481762881
 21
239.8659960548084
 31
0.0
  0
LINE
  5
2A7A
330
2DF6
100
AcDbEntity
  8
0
 62
     0
100
AcDbLine
 10
797.3890481762881
 20
239.8659960548084
 30
0.0
 11
885.0094016739896
 21
181.4525762168186
 31
0.0
  0
LINE
  5
2A7B
330
2DF6
100
AcDbEntity
  8
0
 62
     0
100
AcDbLine
 10
662.4094016739872
 20
329.8521972737898
 30
0.0
 11
669.2094016739846
 21
325.3188755164357
 31
0.0
  0
LINE
  5
2A7C
330
2DF6
100
AcDbEntity
  8
0
 62
     0
100
AcDbLine
 10
669.2094016739864
 20
328.3188420518518
 30
0.0
 11
801.8890094701745
 21
239.8659960548093
 31
0.0
  0
LINE
  5
2A7D
330
2DF6
100
AcDbEntity
  8
0
 62
     0
100
AcDbLine
 10
801.8890094701745
 20
239.8659960548093
 30
0.0
 11
885.0094016739896
 21
184.4525427522349
 31
0.0
  0
LINE
  5
2A7E
330
2DF6
100
AcDbEntity
  8
0
 62
     0
100
AcDbLine
 10
662.4094016739872
 20
332.852163809207
 30
0.0
 11
669.2094016739864
 21
328.3188420518518
 31
0.0
  0
LINE
  5
2A7F
330
2DF6
100
AcDbEntity
  8
0
 62
     0
100
AcDbLine
 10
669.2094016739846
 20
331.3188085872671
 30
0.0
 11
806.3889707640573
 21
239.8659960548093
 31
0.0
  0
LINE
  5
2A80
330
2DF6
100
AcDbEntity
  8
0
 62
     0
100
AcDbLine
 10
806.3889707640573
 20
239.8659960548093
 30
0.0
 11
885.0094016739896
 21
187.4525092876502
 31
0.0
  0
LINE
  5
2A81
330
2DF6
100
AcDbEntity
  8
0
 62
     0
100
AcDbLine
 10
662.4094016739872
 20
335.8521303446223
 30
0.0
 11
669.2094016739846
 21
331.3188085872671
 31
0.0
  0
LINE
  5
2A82
330
2DF6
100
AcDbEntity
  8
0
 62
     0
100
AcDbLine
 10
669.2094016739864
 20
334.3187751226842
 30
0.0
 11
810.8889320579434
 21
239.8659960548093
 31
0.0
  0
LINE
  5
2A83
330
2DF6
100
AcDbEntity
  8
0
 62
     0
100
AcDbLine
 10
810.8889320579434
 20
239.8659960548093
 30
0.0
 11
885.0094016739896
 21
190.4524758230682
 31
0.0
  0
LINE
  5
2A84
330
2DF6
100
AcDbEntity
  8
0
 62
     0
100
AcDbLine
 10
662.4094016739872
 20
338.8520968800385
 30
0.0
 11
669.2094016739864
 21
334.3187751226842
 31
0.0
  0
LINE
  5
2A85
330
2DF6
100
AcDbEntity
  8
0
 62
     0
100
AcDbLine
 10
669.2094016739828
 20
337.3187416581023
 30
0.0
 11
815.3888933518301
 21
239.8659960548102
 31
0.0
  0
LINE
  5
2A86
330
2DF6
100
AcDbEntity
  8
0
 62
     0
100
AcDbLine
 10
815.3888933518301
 20
239.8659960548102
 30
0.0
 11
885.0094016739873
 21
193.4524423584853
 31
0.0
  0
LINE
  5
2A87
330
2DF6
100
AcDbEntity
  8
0
 62
     0
100
AcDbLine
 10
662.4094016739872
 20
341.8520634154556
 30
0.0
 11
669.2094016739828
 21
337.3187416581023
 31
0.0
  0
LINE
  5
2A88
330
2DF6
100
AcDbEntity
  8
0
 62
     0
100
AcDbLine
 10
669.2094016739846
 20
340.3187081935175
 30
0.0
 11
819.8888546457126
 21
239.8659960548102
 31
0.0
  0
LINE
  5
2A89
330
2DF6
100
AcDbEntity
  8
0
 62
     0
100
AcDbLine
 10
819.8888546457126
 20
239.8659960548102
 30
0.0
 11
885.0094016739896
 21
196.4524088939006
 31
0.0
  0
LINE
  5
2A8A
330
2DF6
100
AcDbEntity
  8
0
 62
     0
100
AcDbLine
 10
662.4094016739855
 20
344.8520299508717
 30
0.0
 11
669.2094016739846
 21
340.3187081935175
 31
0.0
  0
LINE
  5
2A8B
330
2DF6
100
AcDbEntity
  8
0
 62
     0
100
AcDbLine
 10
669.2094016739828
 20
343.3186747289337
 30
0.0
 11
824.3888159395989
 21
239.8659960548112
 31
0.0
  0
LINE
  5
2A8C
330
2DF6
100
AcDbEntity
  8
0
 62
     0
100
AcDbLine
 10
824.3888159395989
 20
239.8659960548112
 30
0.0
 11
885.0094016739873
 21
199.4523754293177
 31
0.0
  0
LINE
  5
2A8D
330
2DF6
100
AcDbEntity
  8
0
 62
     0
100
AcDbLine
 10
662.4094016739872
 20
347.8519964862881
 30
0.0
 11
669.2094016739828
 21
343.3186747289337
 31
0.0
  0
LINE
  5
2A8E
330
2DF6
100
AcDbEntity
  8
0
 62
     0
100
AcDbLine
 10
669.2094016739846
 20
346.3186412643491
 30
0.0
 11
828.8887772334856
 21
239.8659960548093
 31
0.0
  0
LINE
  5
2A8F
330
2DF6
100
AcDbEntity
  8
0
 62
     0
100
AcDbLine
 10
828.8887772334856
 20
239.8659960548093
 30
0.0
 11
885.0094016739896
 21
202.4523419647321
 31
0.0
  0
LINE
  5
2A90
330
2DF6
100
AcDbEntity
  8
0
 62
     0
100
AcDbLine
 10
662.4094016739855
 20
350.8519630217043
 30
0.0
 11
669.2094016739846
 21
346.3186412643491
 31
0.0
  0
LINE
  5
2A91
330
2DF6
100
AcDbEntity
  8
0
 62
     0
100
AcDbLine
 10
669.2094016739846
 20
349.3186077997661
 30
0.0
 11
833.3887385273737
 21
239.8659960548093
 31
0.0
  0
LINE
  5
2A92
330
2DF6
100
AcDbEntity
  8
0
 62
     0
100
AcDbLine
 10
833.3887385273737
 20
239.8659960548093
 30
0.0
 11
885.0094016739896
 21
205.4523085001492
 31
0.0
  0
LINE
  5
2A93
330
2DF6
100
AcDbEntity
  8
0
 62
     0
100
AcDbLine
 10
662.4094016739872
 20
353.8519295571205
 30
0.0
 11
669.2094016739846
 21
349.3186077997661
 31
0.0
  0
LINE
  5
2A94
330
2DF6
100
AcDbEntity
  8
0
 62
     0
100
AcDbLine
 10
669.2094016739846
 20
352.3185743351815
 30
0.0
 11
837.8886998212546
 21
239.8659960548102
 31
0.0
  0
LINE
  5
2A95
330
2DF6
100
AcDbEntity
  8
0
 62
     0
100
AcDbLine
 10
837.8886998212546
 20
239.8659960548102
 30
0.0
 11
885.0094016739896
 21
208.4522750355645
 31
0.0
  0
LINE
  5
2A96
330
2DF6
100
AcDbEntity
  8
0
 62
     0
100
AcDbLine
 10
662.4094016739855
 20
356.8518960925358
 30
0.0
 11
669.2094016739846
 21
352.3185743351815
 31
0.0
  0
LINE
  5
2A97
330
2DF6
100
AcDbEntity
  8
0
 62
     0
100
AcDbLine
 10
669.2094016739846
 20
355.3185408705985
 30
0.0
 11
842.3886611151445
 21
239.8659960548084
 31
0.0
  0
LINE
  5
2A98
330
2DF6
100
AcDbEntity
  8
0
 62
     0
100
AcDbLine
 10
842.3886611151445
 20
239.8659960548084
 30
0.0
 11
885.0094016739873
 21
211.4522415709826
 31
0.0
  0
LINE
  5
2A99
330
2DF6
100
AcDbEntity
  8
0
 62
     0
100
AcDbLine
 10
662.4094016739872
 20
359.851862627953
 30
0.0
 11
669.2094016739846
 21
355.3185408705985
 31
0.0
  0
LINE
  5
2A9A
330
2DF6
100
AcDbEntity
  8
0
 62
     0
100
AcDbLine
 10
669.2094016739846
 20
358.3185074060129
 30
0.0
 11
846.8886224090274
 21
239.8659960548093
 31
0.0
  0
LINE
  5
2A9B
330
2DF6
100
AcDbEntity
  8
0
 62
     0
100
AcDbLine
 10
846.8886224090274
 20
239.8659960548093
 30
0.0
 11
885.0094016739873
 21
214.4522081063978
 31
0.0
  0
LINE
  5
2A9C
330
2DF6
100
AcDbEntity
  8
0
 62
     0
100
AcDbLine
 10
662.4094016739855
 20
362.8518291633682
 30
0.0
 11
669.2094016739846
 21
358.3185074060129
 31
0.0
  0
LINE
  5
2A9D
330
2DF6
100
AcDbEntity
  8
0
 62
     0
100
AcDbLine
 10
669.2094016739846
 20
361.318473941431
 30
0.0
 11
851.3885837029157
 21
239.8659960548093
 31
0.0
  0
LINE
  5
2A9E
330
2DF6
100
AcDbEntity
  8
0
 62
     0
100
AcDbLine
 10
851.3885837029157
 20
239.8659960548093
 30
0.0
 11
885.0094016739873
 21
217.452174641814
 31
0.0
  0
LINE
  5
2A9F
330
2DF6
100
AcDbEntity
  8
0
 62
     0
100
AcDbLine
 10
662.4094016739872
 20
365.8517956987852
 30
0.0
 11
669.2094016739846
 21
361.318473941431
 31
0.0
  0
LINE
  5
2AA0
330
2DF6
100
AcDbEntity
  8
0
 62
     0
100
AcDbLine
 10
669.2094016739846
 20
364.3184404768462
 30
0.0
 11
855.8885449967982
 21
239.8659960548102
 31
0.0
  0
LINE
  5
2AA1
330
2DF6
100
AcDbEntity
  8
0
 62
     0
100
AcDbLine
 10
855.8885449967982
 20
239.8659960548102
 30
0.0
 11
885.0094016739857
 21
220.4521411772321
 31
0.0
  0
LINE
  5
2AA2
330
2DF6
100
AcDbEntity
  8
0
 62
     0
100
AcDbLine
 10
662.4094016739872
 20
368.8517622341997
 30
0.0
 11
669.2094016739846
 21
364.3184404768462
 31
0.0
  0
LINE
  5
2AA3
330
2DF6
100
AcDbEntity
  8
0
 62
     0
100
AcDbLine
 10
669.2094016739846
 20
367.3184070122634
 30
0.0
 11
860.3885062906863
 21
239.8659960548084
 31
0.0
  0
LINE
  5
2AA4
330
2DF6
100
AcDbEntity
  8
0
 62
     0
100
AcDbLine
 10
860.3885062906863
 20
239.8659960548084
 30
0.0
 11
885.0094016739857
 21
223.4521077126483
 31
0.0
  0
LINE
  5
2AA5
330
2DF6
100
AcDbEntity
  8
0
 62
     0
100
AcDbLine
 10
662.4094016739855
 20
371.8517287696177
 30
0.0
 11
669.2094016739846
 21
367.3184070122634
 31
0.0
  0
LINE
  5
2AA6
330
2DF6
100
AcDbEntity
  8
0
 62
     0
100
AcDbLine
 10
669.2094016739846
 20
370.3183735476786
 30
0.0
 11
864.888467584571
 21
239.8659960548084
 31
0.0
  0
LINE
  5
2AA7
330
2DF6
100
AcDbEntity
  8
0
 62
     0
100
AcDbLine
 10
864.888467584571
 20
239.8659960548084
 30
0.0
 11
885.009401673984
 21
226.4520742480645
 31
0.0
  0
LINE
  5
2AA8
330
2DF6
100
AcDbEntity
  8
0
 62
     0
100
AcDbLine
 10
662.4094016739872
 20
374.851695305032
 30
0.0
 11
669.2094016739846
 21
370.3183735476786
 31
0.0
  0
LINE
  5
2AA9
330
2DF6
100
AcDbEntity
  8
0
 62
     0
100
AcDbLine
 10
669.2094016739846
 20
373.3183400830949
 30
0.0
 11
869.3884288784575
 21
239.8659960548093
 31
0.0
  0
LINE
  5
2AAA
330
2DF6
100
AcDbEntity
  8
0
 62
     0
100
AcDbLine
 10
869.3884288784575
 20
239.8659960548093
 30
0.0
 11
885.0094016739857
 21
229.4520407834807
 31
0.0
  0
LINE
  5
2AAB
330
2DF6
100
AcDbEntity
  8
0
 62
     0
100
AcDbLine
 10
662.4094016739855
 20
377.8516618404501
 30
0.0
 11
669.2094016739846
 21
373.3183400830949
 31
0.0
  0
LINE
  5
2AAC
330
2DF6
100
AcDbEntity
  8
0
 62
     0
100
AcDbLine
 10
669.2094016739846
 20
376.3183066185119
 30
0.0
 11
873.8883901723403
 21
239.8659960548112
 31
0.0
  0
LINE
  5
2AAD
330
2DF6
100
AcDbEntity
  8
0
 62
     0
100
AcDbLine
 10
873.8883901723403
 20
239.8659960548112
 30
0.0
 11
885.009401673984
 21
232.4520073188987
 31
0.0
  0
LINE
  5
2AAE
330
2DF6
100
AcDbEntity
  8
0
 62
     0
100
AcDbLine
 10
662.4094016739872
 20
380.8516283758672
 30
0.0
 11
669.2094016739846
 21
376.3183066185119
 31
0.0
  0
LINE
  5
2AAF
330
2DF6
100
AcDbEntity
  8
0
 62
     0
100
AcDbLine
 10
669.2094016739846
 20
379.3182731539282
 30
0.0
 11
878.3883514662282
 21
239.8659960548093
 31
0.0
  0
LINE
  5
2AB0
330
2DF6
100
AcDbEntity
  8
0
 62
     0
100
AcDbLine
 10
878.3883514662282
 20
239.8659960548093
 30
0.0
 11
885.0094016739857
 21
235.451973854314
 31
0.0
  0
LINE
  5
2AB1
330
2DF6
100
AcDbEntity
  8
0
 62
     0
100
AcDbLine
 10
662.4094016739872
 20
383.8515949112825
 30
0.0
 11
669.2094016739846
 21
379.3182731539282
 31
0.0
  0
LINE
  5
2AB2
330
2DF6
100
AcDbEntity
  8
0
 62
     0
100
AcDbLine
 10
669.2094016739828
 20
382.3182396893462
 30
0.0
 11
882.8883127601127
 21
239.8659960548102
 31
0.0
  0
LINE
  5
2AB3
330
2DF6
100
AcDbEntity
  8
0
 62
     0
100
AcDbLine
 10
882.8883127601127
 20
239.8659960548102
 30
0.0
 11
885.009401673984
 21
238.4519403897302
 31
0.0
  0
LINE
  5
2AB4
330
2DF6
100
AcDbEntity
  8
0
 62
     0
100
AcDbLine
 10
662.4094016739872
 20
386.8515614466988
 30
0.0
 11
669.2094016739828
 21
382.3182396893462
 31
0.0
  0
LINE
  5
2AB5
330
2DF6
100
AcDbEntity
  8
0
 62
     0
100
AcDbLine
 10
669.2094016739811
 20
385.3182062247623
 30
0.0
 11
885.0094016739857
 21
241.4519069251455
 31
0.0
  0
LINE
  5
2AB6
330
2DF6
100
AcDbEntity
  8
0
 62
     0
100
AcDbLine
 10
662.4094016739872
 20
389.851527982114
 30
0.0
 11
669.2094016739811
 21
385.3182062247623
 31
0.0
  0
LINE
  5
2AB7
330
2DF6
100
AcDbEntity
  8
0
 62
     0
100
AcDbLine
 10
669.2094016739811
 20
388.3181727601796
 30
0.0
 11
885.009401673984
 21
244.4518734605626
 31
0.0
  0
LINE
  5
2AB8
330
2DF6
100
AcDbEntity
  8
0
 62
     0
100
AcDbLine
 10
662.4094016739872
 20
392.8514945175312
 30
0.0
 11
669.2094016739811
 21
388.3181727601796
 31
0.0
  0
LINE
  5
2AB9
330
2DF6
100
AcDbEntity
  8
0
 62
     0
100
AcDbLine
 10
669.2094016739811
 20
391.3181392955948
 30
0.0
 11
885.0094016739857
 21
247.4518399959779
 31
0.0
  0
LINE
  5
2ABA
330
2DF6
100
AcDbEntity
  8
0
 62
     0
100
AcDbLine
 10
662.4094016739872
 20
395.8514610529464
 30
0.0
 11
669.2094016739811
 21
391.3181392955948
 31
0.0
  0
LINE
  5
2ABB
330
2DF6
100
AcDbEntity
  8
0
 62
     0
100
AcDbLine
 10
669.2094016739811
 20
394.3181058310111
 30
0.0
 11
885.009401673984
 21
250.4518065313951
 31
0.0
  0
LINE
  5
2ABC
330
2DF6
100
AcDbEntity
  8
0
 62
     0
100
AcDbLine
 10
662.4094016739855
 20
398.8514275883645
 30
0.0
 11
669.2094016739811
 21
394.3181058310111
 31
0.0
  0
LINE
  5
2ABD
330
2DF6
100
AcDbEntity
  8
0
 62
     0
100
AcDbLine
 10
669.2094016739811
 20
397.3180723664264
 30
0.0
 11
885.009401673984
 21
253.4517730668103
 31
0.0
  0
LINE
  5
2ABE
330
2DF6
100
AcDbEntity
  8
0
 62
     0
100
AcDbLine
 10
662.4094016739872
 20
401.8513941237777
 30
0.0
 11
669.2094016739811
 21
397.3180723664264
 31
0.0
  0
LINE
  5
2ABF
330
2DF6
100
AcDbEntity
  8
0
 62
     0
100
AcDbLine
 10
669.2094016739828
 20
400.3180389018433
 30
0.0
 11
885.0094016739857
 21
256.4517396022266
 31
0.0
  0
LINE
  5
2AC0
330
2DF6
100
AcDbEntity
  8
0
 62
     0
100
AcDbLine
 10
662.4094016739872
 20
404.8513606591958
 30
0.0
 11
669.2094016739811
 21
400.3180389018443
 31
0.0
  0
LINE
  5
2AC1
330
2DF6
100
AcDbEntity
  8
0
 62
     0
100
AcDbLine
 10
669.2094016739811
 20
403.3180054372587
 30
0.0
 11
885.009401673984
 21
259.4517061376428
 31
0.0
  0
LINE
  5
2AC2
330
2DF6
100
AcDbEntity
  8
0
 62
     0
100
AcDbLine
 10
662.4094016739855
 20
407.8513271946111
 30
0.0
 11
669.2094016739811
 21
403.3180054372587
 31
0.0
  0
LINE
  5
2AC3
330
2DF6
100
AcDbEntity
  8
0
 62
     0
100
AcDbLine
 10
669.2094016739811
 20
406.3179719726767
 30
0.0
 11
885.0094016739857
 21
262.4516726730599
 31
0.0
  0
LINE
  5
2AC4
330
2DF6
100
AcDbEntity
  8
0
 62
     0
100
AcDbLine
 10
662.4094016739872
 20
410.8512937300282
 30
0.0
 11
669.2094016739811
 21
406.3179719726767
 31
0.0
  0
LINE
  5
2AC5
330
2DF6
100
AcDbEntity
  8
0
 62
     0
100
AcDbLine
 10
669.2094016739793
 20
409.317938508092
 30
0.0
 11
885.009401673984
 21
265.4516392084753
 31
0.0
  0
LINE
  5
2AC6
330
2DF6
100
AcDbEntity
  8
0
 62
     0
100
AcDbLine
 10
662.4094016739855
 20
413.8512602654436
 30
0.0
 11
669.2094016739793
 21
409.317938508092
 31
0.0
  0
LINE
  5
2AC7
330
2DF6
100
AcDbEntity
  8
0
 62
     0
100
AcDbLine
 10
669.2094016739811
 20
412.3179050435082
 30
0.0
 11
885.0094016739857
 21
268.4516057438914
 31
0.0
  0
LINE
  5
2AC8
330
2DF6
100
AcDbEntity
  8
0
 62
     0
100
AcDbLine
 10
662.4094016739872
 20
416.8512268008599
 30
0.0
 11
669.2094016739811
 21
412.3179050435082
 31
0.0
  0
LINE
  5
2AC9
330
2DF6
100
AcDbEntity
  8
0
 62
     0
100
AcDbLine
 10
669.2094016739811
 20
415.3178715789236
 30
0.0
 11
885.0094016739857
 21
271.4515722793067
 31
0.0
  0
LINE
  5
2ACA
330
2DF6
100
AcDbEntity
  8
0
 62
     0
100
AcDbLine
 10
662.4094016739872
 20
419.8511933362751
 30
0.0
 11
669.2094016739811
 21
415.3178715789236
 31
0.0
  0
LINE
  5
2ACB
330
2DF6
100
AcDbEntity
  8
0
 62
     0
100
AcDbLine
 10
669.2094016739811
 20
418.3178381143406
 30
0.0
 11
885.0094016739857
 21
274.4515388147237
 31
0.0
  0
LINE
  5
2ACC
330
2DF6
100
AcDbEntity
  8
0
 62
     0
100
AcDbLine
 10
662.4094016739872
 20
422.8511598716923
 30
0.0
 11
669.2094016739811
 21
418.3178381143406
 31
0.0
  0
LINE
  5
2ACD
330
2DF6
100
AcDbEntity
  8
0
 62
     0
100
AcDbLine
 10
669.2094016739828
 20
421.3178046497577
 30
0.0
 11
885.0094016739857
 21
277.4515053501409
 31
0.0
  0
LINE
  5
2ACE
330
2DF6
100
AcDbEntity
  8
0
 62
     0
100
AcDbLine
 10
662.4094016739872
 20
425.8511264071103
 30
0.0
 11
669.2094016739828
 21
421.3178046497577
 31
0.0
  0
LINE
  5
2ACF
330
2DF6
100
AcDbEntity
  8
0
 62
     0
100
AcDbLine
 10
669.2094016739811
 20
424.3177711851719
 30
0.0
 11
885.009401673984
 21
280.4514718855571
 31
0.0
  0
LINE
  5
2AD0
330
2DF6
100
AcDbEntity
  8
0
 62
     0
100
AcDbLine
 10
662.4094016739855
 20
428.8510929425256
 30
0.0
 11
669.2094016739811
 21
424.3177711851719
 31
0.0
  0
LINE
  5
2AD1
330
2DF6
100
AcDbEntity
  8
0
 62
     0
100
AcDbLine
 10
669.2094016739811
 20
427.3177377205902
 30
0.0
 11
885.009401673984
 21
283.4514384209742
 31
0.0
  0
LINE
  5
2AD2
330
2DF6
100
AcDbEntity
  8
0
 62
     0
100
AcDbLine
 10
662.4094016739872
 20
431.8510594779427
 30
0.0
 11
669.2094016739811
 21
427.3177377205902
 31
0.0
  0
LINE
  5
2AD3
330
2DF6
100
AcDbEntity
  8
0
 62
     0
100
AcDbLine
 10
669.2094016739793
 20
430.3177042560054
 30
0.0
 11
885.009401673984
 21
286.4514049563886
 31
0.0
  0
LINE
  5
2AD4
330
2DF6
100
AcDbEntity
  8
0
 62
     0
100
AcDbLine
 10
664.1869511508265
 20
433.6659960548076
 30
0.0
 11
669.2094016739793
 21
430.3177042560054
 31
0.0
  0
LINE
  5
2AD5
330
2DF6
100
AcDbEntity
  8
0
 62
     0
100
AcDbLine
 10
669.2094016739811
 20
433.3176707914225
 30
0.0
 11
885.009401673984
 21
289.4513714918057
 31
0.0
  0
LINE
  5
2AD6
330
2DF6
100
AcDbEntity
  8
0
 62
     0
100
AcDbLine
 10
668.6869124447148
 20
433.6659960548076
 30
0.0
 11
669.2094016739811
 21
433.3176707914225
 31
0.0
  0
LINE
  5
2AD7
330
2DF6
100
AcDbEntity
  8
0
 62
     0
100
AcDbLine
 10
673.1868737385974
 20
433.6659960548086
 30
0.0
 11
885.0094016739857
 21
292.4513380272211
 31
0.0
  0
LINE
  5
2AD8
330
2DF6
100
AcDbEntity
  8
0
 62
     0
100
AcDbLine
 10
677.6868350324839
 20
433.6659960548086
 30
0.0
 11
885.009401673984
 21
295.451304562638
 31
0.0
  0
LINE
  5
2AD9
330
2DF6
100
AcDbEntity
  8
0
 62
     0
100
AcDbLine
 10
682.1867963263704
 20
433.6659960548067
 30
0.0
 11
885.0094016739857
 21
298.4512710980535
 31
0.0
  0
LINE
  5
2ADA
330
2DF6
100
AcDbEntity
  8
0
 62
     0
100
AcDbLine
 10
686.686757620253
 20
433.6659960548095
 30
0.0
 11
885.009401673984
 21
301.4512376334705
 31
0.0
  0
LINE
  5
2ADB
330
2DF6
100
AcDbEntity
  8
0
 62
     0
100
AcDbLine
 10
691.1867189141394
 20
433.6659960548076
 30
0.0
 11
885.009401673984
 21
304.451204168886
 31
0.0
  0
LINE
  5
2ADC
330
2DF6
100
AcDbEntity
  8
0
 62
     0
100
AcDbLine
 10
695.6866802080276
 20
433.6659960548076
 30
0.0
 11
885.0094016739857
 21
307.4511707043031
 31
0.0
  0
LINE
  5
2ADD
330
2DF6
100
AcDbEntity
  8
0
 62
     0
100
AcDbLine
 10
700.186641501912
 20
433.6659960548067
 30
0.0
 11
885.009401673984
 21
310.4511372397183
 31
0.0
  0
LINE
  5
2ADE
330
2DF6
100
AcDbEntity
  8
0
 62
     0
100
AcDbLine
 10
704.6866027957968
 20
433.6659960548086
 30
0.0
 11
885.0094016739857
 21
313.4511037751354
 31
0.0
  0
LINE
  5
2ADF
330
2DF6
100
AcDbEntity
  8
0
 62
     0
100
AcDbLine
 10
709.1865640896813
 20
433.6659960548095
 30
0.0
 11
885.009401673984
 21
316.4510703105516
 31
0.0
  0
LINE
  5
2AE0
330
2DF6
100
AcDbEntity
  8
0
 62
     0
100
AcDbLine
 10
713.6865253835694
 20
433.6659960548076
 30
0.0
 11
885.0094016739857
 21
319.4510368459669
 31
0.0
  0
LINE
  5
2AE1
330
2DF6
100
AcDbEntity
  8
0
 62
     0
100
AcDbLine
 10
718.1864866774541
 20
433.6659960548076
 30
0.0
 11
885.009401673984
 21
322.451003381384
 31
0.0
  0
LINE
  5
2AE2
330
2DF6
100
AcDbEntity
  8
0
 62
     0
100
AcDbLine
 10
722.6864479713383
 20
433.6659960548086
 30
0.0
 11
885.0094016739857
 21
325.4509699167992
 31
0.0
  0
LINE
  5
2AE3
330
2DF6
100
AcDbEntity
  8
0
 62
     0
100
AcDbLine
 10
727.1864092652251
 20
433.6659960548086
 30
0.0
 11
885.009401673984
 21
328.4509364522173
 31
0.0
  0
LINE
  5
2AE4
330
2DF6
100
AcDbEntity
  8
0
 62
     0
100
AcDbLine
 10
731.6863705591113
 20
433.6659960548076
 30
0.0
 11
885.009401673984
 21
331.4509029876326
 31
0.0
  0
LINE
  5
2AE5
330
2DF6
100
AcDbEntity
  8
0
 62
     0
100
AcDbLine
 10
736.1863318529977
 20
433.6659960548076
 30
0.0
 11
885.009401673984
 21
334.4508695230488
 31
0.0
  0
LINE
  5
2AE6
330
2DF6
100
AcDbEntity
  8
0
 62
     0
100
AcDbLine
 10
740.6862931468802
 20
433.6659960548076
 30
0.0
 11
885.009401673984
 21
337.4508360584641
 31
0.0
  0
LINE
  5
2AE7
330
2DF6
100
AcDbEntity
  8
0
 62
     0
100
AcDbLine
 10
745.1862544407664
 20
433.6659960548086
 30
0.0
 11
885.009401673984
 21
340.4508025938812
 31
0.0
  0
LINE
  5
2AE8
330
2DF6
100
AcDbEntity
  8
0
 62
     0
100
AcDbLine
 10
749.686215734655
 20
433.6659960548067
 30
0.0
 11
885.0094016739857
 21
343.4507691292965
 31
0.0
  0
LINE
  5
2AE9
330
2DF6
100
AcDbEntity
  8
0
 62
     0
100
AcDbLine
 10
754.1861770285357
 20
433.6659960548095
 30
0.0
 11
885.009401673984
 21
346.4507356647136
 31
0.0
  0
LINE
  5
2AEA
330
2DF6
100
AcDbEntity
  8
0
 62
     0
100
AcDbLine
 10
758.6861383224238
 20
433.6659960548076
 30
0.0
 11
885.0094016739857
 21
349.450702200128
 31
0.0
  0
LINE
  5
2AEB
330
2DF6
100
AcDbEntity
  8
0
 62
     0
100
AcDbLine
 10
763.1860996163086
 20
433.6659960548076
 30
0.0
 11
885.009401673984
 21
352.450668735545
 31
0.0
  0
LINE
  5
2AEC
330
2DF6
100
AcDbEntity
  8
0
 62
     0
100
AcDbLine
 10
767.686060910195
 20
433.6659960548086
 30
0.0
 11
885.009401673984
 21
355.4506352709632
 31
0.0
  0
LINE
  5
2AED
330
2DF6
100
AcDbEntity
  8
0
 62
     0
100
AcDbLine
 10
772.1860222040777
 20
433.6659960548086
 30
0.0
 11
885.009401673984
 21
358.4506018063785
 31
0.0
  0
LINE
  5
2AEE
330
2DF6
100
AcDbEntity
  8
0
 62
     0
100
AcDbLine
 10
776.6859834979658
 20
433.6659960548095
 30
0.0
 11
885.009401673984
 21
361.4505683417956
 31
0.0
  0
LINE
  5
2AEF
330
2DF6
100
AcDbEntity
  8
0
 62
     0
100
AcDbLine
 10
781.1859447918524
 20
433.6659960548076
 30
0.0
 11
885.0094016739857
 21
364.45053487721
 31
0.0
  0
LINE
  5
2AF0
330
2DF6
100
AcDbEntity
  8
0
 62
     0
100
AcDbLine
 10
785.6859060857368
 20
433.6659960548076
 30
0.0
 11
885.009401673984
 21
367.4505014126271
 31
0.0
  0
LINE
  5
2AF1
330
2DF6
100
AcDbEntity
  8
0
 62
     0
100
AcDbLine
 10
790.1858673796214
 20
433.6659960548086
 30
0.0
 11
885.0094016739857
 21
370.4504679480424
 31
0.0
  0
LINE
  5
2AF2
330
2DF6
100
AcDbEntity
  8
0
 62
     0
100
AcDbLine
 10
794.6858286735078
 20
433.6659960548086
 30
0.0
 11
885.009401673984
 21
373.4504344834594
 31
0.0
  0
LINE
  5
2AF3
330
2DF6
100
AcDbEntity
  8
0
 62
     0
100
AcDbLine
 10
799.1857899673942
 20
433.6659960548076
 30
0.0
 11
885.0094016739857
 21
376.4504010188748
 31
0.0
  0
LINE
  5
2AF4
330
2DF6
100
AcDbEntity
  8
0
 62
     0
100
AcDbLine
 10
803.6857512612805
 20
433.6659960548076
 30
0.0
 11
885.0094016739857
 21
379.4503675542911
 31
0.0
  0
LINE
  5
2AF5
330
2DF6
100
AcDbEntity
  8
0
 62
     0
100
AcDbLine
 10
808.1857125551628
 20
433.6659960548076
 30
0.0
 11
885.009401673984
 21
382.4503340897072
 31
0.0
  0
LINE
  5
2AF6
330
2DF6
100
AcDbEntity
  8
0
 62
     0
100
AcDbLine
 10
812.6856738490513
 20
433.6659960548086
 30
0.0
 11
885.009401673984
 21
385.4503006251243
 31
0.0
  0
LINE
  5
2AF7
330
2DF6
100
AcDbEntity
  8
0
 62
     0
100
AcDbLine
 10
817.1856351429358
 20
433.6659960548067
 30
0.0
 11
885.009401673984
 21
388.4502671605396
 31
0.0
  0
LINE
  5
2AF8
330
2DF6
100
AcDbEntity
  8
0
 62
     0
100
AcDbLine
 10
821.6855964368205
 20
433.6659960548095
 30
0.0
 11
885.009401673984
 21
391.4502336959568
 31
0.0
  0
LINE
  5
2AF9
330
2DF6
100
AcDbEntity
  8
0
 62
     0
100
AcDbLine
 10
826.185557730707
 20
433.6659960548095
 30
0.0
 11
885.0094016739857
 21
394.4502002313738
 31
0.0
  0
LINE
  5
2AFA
330
2DF6
100
AcDbEntity
  8
0
 62
     0
100
AcDbLine
 10
830.6855190245915
 20
433.6659960548076
 30
0.0
 11
885.009401673984
 21
397.4501667667882
 31
0.0
  0
LINE
  5
2AFB
330
2DF6
100
AcDbEntity
  8
0
 62
     0
100
AcDbLine
 10
835.1854803184794
 20
433.6659960548086
 30
0.0
 11
885.0094016739857
 21
400.4501333022052
 31
0.0
  0
LINE
  5
2AFC
330
2DF6
100
AcDbEntity
  8
0
 62
     0
100
AcDbLine
 10
839.6854416123622
 20
433.6659960548086
 30
0.0
 11
885.009401673984
 21
403.4500998376215
 31
0.0
  0
LINE
  5
2AFD
330
2DF6
100
AcDbEntity
  8
0
 62
     0
100
AcDbLine
 10
844.1854029062486
 20
433.6659960548095
 30
0.0
 11
885.0094016739857
 21
406.4500663730377
 31
0.0
  0
LINE
  5
2AFE
330
2DF6
100
AcDbEntity
  8
0
 62
     0
100
AcDbLine
 10
848.6853642001332
 20
433.6659960548076
 30
0.0
 11
885.009401673984
 21
409.450032908454
 31
0.0
  0
LINE
  5
2AFF
330
2DF6
100
AcDbEntity
  8
0
 62
     0
100
AcDbLine
 10
853.1853254940214
 20
433.6659960548076
 30
0.0
 11
885.009401673984
 21
412.4499994438702
 31
0.0
  0
LINE
  5
2B00
330
2DF6
100
AcDbEntity
  8
0
 62
     0
100
AcDbLine
 10
857.6852867879058
 20
433.6659960548086
 30
0.0
 11
885.0094016739857
 21
415.4499659792854
 31
0.0
  0
LINE
  5
2B01
330
2DF6
100
AcDbEntity
  8
0
 62
     0
100
AcDbLine
 10
862.1852480817905
 20
433.6659960548086
 30
0.0
 11
885.009401673984
 21
418.4499325147026
 31
0.0
  0
LINE
  5
2B02
330
2DF6
100
AcDbEntity
  8
0
 62
     0
100
AcDbLine
 10
866.6852093756769
 20
433.6659960548067
 30
0.0
 11
885.0094016739857
 21
421.4498990501176
 31
0.0
  0
LINE
  5
2B03
330
2DF6
100
AcDbEntity
  8
0
 62
     0
100
AcDbLine
 10
871.1851706695595
 20
433.6659960548095
 30
0.0
 11
885.0094016739822
 21
424.4498655855359
 31
0.0
  0
LINE
  5
2B04
330
2DF6
100
AcDbEntity
  8
0
 62
     0
100
AcDbLine
 10
875.6851319634462
 20
433.6659960548076
 30
0.0
 11
885.0094016739857
 21
427.4498321209494
 31
0.0
  0
LINE
  5
2B05
330
2DF6
100
AcDbEntity
  8
0
 62
     0
100
AcDbLine
 10
880.1850932573342
 20
433.6659960548086
 30
0.0
 11
885.009401673984
 21
430.4497986563672
 31
0.0
  0
LINE
  5
2B06
330
2DF6
100
AcDbEntity
  8
0
 62
     0
100
AcDbLine
 10
884.6850545512188
 20
433.6659960548086
 30
0.0
 11
885.009401673984
 21
433.4497651917845
 31
0.0
  0
ENDBLK
  5
2B08
330
2DF6
100
AcDbEntity
  8
0
100
AcDbBlockEnd
  0
BLOCK
  5
2DF9
330
2DF8
100
AcDbEntity
  8
0
100
AcDbBlockBegin
  2
*X23
 70
     1
 10
0.0
 20
0.0
 30
0.0
  3
*X23
  1

  0
LINE
  5
2B0E
330
2DF8
100
AcDbEntity
  8
0
 62
     0
100
AcDbLine
 10
109.9641406956434
 20
-415.0080808012043
 30
0.0
 11
111.299999999992
 21
-414.1175102057387
 31
0.0
  0
LINE
  5
2B0F
330
2DF8
100
AcDbEntity
  8
0
 62
     0
100
AcDbLine
 10
105.4641794017589
 20
-415.0080808012062
 30
0.0
 11
111.2999999999938
 21
-411.1175436703215
 31
0.0
  0
LINE
  5
2B10
330
2DF8
100
AcDbEntity
  8
0
 62
     0
100
AcDbLine
 10
100.9642181078798
 20
-415.0080808012007
 30
0.0
 11
111.2999999999974
 21
-408.1175771349044
 31
0.0
  0
LINE
  5
2B11
330
2DF8
100
AcDbEntity
  8
0
 62
     0
100
AcDbLine
 10
96.46425681399341
 20
-415.0080808012007
 30
0.0
 11
111.2999999999938
 21
-405.1176105994889
 31
0.0
  0
LINE
  5
2B12
330
2DF8
100
AcDbEntity
  8
0
 62
     0
100
AcDbLine
 10
91.96429552010521
 20
-415.0080808012007
 30
0.0
 11
111.299999999992
 21
-402.1176440640719
 31
0.0
  0
LINE
  5
2B13
330
2DF8
100
AcDbEntity
  8
0
 62
     0
100
AcDbLine
 10
87.46433422622066
 20
-415.0080808012026
 30
0.0
 11
111.2999999999938
 21
-399.1176775286568
 31
0.0
  0
LINE
  5
2B14
330
2DF8
100
AcDbEntity
  8
0
 62
     0
100
AcDbLine
 10
82.96437293233248
 20
-415.0080808012043
 30
0.0
 11
111.2999999999956
 21
-396.1177109932396
 31
0.0
  0
LINE
  5
2B15
330
2DF8
100
AcDbEntity
  8
0
 62
     0
100
AcDbLine
 10
78.46441163844611
 20
-415.0080808012026
 30
0.0
 11
111.299999999992
 21
-393.1177444578243
 31
0.0
  0
LINE
  5
2B16
330
2DF8
100
AcDbEntity
  8
0
 62
     0
100
AcDbLine
 10
73.96445034456701
 20
-415.0080808011988
 30
0.0
 11
111.2999999999956
 21
-390.1177779224071
 31
0.0
  0
LINE
  5
2B17
330
2DF8
100
AcDbEntity
  8
0
 62
     0
100
AcDbLine
 10
69.46448905067518
 20
-415.0080808012043
 30
0.0
 11
111.2999999999938
 21
-387.117811386992
 31
0.0
  0
LINE
  5
2B18
330
2DF8
100
AcDbEntity
  8
0
 62
     0
100
AcDbLine
 10
64.96452775679244
 20
-415.0080808012026
 30
0.0
 11
111.2999999999938
 21
-384.1178448515766
 31
0.0
  0
LINE
  5
2B19
330
2DF8
100
AcDbEntity
  8
0
 62
     0
100
AcDbLine
 10
60.46456646290788
 20
-415.0080808012026
 30
0.0
 11
111.299999999992
 21
-381.1178783161594
 31
0.0
  0
LINE
  5
2B1A
330
2DF8
100
AcDbEntity
  8
0
 62
     0
100
AcDbLine
 10
55.96460516902151
 20
-415.0080808012007
 30
0.0
 11
111.299999999992
 21
-378.1179117807442
 31
0.0
  0
LINE
  5
2B1B
330
2DF8
100
AcDbEntity
  8
0
 62
     0
100
AcDbLine
 10
51.46464387513514
 20
-415.0080808012026
 30
0.0
 11
111.2999999999902
 21
-375.1179452453306
 31
0.0
  0
LINE
  5
2B1C
330
2DF8
100
AcDbEntity
  8
0
 62
     0
100
AcDbLine
 10
46.96468258124695
 20
-415.0080808012043
 30
0.0
 11
111.2999999999902
 21
-372.1179787099136
 31
0.0
  0
LINE
  5
2B1D
330
2DF8
100
AcDbEntity
  8
0
 62
     0
100
AcDbLine
 10
42.46472128736785
 20
-415.0080808012007
 30
0.0
 11
111.299999999992
 21
-369.1180121744965
 31
0.0
  0
LINE
  5
2B1E
330
2DF8
100
AcDbEntity
  8
0
 62
     0
100
AcDbLine
 10
37.96475999347604
 20
-415.0080808012043
 30
0.0
 11
111.2999999999902
 21
-366.1180456390812
 31
0.0
  0
LINE
  5
2B1F
330
2DF8
100
AcDbEntity
  8
0
 62
     0
100
AcDbLine
 10
33.46479869959512
 20
-415.0080808011988
 30
0.0
 11
111.2999999999902
 21
-363.1180791036622
 31
0.0
  0
LINE
  5
2B20
330
2DF8
100
AcDbEntity
  8
0
 62
     0
100
AcDbLine
 10
28.96483740570876
 20
-415.0080808012007
 30
0.0
 11
111.2999999999902
 21
-360.1181125682487
 31
0.0
  0
LINE
  5
2B21
330
2DF8
100
AcDbEntity
  8
0
 62
     0
100
AcDbLine
 10
24.4648761118242
 20
-415.0080808012026
 30
0.0
 11
111.299999999992
 21
-357.1181460328316
 31
0.0
  0
LINE
  5
2B22
330
2DF8
100
AcDbEntity
  8
0
 62
     0
100
AcDbLine
 10
19.964914817936
 20
-415.0080808012026
 30
0.0
 11
111.2999999999902
 21
-354.1181794974164
 31
0.0
  0
LINE
  5
2B23
330
2DF8
100
AcDbEntity
  8
0
 62
     0
100
AcDbLine
 10
15.46495352404963
 20
-415.0080808012026
 30
0.0
 11
111.2999999999902
 21
-351.1182129619974
 31
0.0
  0
LINE
  5
2B24
330
2DF8
100
AcDbEntity
  8
0
 62
     0
100
AcDbLine
 10
10.96499223016508
 20
-415.0080808012026
 30
0.0
 11
111.2999999999902
 21
-348.1182464265839
 31
0.0
  0
LINE
  5
2B25
330
2DF8
100
AcDbEntity
  8
0
 62
     0
100
AcDbLine
 10
6.465030936276889
 20
-415.0080808012043
 30
0.0
 11
111.2999999999902
 21
-345.1182798911686
 31
0.0
  0
LINE
  5
2B26
330
2DF8
100
AcDbEntity
  8
0
 62
     0
100
AcDbLine
 10
1.965069642390516
 20
-415.0080808012043
 30
0.0
 11
111.2999999999883
 21
-342.1183133557515
 31
0.0
  0
LINE
  5
2B27
330
2DF8
100
AcDbEntity
  8
0
 62
     0
100
AcDbLine
 10
107.2874547197316
 20
-341.7933701764177
 30
0.0
 11
111.2999999999902
 21
-339.1183468203343
 31
0.0
  0
LINE
  5
2B28
330
2DF8
100
AcDbEntity
  8
0
 62
     0
100
AcDbLine
 10
-2.534891651488578
 20
-415.0080808012007
 30
0.0
 11
107.2874547197316
 21
-341.7933701764177
 31
0.0
  0
LINE
  5
2B29
330
2DF8
100
AcDbEntity
  8
0
 62
     0
100
AcDbLine
 10
102.787493425847
 20
-341.7933701764196
 30
0.0
 11
111.2999999999938
 21
-336.1183802849172
 31
0.0
  0
LINE
  5
2B2A
330
2DF8
100
AcDbEntity
  8
0
 62
     0
100
AcDbLine
 10
-7.034852945374949
 20
-415.0080808012026
 30
0.0
 11
102.787493425847
 21
-341.7933701764196
 31
0.0
  0
LINE
  5
2B2B
330
2DF8
100
AcDbEntity
  8
0
 62
     0
100
AcDbLine
 10
98.28753213196067
 20
-341.7933701764196
 30
0.0
 11
111.2999999999883
 21
-333.1184137495038
 31
0.0
  0
LINE
  5
2B2C
330
2DF8
100
AcDbEntity
  8
0
 62
     0
100
AcDbLine
 10
-11.53481423926314
 20
-415.0080808012026
 30
0.0
 11
98.28753213196067
 21
-341.7933701764196
 31
0.0
  0
LINE
  5
2B2D
330
2DF8
100
AcDbEntity
  8
0
 62
     0
100
AcDbLine
 10
93.78757083807249
 20
-341.7933701764214
 30
0.0
 11
111.299999999992
 21
-330.1184472140867
 31
0.0
  0
LINE
  5
2B2E
330
2DF8
100
AcDbEntity
  8
0
 62
     0
100
AcDbLine
 10
-16.03477553314951
 20
-415.0080808012026
 30
0.0
 11
93.78757083807249
 21
-341.7933701764214
 31
0.0
  0
LINE
  5
2B2F
330
2DF8
100
AcDbEntity
  8
0
 62
     0
100
AcDbLine
 10
89.28760954418976
 20
-341.7933701764177
 30
0.0
 11
111.2999999999902
 21
-327.1184806786696
 31
0.0
  0
LINE
  5
2B30
330
2DF8
100
AcDbEntity
  8
0
 62
     0
100
AcDbLine
 10
-20.53473682703407
 20
-415.0080808012026
 30
0.0
 11
89.28760954418976
 21
-341.7933701764177
 31
0.0
  0
LINE
  5
2B31
330
2DF8
100
AcDbEntity
  8
0
 62
     0
100
AcDbLine
 10
84.78764825030339
 20
-341.7933701764177
 30
0.0
 11
111.2999999999902
 21
-324.1185141432525
 31
0.0
  0
LINE
  5
2B32
330
2DF8
100
AcDbEntity
  8
0
 62
     0
100
AcDbLine
 10
-25.03469812092044
 20
-415.0080808012026
 30
0.0
 11
84.78764825030339
 21
-341.7933701764177
 31
0.0
  0
LINE
  5
2B33
330
2DF8
100
AcDbEntity
  8
0
 62
     0
100
AcDbLine
 10
80.28768695641884
 20
-341.7933701764177
 30
0.0
 11
111.2999999999883
 21
-321.1185476078372
 31
0.0
  0
LINE
  5
2B34
330
2DF8
100
AcDbEntity
  8
0
 62
     0
100
AcDbLine
 10
-29.53465941480863
 20
-415.0080808012043
 30
0.0
 11
80.28768695641884
 21
-341.7933701764177
 31
0.0
  0
LINE
  5
2B35
330
2DF8
100
AcDbEntity
  8
0
 62
     0
100
AcDbLine
 10
75.78772566253427
 20
-341.7933701764196
 30
0.0
 11
111.2999999999902
 21
-318.1185810724219
 31
0.0
  0
LINE
  5
2B36
330
2DF8
100
AcDbEntity
  8
0
 62
     0
100
AcDbLine
 10
-34.03462070868773
 20
-415.0080808012007
 30
0.0
 11
75.78772566253427
 21
-341.7933701764196
 31
0.0
  0
LINE
  5
2B37
330
2DF8
100
AcDbEntity
  8
0
 62
     0
100
AcDbLine
 10
71.28776436864609
 20
-341.7933701764196
 30
0.0
 11
111.299999999992
 21
-315.1186145370048
 31
0.0
  0
LINE
  5
2B38
330
2DF8
100
AcDbEntity
  8
0
 62
     0
100
AcDbLine
 10
-38.5345820025741
 20
-415.0080808012007
 30
0.0
 11
71.28776436864609
 21
-341.7933701764196
 31
0.0
  0
LINE
  5
2B39
330
2DF8
100
AcDbEntity
  8
0
 62
     0
100
AcDbLine
 10
66.78780307476336
 20
-341.7933701764159
 30
0.0
 11
111.2999999999883
 21
-312.1186480015877
 31
0.0
  0
LINE
  5
2B3A
330
2DF8
100
AcDbEntity
  8
0
 62
     0
100
AcDbLine
 10
-43.03454329646227
 20
-415.0080808012007
 30
0.0
 11
66.78780307476336
 21
-341.7933701764159
 31
0.0
  0
LINE
  5
2B3B
330
2DF8
100
AcDbEntity
  8
0
 62
     0
100
AcDbLine
 10
62.28784178087698
 20
-341.7933701764177
 30
0.0
 11
111.2999999999883
 21
-309.1186814661742
 31
0.0
  0
LINE
  5
2B3C
330
2DF8
100
AcDbEntity
  8
0
 62
     0
100
AcDbLine
 10
-47.53450459034682
 20
-415.0080808012026
 30
0.0
 11
62.28784178087698
 21
-341.7933701764177
 31
0.0
  0
LINE
  5
2B3D
330
2DF8
100
AcDbEntity
  8
0
 62
     0
100
AcDbLine
 10
57.78788048699244
 20
-341.7933701764196
 30
0.0
 11
111.2999999999902
 21
-306.1187149307571
 31
0.0
  0
LINE
  5
2B3E
330
2DF8
100
AcDbEntity
  8
0
 62
     0
100
AcDbLine
 10
-52.0344658842314
 20
-415.0080808012043
 30
0.0
 11
57.78788048699244
 21
-341.7933701764196
 31
0.0
  0
LINE
  5
2B3F
330
2DF8
100
AcDbEntity
  8
0
 62
     0
100
AcDbLine
 10
53.28791919310424
 20
-341.7933701764196
 30
0.0
 11
111.299999999992
 21
-303.1187483953399
 31
0.0
  0
LINE
  5
2B40
330
2DF8
100
AcDbEntity
  8
0
 62
     0
100
AcDbLine
 10
-56.53442717811959
 20
-415.0080808012026
 30
0.0
 11
53.28791919310424
 21
-341.7933701764196
 31
0.0
  0
LINE
  5
2B41
330
2DF8
100
AcDbEntity
  8
0
 62
     0
100
AcDbLine
 10
48.78795789922151
 20
-341.7933701764177
 30
0.0
 11
111.2999999999883
 21
-300.1187818599245
 31
0.0
  0
LINE
  5
2B42
330
2DF8
100
AcDbEntity
  8
0
 62
     0
100
AcDbLine
 10
-61.03438847200596
 20
-415.0080808012026
 30
0.0
 11
48.78795789922151
 21
-341.7933701764177
 31
0.0
  0
LINE
  5
2B43
330
2DF8
100
AcDbEntity
  8
0
 62
     0
100
AcDbLine
 10
44.28799660533331
 20
-341.7933701764214
 30
0.0
 11
111.299999999992
 21
-297.1188153245075
 31
0.0
  0
LINE
  5
2B44
330
2DF8
100
AcDbEntity
  8
0
 62
     0
100
AcDbLine
 10
-65.53434976588507
 20
-415.0080808012007
 30
0.0
 11
44.28799660533331
 21
-341.7933701764214
 31
0.0
  0
LINE
  5
2B45
330
2DF8
100
AcDbEntity
  8
0
 62
     0
100
AcDbLine
 10
39.78803531144876
 20
-341.7933701764196
 30
0.0
 11
111.2999999999883
 21
-294.118848789094
 31
0.0
  0
LINE
  5
2B46
330
2DF8
100
AcDbEntity
  8
0
 62
     0
100
AcDbLine
 10
-70.03431105977326
 20
-415.0080808012026
 30
0.0
 11
39.78803531144876
 21
-341.7933701764196
 31
0.0
  0
LINE
  5
2B47
330
2DF8
100
AcDbEntity
  8
0
 62
     0
100
AcDbLine
 10
35.28807401756059
 20
-341.7933701764196
 30
0.0
 11
111.2999999999902
 21
-291.1188822536751
 31
0.0
  0
LINE
  5
2B48
330
2DF8
100
AcDbEntity
  8
0
 62
     0
100
AcDbLine
 10
-74.53427235365961
 20
-415.0080808012026
 30
0.0
 11
35.28807401756059
 21
-341.7933701764196
 31
0.0
  0
LINE
  5
2B49
330
2DF8
100
AcDbEntity
  8
0
 62
     0
100
AcDbLine
 10
30.78811272367966
 20
-341.7933701764177
 30
0.0
 11
111.2999999999883
 21
-288.1189157182598
 31
0.0
  0
LINE
  5
2B4A
330
2DF8
100
AcDbEntity
  8
0
 62
     0
100
AcDbLine
 10
-79.03423364754599
 20
-415.0080808012007
 30
0.0
 11
30.78811272367966
 21
-341.7933701764177
 31
0.0
  0
LINE
  5
2B4B
330
2DF8
100
AcDbEntity
  8
0
 62
     0
100
AcDbLine
 10
26.28815142979147
 20
-341.7933701764196
 30
0.0
 11
111.299999999992
 21
-285.1189491828427
 31
0.0
  0
LINE
  5
2B4C
330
2DF8
100
AcDbEntity
  8
0
 62
     0
100
AcDbLine
 10
-83.53419494143055
 20
-415.0080808012007
 30
0.0
 11
26.28815142979147
 21
-341.7933701764196
 31
0.0
  0
LINE
  5
2B4D
330
2DF8
100
AcDbEntity
  8
0
 62
     0
100
AcDbLine
 10
21.78819013590691
 20
-341.7933701764177
 30
0.0
 11
111.299999999992
 21
-282.1189826474256
 31
0.0
  0
LINE
  5
2B4E
330
2DF8
100
AcDbEntity
  8
0
 62
     0
100
AcDbLine
 10
-88.03415623531689
 20
-415.0080808012026
 30
0.0
 11
21.78819013590691
 21
-341.7933701764177
 31
0.0
  0
LINE
  5
2B4F
330
2DF8
100
AcDbEntity
  8
0
 62
     0
100
AcDbLine
 10
17.28822884201872
 20
-341.7933701764196
 30
0.0
 11
111.2999999999902
 21
-279.1190161120121
 31
0.0
  0
LINE
  5
2B50
330
2DF8
100
AcDbEntity
  8
0
 62
     0
100
AcDbLine
 10
-92.53411752920509
 20
-415.0080808012043
 30
0.0
 11
17.28822884201872
 21
-341.7933701764196
 31
0.0
  0
LINE
  5
2B51
330
2DF8
100
AcDbEntity
  8
0
 62
     0
100
AcDbLine
 10
12.78826754813781
 20
-341.7933701764177
 30
0.0
 11
111.299999999992
 21
-276.1190495765932
 31
0.0
  0
LINE
  5
2B52
330
2DF8
100
AcDbEntity
  8
0
 62
     0
100
AcDbLine
 10
-97.03407882308965
 20
-415.0080808012043
 30
0.0
 11
12.78826754813781
 21
-341.7933701764177
 31
0.0
  0
LINE
  5
2B53
330
2DF8
100
AcDbEntity
  8
0
 62
     0
100
AcDbLine
 10
8.288306254249619
 20
-341.7933701764177
 30
0.0
 11
111.2999999999902
 21
-273.1190830411779
 31
0.0
  0
LINE
  5
2B54
330
2DF8
100
AcDbEntity
  8
0
 62
     0
100
AcDbLine
 10
-101.5340401169706
 20
-415.0080808011988
 30
0.0
 11
8.288306254249619
 21
-341.7933701764177
 31
0.0
  0
LINE
  5
2B55
330
2DF8
100
AcDbEntity
  8
0
 62
     0
100
AcDbLine
 10
3.788344960363247
 20
-341.7933701764196
 30
0.0
 11
111.2999999999902
 21
-270.1191165057626
 31
0.0
  0
LINE
  5
2B56
330
2DF8
100
AcDbEntity
  8
0
 62
     0
100
AcDbLine
 10
-106.0340014108642
 20
-415.0080808012043
 30
0.0
 11
3.788344960363247
 21
-341.7933701764196
 31
0.0
  0
LINE
  5
2B57
330
2DF8
100
AcDbEntity
  8
0
 62
     0
100
AcDbLine
 10
-0.7116163335194871
 20
-341.7933701764177
 30
0.0
 11
111.2999999999902
 21
-267.1191499703473
 31
0.0
  0
LINE
  5
2B58
330
2DF8
100
AcDbEntity
  8
0
 62
     0
100
AcDbLine
 10
-110.5339627047433
 20
-415.0080808012026
 30
0.0
 11
-0.7116163335194871
 21
-341.7933701764177
 31
0.0
  0
LINE
  5
2B59
330
2DF8
100
AcDbEntity
  8
0
 62
     0
100
AcDbLine
 10
-5.211577627407676
 20
-341.7933701764196
 30
0.0
 11
111.299999999992
 21
-264.1191834349303
 31
0.0
  0
LINE
  5
2B5A
330
2DF8
100
AcDbEntity
  8
0
 62
     0
100
AcDbLine
 10
-111.3000000000047
 20
-412.5188044918976
 30
0.0
 11
-5.211577627407676
 21
-341.7933701764196
 31
0.0
  0
LINE
  5
2B5B
330
2DF8
100
AcDbEntity
  8
0
 62
     0
100
AcDbLine
 10
-9.711538921294048
 20
-341.7933701764177
 30
0.0
 11
111.2999999999883
 21
-261.1192168995131
 31
0.0
  0
LINE
  5
2B5C
330
2DF8
100
AcDbEntity
  8
0
 62
     0
100
AcDbLine
 10
-111.3000000000083
 20
-409.5188379564805
 30
0.0
 11
-9.711538921294048
 21
-341.7933701764177
 31
0.0
  0
LINE
  5
2B5D
330
2DF8
100
AcDbEntity
  8
0
 62
     0
100
AcDbLine
 10
-14.2115002151786
 20
-341.7933701764196
 30
0.0
 11
111.2999999999902
 21
-258.1192503640977
 31
0.0
  0
LINE
  5
2B5E
330
2DF8
100
AcDbEntity
  8
0
 62
     0
100
AcDbLine
 10
-111.3000000000065
 20
-406.5188714210652
 30
0.0
 11
-14.2115002151786
 21
-341.7933701764196
 31
0.0
  0
LINE
  5
2B5F
330
2DF8
100
AcDbEntity
  8
0
 62
     0
100
AcDbLine
 10
-18.71146150906134
 20
-341.7933701764196
 30
0.0
 11
111.2999999999902
 21
-255.1192838286843
 31
0.0
  0
LINE
  5
2B60
330
2DF8
100
AcDbEntity
  8
0
 62
     0
100
AcDbLine
 10
-111.3000000000065
 20
-403.5189048856517
 30
0.0
 11
-18.71146150906134
 21
-341.7933701764196
 31
0.0
  0
LINE
  5
2B61
330
2DF8
100
AcDbEntity
  8
0
 62
     0
100
AcDbLine
 10
-23.21142280295135
 20
-341.7933701764214
 30
0.0
 11
111.2999999999902
 21
-252.1193172932652
 31
0.0
  0
LINE
  5
2B62
330
2DF8
100
AcDbEntity
  8
0
 62
     0
100
AcDbLine
 10
-111.3000000000065
 20
-400.5189383502329
 30
0.0
 11
-23.21142280295135
 21
-341.7933701764214
 31
0.0
  0
LINE
  5
2B63
330
2DF8
100
AcDbEntity
  8
0
 62
     0
100
AcDbLine
 10
-27.7113840968359
 20
-341.7933701764177
 30
0.0
 11
111.2999999999902
 21
-249.1193507578482
 31
0.0
  0
LINE
  5
2B64
330
2DF8
100
AcDbEntity
  8
0
 62
     0
100
AcDbLine
 10
-111.3000000000083
 20
-397.5189718148176
 30
0.0
 11
-27.7113840968359
 21
-341.7933701764177
 31
0.0
  0
LINE
  5
2B65
330
2DF8
100
AcDbEntity
  8
0
 62
     0
100
AcDbLine
 10
-32.21134539072045
 20
-341.7933701764177
 30
0.0
 11
111.2999999999902
 21
-246.1193842224311
 31
0.0
  0
LINE
  5
2B66
330
2DF8
100
AcDbEntity
  8
0
 62
     0
100
AcDbLine
 10
-111.3000000000065
 20
-394.5190052793987
 30
0.0
 11
-32.21134539072045
 21
-341.7933701764177
 31
0.0
  0
LINE
  5
2B67
330
2DF8
100
AcDbEntity
  8
0
 62
     0
100
AcDbLine
 10
-36.71130668460501
 20
-341.7933701764177
 30
0.0
 11
111.2999999999883
 21
-243.1194176870176
 31
0.0
  0
LINE
  5
2B68
330
2DF8
100
AcDbEntity
  8
0
 62
     0
100
AcDbLine
 10
-111.3000000000083
 20
-391.5190387439852
 30
0.0
 11
-36.71130668460501
 21
-341.7933701764177
 31
0.0
  0
LINE
  5
2B69
330
2DF8
100
AcDbEntity
  8
0
 62
     0
100
AcDbLine
 10
-41.21126797849137
 20
-341.7933701764196
 30
0.0
 11
111.2999999999847
 21
-240.1194511516042
 31
0.0
  0
LINE
  5
2B6A
330
2DF8
100
AcDbEntity
  8
0
 62
     0
100
AcDbLine
 10
-111.3000000000083
 20
-388.5190722085681
 30
0.0
 11
-41.21126797849137
 21
-341.7933701764196
 31
0.0
  0
LINE
  5
2B6B
330
2DF8
100
AcDbEntity
  8
0
 62
     0
100
AcDbLine
 10
-45.71122927237775
 20
-341.7933701764196
 30
0.0
 11
111.2999999999883
 21
-237.1194846161852
 31
0.0
  0
LINE
  5
2B6C
330
2DF8
100
AcDbEntity
  8
0
 62
     0
100
AcDbLine
 10
-111.3000000000065
 20
-385.5191056731509
 30
0.0
 11
-45.71122927237775
 21
-341.7933701764196
 31
0.0
  0
LINE
  5
2B6D
330
2DF8
100
AcDbEntity
  8
0
 62
     0
100
AcDbLine
 10
-50.21119056625867
 20
-341.7933701764159
 30
0.0
 11
111.2999999999865
 21
-234.1195180807699
 31
0.0
  0
LINE
  5
2B6E
330
2DF8
100
AcDbEntity
  8
0
 62
     0
100
AcDbLine
 10
-111.3000000000065
 20
-382.5191391377357
 30
0.0
 11
-50.21119056625867
 21
-341.7933701764159
 31
0.0
  0
LINE
  5
2B6F
330
2DF8
100
AcDbEntity
  8
0
 62
     0
100
AcDbLine
 10
-54.71115186014866
 20
-341.7933701764196
 30
0.0
 11
111.2999999999883
 21
-231.1195515453528
 31
0.0
  0
LINE
  5
2B70
330
2DF8
100
AcDbEntity
  8
0
 62
     0
100
AcDbLine
 10
-111.3000000000065
 20
-379.5191726023186
 30
0.0
 11
-54.71115186014866
 21
-341.7933701764196
 31
0.0
  0
LINE
  5
2B71
330
2DF8
100
AcDbEntity
  8
0
 62
     0
100
AcDbLine
 10
-59.21111315403322
 20
-341.7933701764196
 30
0.0
 11
111.2999999999847
 21
-228.1195850099393
 31
0.0
  0
LINE
  5
2B72
330
2DF8
100
AcDbEntity
  8
0
 62
     0
100
AcDbLine
 10
-111.3000000000083
 20
-376.5192060669051
 30
0.0
 11
-59.21111315403322
 21
-341.7933701764196
 31
0.0
  0
LINE
  5
2B73
330
2DF8
100
AcDbEntity
  8
0
 62
     0
100
AcDbLine
 10
-63.7110744479196
 20
-341.7933701764196
 30
0.0
 11
111.2999999999883
 21
-225.1196184745222
 31
0.0
  0
LINE
  5
2B74
330
2DF8
100
AcDbEntity
  8
0
 62
     0
100
AcDbLine
 10
-111.3000000000065
 20
-373.5192395314863
 30
0.0
 11
-63.7110744479196
 21
-341.7933701764196
 31
0.0
  0
LINE
  5
2B75
330
2DF8
100
AcDbEntity
  8
0
 62
     0
100
AcDbLine
 10
-68.21103574180233
 20
-341.7933701764159
 30
0.0
 11
111.2999999999883
 21
-222.1196519391033
 31
0.0
  0
LINE
  5
2B76
330
2DF8
100
AcDbEntity
  8
0
 62
     0
100
AcDbLine
 10
-111.3000000000083
 20
-370.5192729960709
 30
0.0
 11
-68.21103574180233
 21
-341.7933701764159
 31
0.0
  0
LINE
  5
2B77
330
2DF8
100
AcDbEntity
  8
0
 62
     0
100
AcDbLine
 10
-72.71099703569234
 20
-341.7933701764196
 30
0.0
 11
111.2999999999865
 21
-219.1196854036898
 31
0.0
  0
LINE
  5
2B78
330
2DF8
100
AcDbEntity
  8
0
 62
     0
100
AcDbLine
 10
-111.3000000000083
 20
-367.5193064606556
 30
0.0
 11
-72.71099703569234
 21
-341.7933701764196
 31
0.0
  0
LINE
  5
2B79
330
2DF8
100
AcDbEntity
  8
0
 62
     0
100
AcDbLine
 10
-77.21095832957506
 20
-341.7933701764196
 30
0.0
 11
111.2999999999883
 21
-216.1197188682727
 31
0.0
  0
LINE
  5
2B7A
330
2DF8
100
AcDbEntity
  8
0
 62
     0
100
AcDbLine
 10
-111.3000000000047
 20
-364.5193399252385
 30
0.0
 11
-77.21095832957506
 21
-341.7933701764196
 31
0.0
  0
LINE
  5
2B7B
330
2DF8
100
AcDbEntity
  8
0
 62
     0
100
AcDbLine
 10
-81.71091962345963
 20
-341.7933701764196
 30
0.0
 11
111.2999999999883
 21
-213.1197523328574
 31
0.0
  0
LINE
  5
2B7C
330
2DF8
100
AcDbEntity
  8
0
 62
     0
100
AcDbLine
 10
-111.3000000000065
 20
-361.5193733898232
 30
0.0
 11
-81.71091962345963
 21
-341.7933701764196
 31
0.0
  0
LINE
  5
2B7D
330
2DF8
100
AcDbEntity
  8
0
 62
     0
100
AcDbLine
 10
-86.210880917346
 20
-341.7933701764177
 30
0.0
 11
111.2999999999865
 21
-210.1197857974403
 31
0.0
  0
LINE
  5
2B7E
330
2DF8
100
AcDbEntity
  8
0
 62
     0
100
AcDbLine
 10
-111.3000000000065
 20
-358.5194068544042
 30
0.0
 11
-86.210880917346
 21
-341.7933701764177
 31
0.0
  0
LINE
  5
2B7F
330
2DF8
100
AcDbEntity
  8
0
 62
     0
100
AcDbLine
 10
-90.7108422112342
 20
-341.7933701764196
 30
0.0
 11
111.2999999999847
 21
-207.1198192620232
 31
0.0
  0
LINE
  5
2B80
330
2DF8
100
AcDbEntity
  8
0
 62
     0
100
AcDbLine
 10
-111.3000000000083
 20
-355.5194403189889
 30
0.0
 11
-90.7108422112342
 21
-341.7933701764196
 31
0.0
  0
LINE
  5
2B81
330
2DF8
100
AcDbEntity
  8
0
 62
     0
100
AcDbLine
 10
-95.21080350511692
 20
-341.7933701764177
 30
0.0
 11
111.2999999999883
 21
-204.1198527266078
 31
0.0
  0
LINE
  5
2B82
330
2DF8
100
AcDbEntity
  8
0
 62
     0
100
AcDbLine
 10
-111.3000000000047
 20
-352.5194737835736
 30
0.0
 11
-95.21080350511692
 21
-341.7933701764177
 31
0.0
  0
LINE
  5
2B83
330
2DF8
100
AcDbEntity
  8
0
 62
     0
100
AcDbLine
 10
-99.71076479900332
 20
-341.7933701764196
 30
0.0
 11
111.2999999999847
 21
-201.1198861911926
 31
0.0
  0
LINE
  5
2B84
330
2DF8
100
AcDbEntity
  8
0
 62
     0
100
AcDbLine
 10
-111.3000000000083
 20
-349.5195072481583
 30
0.0
 11
-99.71076479900332
 21
-341.7933701764196
 31
0.0
  0
LINE
  5
2B85
330
2DF8
100
AcDbEntity
  8
0
 62
     0
100
AcDbLine
 10
-104.2107260928915
 20
-341.7933701764196
 30
0.0
 11
111.2999999999865
 21
-198.1199196557753
 31
0.0
  0
LINE
  5
2B86
330
2DF8
100
AcDbEntity
  8
0
 62
     0
100
AcDbLine
 10
-111.3000000000065
 20
-346.5195407127412
 30
0.0
 11
-104.2107260928915
 21
-341.7933701764196
 31
0.0
  0
LINE
  5
2B87
330
2DF8
100
AcDbEntity
  8
0
 62
     0
100
AcDbLine
 10
-104.5000000000072
 20
-338.9862524199689
 30
0.0
 11
111.2999999999847
 21
-195.1199531203601
 31
0.0
  0
LINE
  5
2B88
330
2DF8
100
AcDbEntity
  8
0
 62
     0
100
AcDbLine
 10
-111.3000000000083
 20
-343.5195741773242
 30
0.0
 11
-104.5000000000072
 21
-338.9862524199689
 31
0.0
  0
LINE
  5
2B89
330
2DF8
100
AcDbEntity
  8
0
 62
     0
100
AcDbLine
 10
-104.5000000000109
 20
-335.9862858845553
 30
0.0
 11
111.2999999999865
 21
-192.119986584943
 31
0.0
  0
LINE
  5
2B8A
330
2DF8
100
AcDbEntity
  8
0
 62
     0
100
AcDbLine
 10
-111.3000000000065
 20
-340.5196076419088
 30
0.0
 11
-104.5000000000109
 21
-335.9862858845553
 31
0.0
  0
LINE
  5
2B8B
330
2DF8
100
AcDbEntity
  8
0
 62
     0
100
AcDbLine
 10
-104.500000000009
 20
-332.9863193491383
 30
0.0
 11
111.2999999999865
 21
-189.1200200495277
 31
0.0
  0
LINE
  5
2B8C
330
2DF8
100
AcDbEntity
  8
0
 62
     0
100
AcDbLine
 10
-111.3000000000102
 20
-337.5196411064953
 30
0.0
 11
-104.500000000009
 21
-332.9863193491383
 31
0.0
  0
LINE
  5
2B8D
330
2DF8
100
AcDbEntity
  8
0
 62
     0
100
AcDbLine
 10
-104.5000000000072
 20
-329.9863528137212
 30
0.0
 11
111.2999999999865
 21
-186.1200535141105
 31
0.0
  0
LINE
  5
2B8E
330
2DF8
100
AcDbEntity
  8
0
 62
     0
100
AcDbLine
 10
-111.3000000000083
 20
-334.5196745710764
 30
0.0
 11
-104.5000000000072
 21
-329.9863528137212
 31
0.0
  0
LINE
  5
2B8F
330
2DF8
100
AcDbEntity
  8
0
 62
     0
100
AcDbLine
 10
-104.5000000000072
 20
-326.9863862783059
 30
0.0
 11
111.2999999999883
 21
-183.1200869786935
 31
0.0
  0
LINE
  5
2B90
330
2DF8
100
AcDbEntity
  8
0
 62
     0
100
AcDbLine
 10
-111.3000000000047
 20
-331.5197080356593
 30
0.0
 11
-104.5000000000072
 21
-326.9863862783059
 31
0.0
  0
LINE
  5
2B91
330
2DF8
100
AcDbEntity
  8
0
 62
     0
100
AcDbLine
 10
-104.5000000000072
 20
-323.9864197428888
 30
0.0
 11
111.2999999999865
 21
-180.12012044328
 31
0.0
  0
LINE
  5
2B92
330
2DF8
100
AcDbEntity
  8
0
 62
     0
100
AcDbLine
 10
-111.3000000000083
 20
-328.519741500244
 30
0.0
 11
-104.5000000000072
 21
-323.9864197428888
 31
0.0
  0
LINE
  5
2B93
330
2DF8
100
AcDbEntity
  8
0
 62
     0
100
AcDbLine
 10
-104.500000000009
 20
-320.9864532074752
 30
0.0
 11
111.2999999999865
 21
-177.1201539078629
 31
0.0
  0
LINE
  5
2B94
330
2DF8
100
AcDbEntity
  8
0
 62
     0
100
AcDbLine
 10
-111.3000000000065
 20
-325.5197749648287
 30
0.0
 11
-104.500000000009
 21
-320.9864532074752
 31
0.0
  0
LINE
  5
2B95
330
2DF8
100
AcDbEntity
  8
0
 62
     0
100
AcDbLine
 10
-104.5000000000072
 20
-317.9864866720564
 30
0.0
 11
111.2999999999865
 21
-174.1201873724476
 31
0.0
  0
LINE
  5
2B96
330
2DF8
100
AcDbEntity
  8
0
 62
     0
100
AcDbLine
 10
-111.3000000000083
 20
-322.5198084294134
 30
0.0
 11
-104.5000000000072
 21
-317.9864866720564
 31
0.0
  0
LINE
  5
2B97
330
2DF8
100
AcDbEntity
  8
0
 62
     0
100
AcDbLine
 10
-104.500000000009
 20
-314.9865201366409
 30
0.0
 11
111.2999999999865
 21
-171.1202208370287
 31
0.0
  0
LINE
  5
2B98
330
2DF8
100
AcDbEntity
  8
0
 62
     0
100
AcDbLine
 10
-111.3000000000065
 20
-319.5198418939944
 30
0.0
 11
-104.500000000009
 21
-314.9865201366409
 31
0.0
  0
LINE
  5
2B99
330
2DF8
100
AcDbEntity
  8
0
 62
     0
100
AcDbLine
 10
-104.500000000009
 20
-311.9865536012221
 30
0.0
 11
111.2999999999847
 21
-168.1202543016134
 31
0.0
  0
LINE
  5
2B9A
330
2DF8
100
AcDbEntity
  8
0
 62
     0
100
AcDbLine
 10
-111.3000000000102
 20
-316.5198753585792
 30
0.0
 11
-104.500000000009
 21
-311.9865536012221
 31
0.0
  0
LINE
  5
2B9B
330
2DF8
100
AcDbEntity
  8
0
 62
     0
100
AcDbLine
 10
-104.5000000000072
 20
-308.9865870658068
 30
0.0
 11
111.2999999999865
 21
-165.1202877661981
 31
0.0
  0
LINE
  5
2B9C
330
2DF8
100
AcDbEntity
  8
0
 62
     0
100
AcDbLine
 10
-111.3000000000065
 20
-313.519908823162
 30
0.0
 11
-104.5000000000072
 21
-308.9865870658068
 31
0.0
  0
LINE
  5
2B9D
330
2DF8
100
AcDbEntity
  8
0
 62
     0
100
AcDbLine
 10
-104.5000000000072
 20
-305.9866205303933
 30
0.0
 11
111.2999999999865
 21
-162.1203212307828
 31
0.0
  0
LINE
  5
2B9E
330
2DF8
100
AcDbEntity
  8
0
 62
     0
100
AcDbLine
 10
-111.3000000000047
 20
-310.5199422877467
 30
0.0
 11
-104.5000000000072
 21
-305.9866205303933
 31
0.0
  0
LINE
  5
2B9F
330
2DF8
100
AcDbEntity
  8
0
 62
     0
100
AcDbLine
 10
-104.5000000000072
 20
-302.9866539949744
 30
0.0
 11
111.2999999999865
 21
-159.1203546953656
 31
0.0
  0
LINE
  5
2BA0
330
2DF8
100
AcDbEntity
  8
0
 62
     0
100
AcDbLine
 10
-111.3000000000065
 20
-307.5199757523315
 30
0.0
 11
-104.5000000000072
 21
-302.9866539949744
 31
0.0
  0
LINE
  5
2BA1
330
2DF8
100
AcDbEntity
  8
0
 62
     0
100
AcDbLine
 10
-104.500000000009
 20
-299.9866874595591
 30
0.0
 11
111.2999999999865
 21
-156.1203881599467
 31
0.0
  0
LINE
  5
2BA2
330
2DF8
100
AcDbEntity
  8
0
 62
     0
100
AcDbLine
 10
-111.3000000000065
 20
-304.5200092169125
 30
0.0
 11
-104.500000000009
 21
-299.9866874595591
 31
0.0
  0
LINE
  5
2BA3
330
2DF8
100
AcDbEntity
  8
0
 62
     0
100
AcDbLine
 10
-104.5000000000072
 20
-296.986720924142
 30
0.0
 11
111.2999999999865
 21
-153.1204216245332
 31
0.0
  0
LINE
  5
2BA4
330
2DF8
100
AcDbEntity
  8
0
 62
     0
100
AcDbLine
 10
-111.3000000000065
 20
-301.5200426814991
 30
0.0
 11
-104.5000000000072
 21
-296.986720924142
 31
0.0
  0
LINE
  5
2BA5
330
2DF8
100
AcDbEntity
  8
0
 62
     0
100
AcDbLine
 10
-104.500000000009
 20
-293.9867543887284
 30
0.0
 11
111.2999999999865
 21
-150.1204550891161
 31
0.0
  0
LINE
  5
2BA6
330
2DF8
100
AcDbEntity
  8
0
 62
     0
100
AcDbLine
 10
-111.3000000000065
 20
-298.5200761460819
 30
0.0
 11
-104.500000000009
 21
-293.9867543887284
 31
0.0
  0
LINE
  5
2BA7
330
2DF8
100
AcDbEntity
  8
0
 62
     0
100
AcDbLine
 10
-104.500000000009
 20
-290.9867878533114
 30
0.0
 11
109.9906742225102
 21
-147.9933701764203
 31
0.0
  0
LINE
  5
2BA8
330
2DF8
100
AcDbEntity
  8
0
 62
     0
100
AcDbLine
 10
-111.3000000000083
 20
-295.5201096106666
 30
0.0
 11
-104.500000000009
 21
-290.9867878533114
 31
0.0
  0
LINE
  5
2BA9
330
2DF8
100
AcDbEntity
  8
0
 62
     0
100
AcDbLine
 10
-104.500000000009
 20
-287.9868213178942
 30
0.0
 11
105.4907129286275
 21
-147.9933701764184
 31
0.0
  0
LINE
  5
2BAA
330
2DF8
100
AcDbEntity
  8
0
 62
     0
100
AcDbLine
 10
-111.3000000000065
 20
-292.5201430752477
 30
0.0
 11
-104.500000000009
 21
-287.9868213178942
 31
0.0
  0
LINE
  5
2BAB
330
2DF8
100
AcDbEntity
  8
0
 62
     0
100
AcDbLine
 10
-104.5000000000072
 20
-284.9868547824789
 30
0.0
 11
100.9907516347393
 21
-147.9933701764221
 31
0.0
  0
LINE
  5
2BAC
330
2DF8
100
AcDbEntity
  8
0
 62
     0
100
AcDbLine
 10
-111.3000000000065
 20
-289.5201765398342
 30
0.0
 11
-104.5000000000072
 21
-284.9868547824789
 31
0.0
  0
LINE
  5
2BAD
330
2DF8
100
AcDbEntity
  8
0
 62
     0
100
AcDbLine
 10
-104.5000000000109
 20
-281.9868882470655
 30
0.0
 11
96.49079034085298
 21
-147.9933701764221
 31
0.0
  0
LINE
  5
2BAE
330
2DF8
100
AcDbEntity
  8
0
 62
     0
100
AcDbLine
 10
-111.3000000000083
 20
-286.5202100044188
 30
0.0
 11
-104.5000000000109
 21
-281.9868882470655
 31
0.0
  0
LINE
  5
2BAF
330
2DF8
100
AcDbEntity
  8
0
 62
     0
100
AcDbLine
 10
-104.500000000009
 20
-278.9869217116466
 30
0.0
 11
91.9908290469684
 21
-147.9933701764221
 31
0.0
  0
LINE
  5
2BB0
330
2DF8
100
AcDbEntity
  8
0
 62
     0
100
AcDbLine
 10
-111.3000000000083
 20
-283.5202434690018
 30
0.0
 11
-104.500000000009
 21
-278.9869217116466
 31
0.0
  0
LINE
  5
2BB1
330
2DF8
100
AcDbEntity
  8
0
 62
     0
100
AcDbLine
 10
-104.5000000000072
 20
-275.9869551762295
 30
0.0
 11
87.49086775308205
 21
-147.9933701764203
 31
0.0
  0
LINE
  5
2BB2
330
2DF8
100
AcDbEntity
  8
0
 62
     0
100
AcDbLine
 10
-111.3000000000065
 20
-280.5202769335847
 30
0.0
 11
-104.5000000000072
 21
-275.9869551762295
 31
0.0
  0
LINE
  5
2BB3
330
2DF8
100
AcDbEntity
  8
0
 62
     0
100
AcDbLine
 10
-104.500000000009
 20
-272.9869886408143
 30
0.0
 11
82.99090645919568
 21
-147.9933701764221
 31
0.0
  0
LINE
  5
2BB4
330
2DF8
100
AcDbEntity
  8
0
 62
     0
100
AcDbLine
 10
-111.3000000000065
 20
-277.5203103981676
 30
0.0
 11
-104.500000000009
 21
-272.9869886408143
 31
0.0
  0
LINE
  5
2BB5
330
2DF8
100
AcDbEntity
  8
0
 62
     0
100
AcDbLine
 10
-104.500000000009
 20
-269.987022105397
 30
0.0
 11
78.49094516531113
 21
-147.9933701764203
 31
0.0
  0
LINE
  5
2BB6
330
2DF8
100
AcDbEntity
  8
0
 62
     0
100
AcDbLine
 10
-111.3000000000083
 20
-274.5203438627524
 30
0.0
 11
-104.5000000000109
 21
-269.9870221053989
 31
0.0
  0
LINE
  5
2BB7
330
2DF8
100
AcDbEntity
  8
0
 62
     0
100
AcDbLine
 10
-104.500000000009
 20
-266.9870555699818
 30
0.0
 11
73.99098387142656
 21
-147.9933701764221
 31
0.0
  0
LINE
  5
2BB8
330
2DF8
100
AcDbEntity
  8
0
 62
     0
100
AcDbLine
 10
-111.3000000000065
 20
-271.520377327337
 30
0.0
 11
-104.500000000009
 21
-266.9870555699818
 31
0.0
  0
LINE
  5
2BB9
330
2DF8
100
AcDbEntity
  8
0
 62
     0
100
AcDbLine
 10
-104.500000000009
 20
-263.9870890345646
 30
0.0
 11
69.49102257753839
 21
-147.9933701764221
 31
0.0
  0
LINE
  5
2BBA
330
2DF8
100
AcDbEntity
  8
0
 62
     0
100
AcDbLine
 10
-111.3000000000083
 20
-268.5204107919199
 30
0.0
 11
-104.500000000009
 21
-263.9870890345646
 31
0.0
  0
LINE
  5
2BBB
330
2DF8
100
AcDbEntity
  8
0
 62
     0
100
AcDbLine
 10
-104.5000000000109
 20
-260.9871224991493
 30
0.0
 11
64.99106128365565
 21
-147.9933701764184
 31
0.0
  0
LINE
  5
2BBC
330
2DF8
100
AcDbEntity
  8
0
 62
     0
100
AcDbLine
 10
-111.3000000000083
 20
-265.5204442565028
 30
0.0
 11
-104.5000000000109
 21
-260.9871224991493
 31
0.0
  0
LINE
  5
2BBD
330
2DF8
100
AcDbEntity
  8
0
 62
     0
100
AcDbLine
 10
-104.500000000009
 20
-257.9871559637323
 30
0.0
 11
60.49109998976927
 21
-147.9933701764203
 31
0.0
  0
LINE
  5
2BBE
330
2DF8
100
AcDbEntity
  8
0
 62
     0
100
AcDbLine
 10
-111.3000000000083
 20
-262.5204777210893
 30
0.0
 11
-104.500000000009
 21
-257.9871559637323
 31
0.0
  0
LINE
  5
2BBF
330
2DF8
100
AcDbEntity
  8
0
 62
     0
100
AcDbLine
 10
-104.5000000000054
 20
-254.9871894283169
 30
0.0
 11
55.99113869588655
 21
-147.9933701764203
 31
0.0
  0
LINE
  5
2BC0
330
2DF8
100
AcDbEntity
  8
0
 62
     0
100
AcDbLine
 10
-111.3000000000065
 20
-259.5205111856722
 30
0.0
 11
-104.500000000009
 21
-254.9871894283187
 31
0.0
  0
LINE
  5
2BC1
330
2DF8
100
AcDbEntity
  8
0
 62
     0
100
AcDbLine
 10
-104.500000000009
 20
-251.9872228928998
 30
0.0
 11
51.49117740199653
 21
-147.9933701764221
 31
0.0
  0
LINE
  5
2BC2
330
2DF8
100
AcDbEntity
  8
0
 62
     0
100
AcDbLine
 10
-111.3000000000047
 20
-256.520544650255
 30
0.0
 11
-104.500000000009
 21
-251.9872228928998
 31
0.0
  0
LINE
  5
2BC3
330
2DF8
100
AcDbEntity
  8
0
 62
     0
100
AcDbLine
 10
-104.5000000000072
 20
-248.9872563574827
 30
0.0
 11
46.9912161081138
 21
-147.9933701764203
 31
0.0
  0
LINE
  5
2BC4
330
2DF8
100
AcDbEntity
  8
0
 62
     0
100
AcDbLine
 10
-111.3000000000083
 20
-253.5205781148379
 30
0.0
 11
-104.5000000000109
 21
-248.9872563574845
 31
0.0
  0
LINE
  5
2BC5
330
2DF8
100
AcDbEntity
  8
0
 62
     0
100
AcDbLine
 10
-104.500000000009
 20
-245.9872898220692
 30
0.0
 11
42.49125481422743
 21
-147.9933701764203
 31
0.0
  0
LINE
  5
2BC6
330
2DF8
100
AcDbEntity
  8
0
 62
     0
100
AcDbLine
 10
-111.3000000000047
 20
-250.5206115794226
 30
0.0
 11
-104.500000000009
 21
-245.9872898220692
 31
0.0
  0
LINE
  5
2BC7
330
2DF8
100
AcDbEntity
  8
0
 62
     0
100
AcDbLine
 10
-104.5000000000072
 20
-242.9873232866521
 30
0.0
 11
37.99129352034289
 21
-147.9933701764203
 31
0.0
  0
LINE
  5
2BC8
330
2DF8
100
AcDbEntity
  8
0
 62
     0
100
AcDbLine
 10
-111.3000000000083
 20
-247.5206450440073
 30
0.0
 11
-104.5000000000109
 21
-242.9873232866539
 31
0.0
  0
LINE
  5
2BC9
330
2DF8
100
AcDbEntity
  8
0
 62
     0
100
AcDbLine
 10
-104.5000000000109
 20
-239.9873567512368
 30
0.0
 11
33.49133222645287
 21
-147.9933701764221
 31
0.0
  0
LINE
  5
2BCA
330
2DF8
100
AcDbEntity
  8
0
 62
     0
100
AcDbLine
 10
-111.3000000000065
 20
-244.5206785085902
 30
0.0
 11
-104.5000000000127
 21
-239.9873567512386
 31
0.0
  0
LINE
  5
2BCB
330
2DF8
100
AcDbEntity
  8
0
 62
     0
100
AcDbLine
 10
-104.5000000000072
 20
-236.9873902158179
 30
0.0
 11
28.99137093257195
 21
-147.9933701764203
 31
0.0
  0
LINE
  5
2BCC
330
2DF8
100
AcDbEntity
  8
0
 62
     0
100
AcDbLine
 10
-111.3000000000083
 20
-241.5207119731749
 30
0.0
 11
-104.5000000000109
 21
-236.9873902158197
 31
0.0
  0
LINE
  5
2BCD
330
2DF8
100
AcDbEntity
  8
0
 62
     0
100
AcDbLine
 10
-104.500000000009
 20
-233.9874236804044
 30
0.0
 11
24.49140963868559
 21
-147.9933701764221
 31
0.0
  0
LINE
  5
2BCE
330
2DF8
100
AcDbEntity
  8
0
 62
     0
100
AcDbLine
 10
-111.3000000000047
 20
-238.5207454377578
 30
0.0
 11
-104.5000000000109
 21
-233.9874236804062
 31
0.0
  0
LINE
  5
2BCF
330
2DF8
100
AcDbEntity
  8
0
 62
     0
100
AcDbLine
 10
-104.500000000009
 20
-230.9874571449873
 30
0.0
 11
19.99144834480103
 21
-147.9933701764184
 31
0.0
  0
LINE
  5
2BD0
330
2DF8
100
AcDbEntity
  8
0
 62
     0
100
AcDbLine
 10
-111.3000000000102
 20
-235.5207789023425
 30
0.0
 11
-104.5000000000127
 21
-230.9874571449891
 31
0.0
  0
LINE
  5
2BD1
330
2DF8
100
AcDbEntity
  8
0
 62
     0
100
AcDbLine
 10
-104.5000000000109
 20
-227.987490609572
 30
0.0
 11
15.49148705091466
 21
-147.9933701764203
 31
0.0
  0
LINE
  5
2BD2
330
2DF8
100
AcDbEntity
  8
0
 62
     0
100
AcDbLine
 10
-111.3000000000065
 20
-232.5208123669254
 30
0.0
 11
-104.5000000000127
 21
-227.9874906095738
 31
0.0
  0
LINE
  5
2BD3
330
2DF8
100
AcDbEntity
  8
0
 62
     0
100
AcDbLine
 10
-104.5000000000072
 20
-224.9875240741549
 30
0.0
 11
10.9915257570301
 21
-147.9933701764203
 31
0.0
  0
LINE
  5
2BD4
330
2DF8
100
AcDbEntity
  8
0
 62
     0
100
AcDbLine
 10
-111.3000000000083
 20
-229.5208458315101
 30
0.0
 11
-104.5000000000109
 21
-224.9875240741567
 31
0.0
  0
LINE
  5
2BD5
330
2DF8
100
AcDbEntity
  8
0
 62
     0
100
AcDbLine
 10
-104.5000000000072
 20
-221.9875575387359
 30
0.0
 11
6.491564463145549
 21
-147.9933701764184
 31
0.0
  0
LINE
  5
2BD6
330
2DF8
100
AcDbEntity
  8
0
 62
     0
100
AcDbLine
 10
-111.3000000000065
 20
-226.520879296093
 30
0.0
 11
-104.5000000000127
 21
-221.9875575387414
 31
0.0
  0
LINE
  5
2BD7
330
2DF8
100
AcDbEntity
  8
0
 62
     0
100
AcDbLine
 10
-104.500000000009
 20
-218.9875910033225
 30
0.0
 11
1.991603169255539
 21
-147.9933701764221
 31
0.0
  0
LINE
  5
2BD8
330
2DF8
100
AcDbEntity
  8
0
 62
     0
100
AcDbLine
 10
-111.3000000000065
 20
-223.5209127606759
 30
0.0
 11
-104.5000000000127
 21
-218.9875910033243
 31
0.0
  0
LINE
  5
2BD9
330
2DF8
100
AcDbEntity
  8
0
 62
     0
100
AcDbLine
 10
-104.5000000000072
 20
-215.9876244679072
 30
0.0
 11
-2.508358124627192
 21
-147.9933701764203
 31
0.0
  0
LINE
  5
2BDA
330
2DF8
100
AcDbEntity
  8
0
 62
     0
100
AcDbLine
 10
-111.3000000000065
 20
-220.5209462252624
 30
0.0
 11
-104.5000000000109
 21
-215.987624467909
 31
0.0
  0
LINE
  5
2BDB
330
2DF8
100
AcDbEntity
  8
0
 62
     0
100
AcDbLine
 10
-104.500000000009
 20
-212.98765793249
 30
0.0
 11
-7.008319418513564
 21
-147.9933701764203
 31
0.0
  0
LINE
  5
2BDC
330
2DF8
100
AcDbEntity
  8
0
 62
     0
100
AcDbLine
 10
-111.3000000000065
 20
-217.5209796898434
 30
0.0
 11
-104.5000000000127
 21
-212.9876579324919
 31
0.0
  0
LINE
  5
2BDD
330
2DF8
100
AcDbEntity
  8
0
 62
     0
100
AcDbLine
 10
-104.500000000009
 20
-209.9876913970728
 30
0.0
 11
-11.50828071239812
 21
-147.9933701764184
 31
0.0
  0
LINE
  5
2BDE
330
2DF8
100
AcDbEntity
  8
0
 62
     0
100
AcDbLine
 10
-111.3000000000102
 20
-214.5210131544281
 30
0.0
 11
-104.5000000000145
 21
-209.9876913970766
 31
0.0
  0
LINE
  5
2BDF
330
2DF8
100
AcDbEntity
  8
0
 62
     0
100
AcDbLine
 10
-104.500000000009
 20
-206.9877248616576
 30
0.0
 11
-16.0082420062863
 21
-147.9933701764221
 31
0.0
  0
LINE
  5
2BE0
330
2DF8
100
AcDbEntity
  8
0
 62
     0
100
AcDbLine
 10
-111.3000000000065
 20
-211.5210466190128
 30
0.0
 11
-104.5000000000127
 21
-206.9877248616594
 31
0.0
  0
LINE
  5
2BE1
330
2DF8
100
AcDbEntity
  8
0
 62
     0
100
AcDbLine
 10
-104.5000000000072
 20
-203.9877583262423
 30
0.0
 11
-20.50820330016904
 21
-147.9933701764221
 31
0.0
  0
LINE
  5
2BE2
330
2DF8
100
AcDbEntity
  8
0
 62
     0
100
AcDbLine
 10
-111.3000000000083
 20
-208.5210800835976
 30
0.0
 11
-104.5000000000109
 21
-203.9877583262442
 31
0.0
  0
LINE
  5
2BE3
330
2DF8
100
AcDbEntity
  8
0
 62
     0
100
AcDbLine
 10
-104.5000000000072
 20
-200.9877917908234
 30
0.0
 11
-25.00816459405541
 21
-147.9933701764203
 31
0.0
  0
LINE
  5
2BE4
330
2DF8
100
AcDbEntity
  8
0
 62
     0
100
AcDbLine
 10
-111.3000000000065
 20
-205.5211135481804
 30
0.0
 11
-104.5000000000127
 21
-200.9877917908288
 31
0.0
  0
LINE
  5
2BE5
330
2DF8
100
AcDbEntity
  8
0
 62
     0
100
AcDbLine
 10
-104.500000000009
 20
-197.9878252554081
 30
0.0
 11
-29.50812588793997
 21
-147.9933701764184
 31
0.0
  0
LINE
  5
2BE6
330
2DF8
100
AcDbEntity
  8
0
 62
     0
100
AcDbLine
 10
-111.3000000000065
 20
-202.5211470127615
 30
0.0
 11
-104.5000000000127
 21
-197.9878252554099
 31
0.0
  0
LINE
  5
2BE7
330
2DF8
100
AcDbEntity
  8
0
 62
     0
100
AcDbLine
 10
-104.5000000000072
 20
-194.9878587199928
 30
0.0
 11
-34.00808718182816
 21
-147.9933701764221
 31
0.0
  0
LINE
  5
2BE8
330
2DF8
100
AcDbEntity
  8
0
 62
     0
100
AcDbLine
 10
-111.3000000000065
 20
-199.521180477348
 30
0.0
 11
-104.5000000000127
 21
-194.9878587199964
 31
0.0
  0
LINE
  5
2BE9
330
2DF8
100
AcDbEntity
  8
0
 62
     0
100
AcDbLine
 10
-104.500000000009
 20
-191.9878921845755
 30
0.0
 11
-38.50804847571271
 21
-147.9933701764203
 31
0.0
  0
LINE
  5
2BEA
330
2DF8
100
AcDbEntity
  8
0
 62
     0
100
AcDbLine
 10
-111.3000000000065
 20
-196.5212139419309
 30
0.0
 11
-104.5000000000127
 21
-191.9878921845775
 31
0.0
  0
LINE
  5
2BEB
330
2DF8
100
AcDbEntity
  8
0
 62
     0
100
AcDbLine
 10
-104.500000000009
 20
-188.9879256491603
 30
0.0
 11
-43.00800976959908
 21
-147.9933701764221
 31
0.0
  0
LINE
  5
2BEC
330
2DF8
100
AcDbEntity
  8
0
 62
     0
100
AcDbLine
 10
-111.3000000000083
 20
-193.5212474065156
 30
0.0
 11
-104.5000000000145
 21
-188.987925649164
 31
0.0
  0
LINE
  5
2BED
330
2DF8
100
AcDbEntity
  8
0
 62
     0
100
AcDbLine
 10
-104.500000000009
 20
-185.9879591137451
 30
0.0
 11
-47.50797106348182
 21
-147.9933701764184
 31
0.0
  0
LINE
  5
2BEE
330
2DF8
100
AcDbEntity
  8
0
 62
     0
100
AcDbLine
 10
-111.3000000000065
 20
-190.5212808710985
 30
0.0
 11
-104.5000000000127
 21
-185.9879591137469
 31
0.0
  0
LINE
  5
2BEF
330
2DF8
100
AcDbEntity
  8
0
 62
     0
100
AcDbLine
 10
-104.5000000000072
 20
-182.9879925783261
 30
0.0
 11
-52.00793235736637
 21
-147.9933701764184
 31
0.0
  0
LINE
  5
2BF0
330
2DF8
100
AcDbEntity
  8
0
 62
     0
100
AcDbLine
 10
-111.3000000000065
 20
-187.5213143356813
 30
0.0
 11
-104.5000000000109
 21
-182.987992578328
 31
0.0
  0
LINE
  5
2BF1
330
2DF8
100
AcDbEntity
  8
0
 62
     0
100
AcDbLine
 10
-104.500000000009
 20
-179.9880260429127
 30
0.0
 11
-56.50789365125455
 21
-147.9933701764203
 31
0.0
  0
LINE
  5
2BF2
330
2DF8
100
AcDbEntity
  8
0
 62
     0
100
AcDbLine
 10
-111.3000000000065
 20
-184.521347800266
 30
0.0
 11
-104.5000000000127
 21
-179.9880260429145
 31
0.0
  0
LINE
  5
2BF3
330
2DF8
100
AcDbEntity
  8
0
 62
     0
100
AcDbLine
 10
-104.500000000009
 20
-176.9880595074955
 30
0.0
 11
-61.00785494513729
 21
-147.9933701764203
 31
0.0
  0
LINE
  5
2BF4
330
2DF8
100
AcDbEntity
  8
0
 62
     0
100
AcDbLine
 10
-111.3000000000083
 20
-181.5213812648526
 30
0.0
 11
-104.5000000000145
 21
-176.9880595074992
 31
0.0
  0
LINE
  5
2BF5
330
2DF8
100
AcDbEntity
  8
0
 62
     0
100
AcDbLine
 10
-104.500000000009
 20
-173.9880929720801
 30
0.0
 11
-65.5078162390273
 21
-147.9933701764221
 31
0.0
  0
LINE
  5
2BF6
330
2DF8
100
AcDbEntity
  8
0
 62
     0
100
AcDbLine
 10
-111.3000000000065
 20
-178.5214147294337
 30
0.0
 11
-104.5000000000127
 21
-173.9880929720821
 31
0.0
  0
LINE
  5
2BF7
330
2DF8
100
AcDbEntity
  8
0
 62
     0
100
AcDbLine
 10
-104.500000000009
 20
-170.9881264366613
 30
0.0
 11
-70.00777753291004
 21
-147.9933701764184
 31
0.0
  0
LINE
  5
2BF8
330
2DF8
100
AcDbEntity
  8
0
 62
     0
100
AcDbLine
 10
-111.3000000000083
 20
-175.5214481940184
 30
0.0
 11
-104.5000000000127
 21
-170.9881264366649
 31
0.0
  0
LINE
  5
2BF9
330
2DF8
100
AcDbEntity
  8
0
 62
     0
100
AcDbLine
 10
-104.500000000009
 20
-167.988159901246
 30
0.0
 11
-74.50773882679822
 21
-147.9933701764203
 31
0.0
  0
LINE
  5
2BFA
330
2DF8
100
AcDbEntity
  8
0
 62
     0
100
AcDbLine
 10
-111.3000000000083
 20
-172.5214816586011
 30
0.0
 11
-104.5000000000145
 21
-167.9881599012496
 31
0.0
  0
LINE
  5
2BFB
330
2DF8
100
AcDbEntity
  8
0
 62
     0
100
AcDbLine
 10
-104.500000000009
 20
-164.9881933658325
 30
0.0
 11
-79.00770012067915
 21
-147.9933701764203
 31
0.0
  0
LINE
  5
2BFC
330
2DF8
100
AcDbEntity
  8
0
 62
     0
100
AcDbLine
 10
-111.3000000000065
 20
-169.5215151231859
 30
0.0
 11
-104.5000000000127
 21
-164.9881933658344
 31
0.0
  0
LINE
  5
2BFD
330
2DF8
100
AcDbEntity
  8
0
 62
     0
100
AcDbLine
 10
-104.5000000000072
 20
-161.9882268304136
 30
0.0
 11
-83.50766141456732
 21
-147.9933701764221
 31
0.0
  0
LINE
  5
2BFE
330
2DF8
100
AcDbEntity
  8
0
 62
     0
100
AcDbLine
 10
-111.3000000000065
 20
-166.5215485877706
 30
0.0
 11
-104.5000000000127
 21
-161.9882268304172
 31
0.0
  0
LINE
  5
2BFF
330
2DF8
100
AcDbEntity
  8
0
 62
     0
100
AcDbLine
 10
-104.5000000000109
 20
-158.9882602949983
 30
0.0
 11
-88.00762270845371
 21
-147.9933701764203
 31
0.0
  0
LINE
  5
2C00
330
2DF8
100
AcDbEntity
  8
0
 62
     0
100
AcDbLine
 10
-111.3000000000083
 20
-163.5215820523517
 30
0.0
 11
-104.5000000000145
 21
-158.9882602950001
 31
0.0
  0
LINE
  5
2C01
330
2DF8
100
AcDbEntity
  8
0
 62
     0
100
AcDbLine
 10
-104.500000000009
 20
-155.9882937595812
 30
0.0
 11
-92.50758400234007
 21
-147.9933701764203
 31
0.0
  0
LINE
  5
2C02
330
2DF8
100
AcDbEntity
  8
0
 62
     0
100
AcDbLine
 10
-111.3000000000083
 20
-160.5216155169382
 30
0.0
 11
-104.5000000000145
 21
-155.9882937595866
 31
0.0
  0
LINE
  5
2C03
330
2DF8
100
AcDbEntity
  8
0
 62
     0
100
AcDbLine
 10
-104.500000000009
 20
-152.9883272241677
 30
0.0
 11
-97.00754529622102
 21
-147.9933701764203
 31
0.0
  0
LINE
  5
2C04
330
2DF8
100
AcDbEntity
  8
0
 62
     0
100
AcDbLine
 10
-111.3000000000065
 20
-157.5216489815211
 30
0.0
 11
-104.5000000000127
 21
-152.9883272241695
 31
0.0
  0
LINE
  5
2C05
330
2DF8
100
AcDbEntity
  8
0
 62
     0
100
AcDbLine
 10
-104.500000000009
 20
-149.9883606887506
 30
0.0
 11
-101.5075065901092
 21
-147.9933701764203
 31
0.0
  0
LINE
  5
2C06
330
2DF8
100
AcDbEntity
  8
0
 62
     0
100
AcDbLine
 10
-111.3000000000083
 20
-154.5216824461058
 30
0.0
 11
-104.5000000000109
 21
-149.9883606887524
 31
0.0
  0
LINE
  5
2C07
330
2DF8
100
AcDbEntity
  8
0
 62
     0
100
AcDbLine
 10
-111.3000000000083
 20
-151.5217159106869
 30
0.0
 11
-106.0074678839955
 21
-147.9933701764203
 31
0.0
  0
LINE
  5
2C08
330
2DF8
100
AcDbEntity
  8
0
 62
     0
100
AcDbLine
 10
-111.3000000000047
 20
-148.5217493752698
 30
0.0
 11
-110.5074291778783
 21
-147.9933701764184
 31
0.0
  0
ENDBLK
  5
2C0A
330
2DF8
100
AcDbEntity
  8
0
100
AcDbBlockEnd
  0
BLOCK
  5
2DFB
330
2DFA
100
AcDbEntity
  8
0
100
AcDbBlockBegin
  2
*X24
 70
     1
 10
0.0
 20
0.0
 30
0.0
  3
*X24
  1

  0
LINE
  5
2C0C
330
2DFA
100
AcDbEntity
  8
0
 62
     0
100
AcDbLine
 10
-111.3000000000011
 20
-413.8053618699113
 30
0.0
 11
-109.4959169962912
 21
-415.0080808012043
 31
0.0
  0
LINE
  5
2C0D
330
2DFA
100
AcDbEntity
  8
0
 62
     0
100
AcDbLine
 10
-111.3000000000011
 20
-410.8053953344932
 30
0.0
 11
-104.9959557024067
 21
-415.0080808012017
 31
0.0
  0
LINE
  5
2C0E
330
2DFA
100
AcDbEntity
  8
0
 62
     0
100
AcDbLine
 10
-111.2999999999992
 20
-407.8054287990789
 30
0.0
 11
-100.4959944085203
 21
-415.0080808012035
 31
0.0
  0
LINE
  5
2C0F
330
2DFA
100
AcDbEntity
  8
0
 62
     0
100
AcDbLine
 10
-111.3000000000011
 20
-404.8054622636609
 30
0.0
 11
-95.9960331146358
 21
-415.0080808012026
 31
0.0
  0
LINE
  5
2C10
330
2DFA
100
AcDbEntity
  8
0
 62
     0
100
AcDbLine
 10
-111.3000000000011
 20
-401.8054957282437
 30
0.0
 11
-91.49607182074758
 21
-415.0080808012026
 31
0.0
  0
LINE
  5
2C11
330
2DFA
100
AcDbEntity
  8
0
 62
     0
100
AcDbLine
 10
-111.3000000000011
 20
-398.8055291928294
 30
0.0
 11
-86.99611052686485
 21
-415.0080808012017
 31
0.0
  0
LINE
  5
2C12
330
2DFA
100
AcDbEntity
  8
0
 62
     0
100
AcDbLine
 10
-111.3000000000011
 20
-395.8055626574124
 30
0.0
 11
-82.49614923297849
 21
-415.0080808012017
 31
0.0
  0
LINE
  5
2C13
330
2DFA
100
AcDbEntity
  8
0
 62
     0
100
AcDbLine
 10
-111.3000000000011
 20
-392.8055961219969
 30
0.0
 11
-77.99618793909393
 21
-415.0080808012035
 31
0.0
  0
LINE
  5
2C14
330
2DFA
100
AcDbEntity
  8
0
 62
     0
100
AcDbLine
 10
-111.3000000000011
 20
-389.80562958658
 30
0.0
 11
-73.49622664520939
 21
-415.0080808012007
 31
0.0
  0
LINE
  5
2C15
330
2DFA
100
AcDbEntity
  8
0
 62
     0
100
AcDbLine
 10
-111.2999999999992
 20
-386.8056630511646
 30
0.0
 11
-68.9962653513212
 21
-415.0080808012026
 31
0.0
  0
LINE
  5
2C16
330
2DFA
100
AcDbEntity
  8
0
 62
     0
100
AcDbLine
 10
-111.3000000000011
 20
-383.8056965157475
 30
0.0
 11
-64.49630405744028
 21
-415.0080808011997
 31
0.0
  0
LINE
  5
2C17
330
2DFA
100
AcDbEntity
  8
0
 62
     0
100
AcDbLine
 10
-111.2999999999992
 20
-380.8057299803331
 30
0.0
 11
-59.99634276355028
 21
-415.0080808012035
 31
0.0
  0
LINE
  5
2C18
330
2DFA
100
AcDbEntity
  8
0
 62
     0
100
AcDbLine
 10
-111.3000000000011
 20
-377.8057634449151
 30
0.0
 11
-55.49638146966754
 21
-415.0080808012017
 31
0.0
  0
LINE
  5
2C19
330
2DFA
100
AcDbEntity
  8
0
 62
     0
100
AcDbLine
 10
-111.3000000000011
 20
-374.8057969094998
 30
0.0
 11
-50.99642017577934
 21
-415.0080808012026
 31
0.0
  0
LINE
  5
2C1A
330
2DFA
100
AcDbEntity
  8
0
 62
     0
100
AcDbLine
 10
-111.2999999999992
 20
-371.8058303740826
 30
0.0
 11
-46.4964588818966
 21
-415.0080808012007
 31
0.0
  0
LINE
  5
2C1B
330
2DFA
100
AcDbEntity
  8
0
 62
     0
100
AcDbLine
 10
-111.3000000000011
 20
-368.8058638386683
 30
0.0
 11
-41.99649758800841
 21
-415.0080808012043
 31
0.0
  0
LINE
  5
2C1C
330
2DFA
100
AcDbEntity
  8
0
 62
     0
100
AcDbLine
 10
-111.2999999999992
 20
-365.8058973032512
 30
0.0
 11
-37.49653629412387
 21
-415.0080808012017
 31
0.0
  0
LINE
  5
2C1D
330
2DFA
100
AcDbEntity
  8
0
 62
     0
100
AcDbLine
 10
-111.3000000000011
 20
-362.805930767836
 30
0.0
 11
-32.99657500023932
 21
-415.0080808012035
 31
0.0
  0
LINE
  5
2C1E
330
2DFA
100
AcDbEntity
  8
0
 62
     0
100
AcDbLine
 10
-111.2999999999992
 20
-359.8059642324188
 30
0.0
 11
-28.49661370635113
 21
-415.0080808012026
 31
0.0
  0
LINE
  5
2C1F
330
2DFA
100
AcDbEntity
  8
0
 62
     0
100
AcDbLine
 10
-111.3000000000029
 20
-356.8059976970006
 30
0.0
 11
-23.99665241246839
 21
-415.0080808012007
 31
0.0
  0
LINE
  5
2C20
330
2DFA
100
AcDbEntity
  8
0
 62
     0
100
AcDbLine
 10
-111.2999999999992
 20
-353.8060311615873
 30
0.0
 11
-19.49669111858202
 21
-415.0080808012017
 31
0.0
  0
LINE
  5
2C21
330
2DFA
100
AcDbEntity
  8
0
 62
     0
100
AcDbLine
 10
-111.3000000000011
 20
-350.8060646261693
 30
0.0
 11
-14.99672982469746
 21
-415.0080808011997
 31
0.0
  0
LINE
  5
2C22
330
2DFA
100
AcDbEntity
  8
0
 62
     0
100
AcDbLine
 10
-111.3000000000011
 20
-347.8060980907538
 30
0.0
 11
-10.49676853080927
 21
-415.0080808012035
 31
0.0
  0
LINE
  5
2C23
330
2DFA
100
AcDbEntity
  8
0
 62
     0
100
AcDbLine
 10
-111.3000000000011
 20
-344.8061315553368
 30
0.0
 11
-5.996807236924722
 21
-415.0080808012007
 31
0.0
  0
LINE
  5
2C24
330
2DFA
100
AcDbEntity
  8
0
 62
     0
100
AcDbLine
 10
-111.3000000000011
 20
-341.8061650199216
 30
0.0
 11
-1.496845943040169
 21
-415.0080808012026
 31
0.0
  0
LINE
  5
2C25
330
2DFA
100
AcDbEntity
  8
0
 62
     0
100
AcDbLine
 10
-111.3000000000011
 20
-338.8061984845044
 30
0.0
 11
3.003115350844382
 21
-415.0080808011997
 31
0.0
  0
LINE
  5
2C26
330
2DFA
100
AcDbEntity
  8
0
 62
     0
100
AcDbLine
 10
-104.5000000000018
 20
-340.3395537064444
 30
0.0
 11
-102.3192697264912
 21
-341.7933701764186
 31
0.0
  0
LINE
  5
2C27
330
2DFA
100
AcDbEntity
  8
0
 62
     0
100
AcDbLine
 10
-102.3192697264912
 20
-341.7933701764186
 30
0.0
 11
7.503076644734392
 21
-415.0080808012035
 31
0.0
  0
LINE
  5
2C28
330
2DFA
100
AcDbEntity
  8
0
 62
     0
100
AcDbLine
 10
-111.2999999999992
 20
-335.80623194909
 30
0.0
 11
-104.5000000000018
 21
-340.3395537064444
 31
0.0
  0
LINE
  5
2C29
330
2DFA
100
AcDbEntity
  8
0
 62
     0
100
AcDbLine
 10
-104.5000000000018
 20
-337.3395871710272
 30
0.0
 11
-97.81930843260671
 21
-341.7933701764186
 31
0.0
  0
LINE
  5
2C2A
330
2DFA
100
AcDbEntity
  8
0
 62
     0
100
AcDbLine
 10
-97.81930843260671
 20
-341.7933701764186
 30
0.0
 11
12.00303793861712
 21
-415.0080808012017
 31
0.0
  0
LINE
  5
2C2B
330
2DFA
100
AcDbEntity
  8
0
 62
     0
100
AcDbLine
 10
-111.3000000000011
 20
-332.8062654136729
 30
0.0
 11
-104.5000000000018
 21
-337.3395871710272
 31
0.0
  0
LINE
  5
2C2C
330
2DFA
100
AcDbEntity
  8
0
 62
     0
100
AcDbLine
 10
-104.5
 20
-334.3396206356128
 30
0.0
 11
-93.31934713871849
 21
-341.7933701764196
 31
0.0
  0
LINE
  5
2C2D
330
2DFA
100
AcDbEntity
  8
0
 62
     0
100
AcDbLine
 10
-93.31934713871849
 20
-341.7933701764196
 30
0.0
 11
16.5029992325035
 21
-415.0080808012026
 31
0.0
  0
LINE
  5
2C2E
330
2DFA
100
AcDbEntity
  8
0
 62
     0
100
AcDbLine
 10
-111.3000000000011
 20
-329.8062988782568
 30
0.0
 11
-104.5
 21
-334.3396206356128
 31
0.0
  0
LINE
  5
2C2F
330
2DFA
100
AcDbEntity
  8
0
 62
     0
100
AcDbLine
 10
-104.5000000000018
 20
-331.3396541001957
 30
0.0
 11
-88.81938584483759
 21
-341.7933701764177
 31
0.0
  0
LINE
  5
2C30
330
2DFA
100
AcDbEntity
  8
0
 62
     0
100
AcDbLine
 10
-88.81938584483759
 20
-341.7933701764177
 30
0.0
 11
21.00296052638805
 21
-415.0080808012026
 31
0.0
  0
LINE
  5
2C31
330
2DFA
100
AcDbEntity
  8
0
 62
     0
100
AcDbLine
 10
-111.3000000000011
 20
-326.8063323428396
 30
0.0
 11
-104.5000000000036
 21
-331.3396541001948
 31
0.0
  0
LINE
  5
2C32
330
2DFA
100
AcDbEntity
  8
0
 62
     0
100
AcDbLine
 10
-104.5000000000018
 20
-328.3396875647795
 30
0.0
 11
-84.3194245509494
 21
-341.7933701764186
 31
0.0
  0
LINE
  5
2C33
330
2DFA
100
AcDbEntity
  8
0
 62
     0
100
AcDbLine
 10
-84.3194245509494
 20
-341.7933701764186
 30
0.0
 11
25.50292182027624
 21
-415.0080808012043
 31
0.0
  0
LINE
  5
2C34
330
2DFA
100
AcDbEntity
  8
0
 62
     0
100
AcDbLine
 10
-111.3000000000011
 20
-323.8063658074243
 30
0.0
 11
-104.5000000000018
 21
-328.3396875647795
 31
0.0
  0
LINE
  5
2C35
330
2DFA
100
AcDbEntity
  8
0
 62
     0
100
AcDbLine
 10
-104.5000000000018
 20
-325.3397210293623
 30
0.0
 11
-79.81946325706667
 21
-341.7933701764168
 31
0.0
  0
LINE
  5
2C36
330
2DFA
100
AcDbEntity
  8
0
 62
     0
100
AcDbLine
 10
-79.81946325706667
 20
-341.7933701764168
 30
0.0
 11
30.00288311415898
 21
-415.0080808012017
 31
0.0
  0
LINE
  5
2C37
330
2DFA
100
AcDbEntity
  8
0
 62
     0
100
AcDbLine
 10
-111.2999999999992
 20
-320.806399272008
 30
0.0
 11
-104.5000000000018
 21
-325.3397210293623
 31
0.0
  0
LINE
  5
2C38
330
2DFA
100
AcDbEntity
  8
0
 62
     0
100
AcDbLine
 10
-104.5000000000018
 20
-322.3397544939452
 30
0.0
 11
-75.31950196317666
 21
-341.7933701764186
 31
0.0
  0
LINE
  5
2C39
330
2DFA
100
AcDbEntity
  8
0
 62
     0
100
AcDbLine
 10
-75.31950196317666
 20
-341.7933701764186
 30
0.0
 11
34.50284440804536
 21
-415.0080808012017
 31
0.0
  0
LINE
  5
2C3A
330
2DFA
100
AcDbEntity
  8
0
 62
     0
100
AcDbLine
 10
-111.3000000000011
 20
-317.8064327365909
 30
0.0
 11
-104.5000000000018
 21
-322.3397544939452
 31
0.0
  0
LINE
  5
2C3B
330
2DFA
100
AcDbEntity
  8
0
 62
     0
100
AcDbLine
 10
-104.5000000000018
 20
-319.33978795853
 30
0.0
 11
-70.81954066929394
 21
-341.7933701764177
 31
0.0
  0
LINE
  5
2C3C
330
2DFA
100
AcDbEntity
  8
0
 62
     0
100
AcDbLine
 10
-70.81954066929394
 20
-341.7933701764177
 30
0.0
 11
39.00280570193172
 21
-415.0080808012026
 31
0.0
  0
LINE
  5
2C3D
330
2DFA
100
AcDbEntity
  8
0
 62
     0
100
AcDbLine
 10
-111.2999999999992
 20
-314.8064662011757
 30
0.0
 11
-104.5000000000018
 21
-319.33978795853
 31
0.0
  0
LINE
  5
2C3E
330
2DFA
100
AcDbEntity
  8
0
 62
     0
100
AcDbLine
 10
-104.5000000000018
 20
-316.3398214231137
 30
0.0
 11
-66.31957937540756
 21
-341.7933701764177
 31
0.0
  0
LINE
  5
2C3F
330
2DFA
100
AcDbEntity
  8
0
 62
     0
100
AcDbLine
 10
-66.31957937540756
 20
-341.7933701764177
 30
0.0
 11
43.50276699581445
 21
-415.0080808012007
 31
0.0
  0
LINE
  5
2C40
330
2DFA
100
AcDbEntity
  8
0
 62
     0
100
AcDbLine
 10
-111.3000000000011
 20
-311.8064996657586
 30
0.0
 11
-104.5000000000018
 21
-316.3398214231137
 31
0.0
  0
LINE
  5
2C41
330
2DFA
100
AcDbEntity
  8
0
 62
     0
100
AcDbLine
 10
-104.5000000000018
 20
-313.3398548876985
 30
0.0
 11
-61.81961808152482
 21
-341.7933701764168
 31
0.0
  0
LINE
  5
2C42
330
2DFA
100
AcDbEntity
  8
0
 62
     0
100
AcDbLine
 10
-61.81961808152117
 20
-341.7933701764186
 30
0.0
 11
48.00272828970083
 21
-415.0080808012026
 31
0.0
  0
LINE
  5
2C43
330
2DFA
100
AcDbEntity
  8
0
 62
     0
100
AcDbLine
 10
-111.2999999999992
 20
-308.8065331303433
 30
0.0
 11
-104.5000000000018
 21
-313.3398548876985
 31
0.0
  0
LINE
  5
2C44
330
2DFA
100
AcDbEntity
  8
0
 62
     0
100
AcDbLine
 10
-104.5000000000018
 20
-310.3398883522814
 30
0.0
 11
-57.31965678763663
 21
-341.7933701764186
 31
0.0
  0
LINE
  5
2C45
330
2DFA
100
AcDbEntity
  8
0
 62
     0
100
AcDbLine
 10
-57.31965678763663
 20
-341.7933701764186
 30
0.0
 11
52.50268958358357
 21
-415.0080808011997
 31
0.0
  0
LINE
  5
2C46
330
2DFA
100
AcDbEntity
  8
0
 62
     0
100
AcDbLine
 10
-111.3000000000011
 20
-305.8065665949271
 30
0.0
 11
-104.5000000000018
 21
-310.3398883522814
 31
0.0
  0
LINE
  5
2C47
330
2DFA
100
AcDbEntity
  8
0
 62
     0
100
AcDbLine
 10
-104.5000000000018
 20
-307.3399218168661
 30
0.0
 11
-52.81969549375208
 21
-341.7933701764186
 31
0.0
  0
LINE
  5
2C48
330
2DFA
100
AcDbEntity
  8
0
 62
     0
100
AcDbLine
 10
-52.81969549375208
 20
-341.7933701764186
 30
0.0
 11
57.00265087747357
 21
-415.0080808012035
 31
0.0
  0
LINE
  5
2C49
330
2DFA
100
AcDbEntity
  8
0
 62
     0
100
AcDbLine
 10
-111.3000000000011
 20
-302.8066000595109
 30
0.0
 11
-104.5000000000018
 21
-307.3399218168661
 31
0.0
  0
LINE
  5
2C4A
330
2DFA
100
AcDbEntity
  8
0
 62
     0
100
AcDbLine
 10
-104.5000000000018
 20
-304.3399552814481
 30
0.0
 11
-48.3197341998639
 21
-341.7933701764177
 31
0.0
  0
LINE
  5
2C4B
330
2DFA
100
AcDbEntity
  8
0
 62
     0
100
AcDbLine
 10
-48.3197341998639
 20
-341.7933701764177
 30
0.0
 11
61.50261217135811
 21
-415.0080808012007
 31
0.0
  0
LINE
  5
2C4C
330
2DFA
100
AcDbEntity
  8
0
 62
     0
100
AcDbLine
 10
-111.3000000000011
 20
-299.8066335240937
 30
0.0
 11
-104.5000000000018
 21
-304.3399552814481
 31
0.0
  0
LINE
  5
2C4D
330
2DFA
100
AcDbEntity
  8
0
 62
     0
100
AcDbLine
 10
-104.5000000000036
 20
-301.3399887460337
 30
0.0
 11
-43.81977290597933
 21
-341.7933701764196
 31
0.0
  0
LINE
  5
2C4E
330
2DFA
100
AcDbEntity
  8
0
 62
     0
100
AcDbLine
 10
-43.81977290597933
 20
-341.7933701764196
 30
0.0
 11
66.00257346524267
 21
-415.0080808012026
 31
0.0
  0
LINE
  5
2C4F
330
2DFA
100
AcDbEntity
  8
0
 62
     0
100
AcDbLine
 10
-111.3000000000011
 20
-296.8066669886784
 30
0.0
 11
-104.5000000000036
 21
-301.3399887460337
 31
0.0
  0
LINE
  5
2C50
330
2DFA
100
AcDbEntity
  8
0
 62
     0
100
AcDbLine
 10
-104.5000000000018
 20
-298.3400222106165
 30
0.0
 11
-39.31981161209478
 21
-341.7933701764168
 31
0.0
  0
LINE
  5
2C51
330
2DFA
100
AcDbEntity
  8
0
 62
     0
100
AcDbLine
 10
-39.31981161209478
 20
-341.7933701764168
 30
0.0
 11
70.50253475912722
 21
-415.0080808011997
 31
0.0
  0
LINE
  5
2C52
330
2DFA
100
AcDbEntity
  8
0
 62
     0
100
AcDbLine
 10
-111.3000000000011
 20
-293.8067004532613
 30
0.0
 11
-104.5000000000018
 21
-298.3400222106165
 31
0.0
  0
LINE
  5
2C53
330
2DFA
100
AcDbEntity
  8
0
 62
     0
100
AcDbLine
 10
-104.5000000000036
 20
-295.3400556752013
 30
0.0
 11
-34.81985031821023
 21
-341.7933701764186
 31
0.0
  0
LINE
  5
2C54
330
2DFA
100
AcDbEntity
  8
0
 62
     0
100
AcDbLine
 10
-34.81985031821023
 20
-341.7933701764186
 30
0.0
 11
75.00249605301542
 21
-415.0080808012035
 31
0.0
  0
LINE
  5
2C55
330
2DFA
100
AcDbEntity
  8
0
 62
     0
100
AcDbLine
 10
-111.3000000000011
 20
-290.806733917846
 30
0.0
 11
-104.5000000000036
 21
-295.3400556752013
 31
0.0
  0
LINE
  5
2C56
330
2DFA
100
AcDbEntity
  8
0
 62
     0
100
AcDbLine
 10
-104.5000000000018
 20
-292.340089139784
 30
0.0
 11
-30.31988902432204
 21
-341.7933701764186
 31
0.0
  0
LINE
  5
2C57
330
2DFA
100
AcDbEntity
  8
0
 62
     0
100
AcDbLine
 10
-30.31988902432204
 20
-341.7933701764186
 30
0.0
 11
79.50245734689997
 21
-415.0080808012017
 31
0.0
  0
LINE
  5
2C58
330
2DFA
100
AcDbEntity
  8
0
 62
     0
100
AcDbLine
 10
-111.3000000000011
 20
-287.8067673824298
 30
0.0
 11
-104.5000000000018
 21
-292.340089139784
 31
0.0
  0
LINE
  5
2C59
330
2DFA
100
AcDbEntity
  8
0
 62
     0
100
AcDbLine
 10
-104.5000000000018
 20
-289.3401226043679
 30
0.0
 11
-25.81992773043567
 21
-341.7933701764196
 31
0.0
  0
LINE
  5
2C5A
330
2DFA
100
AcDbEntity
  8
0
 62
     0
100
AcDbLine
 10
-25.81992773043567
 20
-341.7933701764196
 30
0.0
 11
84.00241864078635
 21
-415.0080808012026
 31
0.0
  0
LINE
  5
2C5B
330
2DFA
100
AcDbEntity
  8
0
 62
     0
100
AcDbLine
 10
-111.2999999999992
 20
-284.8068008470145
 30
0.0
 11
-104.5000000000018
 21
-289.3401226043679
 31
0.0
  0
LINE
  5
2C5C
330
2DFA
100
AcDbEntity
  8
0
 62
     0
100
AcDbLine
 10
-104.5000000000018
 20
-286.3401560689526
 30
0.0
 11
-21.31996643655293
 21
-341.7933701764177
 31
0.0
  0
LINE
  5
2C5D
330
2DFA
100
AcDbEntity
  8
0
 62
     0
100
AcDbLine
 10
-21.31996643655293
 20
-341.7933701764177
 30
0.0
 11
88.50237993467271
 21
-415.0080808012026
 31
0.0
  0
LINE
  5
2C5E
330
2DFA
100
AcDbEntity
  8
0
 62
     0
100
AcDbLine
 10
-111.3000000000011
 20
-281.8068343115974
 30
0.0
 11
-104.5000000000018
 21
-286.3401560689526
 31
0.0
  0
LINE
  5
2C5F
330
2DFA
100
AcDbEntity
  8
0
 62
     0
100
AcDbLine
 10
-104.5000000000018
 20
-283.3401895335346
 30
0.0
 11
-16.82000514266656
 21
-341.7933701764168
 31
0.0
  0
LINE
  5
2C60
330
2DFA
100
AcDbEntity
  8
0
 62
     0
100
AcDbLine
 10
-16.82000514266656
 20
-341.7933701764168
 30
0.0
 11
93.00234122855544
 21
-415.0080808011997
 31
0.0
  0
LINE
  5
2C61
330
2DFA
100
AcDbEntity
  8
0
 62
     0
100
AcDbLine
 10
-111.2999999999992
 20
-278.8068677761803
 30
0.0
 11
-104.5000000000018
 21
-283.3401895335346
 31
0.0
  0
LINE
  5
2C62
330
2DFA
100
AcDbEntity
  8
0
 62
     0
100
AcDbLine
 10
-104.5000000000036
 20
-280.3402229981193
 30
0.0
 11
-12.32004384878382
 21
-341.7933701764168
 31
0.0
  0
LINE
  5
2C63
330
2DFA
100
AcDbEntity
  8
0
 62
     0
100
AcDbLine
 10
-12.32004384878019
 20
-341.7933701764186
 30
0.0
 11
97.50230252244181
 21
-415.0080808012017
 31
0.0
  0
LINE
  5
2C64
330
2DFA
100
AcDbEntity
  8
0
 62
     0
100
AcDbLine
 10
-111.3000000000011
 20
-275.8069012407641
 30
0.0
 11
-104.5000000000036
 21
-280.3402229981193
 31
0.0
  0
LINE
  5
2C65
330
2DFA
100
AcDbEntity
  8
0
 62
     0
100
AcDbLine
 10
-104.5000000000018
 20
-277.3402564627022
 30
0.0
 11
-7.820082554893814
 21
-341.7933701764186
 31
0.0
  0
LINE
  5
2C66
330
2DFA
100
AcDbEntity
  8
0
 62
     0
100
AcDbLine
 10
-7.820082554893814
 20
-341.7933701764186
 30
0.0
 11
102.0022638163263
 21
-415.0080808011997
 31
0.0
  0
LINE
  5
2C67
330
2DFA
100
AcDbEntity
  8
0
 62
     0
100
AcDbLine
 10
-111.3000000000011
 20
-272.8069347053479
 30
0.0
 11
-104.5000000000018
 21
-277.3402564627022
 31
0.0
  0
LINE
  5
2C68
330
2DFA
100
AcDbEntity
  8
0
 62
     0
100
AcDbLine
 10
-104.5000000000036
 20
-274.3402899272869
 30
0.0
 11
-3.32012126101108
 21
-341.7933701764177
 31
0.0
  0
LINE
  5
2C69
330
2DFA
100
AcDbEntity
  8
0
 62
     0
100
AcDbLine
 10
-3.32012126101108
 20
-341.7933701764177
 30
0.0
 11
106.5022251102145
 21
-415.0080808012026
 31
0.0
  0
LINE
  5
2C6A
330
2DFA
100
AcDbEntity
  8
0
 62
     0
100
AcDbLine
 10
-111.3000000000011
 20
-269.8069681699325
 30
0.0
 11
-104.5000000000036
 21
-274.3402899272869
 31
0.0
  0
LINE
  5
2C6B
330
2DFA
100
AcDbEntity
  8
0
 62
     0
100
AcDbLine
 10
-104.5000000000018
 20
-271.3403233918697
 30
0.0
 11
1.17984003287529
 21
-341.7933701764177
 31
0.0
  0
LINE
  5
2C6C
330
2DFA
100
AcDbEntity
  8
0
 62
     0
100
AcDbLine
 10
1.17984003287529
 20
-341.7933701764177
 30
0.0
 11
111.0021864040973
 21
-415.0080808012007
 31
0.0
  0
LINE
  5
2C6D
330
2DFA
100
AcDbEntity
  8
0
 62
     0
100
AcDbLine
 10
-111.3000000000011
 20
-266.8070016345155
 30
0.0
 11
-104.5000000000018
 21
-271.3403233918697
 31
0.0
  0
LINE
  5
2C6E
330
2DFA
100
AcDbEntity
  8
0
 62
     0
100
AcDbLine
 10
-104.5000000000018
 20
-268.3403568564554
 30
0.0
 11
5.679801326761661
 21
-341.7933701764196
 31
0.0
  0
LINE
  5
2C6F
330
2DFA
100
AcDbEntity
  8
0
 62
     0
100
AcDbLine
 10
5.679801326761661
 20
-341.7933701764196
 30
0.0
 11
111.3000000000029
 21
-412.2066561560723
 31
0.0
  0
LINE
  5
2C70
330
2DFA
100
AcDbEntity
  8
0
 62
     0
100
AcDbLine
 10
-111.2999999999992
 20
-263.8070350991002
 30
0.0
 11
-104.5000000000018
 21
-268.3403568564554
 31
0.0
  0
LINE
  5
2C71
330
2DFA
100
AcDbEntity
  8
0
 62
     0
100
AcDbLine
 10
-104.5000000000018
 20
-265.3403903210383
 30
0.0
 11
10.17976262064802
 21
-341.7933701764186
 31
0.0
  0
LINE
  5
2C72
330
2DFA
100
AcDbEntity
  8
0
 62
     0
100
AcDbLine
 10
10.17976262064802
 20
-341.7933701764186
 30
0.0
 11
111.3000000000011
 21
-409.2066896206542
 31
0.0
  0
LINE
  5
2C73
330
2DFA
100
AcDbEntity
  8
0
 62
     0
100
AcDbLine
 10
-111.3000000000011
 20
-260.807068563683
 30
0.0
 11
-104.5000000000018
 21
-265.3403903210383
 31
0.0
  0
LINE
  5
2C74
330
2DFA
100
AcDbEntity
  8
0
 62
     0
100
AcDbLine
 10
-104.5000000000036
 20
-262.3404237856221
 30
0.0
 11
14.67972391453258
 21
-341.7933701764186
 31
0.0
  0
LINE
  5
2C75
330
2DFA
100
AcDbEntity
  8
0
 62
     0
100
AcDbLine
 10
14.67972391453258
 20
-341.7933701764186
 30
0.0
 11
111.3000000000011
 21
-406.2067230852389
 31
0.0
  0
LINE
  5
2C76
330
2DFA
100
AcDbEntity
  8
0
 62
     0
100
AcDbLine
 10
-111.2999999999992
 20
-257.8071020282687
 30
0.0
 11
-104.5000000000036
 21
-262.3404237856221
 31
0.0
  0
LINE
  5
2C77
330
2DFA
100
AcDbEntity
  8
0
 62
     0
100
AcDbLine
 10
-104.5000000000018
 20
-259.3404572502059
 30
0.0
 11
19.17968520841714
 21
-341.7933701764177
 31
0.0
  0
LINE
  5
2C78
330
2DFA
100
AcDbEntity
  8
0
 62
     0
100
AcDbLine
 10
19.17968520841714
 20
-341.7933701764177
 30
0.0
 11
111.3000000000011
 21
-403.2067565498217
 31
0.0
  0
LINE
  5
2C79
330
2DFA
100
AcDbEntity
  8
0
 62
     0
100
AcDbLine
 10
-111.3000000000011
 20
-254.8071354928516
 30
0.0
 11
-104.5000000000018
 21
-259.3404572502059
 31
0.0
  0
LINE
  5
2C7A
330
2DFA
100
AcDbEntity
  8
0
 62
     0
100
AcDbLine
 10
-104.5000000000036
 20
-256.3404907147897
 30
0.0
 11
23.67964650230351
 21
-341.7933701764196
 31
0.0
  0
LINE
  5
2C7B
330
2DFA
100
AcDbEntity
  8
0
 62
     0
100
AcDbLine
 10
23.67964650230351
 20
-341.7933701764196
 30
0.0
 11
111.3000000000011
 21
-400.2067900144066
 31
0.0
  0
LINE
  5
2C7C
330
2DFA
100
AcDbEntity
  8
0
 62
     0
100
AcDbLine
 10
-111.2999999999992
 20
-251.8071689574362
 30
0.0
 11
-104.5000000000036
 21
-256.3404907147897
 31
0.0
  0
LINE
  5
2C7D
330
2DFA
100
AcDbEntity
  8
0
 62
     0
100
AcDbLine
 10
-104.5000000000018
 20
-253.3405241793734
 30
0.0
 11
28.17960779618807
 21
-341.7933701764168
 31
0.0
  0
LINE
  5
2C7E
330
2DFA
100
AcDbEntity
  8
0
 62
     0
100
AcDbLine
 10
28.17960779618807
 20
-341.7933701764168
 30
0.0
 11
111.3000000000029
 21
-397.2068234789895
 31
0.0
  0
LINE
  5
2C7F
330
2DFA
100
AcDbEntity
  8
0
 62
     0
100
AcDbLine
 10
-111.3000000000011
 20
-248.8072024220183
 30
0.0
 11
-104.5000000000018
 21
-253.3405241793734
 31
0.0
  0
LINE
  5
2C80
330
2DFA
100
AcDbEntity
  8
0
 62
     0
100
AcDbLine
 10
-104.5000000000036
 20
-250.3405576439582
 30
0.0
 11
32.67956909007444
 21
-341.7933701764186
 31
0.0
  0
LINE
  5
2C81
330
2DFA
100
AcDbEntity
  8
0
 62
     0
100
AcDbLine
 10
32.67956909007444
 20
-341.7933701764186
 30
0.0
 11
111.3000000000011
 21
-394.2068569435751
 31
0.0
  0
LINE
  5
2C82
330
2DFA
100
AcDbEntity
  8
0
 62
     0
100
AcDbLine
 10
-111.3000000000011
 20
-245.8072358866028
 30
0.0
 11
-104.5000000000036
 21
-250.3405576439582
 31
0.0
  0
LINE
  5
2C83
330
2DFA
100
AcDbEntity
  8
0
 62
     0
100
AcDbLine
 10
-104.5000000000018
 20
-247.3405911085411
 30
0.0
 11
37.17953038396082
 21
-341.7933701764186
 31
0.0
  0
LINE
  5
2C84
330
2DFA
100
AcDbEntity
  8
0
 62
     0
100
AcDbLine
 10
37.17953038396082
 20
-341.7933701764186
 30
0.0
 11
111.3000000000029
 21
-391.2068904081579
 31
0.0
  0
LINE
  5
2C85
330
2DFA
100
AcDbEntity
  8
0
 62
     0
100
AcDbLine
 10
-111.3000000000011
 20
-242.8072693511867
 30
0.0
 11
-104.5000000000018
 21
-247.3405911085411
 31
0.0
  0
LINE
  5
2C86
330
2DFA
100
AcDbEntity
  8
0
 62
     0
100
AcDbLine
 10
-104.5000000000054
 20
-244.3406245731221
 30
0.0
 11
41.67949167784535
 21
-341.7933701764177
 31
0.0
  0
LINE
  5
2C87
330
2DFA
100
AcDbEntity
  8
0
 62
     0
100
AcDbLine
 10
41.67949167784535
 20
-341.7933701764177
 30
0.0
 11
111.2999999999992
 21
-388.20692387274
 31
0.0
  0
LINE
  5
2C88
330
2DFA
100
AcDbEntity
  8
0
 62
     0
100
AcDbLine
 10
-111.3000000000011
 20
-239.8073028157696
 30
0.0
 11
-104.5000000000054
 21
-244.3406245731221
 31
0.0
  0
LINE
  5
2C89
330
2DFA
100
AcDbEntity
  8
0
 62
     0
100
AcDbLine
 10
-104.5000000000072
 20
-241.3406580377059
 30
0.0
 11
46.1794529717299
 21
-341.7933701764177
 31
0.0
  0
LINE
  5
2C8A
330
2DFA
100
AcDbEntity
  8
0
 62
     0
100
AcDbLine
 10
46.1794529717299
 20
-341.7933701764177
 30
0.0
 11
111.3000000000029
 21
-385.2069573373256
 31
0.0
  0
LINE
  5
2C8B
330
2DFA
100
AcDbEntity
  8
0
 62
     0
100
AcDbLine
 10
-111.3000000000011
 20
-236.8073362803543
 30
0.0
 11
-104.5000000000072
 21
-241.3406580377059
 31
0.0
  0
LINE
  5
2C8C
330
2DFA
100
AcDbEntity
  8
0
 62
     0
100
AcDbLine
 10
-104.5000000000054
 20
-238.3406915022897
 30
0.0
 11
50.67941426561628
 21
-341.7933701764177
 31
0.0
  0
LINE
  5
2C8D
330
2DFA
100
AcDbEntity
  8
0
 62
     0
100
AcDbLine
 10
50.67941426561628
 20
-341.7933701764177
 30
0.0
 11
111.2999999999992
 21
-382.2069908019075
 31
0.0
  0
LINE
  5
2C8E
330
2DFA
100
AcDbEntity
  8
0
 62
     0
100
AcDbLine
 10
-111.3000000000029
 20
-233.8073697449363
 30
0.0
 11
-104.5000000000054
 21
-238.3406915022897
 31
0.0
  0
LINE
  5
2C8F
330
2DFA
100
AcDbEntity
  8
0
 62
     0
100
AcDbLine
 10
-104.5000000000072
 20
-235.3407249668735
 30
0.0
 11
55.17937555950266
 21
-341.7933701764186
 31
0.0
  0
LINE
  5
2C90
330
2DFA
100
AcDbEntity
  8
0
 62
     0
100
AcDbLine
 10
55.17937555950266
 20
-341.7933701764186
 30
0.0
 11
111.3000000000011
 21
-379.2070242664931
 31
0.0
  0
LINE
  5
2C91
330
2DFA
100
AcDbEntity
  8
0
 62
     0
100
AcDbLine
 10
-111.3000000000011
 20
-230.8074032095219
 30
0.0
 11
-104.5000000000072
 21
-235.3407249668735
 31
0.0
  0
LINE
  5
2C92
330
2DFA
100
AcDbEntity
  8
0
 62
     0
100
AcDbLine
 10
-104.5000000000054
 20
-232.3407584314573
 30
0.0
 11
59.67933685338903
 21
-341.7933701764186
 31
0.0
  0
LINE
  5
2C93
330
2DFA
100
AcDbEntity
  8
0
 62
     0
100
AcDbLine
 10
59.67933685338903
 20
-341.7933701764186
 30
0.0
 11
111.2999999999992
 21
-376.2070577310733
 31
0.0
  0
LINE
  5
2C94
330
2DFA
100
AcDbEntity
  8
0
 62
     0
100
AcDbLine
 10
-111.3000000000011
 20
-227.8074366741039
 30
0.0
 11
-104.5000000000054
 21
-232.3407584314573
 31
0.0
  0
LINE
  5
2C95
330
2DFA
100
AcDbEntity
  8
0
 62
     0
100
AcDbLine
 10
-104.5000000000072
 20
-229.340791896042
 30
0.0
 11
64.17929814727178
 21
-341.7933701764177
 31
0.0
  0
LINE
  5
2C96
330
2DFA
100
AcDbEntity
  8
0
 62
     0
100
AcDbLine
 10
64.17929814727178
 20
-341.7933701764177
 30
0.0
 11
111.2999999999974
 21
-373.2070911956589
 31
0.0
  0
LINE
  5
2C97
330
2DFA
100
AcDbEntity
  8
0
 62
     0
100
AcDbLine
 10
-111.3000000000011
 20
-224.8074701386895
 30
0.0
 11
-104.5000000000072
 21
-229.340791896042
 31
0.0
  0
LINE
  5
2C98
330
2DFA
100
AcDbEntity
  8
0
 62
     0
100
AcDbLine
 10
-104.5000000000054
 20
-226.3408253606249
 30
0.0
 11
68.67925944115814
 21
-341.7933701764177
 31
0.0
  0
LINE
  5
2C99
330
2DFA
100
AcDbEntity
  8
0
 62
     0
100
AcDbLine
 10
68.67925944115814
 20
-341.7933701764177
 30
0.0
 11
111.2999999999992
 21
-370.2071246602418
 31
0.0
  0
LINE
  5
2C9A
330
2DFA
100
AcDbEntity
  8
0
 62
     0
100
AcDbLine
 10
-111.3000000000011
 20
-221.8075036032724
 30
0.0
 11
-104.5000000000054
 21
-226.3408253606249
 31
0.0
  0
LINE
  5
2C9B
330
2DFA
100
AcDbEntity
  8
0
 62
     0
100
AcDbLine
 10
-104.5000000000072
 20
-223.3408588252096
 30
0.0
 11
73.17922073504452
 21
-341.7933701764196
 31
0.0
  0
LINE
  5
2C9C
330
2DFA
100
AcDbEntity
  8
0
 62
     0
100
AcDbLine
 10
73.17922073504452
 20
-341.7933701764196
 30
0.0
 11
111.2999999999956
 21
-367.2071581248256
 31
0.0
  0
LINE
  5
2C9D
330
2DFA
100
AcDbEntity
  8
0
 62
     0
100
AcDbLine
 10
-111.3000000000011
 20
-218.8075370678571
 30
0.0
 11
-104.5000000000072
 21
-223.3408588252096
 31
0.0
  0
LINE
  5
2C9E
330
2DFA
100
AcDbEntity
  8
0
 62
     0
100
AcDbLine
 10
-104.5000000000054
 20
-220.3408922897925
 30
0.0
 11
77.67918202892906
 21
-341.7933701764168
 31
0.0
  0
LINE
  5
2C9F
330
2DFA
100
AcDbEntity
  8
0
 62
     0
100
AcDbLine
 10
77.67918202892906
 20
-341.7933701764168
 30
0.0
 11
111.2999999999974
 21
-364.2071915894085
 31
0.0
  0
LINE
  5
2CA0
330
2DFA
100
AcDbEntity
  8
0
 62
     0
100
AcDbLine
 10
-111.3000000000011
 20
-215.8075705324399
 30
0.0
 11
-104.5000000000054
 21
-220.3408922897925
 31
0.0
  0
LINE
  5
2CA1
330
2DFA
100
AcDbEntity
  8
0
 62
     0
100
AcDbLine
 10
-104.5000000000036
 20
-217.3409257543781
 30
0.0
 11
82.17914332281543
 21
-341.7933701764186
 31
0.0
  0
LINE
  5
2CA2
330
2DFA
100
AcDbEntity
  8
0
 62
     0
100
AcDbLine
 10
82.17914332281543
 20
-341.7933701764186
 30
0.0
 11
111.2999999999974
 21
-361.2072250539932
 31
0.0
  0
LINE
  5
2CA3
330
2DFA
100
AcDbEntity
  8
0
 62
     0
100
AcDbLine
 10
-111.2999999999992
 20
-212.8076039970247
 30
0.0
 11
-104.5000000000036
 21
-217.3409257543781
 31
0.0
  0
LINE
  5
2CA4
330
2DFA
100
AcDbEntity
  8
0
 62
     0
100
AcDbLine
 10
-104.5000000000072
 20
-214.3409592189601
 30
0.0
 11
86.6791046167
 21
-341.7933701764177
 31
0.0
  0
LINE
  5
2CA5
330
2DFA
100
AcDbEntity
  8
0
 62
     0
100
AcDbLine
 10
86.6791046167
 20
-341.7933701764177
 30
0.0
 11
111.2999999999974
 21
-358.207258518577
 31
0.0
  0
LINE
  5
2CA6
330
2DFA
100
AcDbEntity
  8
0
 62
     0
100
AcDbLine
 10
-111.3000000000011
 20
-209.8076374616085
 30
0.0
 11
-104.5000000000072
 21
-214.3409592189601
 31
0.0
  0
LINE
  5
2CA7
330
2DFA
100
AcDbEntity
  8
0
 62
     0
100
AcDbLine
 10
-104.5000000000054
 20
-211.3409926835447
 30
0.0
 11
91.17906591058815
 21
-341.7933701764196
 31
0.0
  0
LINE
  5
2CA8
330
2DFA
100
AcDbEntity
  8
0
 62
     0
100
AcDbLine
 10
91.17906591058815
 20
-341.7933701764196
 30
0.0
 11
111.2999999999974
 21
-355.2072919831616
 31
0.0
  0
LINE
  5
2CA9
330
2DFA
100
AcDbEntity
  8
0
 62
     0
100
AcDbLine
 10
-111.3000000000011
 20
-206.8076709261922
 30
0.0
 11
-104.5000000000054
 21
-211.3409926835447
 31
0.0
  0
LINE
  5
2CAA
330
2DFA
100
AcDbEntity
  8
0
 62
     0
100
AcDbLine
 10
-104.5000000000072
 20
-208.3410261481276
 30
0.0
 11
95.67902720447092
 21
-341.7933701764168
 31
0.0
  0
LINE
  5
2CAB
330
2DFA
100
AcDbEntity
  8
0
 62
     0
100
AcDbLine
 10
95.67902720447092
 20
-341.7933701764168
 30
0.0
 11
111.2999999999974
 21
-352.2073254477446
 31
0.0
  0
LINE
  5
2CAC
330
2DFA
100
AcDbEntity
  8
0
 62
     0
100
AcDbLine
 10
-111.3000000000011
 20
-203.807704390776
 30
0.0
 11
-104.5000000000072
 21
-208.3410261481276
 31
0.0
  0
LINE
  5
2CAD
330
2DFA
100
AcDbEntity
  8
0
 62
     0
100
AcDbLine
 10
-104.5000000000054
 20
-205.3410596127105
 30
0.0
 11
100.1789884983573
 21
-341.7933701764168
 31
0.0
  0
LINE
  5
2CAE
330
2DFA
100
AcDbEntity
  8
0
 62
     0
100
AcDbLine
 10
100.1789884983573
 20
-341.7933701764168
 30
0.0
 11
111.2999999999974
 21
-349.2073589123275
 31
0.0
  0
LINE
  5
2CAF
330
2DFA
100
AcDbEntity
  8
0
 62
     0
100
AcDbLine
 10
-111.3000000000011
 20
-200.807737855358
 30
0.0
 11
-104.5000000000054
 21
-205.3410596127105
 31
0.0
  0
LINE
  5
2CB0
330
2DFA
100
AcDbEntity
  8
0
 62
     0
100
AcDbLine
 10
-104.5000000000054
 20
-202.3410930772961
 30
0.0
 11
104.6789497922436
 21
-341.7933701764186
 31
0.0
  0
LINE
  5
2CB1
330
2DFA
100
AcDbEntity
  8
0
 62
     0
100
AcDbLine
 10
104.6789497922436
 20
-341.7933701764186
 30
0.0
 11
111.2999999999974
 21
-346.2073923769112
 31
0.0
  0
LINE
  5
2CB2
330
2DFA
100
AcDbEntity
  8
0
 62
     0
100
AcDbLine
 10
-111.3000000000011
 20
-197.8077713199427
 30
0.0
 11
-104.5000000000054
 21
-202.3410930772961
 31
0.0
  0
LINE
  5
2CB3
330
2DFA
100
AcDbEntity
  8
0
 62
     0
100
AcDbLine
 10
-104.5000000000054
 20
-199.3411265418789
 30
0.0
 11
109.17891108613
 21
-341.7933701764177
 31
0.0
  0
LINE
  5
2CB4
330
2DFA
100
AcDbEntity
  8
0
 62
     0
100
AcDbLine
 10
109.17891108613
 20
-341.7933701764177
 30
0.0
 11
111.2999999999974
 21
-343.2074258414941
 31
0.0
  0
LINE
  5
2CB5
330
2DFA
100
AcDbEntity
  8
0
 62
     0
100
AcDbLine
 10
-111.3000000000011
 20
-194.8078047845264
 30
0.0
 11
-104.5000000000054
 21
-199.3411265418789
 31
0.0
  0
LINE
  5
2CB6
330
2DFA
100
AcDbEntity
  8
0
 62
     0
100
AcDbLine
 10
-104.5000000000054
 20
-196.3411600064637
 30
0.0
 11
111.2999999999974
 21
-340.2074593060797
 31
0.0
  0
LINE
  5
2CB7
330
2DFA
100
AcDbEntity
  8
0
 62
     0
100
AcDbLine
 10
-111.3000000000011
 20
-191.8078382491112
 30
0.0
 11
-104.5000000000054
 21
-196.3411600064637
 31
0.0
  0
LINE
  5
2CB8
330
2DFA
100
AcDbEntity
  8
0
 62
     0
100
AcDbLine
 10
-104.5000000000072
 20
-193.3411934710457
 30
0.0
 11
111.2999999999974
 21
-337.2074927706626
 31
0.0
  0
LINE
  5
2CB9
330
2DFA
100
AcDbEntity
  8
0
 62
     0
100
AcDbLine
 10
-111.3000000000011
 20
-188.8078717136941
 30
0.0
 11
-104.5000000000072
 21
-193.3411934710457
 31
0.0
  0
LINE
  5
2CBA
330
2DFA
100
AcDbEntity
  8
0
 62
     0
100
AcDbLine
 10
-104.5000000000072
 20
-190.3412269356304
 30
0.0
 11
111.2999999999974
 21
-334.2075262352472
 31
0.0
  0
LINE
  5
2CBB
330
2DFA
100
AcDbEntity
  8
0
 62
     0
100
AcDbLine
 10
-111.3000000000011
 20
-185.8079051782788
 30
0.0
 11
-104.5000000000072
 21
-190.3412269356304
 31
0.0
  0
LINE
  5
2CBC
330
2DFA
100
AcDbEntity
  8
0
 62
     0
100
AcDbLine
 10
-104.5000000000072
 20
-187.3412604002133
 30
0.0
 11
111.2999999999974
 21
-331.2075596998302
 31
0.0
  0
LINE
  5
2CBD
330
2DFA
100
AcDbEntity
  8
0
 62
     0
100
AcDbLine
 10
-111.3000000000011
 20
-182.8079386428616
 30
0.0
 11
-104.5000000000072
 21
-187.3412604002133
 31
0.0
  0
LINE
  5
2CBE
330
2DFA
100
AcDbEntity
  8
0
 62
     0
100
AcDbLine
 10
-104.5000000000072
 20
-184.3412938647989
 30
0.0
 11
111.2999999999974
 21
-328.2075931644158
 31
0.0
  0
LINE
  5
2CBF
330
2DFA
100
AcDbEntity
  8
0
 62
     0
100
AcDbLine
 10
-111.3000000000011
 20
-179.8079721074454
 30
0.0
 11
-104.5000000000072
 21
-184.3412938647989
 31
0.0
  0
LINE
  5
2CC0
330
2DFA
100
AcDbEntity
  8
0
 62
     0
100
AcDbLine
 10
-104.5000000000054
 20
-181.3413273293818
 30
0.0
 11
111.2999999999974
 21
-325.2076266289978
 31
0.0
  0
LINE
  5
2CC1
330
2DFA
100
AcDbEntity
  8
0
 62
     0
100
AcDbLine
 10
-111.2999999999992
 20
-176.8080055720302
 30
0.0
 11
-104.5000000000054
 21
-181.3413273293818
 31
0.0
  0
LINE
  5
2CC2
330
2DFA
100
AcDbEntity
  8
0
 62
     0
100
AcDbLine
 10
-104.5000000000072
 20
-178.3413607939665
 30
0.0
 11
111.2999999999974
 21
-322.2076600935834
 31
0.0
  0
LINE
  5
2CC3
330
2DFA
100
AcDbEntity
  8
0
 62
     0
100
AcDbLine
 10
-111.3000000000011
 20
-173.808039036614
 30
0.0
 11
-104.5000000000072
 21
-178.3413607939665
 31
0.0
  0
LINE
  5
2CC4
330
2DFA
100
AcDbEntity
  8
0
 62
     0
100
AcDbLine
 10
-104.5000000000054
 20
-175.3413942585494
 30
0.0
 11
111.2999999999974
 21
-319.2076935581654
 31
0.0
  0
LINE
  5
2CC5
330
2DFA
100
AcDbEntity
  8
0
 62
     0
100
AcDbLine
 10
-111.3000000000011
 20
-170.8080725011968
 30
0.0
 11
-104.5000000000054
 21
-175.3413942585494
 31
0.0
  0
LINE
  5
2CC6
330
2DFA
100
AcDbEntity
  8
0
 62
     0
100
AcDbLine
 10
-104.5000000000072
 20
-172.3414277231331
 30
0.0
 11
111.2999999999956
 21
-316.2077270227501
 31
0.0
  0
LINE
  5
2CC7
330
2DFA
100
AcDbEntity
  8
0
 62
     0
100
AcDbLine
 10
-111.3000000000011
 20
-167.8081059657814
 30
0.0
 11
-104.5000000000072
 21
-172.3414277231331
 31
0.0
  0
LINE
  5
2CC8
330
2DFA
100
AcDbEntity
  8
0
 62
     0
100
AcDbLine
 10
-104.5000000000054
 20
-169.3414611877178
 30
0.0
 11
111.2999999999974
 21
-313.2077604873331
 31
0.0
  0
LINE
  5
2CC9
330
2DFA
100
AcDbEntity
  8
0
 62
     0
100
AcDbLine
 10
-111.3000000000011
 20
-164.8081394303645
 30
0.0
 11
-104.5000000000054
 21
-169.3414611877178
 31
0.0
  0
LINE
  5
2CCA
330
2DFA
100
AcDbEntity
  8
0
 62
     0
100
AcDbLine
 10
-104.5000000000054
 20
-166.3414946523016
 30
0.0
 11
111.2999999999974
 21
-310.2077939519186
 31
0.0
  0
LINE
  5
2CCB
330
2DFA
100
AcDbEntity
  8
0
 62
     0
100
AcDbLine
 10
-111.2999999999992
 20
-161.8081728949501
 30
0.0
 11
-104.5000000000054
 21
-166.3414946523016
 31
0.0
  0
LINE
  5
2CCC
330
2DFA
100
AcDbEntity
  8
0
 62
     0
100
AcDbLine
 10
-104.5000000000072
 20
-163.3415281168844
 30
0.0
 11
111.2999999999974
 21
-307.2078274165014
 31
0.0
  0
LINE
  5
2CCD
330
2DFA
100
AcDbEntity
  8
0
 62
     0
100
AcDbLine
 10
-111.3000000000011
 20
-158.8082063595329
 30
0.0
 11
-104.5000000000072
 21
-163.3415281168844
 31
0.0
  0
LINE
  5
2CCE
330
2DFA
100
AcDbEntity
  8
0
 62
     0
100
AcDbLine
 10
-104.5000000000054
 20
-160.3415615814674
 30
0.0
 11
111.2999999999974
 21
-304.2078608810844
 31
0.0
  0
LINE
  5
2CCF
330
2DFA
100
AcDbEntity
  8
0
 62
     0
100
AcDbLine
 10
-111.2999999999992
 20
-155.8082398241158
 30
0.0
 11
-104.5000000000054
 21
-160.3415615814674
 31
0.0
  0
LINE
  5
2CD0
330
2DFA
100
AcDbEntity
  8
0
 62
     0
100
AcDbLine
 10
-104.5000000000072
 20
-157.3415950460521
 30
0.0
 11
111.2999999999974
 21
-301.2078943456689
 31
0.0
  0
LINE
  5
2CD1
330
2DFA
100
AcDbEntity
  8
0
 62
     0
100
AcDbLine
 10
-111.3000000000029
 20
-152.8082732886996
 30
0.0
 11
-104.5000000000072
 21
-157.3415950460521
 31
0.0
  0
LINE
  5
2CD2
330
2DFA
100
AcDbEntity
  8
0
 62
     0
100
AcDbLine
 10
-104.5000000000054
 20
-154.3416285106359
 30
0.0
 11
111.2999999999974
 21
-298.207927810251
 31
0.0
  0
LINE
  5
2CD3
330
2DFA
100
AcDbEntity
  8
0
 62
     0
100
AcDbLine
 10
-111.2999999999992
 20
-149.8083067532834
 30
0.0
 11
-104.5000000000054
 21
-154.3416285106359
 31
0.0
  0
LINE
  5
2CD4
330
2DFA
100
AcDbEntity
  8
0
 62
     0
100
AcDbLine
 10
-104.5000000000072
 20
-151.3416619752206
 30
0.0
 11
111.2999999999974
 21
-295.2079612748375
 31
0.0
  0
LINE
  5
2CD5
330
2DFA
100
AcDbEntity
  8
0
 62
     0
100
AcDbLine
 10
-109.5224505231599
 20
-147.9933701764184
 30
0.0
 11
-104.500000000009
 21
-151.3416619752197
 31
0.0
  0
LINE
  5
2CD6
330
2DFA
100
AcDbEntity
  8
0
 62
     0
100
AcDbLine
 10
-104.5000000000054
 20
-148.3416954398034
 30
0.0
 11
111.2999999999974
 21
-292.2079947394195
 31
0.0
  0
LINE
  5
2CD7
330
2DFA
100
AcDbEntity
  8
0
 62
     0
100
AcDbLine
 10
-105.0224892292717
 20
-147.9933701764184
 30
0.0
 11
-104.5000000000054
 21
-148.3416954398034
 31
0.0
  0
LINE
  5
2CD8
330
2DFA
100
AcDbEntity
  8
0
 62
     0
100
AcDbLine
 10
-100.5225279353853
 20
-147.9933701764203
 30
0.0
 11
111.2999999999974
 21
-289.2080282040042
 31
0.0
  0
LINE
  5
2CD9
330
2DFA
100
AcDbEntity
  8
0
 62
     0
100
AcDbLine
 10
-96.02256664150266
 20
-147.9933701764175
 30
0.0
 11
111.2999999999974
 21
-286.2080616685871
 31
0.0
  0
LINE
  5
2CDA
330
2DFA
100
AcDbEntity
  8
0
 62
     0
100
AcDbLine
 10
-91.52260534761262
 20
-147.9933701764212
 30
0.0
 11
111.2999999999974
 21
-283.2080951331718
 31
0.0
  0
LINE
  5
2CDB
330
2DFA
100
AcDbEntity
  8
0
 62
     0
100
AcDbLine
 10
-87.02264405372989
 20
-147.9933701764184
 30
0.0
 11
111.2999999999974
 21
-280.2081285977556
 31
0.0
  0
LINE
  5
2CDC
330
2DFA
100
AcDbEntity
  8
0
 62
     0
100
AcDbLine
 10
-82.5226827598435
 20
-147.9933701764203
 30
0.0
 11
111.2999999999974
 21
-277.2081620623403
 31
0.0
  0
LINE
  5
2CDD
330
2DFA
100
AcDbEntity
  8
0
 62
     0
100
AcDbLine
 10
-78.02272146595895
 20
-147.9933701764184
 30
0.0
 11
111.2999999999992
 21
-274.2081955269232
 31
0.0
  0
LINE
  5
2CDE
330
2DFA
100
AcDbEntity
  8
0
 62
     0
100
AcDbLine
 10
-73.52276017207078
 20
-147.9933701764212
 30
0.0
 11
111.2999999999956
 21
-271.208228991507
 31
0.0
  0
LINE
  5
2CDF
330
2DFA
100
AcDbEntity
  8
0
 62
     0
100
AcDbLine
 10
-69.02279887818804
 20
-147.9933701764194
 30
0.0
 11
111.2999999999992
 21
-268.2082624560909
 31
0.0
  0
LINE
  5
2CE0
330
2DFA
100
AcDbEntity
  8
0
 62
     0
100
AcDbLine
 10
-64.52283758430167
 20
-147.9933701764194
 30
0.0
 11
111.2999999999956
 21
-265.2082959206727
 31
0.0
  0
LINE
  5
2CE1
330
2DFA
100
AcDbEntity
  8
0
 62
     0
100
AcDbLine
 10
-60.02287629041529
 20
-147.9933701764203
 30
0.0
 11
111.2999999999974
 21
-262.2083293852583
 31
0.0
  0
LINE
  5
2CE2
330
2DFA
100
AcDbEntity
  8
0
 62
     0
100
AcDbLine
 10
-55.52291499652891
 20
-147.9933701764203
 30
0.0
 11
111.2999999999956
 21
-259.2083628498413
 31
0.0
  0
LINE
  5
2CE3
330
2DFA
100
AcDbEntity
  8
0
 62
     0
100
AcDbLine
 10
-51.02295370264619
 20
-147.9933701764194
 30
0.0
 11
111.2999999999974
 21
-256.208396314426
 31
0.0
  0
LINE
  5
2CE4
330
2DFA
100
AcDbEntity
  8
0
 62
     0
100
AcDbLine
 10
-46.522992408758
 20
-147.9933701764194
 30
0.0
 11
111.2999999999974
 21
-253.2084297790088
 31
0.0
  0
LINE
  5
2CE5
330
2DFA
100
AcDbEntity
  8
0
 62
     0
100
AcDbLine
 10
-42.02303111487345
 20
-147.9933701764212
 30
0.0
 11
111.2999999999974
 21
-250.2084632435936
 31
0.0
  0
LINE
  5
2CE6
330
2DFA
100
AcDbEntity
  8
0
 62
     0
100
AcDbLine
 10
-37.5230698209889
 20
-147.9933701764184
 30
0.0
 11
111.2999999999974
 21
-247.2084967081773
 31
0.0
  0
LINE
  5
2CE7
330
2DFA
100
AcDbEntity
  8
0
 62
     0
100
AcDbLine
 10
-33.02310852710434
 20
-147.9933701764203
 30
0.0
 11
111.2999999999956
 21
-244.2085301727611
 31
0.0
  0
LINE
  5
2CE8
330
2DFA
100
AcDbEntity
  8
0
 62
     0
100
AcDbLine
 10
-28.52314723321979
 20
-147.9933701764175
 30
0.0
 11
111.2999999999974
 21
-241.2085636373449
 31
0.0
  0
LINE
  5
2CE9
330
2DFA
100
AcDbEntity
  8
0
 62
     0
100
AcDbLine
 10
-24.02318593932978
 20
-147.9933701764212
 30
0.0
 11
111.2999999999974
 21
-238.2085971019287
 31
0.0
  0
LINE
  5
2CEA
330
2DFA
100
AcDbEntity
  8
0
 62
     0
100
AcDbLine
 10
-19.52322464544704
 20
-147.9933701764194
 30
0.0
 11
111.2999999999974
 21
-235.2086305665116
 31
0.0
  0
LINE
  5
2CEB
330
2DFA
100
AcDbEntity
  8
0
 62
     0
100
AcDbLine
 10
-15.02326335156067
 20
-147.9933701764203
 30
0.0
 11
111.2999999999974
 21
-232.2086640310972
 31
0.0
  0
LINE
  5
2CEC
330
2DFA
100
AcDbEntity
  8
0
 62
     0
100
AcDbLine
 10
-10.52330205767794
 20
-147.9933701764184
 30
0.0
 11
111.2999999999974
 21
-229.2086974956801
 31
0.0
  0
LINE
  5
2CED
330
2DFA
100
AcDbEntity
  8
0
 62
     0
100
AcDbLine
 10
-6.023340763787928
 20
-147.9933701764203
 30
0.0
 11
111.2999999999974
 21
-226.208730960263
 31
0.0
  0
LINE
  5
2CEE
330
2DFA
100
AcDbEntity
  8
0
 62
     0
100
AcDbLine
 10
-1.523379469905193
 20
-147.9933701764194
 30
0.0
 11
111.2999999999956
 21
-223.2087644248468
 31
0.0
  0
LINE
  5
2CEF
330
2DFA
100
AcDbEntity
  8
0
 62
     0
100
AcDbLine
 10
2.976581823981176
 20
-147.9933701764194
 30
0.0
 11
111.2999999999974
 21
-220.2087978894306
 31
0.0
  0
LINE
  5
2CF0
330
2DFA
100
AcDbEntity
  8
0
 62
     0
100
AcDbLine
 10
7.476543117869367
 20
-147.9933701764203
 30
0.0
 11
111.2999999999974
 21
-217.2088313540144
 31
0.0
  0
LINE
  5
2CF1
330
2DFA
100
AcDbEntity
  8
0
 62
     0
100
AcDbLine
 10
11.97650441175028
 20
-147.9933701764184
 30
0.0
 11
111.2999999999956
 21
-214.2088648185981
 31
0.0
  0
LINE
  5
2CF2
330
2DFA
100
AcDbEntity
  8
0
 62
     0
100
AcDbLine
 10
16.47646570563847
 20
-147.9933701764194
 30
0.0
 11
111.2999999999974
 21
-211.2088982831829
 31
0.0
  0
LINE
  5
2CF3
330
2DFA
100
AcDbEntity
  8
0
 62
     0
100
AcDbLine
 10
20.97642699952121
 20
-147.9933701764175
 30
0.0
 11
111.2999999999956
 21
-208.2089317477657
 31
0.0
  0
LINE
  5
2CF4
330
2DFA
100
AcDbEntity
  8
0
 62
     0
100
AcDbLine
 10
25.47638829341122
 20
-147.9933701764212
 30
0.0
 11
111.2999999999974
 21
-205.2089652123505
 31
0.0
  0
LINE
  5
2CF5
330
2DFA
100
AcDbEntity
  8
0
 62
     0
100
AcDbLine
 10
29.97634958729396
 20
-147.9933701764184
 30
0.0
 11
111.2999999999974
 21
-202.2089986769333
 31
0.0
  0
LINE
  5
2CF6
330
2DFA
100
AcDbEntity
  8
0
 62
     0
100
AcDbLine
 10
34.47631088118033
 20
-147.9933701764203
 30
0.0
 11
111.2999999999974
 21
-199.2090321415188
 31
0.0
  0
LINE
  5
2CF7
330
2DFA
100
AcDbEntity
  8
0
 62
     0
100
AcDbLine
 10
38.97627217506489
 20
-147.9933701764175
 30
0.0
 11
111.2999999999956
 21
-196.2090656061009
 31
0.0
  0
LINE
  5
2CF8
330
2DFA
100
AcDbEntity
  8
0
 62
     0
100
AcDbLine
 10
43.47623346895305
 20
-147.9933701764212
 30
0.0
 11
111.2999999999956
 21
-193.2090990706855
 31
0.0
  0
LINE
  5
2CF9
330
2DFA
100
AcDbEntity
  8
0
 62
     0
100
AcDbLine
 10
47.97619476283579
 20
-147.9933701764194
 30
0.0
 11
111.2999999999956
 21
-190.2091325352684
 31
0.0
  0
LINE
  5
2CFA
330
2DFA
100
AcDbEntity
  8
0
 62
     0
100
AcDbLine
 10
52.47615605672399
 20
-147.9933701764184
 30
0.0
 11
111.2999999999974
 21
-187.2091659998514
 31
0.0
  0
LINE
  5
2CFB
330
2DFA
100
AcDbEntity
  8
0
 62
     0
100
AcDbLine
 10
56.97611735060855
 20
-147.9933701764203
 30
0.0
 11
111.2999999999974
 21
-184.209199464437
 31
0.0
  0
LINE
  5
2CFC
330
2DFA
100
AcDbEntity
  8
0
 62
     0
100
AcDbLine
 10
61.47607864449675
 20
-147.9933701764203
 30
0.0
 11
111.2999999999974
 21
-181.2092329290199
 31
0.0
  0
LINE
  5
2CFD
330
2DFA
100
AcDbEntity
  8
0
 62
     0
100
AcDbLine
 10
65.97603993837765
 20
-147.9933701764194
 30
0.0
 11
111.2999999999974
 21
-178.2092663936046
 31
0.0
  0
LINE
  5
2CFE
330
2DFA
100
AcDbEntity
  8
0
 62
     0
100
AcDbLine
 10
70.47600123226584
 20
-147.9933701764194
 30
0.0
 11
111.2999999999974
 21
-175.2092998581874
 31
0.0
  0
LINE
  5
2CFF
330
2DFA
100
AcDbEntity
  8
0
 62
     0
100
AcDbLine
 10
74.97596252615038
 20
-147.9933701764203
 30
0.0
 11
111.2999999999974
 21
-172.2093333227722
 31
0.0
  0
LINE
  5
2D00
330
2DFA
100
AcDbEntity
  8
0
 62
     0
100
AcDbLine
 10
79.47592382003495
 20
-147.9933701764184
 30
0.0
 11
111.2999999999956
 21
-169.2093667873541
 31
0.0
  0
LINE
  5
2D01
330
2DFA
100
AcDbEntity
  8
0
 62
     0
100
AcDbLine
 10
83.97588511392131
 20
-147.9933701764194
 30
0.0
 11
111.2999999999974
 21
-166.2094002519397
 31
0.0
  0
LINE
  5
2D02
330
2DFA
100
AcDbEntity
  8
0
 62
     0
100
AcDbLine
 10
88.47584640780405
 20
-147.9933701764175
 30
0.0
 11
111.2999999999956
 21
-163.2094337165226
 31
0.0
  0
LINE
  5
2D03
330
2DFA
100
AcDbEntity
  8
0
 62
     0
100
AcDbLine
 10
92.97580770169407
 20
-147.9933701764212
 30
0.0
 11
111.2999999999974
 21
-160.2094671811073
 31
0.0
  0
LINE
  5
2D04
330
2DFA
100
AcDbEntity
  8
0
 62
     0
100
AcDbLine
 10
97.4757689955768
 20
-147.9933701764184
 30
0.0
 11
111.2999999999956
 21
-157.2095006456902
 31
0.0
  0
LINE
  5
2D05
330
2DFA
100
AcDbEntity
  8
0
 62
     0
100
AcDbLine
 10
101.9757302894632
 20
-147.9933701764203
 30
0.0
 11
111.2999999999974
 21
-154.2095341102748
 31
0.0
  0
LINE
  5
2D06
330
2DFA
100
AcDbEntity
  8
0
 62
     0
100
AcDbLine
 10
106.4756915833477
 20
-147.9933701764175
 30
0.0
 11
111.2999999999974
 21
-151.2095675748587
 31
0.0
  0
LINE
  5
2D07
330
2DFA
100
AcDbEntity
  8
0
 62
     0
100
AcDbLine
 10
110.9756528772359
 20
-147.9933701764194
 30
0.0
 11
111.2999999999974
 21
-148.2096010394416
 31
0.0
  0
ENDBLK
  5
2D09
330
2DFA
100
AcDbEntity
  8
0
100
AcDbBlockEnd
  0
ENDSEC
  0
SECTION
  2
ENTITIES
  0
TEXT
  5
953
330
2D7D
100
AcDbEntity
  8
OUTLINE
  6
Continuous
 62
     3
100
AcDbText
 10
-418.231467
 20
13.715189
 30
0.0
 40
64.0
  1
 
 41
0.9
100
AcDbText
  0
TEXT
  5
954
330
2D7D
100
AcDbEntity
  8
OUTLINE
  6
Continuous
 62
     3
100
AcDbText
 10
-418.231467
 20
13.715189
 30
0.0
 40
64.0
  1
 
 41
0.9
100
AcDbText
  0
TEXT
  5
955
330
2D7D
100
AcDbEntity
  8
OUTLINE
  6
Continuous
 62
     3
100
AcDbText
 10
1341.41903
 20
-706.0588199999997
 30
0.0
 40
64.0
  1
 
 41
0.9
100
AcDbText
  0
TEXT
  5
956
330
2D7D
100
AcDbEntity
  8
OUTLINE
  6
Continuous
 62
     3
100
AcDbText
 10
1341.41903
 20
-706.0588199999997
 30
0.0
 40
64.0
  1
 
 41
0.9
100
AcDbText
  0
TEXT
  5
957
330
2D7D
100
AcDbEntity
  8
OUTLINE
  6
Continuous
 62
     3
100
AcDbText
 10
1341.41903
 20
-706.0588199999997
 30
0.0
 40
64.0
  1
 
 41
0.9
100
AcDbText
  0
TEXT
  5
958
330
2D7D
100
AcDbEntity
  8
OUTLINE
  6
Continuous
 62
     3
100
AcDbText
 10
1341.41903
 20
-706.0588199999997
 30
0.0
 40
64.0
  1
 
 41
0.9
100
AcDbText
  0
LINE
  5
2830
330
2D7D
100
AcDbEntity
  8
DETAIL
100
AcDbLine
 10
111.2999999999992
 20
-147.993370176418
 30
0.0
 11
111.2999999999992
 21
-341.7933701764182
 31
0.0
  0
LINE
  5
2831
330
2D7D
100
AcDbEntity
  8
DETAIL
100
AcDbLine
 10
111.2999999999992
 20
-147.993370176418
 30
0.0
 11
-104.5
 21
-147.993370176418
 31
0.0
  0
LINE
  5
2832
330
2D7D
100
AcDbEntity
  8
DETAIL
100
AcDbLine
 10
111.2999999999992
 20
-147.993370176418
 30
0.0
 11
111.2999999999992
 21
-341.7933701764182
 31
0.0
  0
LINE
  5
2833
330
2D7D
100
AcDbEntity
  8
DETAIL
100
AcDbLine
 10
111.2999999999992
 20
-147.993370176418
 30
0.0
 11
-104.5
 21
-147.993370176418
 31
0.0
  0
TEXT
  5
2834
330
2D7D
100
AcDbEntity
  8
ETC
100
AcDbText
 10
256.2468308916468
 20
526.6033796518071
 30
0.0
 40
64.0
  1
システム部材
 41
0.9
100
AcDbText
  0
TEXT
  5
2835
330
2D7D
100
AcDbEntity
  8
ETC
100
AcDbText
 10
262.4548288916485
 20
627.4867056518074
 30
0.0
 40
64.0
  1
QWH-20SAM_6
 41
0.9
100
AcDbText
  0
TEXT
  5
2836
330
2D7D
100
AcDbEntity
  8
ETC
100
AcDbText
 10
262.4548288916485
 20
427.4867056518074
 30
0.0
 40
64.0
  1
QWH-20SAM
 41
0.9
100
AcDbText
  0
LINE
  5
2837
330
2D7D
100
AcDbEntity
  8
SIZE
100
AcDbLine
 10
135.5
 20
-449.9999999999994
 30
0.0
 11
135.5
 21
-581.659366639044
 31
0.0
  0
LINE
  5
2838
330
2D7D
100
AcDbEntity
  8
SIZE
100
AcDbLine
 10
-135.5
 20
-449.9999999999994
 30
0.0
 11
-135.5
 21
-581.659366639044
 31
0.0
  0
LINE
  5
2839
330
2D7D
100
AcDbEntity
  8
SIZE
100
AcDbLine
 10
123.5
 20
-561.659366639044
 30
0.0
 11
-123.5
 21
-561.659366639044
 31
0.0
  0
INSERT
  5
283A
330
2D7D
100
AcDbEntity
  8
SIZE
100
AcDbBlockReference
  2
_DOTBLANK
 10
135.5
 20
-561.659366639044
 30
0.0
 41
12.0
 42
12.0
 43
12.0
  0
INSERT
  5
283B
330
2D7D
100
AcDbEntity
  8
SIZE
100
AcDbBlockReference
  2
_DOTBLANK
 10
-135.5
 20
-561.659366639044
 30
0.0
 41
12.0
 42
12.0
 43
12.0
 50
180.0
  0
TEXT
  5
283C
330
2D7D
100
AcDbEntity
  8
SIZE
100
AcDbText
 10
-61.71428571428577
 20
-551.659366639044
 30
0.0
 40
64.0
  1
271
 41
0.9
100
AcDbText
  0
CIRCLE
  5
283D
330
2D7D
100
AcDbEntity
  8
ARRANGE
100
AcDbCircle
 10
0.0
 20
-0.0000000986733539
 30
0.0
 40
40.0
  0
LINE
  5
283E
330
2D7D
100
AcDbEntity
  8
SIZE
100
AcDbLine
 10
140.0
 20
32.49999999999956
 30
0.0
 11
140.0
 21
180.3320910096172
 31
0.0
  0
LINE
  5
283F
330
2D7D
100
AcDbEntity
  8
SIZE
100
AcDbLine
 10
-140.0
 20
32.50000000000046
 30
0.0
 11
-140.0
 21
180.3320910096172
 31
0.0
  0
LINE
  5
2840
330
2D7D
100
AcDbEntity
  8
SIZE
100
AcDbLine
 10
128.0
 20
160.3320910096172
 30
0.0
 11
-128.0
 21
160.3320910096172
 31
0.0
  0
INSERT
  5
2841
330
2D7D
100
AcDbEntity
  8
SIZE
100
AcDbBlockReference
  2
_DOTBLANK
 10
140.0
 20
160.3320910096172
 30
0.0
 41
12.0
 42
12.0
 43
12.0
  0
INSERT
  5
2842
330
2D7D
100
AcDbEntity
  8
SIZE
100
AcDbBlockReference
  2
_DOTBLANK
 10
-140.0
 20
160.3320910096172
 30
0.0
 41
12.0
 42
12.0
 43
12.0
 50
180.0
  0
TEXT
  5
2843
330
2D7D
100
AcDbEntity
  8
SIZE
100
AcDbText
 10
-74.61302049113966
 20
170.3320910096172
 30
0.0
 40
64.0
  1
280
 41
0.9
100
AcDbText
  0
LINE
  5
2844
330
2D7D
100
AcDbEntity
  8
SIZE
100
AcDbLine
 10
157.5
 20
20.00000000000046
 30
0.0
 11
157.5
 21
298.8865929365169
 31
0.0
  0
LINE
  5
2845
330
2D7D
100
AcDbEntity
  8
SIZE
100
AcDbLine
 10
-157.5
 20
20.00000000000046
 30
0.0
 11
-157.5
 21
298.8865929365169
 31
0.0
  0
LINE
  5
2846
330
2D7D
100
AcDbEntity
  8
SIZE
100
AcDbLine
 10
145.5
 20
278.8865929365169
 30
0.0
 11
-145.5
 21
278.8865929365169
 31
0.0
  0
INSERT
  5
2847
330
2D7D
100
AcDbEntity
  8
SIZE
100
AcDbBlockReference
  2
_DOTBLANK
 10
157.5
 20
278.8865929365169
 30
0.0
 41
12.0
 42
12.0
 43
12.0
  0
INSERT
  5
2848
330
2D7D
100
AcDbEntity
  8
SIZE
100
AcDbBlockReference
  2
_DOTBLANK
 10
-157.5
 20
278.8865929365169
 30
0.0
 41
12.0
 42
12.0
 43
12.0
 50
180.0
  0
TEXT
  5
2849
330
2D7D
100
AcDbEntity
  8
SIZE
100
AcDbText
 10
-68.57142857142844
 20
288.8865929365169
 30
0.0
 40
64.0
  1
315
 41
0.9
100
AcDbText
  0
LINE
  5
284A
330
2D7D
100
AcDbEntity
  8
NOTE
100
AcDbLine
 10
140.0
 20
12.49999999999954
 30
0.0
 11
140.0
 21
-12.50000000000045
 31
0.0
  0
LINE
  5
284B
330
2D7D
100
AcDbEntity
  8
NOTE
100
AcDbLine
 10
-140.0
 20
12.50000000000045
 30
0.0
 11
-140.0
 21
-12.49999999999954
 31
0.0
  0
POINT
  5
284C
330
2D7D
100
AcDbEntity
  8
ARRANGE
100
AcDbPoint
 10
0.0
 20
0.0000000000004547
 30
0.0
 39
50.0
  0
LINE
  5
284D
330
2D7D
100
AcDbEntity
  8
BASIS
100
AcDbLine
 10
0.0
 20
-465.9999999999994
 30
0.0
 11
0.0
 21
24.99999999999956
 31
0.0
  0
LINE
  5
284E
330
2D7D
100
AcDbEntity
  8
SIZE
100
AcDbLine
 10
-177.5
 20
0.0000000000004547
 30
0.0
 11
-343.6294636086022
 21
0.0000000000004547
 31
0.0
  0
LINE
  5
284F
330
2D7D
100
AcDbEntity
  8
SIZE
100
AcDbLine
 10
-155.2999999999993
 20
-429.9999999999995
 30
0.0
 11
-343.6294636086022
 21
-429.9999999999995
 31
0.0
  0
LINE
  5
2850
330
2D7D
100
AcDbEntity
  8
SIZE
100
AcDbLine
 10
-323.6294636086022
 20
-11.99999999999954
 30
0.0
 11
-323.6294636086022
 21
-417.9999999999995
 31
0.0
  0
INSERT
  5
2851
330
2D7D
100
AcDbEntity
  8
SIZE
100
AcDbBlockReference
  2
_DOTBLANK
 10
-323.6294636086022
 20
0.0000000000004547
 30
0.0
 41
12.0
 42
12.0
 43
12.0
 50
90.0
  0
INSERT
  5
2852
330
2D7D
100
AcDbEntity
  8
SIZE
100
AcDbBlockReference
  2
_DOTBLANK
 10
-323.6294636086022
 20
-429.9999999999995
 30
0.0
 41
12.0
 42
12.0
 43
12.0
 50
270.0
  0
TEXT
  5
2853
330
2D7D
100
AcDbEntity
  8
SIZE
100
AcDbText
 10
-333.6294636086023
 20
-289.0571428571424
 30
0.0
 40
64.0
  1
430
 50
90.0
 41
0.9
100
AcDbText
  0
LINE
  5
2854
330
2D7D
100
AcDbEntity
  8
DETAIL
100
AcDbLine
 10
-123.0999999999985
 20
-440.9999999999994
 30
0.0
 11
-123.0999999999985
 21
-429.9999999999995
 31
0.0
  0
LINE
  5
2855
330
2D7D
100
AcDbEntity
  8
DETAIL
100
AcDbLine
 10
123.0999999999985
 20
-440.9999999999994
 30
0.0
 11
-123.0999999999985
 21
-440.9999999999994
 31
0.0
  0
LINE
  5
2856
330
2D7D
100
AcDbEntity
  8
DETAIL
100
AcDbLine
 10
123.0999999999985
 20
-429.9999999999995
 30
0.0
 11
123.0999999999985
 21
-440.9999999999994
 31
0.0
  0
LINE
  5
2857
330
2D7D
100
AcDbEntity
  8
DETAIL
100
AcDbLine
 10
123.0999999999985
 20
-99.75147186257665
 30
0.0
 11
-123.0999999999985
 21
-99.75147186257665
 31
0.0
  0
LINE
  5
2858
330
2D7D
100
AcDbEntity
  8
DETAIL
100
AcDbLine
 10
123.7000000000007
 20
-99.75147186257665
 30
0.0
 11
123.7000000000007
 21
-122.0000000000004
 31
0.0
  0
LINE
  5
2859
330
2D7D
100
AcDbEntity
  8
DETAIL
100
AcDbLine
 10
-123.7000000000007
 20
-99.75147186257665
 30
0.0
 11
-123.7000000000007
 21
-8.000000000000454
 31
0.0
  0
LINE
  5
285A
330
2D7D
100
AcDbEntity
  8
DETAIL
100
AcDbLine
 10
-123.7000000000007
 20
-122.0000000000004
 30
0.0
 11
-123.7000000000007
 21
-99.75147186257572
 31
0.0
  0
LINE
  5
285B
330
2D7D
100
AcDbEntity
  8
DETAIL
100
AcDbLine
 10
-123.0999999999985
 20
-99.75147186257665
 30
0.0
 11
-123.7000000000007
 21
-99.75147186257665
 31
0.0
  0
LINE
  5
285C
330
2D7D
100
AcDbEntity
  8
DETAIL
100
AcDbLine
 10
123.7000000000007
 20
-8.000000000000454
 30
0.0
 11
123.7000000000007
 21
-99.75147186257665
 31
0.0
  0
LINE
  5
285D
330
2D7D
100
AcDbEntity
  8
DETAIL
100
AcDbLine
 10
123.0999999999985
 20
-99.75147186257665
 30
0.0
 11
123.7000000000007
 21
-99.75147186257665
 31
0.0
  0
LINE
  5
285E
330
2D7D
100
AcDbEntity
  8
DETAIL
100
AcDbLine
 10
157.5
 20
-0.0000000000004547
 30
0.0
 11
-157.5
 21
0.0000000000004547
 31
0.0
  0
LINE
  5
285F
330
2D7D
100
AcDbEntity
  8
DETAIL
100
AcDbLine
 10
157.5
 20
-8.000000000000454
 30
0.0
 11
-157.5
 21
-7.999999999999545
 31
0.0
  0
LINE
  5
2860
330
2D7D
100
AcDbEntity
  8
DETAIL
100
AcDbLine
 10
-157.5
 20
-0.0000000000004547
 30
0.0
 11
-157.5
 21
-8.000000000000454
 31
0.0
  0
LINE
  5
2861
330
2D7D
100
AcDbEntity
  8
DETAIL
100
AcDbLine
 10
157.5
 20
-0.0000000000004547
 30
0.0
 11
157.5
 21
-8.000000000000454
 31
0.0
  0
LINE
  5
2862
330
2D7D
100
AcDbEntity
  8
DETAIL
100
AcDbLine
 10
126.0999999999985
 20
-133.2062410677604
 30
0.0
 11
126.0999999999985
 21
-147.8958358562709
 31
0.0
  0
LINE
  5
2863
330
2D7D
100
AcDbEntity
  8
DETAIL
100
AcDbLine
 10
-126.0999999999985
 20
-133.2062410677604
 30
0.0
 11
-126.0999999999985
 21
-147.8958358562709
 31
0.0
  0
LINE
  5
2864
330
2D7D
100
AcDbEntity
  8
DETAIL
100
AcDbLine
 10
-126.0999999999985
 20
-122.0000000000004
 30
0.0
 11
-126.0999999999985
 21
-133.2062410677604
 31
0.0
  0
LINE
  5
2865
330
2D7D
100
AcDbEntity
  8
DETAIL
100
AcDbLine
 10
126.0999999999985
 20
-121.9999999999995
 30
0.0
 11
126.0999999999985
 21
-133.2062410677604
 31
0.0
  0
LINE
  5
2866
330
2D7D
100
AcDbEntity
  8
DETAIL
100
AcDbLine
 10
-126.0999999999985
 20
-147.8958358562709
 30
0.0
 11
-126.0999999999985
 21
-147.993370176418
 31
0.0
  0
LINE
  5
2867
330
2D7D
100
AcDbEntity
  8
DETAIL
100
AcDbLine
 10
-126.0999999999985
 20
-147.993370176418
 30
0.0
 11
126.0999999999985
 21
-147.993370176418
 31
0.0
  0
LINE
  5
2868
330
2D7D
100
AcDbEntity
  8
DETAIL
100
AcDbLine
 10
126.0999999999985
 20
-147.8958358562709
 30
0.0
 11
126.0999999999985
 21
-147.993370176418
 31
0.0
  0
LINE
  5
2869
330
2D7D
100
AcDbEntity
  8
DETAIL
100
AcDbLine
 10
-135.5
 20
-429.9999999999995
 30
0.0
 11
-135.5
 21
-122.0000000000004
 31
0.0
  0
LINE
  5
286A
330
2D7D
100
AcDbEntity
  8
DETAIL
100
AcDbLine
 10
-111.2999999999992
 20
-428.5827617420476
 30
0.0
 11
-126.0999999999985
 21
-428.5827617420476
 31
0.0
  0
LINE
  5
286B
330
2D7D
100
AcDbEntity
  8
OUTLINE
100
AcDbLine
 10
-111.2999999999992
 20
-428.4852274218997
 30
0.0
 11
-111.2999999999992
 21
-428.5827617420476
 31
0.0
  0
LINE
  5
286C
330
2D7D
100
AcDbEntity
  8
DETAIL
100
AcDbLine
 10
-126.0999999999985
 20
-428.5827617420476
 30
0.0
 11
-126.0999999999985
 21
-147.9933701764162
 31
0.0
  0
LINE
  5
286D
330
2D7D
100
AcDbEntity
  8
DETAIL
100
AcDbLine
 10
-126.0999999999985
 20
-428.4852274218997
 30
0.0
 11
-111.2999999999992
 21
-428.4852274218997
 31
0.0
  0
LINE
  5
286E
330
2D7D
100
AcDbEntity
  8
DETAIL
100
AcDbLine
 10
-111.2999999999992
 20
-428.4852274218997
 30
0.0
 11
-111.2999999999992
 21
-147.993370176418
 31
0.0
  0
LINE
  5
286F
330
2D7D
100
AcDbEntity
  8
DETAIL
100
AcDbLine
 10
135.5
 20
-121.9999999999995
 30
0.0
 11
135.5
 21
-429.9999999999995
 31
0.0
  0
LINE
  5
2870
330
2D7D
100
AcDbEntity
  8
DETAIL
100
AcDbLine
 10
111.2999999999992
 20
-428.5827617420476
 30
0.0
 11
126.0999999999985
 21
-428.5827617420476
 31
0.0
  0
LINE
  5
2871
330
2D7D
100
AcDbEntity
  8
OUTLINE
100
AcDbLine
 10
111.2999999999992
 20
-428.4852274218997
 30
0.0
 11
111.2999999999992
 21
-428.5827617420476
 31
0.0
  0
LINE
  5
2872
330
2D7D
100
AcDbEntity
  8
DETAIL
100
AcDbLine
 10
111.2999999999992
 20
-147.993370176418
 30
0.0
 11
111.2999999999992
 21
-428.4852274219006
 31
0.0
  0
LINE
  5
2873
330
2D7D
100
AcDbEntity
  8
DETAIL
100
AcDbLine
 10
126.0999999999985
 20
-428.4852274218997
 30
0.0
 11
111.2999999999992
 21
-428.4852274218997
 31
0.0
  0
LINE
  5
2874
330
2D7D
100
AcDbEntity
  8
DETAIL
100
AcDbLine
 10
126.0999999999985
 20
-147.993370176418
 30
0.0
 11
126.0999999999985
 21
-428.5827617420476
 31
0.0
  0
LINE
  5
2875
330
2D7D
100
AcDbEntity
  8
DETAIL
100
AcDbLine
 10
111.2999999999992
 20
-427.9559752541866
 30
0.0
 11
-111.2999999999992
 21
-427.9559752541866
 31
0.0
  0
LINE
  5
2876
330
2D7D
100
AcDbEntity
  8
DETAIL
100
AcDbLine
 10
-111.2999999999992
 20
-415.0080808012011
 30
0.0
 11
111.2999999999992
 21
-415.0080808012011
 31
0.0
  0
LINE
  5
2877
330
2D7D
100
AcDbEntity
  8
DETAIL
100
AcDbLine
 10
-135.5
 20
-429.9999999999995
 30
0.0
 11
135.5
 21
-429.9999999999995
 31
0.0
  0
LINE
  5
2878
330
2D7D
100
AcDbEntity
  8
DETAIL
100
AcDbLine
 10
126.0999999999985
 20
-135.0000000000004
 30
0.0
 11
-126.0999999999985
 21
-134.9999999999995
 31
0.0
  0
LINE
  5
2879
330
2D7D
100
AcDbEntity
  8
DETAIL
100
AcDbLine
 10
135.5
 20
-121.9999999999995
 30
0.0
 11
-135.5
 21
-122.0000000000004
 31
0.0
  0
LINE
  5
287A
330
2D7D
100
AcDbEntity
  8
DETAIL
100
AcDbLine
 10
-111.2999999999992
 20
-147.993370176418
 30
0.0
 11
111.2999999999992
 21
-147.993370176418
 31
0.0
  0
LINE
  5
287B
330
2D7D
100
AcDbEntity
  8
DETAIL
100
AcDbLine
 10
-111.2999999999992
 20
-147.993370176418
 30
0.0
 11
-111.2999999999992
 21
-415.0080808012011
 31
0.0
  0
LINE
  5
287C
330
2D7D
100
AcDbEntity
  8
DETAIL
100
AcDbLine
 10
111.2999999999992
 20
-147.993370176418
 30
0.0
 11
111.2999999999992
 21
-415.0080808012011
 31
0.0
  0
LINE
  5
287D
330
2D7D
100
AcDbEntity
  8
SIZE
100
AcDbLine
 10
177.5
 20
-0.0000000000004547
 30
0.0
 11
288.6635928451542
 21
-0.0000000000004547
 31
0.0
  0
LINE
  5
287E
330
2D7D
100
AcDbEntity
  8
SIZE
100
AcDbLine
 10
177.5
 20
-8.000000000000454
 30
0.0
 11
288.6635928451542
 21
-8.000000000000454
 31
0.0
  0
LINE
  5
287F
330
2D7D
100
AcDbEntity
  8
SIZE
100
AcDbLine
 10
268.6635928451542
 20
11.99999999999954
 30
0.0
 11
268.6635928451542
 21
23.99999999999955
 31
0.0
  0
LINE
  5
2880
330
2D7D
100
AcDbEntity
  8
SIZE
100
AcDbLine
 10
268.6635928451542
 20
-20.00000000000046
 30
0.0
 11
268.6635928451542
 21
-90.40000000000047
 31
0.0
  0
LINE
  5
2881
330
2D7D
100
AcDbEntity
  8
SIZE
100
AcDbLine
 10
268.6635928451542
 20
-0.0000000000004547
 30
0.0
 11
268.6635928451542
 21
-8.000000000000454
 31
0.0
  0
INSERT
  5
2882
330
2D7D
100
AcDbEntity
  8
SIZE
100
AcDbBlockReference
  2
_DOTBLANK
 10
268.6635928451542
 20
-0.0000000000004547
 30
0.0
 41
12.0
 42
12.0
 43
12.0
 50
270.0
  0
INSERT
  5
2883
330
2D7D
100
AcDbEntity
  8
SIZE
100
AcDbBlockReference
  2
_DOTBLANK
 10
268.6635928451542
 20
-8.000000000000454
 30
0.0
 41
12.0
 42
12.0
 43
12.0
 50
90.0
  0
TEXT
  5
2884
330
2D7D
100
AcDbEntity
  8
SIZE
100
AcDbText
 10
258.6635928451542
 20
-80.40000000000043
 30
0.0
 40
64.0
  1
8
 50
90.0
 41
0.9
100
AcDbText
  0
LINE
  5
2885
330
2D7D
100
AcDbEntity
  8
SIZE
100
AcDbLine
 10
-155.5
 20
-429.9999999999995
 30
0.0
 11
-343.6294636086022
 21
-429.9999999999995
 31
0.0
  0
LINE
  5
2886
330
2D7D
100
AcDbEntity
  8
SIZE
100
AcDbLine
 10
-143.0999999999985
 20
-440.9999999999993
 30
0.0
 11
-343.6294636086022
 21
-440.9999999999993
 31
0.0
  0
LINE
  5
2887
330
2D7D
100
AcDbEntity
  8
SIZE
100
AcDbLine
 10
-323.6294636086022
 20
-417.9999999999995
 30
0.0
 11
-323.6294636086022
 21
-405.9999999999995
 31
0.0
  0
LINE
  5
2888
330
2D7D
100
AcDbEntity
  8
SIZE
100
AcDbLine
 10
-323.6294636086022
 20
-452.9999999999993
 30
0.0
 11
-323.6294636086022
 21
-542.5999999999993
 31
0.0
  0
LINE
  5
2889
330
2D7D
100
AcDbEntity
  8
SIZE
100
AcDbLine
 10
-323.6294636086022
 20
-429.9999999999995
 30
0.0
 11
-323.6294636086022
 21
-440.9999999999993
 31
0.0
  0
INSERT
  5
288A
330
2D7D
100
AcDbEntity
  8
SIZE
100
AcDbBlockReference
  2
_DOTBLANK
 10
-323.6294636086022
 20
-429.9999999999995
 30
0.0
 41
12.0
 42
12.0
 43
12.0
 50
270.0
  0
INSERT
  5
288B
330
2D7D
100
AcDbEntity
  8
SIZE
100
AcDbBlockReference
  2
_DOTBLANK
 10
-323.6294636086022
 20
-440.9999999999993
 30
0.0
 41
12.0
 42
12.0
 43
12.0
 50
90.0
  0
TEXT
  5
288C
330
2D7D
100
AcDbEntity
  8
SIZE
100
AcDbText
 10
-333.6294636086023
 20
-532.5999999999994
 30
0.0
 40
64.0
  1
11
 50
90.0
 41
0.9
100
AcDbText
  0
LINE
  5
288D
330
2D7D
100
AcDbEntity
  8
NOTE
100
AcDbLine
 39
50.0
 10
-152.5
 20
0.0000000000004547
 30
0.0
 11
-127.5
 21
0.0000000000004547
 31
0.0
  0
LINE
  5
288E
330
2D7D
100
AcDbEntity
  8
NOTE
100
AcDbLine
 39
50.0
 10
127.5
 20
-0.0000000000004547
 30
0.0
 11
152.5
 21
-0.0000000000004547
 31
0.0
  0
LINE
  5
288F
330
2D7D
100
AcDbEntity
  8
OUTLINE
100
AcDbLine
 39
50.0
 10
-157.5
 20
-0.0000000000004547
 30
0.0
 11
157.5
 21
-0.0000000000004547
 31
0.0
  0
LINE
  5
2890
330
2D7D
100
AcDbEntity
  8
OUTLINE
100
AcDbLine
 10
-123.0999999999985
 20
-440.9999999999994
 30
0.0
 11
-123.0999999999985
 21
-429.9999999999995
 31
0.0
  0
LINE
  5
2891
330
2D7D
100
AcDbEntity
  8
OUTLINE
100
AcDbLine
 10
123.0999999999985
 20
-440.9999999999994
 30
0.0
 11
-123.0999999999985
 21
-440.9999999999994
 31
0.0
  0
LINE
  5
2892
330
2D7D
100
AcDbEntity
  8
OUTLINE
100
AcDbLine
 10
123.0999999999985
 20
-429.9999999999995
 30
0.0
 11
123.0999999999985
 21
-440.9999999999994
 31
0.0
  0
LINE
  5
2893
330
2D7D
100
AcDbEntity
  8
OUTLINE
100
AcDbLine
 10
123.0999999999985
 20
-99.75147186257665
 30
0.0
 11
-123.0999999999985
 21
-99.75147186257665
 31
0.0
  0
LINE
  5
2894
330
2D7D
100
AcDbEntity
  8
OUTLINE
100
AcDbLine
 10
123.7000000000007
 20
-99.75147186257665
 30
0.0
 11
123.7000000000007
 21
-122.0000000000004
 31
0.0
  0
LINE
  5
2895
330
2D7D
100
AcDbEntity
  8
OUTLINE
100
AcDbLine
 10
-123.7000000000007
 20
-99.75147186257665
 30
0.0
 11
-123.7000000000007
 21
-8.000000000000454
 31
0.0
  0
LINE
  5
2896
330
2D7D
100
AcDbEntity
  8
OUTLINE
100
AcDbLine
 10
-123.7000000000007
 20
-122.0000000000004
 30
0.0
 11
-123.7000000000007
 21
-99.75147186257572
 31
0.0
  0
LINE
  5
2897
330
2D7D
100
AcDbEntity
  8
OUTLINE
100
AcDbLine
 10
123.7000000000007
 20
-8.000000000000454
 30
0.0
 11
123.7000000000007
 21
-99.75147186257665
 31
0.0
  0
LINE
  5
2898
330
2D7D
100
AcDbEntity
  8
OUTLINE
100
AcDbLine
 10
157.5
 20
-8.000000000000454
 30
0.0
 11
-157.5
 21
-7.999999999999545
 31
0.0
  0
LINE
  5
2899
330
2D7D
100
AcDbEntity
  8
OUTLINE
100
AcDbLine
 10
-157.5
 20
-0.0000000000004547
 30
0.0
 11
-157.5
 21
-8.000000000000454
 31
0.0
  0
LINE
  5
289A
330
2D7D
100
AcDbEntity
  8
OUTLINE
100
AcDbLine
 10
157.5
 20
-0.0000000000004547
 30
0.0
 11
157.5
 21
-8.000000000000454
 31
0.0
  0
LINE
  5
289B
330
2D7D
100
AcDbEntity
  8
OUTLINE
100
AcDbLine
 10
126.0999999999985
 20
-133.2062410677604
 30
0.0
 11
126.0999999999985
 21
-147.8958358562709
 31
0.0
  0
LINE
  5
289C
330
2D7D
100
AcDbEntity
  8
OUTLINE
100
AcDbLine
 10
-126.0999999999985
 20
-133.2062410677604
 30
0.0
 11
-126.0999999999985
 21
-147.8958358562709
 31
0.0
  0
LINE
  5
289D
330
2D7D
100
AcDbEntity
  8
OUTLINE
100
AcDbLine
 10
-126.0999999999985
 20
-122.0000000000004
 30
0.0
 11
-126.0999999999985
 21
-133.2062410677604
 31
0.0
  0
LINE
  5
289E
330
2D7D
100
AcDbEntity
  8
OUTLINE
100
AcDbLine
 10
126.0999999999985
 20
-121.9999999999995
 30
0.0
 11
126.0999999999985
 21
-133.2062410677604
 31
0.0
  0
LINE
  5
289F
330
2D7D
100
AcDbEntity
  8
OUTLINE
100
AcDbLine
 10
-135.5
 20
-429.9999999999995
 30
0.0
 11
-135.5
 21
-122.0000000000004
 31
0.0
  0
LINE
  5
28A0
330
2D7D
100
AcDbEntity
  8
OUTLINE
100
AcDbLine
 10
-111.2999999999992
 20
-428.5827617420476
 30
0.0
 11
-126.0999999999985
 21
-428.5827617420476
 31
0.0
  0
LINE
  5
28A1
330
2D7D
100
AcDbEntity
  8
OUTLINE
100
AcDbLine
 10
-126.0999999999985
 20
-428.5827617420476
 30
0.0
 11
-126.0999999999985
 21
-147.9933701764162
 31
0.0
  0
LINE
  5
28A2
330
2D7D
100
AcDbEntity
  8
OUTLINE
100
AcDbLine
 10
-126.0999999999985
 20
-428.4852274218997
 30
0.0
 11
-111.2999999999992
 21
-428.4852274218997
 31
0.0
  0
LINE
  5
28A3
330
2D7D
100
AcDbEntity
  8
OUTLINE
100
AcDbLine
 10
135.5
 20
-121.9999999999995
 30
0.0
 11
135.5
 21
-429.9999999999995
 31
0.0
  0
LINE
  5
28A4
330
2D7D
100
AcDbEntity
  8
OUTLINE
100
AcDbLine
 10
111.2999999999992
 20
-428.5827617420476
 30
0.0
 11
126.0999999999985
 21
-428.5827617420476
 31
0.0
  0
LINE
  5
28A5
330
2D7D
100
AcDbEntity
  8
OUTLINE
100
AcDbLine
 10
126.0999999999985
 20
-428.4852274218997
 30
0.0
 11
111.2999999999992
 21
-428.4852274218997
 31
0.0
  0
LINE
  5
28A6
330
2D7D
100
AcDbEntity
  8
OUTLINE
100
AcDbLine
 10
126.0999999999985
 20
-147.993370176418
 30
0.0
 11
126.0999999999985
 21
-428.5827617420476
 31
0.0
  0
LINE
  5
28A7
330
2D7D
100
AcDbEntity
  8
OUTLINE
100
AcDbLine
 10
111.2999999999992
 20
-427.9559752541866
 30
0.0
 11
-111.2999999999992
 21
-427.9559752541866
 31
0.0
  0
LINE
  5
28A8
330
2D7D
100
AcDbEntity
  8
OUTLINE
100
AcDbLine
 10
-135.5
 20
-429.9999999999995
 30
0.0
 11
135.5
 21
-429.9999999999995
 31
0.0
  0
LINE
  5
28A9
330
2D7D
100
AcDbEntity
  8
OUTLINE
100
AcDbLine
 10
126.0999999999985
 20
-135.0000000000004
 30
0.0
 11
-126.0999999999985
 21
-134.9999999999995
 31
0.0
  0
LINE
  5
28AA
330
2D7D
100
AcDbEntity
  8
OUTLINE
100
AcDbLine
 10
135.5
 20
-121.9999999999995
 30
0.0
 11
-135.5
 21
-122.0000000000004
 31
0.0
  0
LINE
  5
28AB
330
2D7D
100
AcDbEntity
  8
OUTLINE
100
AcDbLine
 10
-123.0999999999985
 20
-99.75147186257665
 30
0.0
 11
-123.7000000000007
 21
-99.75147186257665
 31
0.0
  0
LINE
  5
28AC
330
2D7D
100
AcDbEntity
  8
OUTLINE
100
AcDbLine
 10
123.0999999999985
 20
-99.75147186257665
 30
0.0
 11
123.7000000000007
 21
-99.75147186257665
 31
0.0
  0
LINE
  5
28AD
330
2D7D
100
AcDbEntity
  8
OUTLINE
100
AcDbLine
 10
-126.0999999999985
 20
-147.8958358562709
 30
0.0
 11
-126.0999999999985
 21
-147.993370176418
 31
0.0
  0
LINE
  5
28AE
330
2D7D
100
AcDbEntity
  8
OUTLINE
100
AcDbLine
 10
126.0999999999985
 20
-147.8958358562709
 30
0.0
 11
126.0999999999985
 21
-147.993370176418
 31
0.0
  0
INSERT
  5
28AF
330
2D7D
100
AcDbEntity
  8
NOTE
100
AcDbBlockReference
  2
_OPEN30
 10
-140.0
 20
0.0000000000004547
 30
0.0
 41
11.99999999999998
 42
12.0
 43
12.0
 50
312.6090116116894
1001
ACAD
1000
DSTYLE
1002
{
1070
    41
1040
12.0
1070
    42
1040
20.0
1070
    43
1040
200.0
1070
    44
1040
20.0
1070
    73
1070
     0
1070
    74
1070
     0
1070
    77
1070
     1
1070
    78
1070
     8
1070
   140
1040
64.0
1070
   147
1040
50.0
1070
   172
1070
     1
1070
   174
1070
     1
1070
   275
1070
     0
1070
   284
1070
     0
1070
   285
1070
     0
1070
   286
1070
     0
1070
   341
1005
268A
1070
   342
1005
2688
1002
}
  0
POLYLINE
  5
28B0
330
2D7D
100
AcDbEntity
  8
NOTE
100
AcDb2dPolyline
 66
     1
 10
0.0
 20
0.0
 30
0.0
1001
ACAD
1000
DSTYLE
1002
{
1070
    41
1040
12.0
1070
    42
1040
20.0
1070
    43
1040
200.0
1070
    44
1040
20.0
1070
    73
1070
     0
1070
    74
1070
     0
1070
    77
1070
     1
1070
    78
1070
     8
1070
   140
1040
64.0
1070
   147
1040
50.0
1070
   172
1070
     1
1070
   174
1070
     1
1070
   275
1070
     0
1070
   284
1070
     0
1070
   285
1070
     0
1070
   286
1070
     0
1070
   341
1005
268A
1070
   342
1005
2688
1002
}
  0
VERTEX
  5
2B09
330
28B0
100
AcDbEntity
  8
NOTE
100
AcDbVertex
100
AcDb2dVertex
 10
-148.1239008361894
 20
8.831887408915918
 30
0.0
  0
VERTEX
  5
2B0A
330
28B0
100
AcDbEntity
  8
NOTE
100
AcDbVertex
100
AcDb2dVertex
 10
-227.8693999922543
 20
95.5270950580134
 30
0.0
  0
VERTEX
  5
2B0B
330
28B0
100
AcDbEntity
  8
NOTE
100
AcDbVertex
100
AcDb2dVertex
 10
-773.7093999922541
 20
95.5270950580134
 30
0.0
  0
SEQEND
  5
2B0C
330
28B0
100
AcDbEntity
  8
NOTE
  0
TEXT
  5
28B1
330
2D7D
100
AcDbEntity
  8
NOTE
100
AcDbText
 10
-773.7093999922541
 20
113.5270950580134
 30
0.0
 40
64.0
  1
4×φ10取付穴
 41
0.9
100
AcDbText
  0
INSERT
  5
28B2
330
2D7D
100
AcDbEntity
  8
DETAIL___1
  6
Continuous
100
AcDbBlockReference
  2
*X23
 10
0.0
 20
0.0
 30
0.0
1001
ACADANNOTATIVE
1000
AnnotativeData
1002
{
1070
     1
1070
     0
1002
}
1001
ACAD
1000
HATCH
1002
{
1070
    19
1000
LINE
1040
19.969
1040
0.5880014249968896
1000
R14_HATCH_DATA
1000
28B2
1011
1.0
1021
0.0
1031
0.0
1011
0.0
1021
1.0
1031
0.0
1011
0.0
1021
0.0
1031
1.0
1040
0.0
1010
0.0
1020
0.0
1030
1.0
1000
LINE
1070
     0
1070
     0
1071
        2
1071
        7
1070
     0
1070
     1
1071
        6
1040
111.2999999999992
1040
-341.7933701764182
1040
-104.5
1040
-341.7933701764182
1040
-104.5000000000036
1040
-147.993370176418
1040
-111.2999999999992
1040
-147.993370176418
1040
-111.2999999999992
1040
-415.0080808012011
1040
111.3000000000029
1040
-415.0080808012011
1071
        0
1071
       23
1070
     0
1070
     1
1071
        4
1040
111.2999999999956
1040
-147.9933701764188
1040
-104.5
1040
-147.993370176418
1040
-104.5
1040
-341.7933701764182
1040
111.2999999999992
1040
-341.7933701764182
1071
        0
1070
     0
1070
     1
1040
0.5880014249968896
1040
19.969
1070
     0
1070
     1
1040
0.5880014249968896
1040
20454.80817320645
1040
4118.287368565272
1040
-1.384598579568018
1040
2.076903172775085
1070
     0
1040
0.3580108317969467
1071
        3
1040
-45.68719445863461
1040
-371.5499241449693
1040
0.0
1040
20454.80817320645
1040
4118.287368565272
1040
0.0
1040
41.88330888504788
1040
-266.7147916606414
1040
0.0
1002
}
  0
INSERT
  5
28B8
330
2D7D
100
AcDbEntity
  8
DETAIL___1
  6
Continuous
100
AcDbBlockReference
  2
*X24
 10
0.0
 20
0.0
 30
0.0
1001
ACADANNOTATIVE
1000
AnnotativeData
1002
{
1070
     1
1070
     0
1002
}
1001
ACAD
1000
HATCH
1002
{
1070
    19
1000
LINE
1040
19.969
1040
5.695183882182695
1000
R14_HATCH_DATA
1000
28B8
1011
1.0
1021
0.0
1031
0.0
1011
0.0
1021
1.0
1031
0.0
1011
0.0
1021
0.0
1031
1.0
1040
0.0
1010
0.0
1020
0.0
1030
1.0
1000
LINE
1070
     0
1070
     0
1071
        2
1071
        7
1070
     0
1070
     1
1071
        6
1040
111.2999999999992
1040
-341.7933701764182
1040
-104.5
1040
-341.7933701764182
1040
-104.5000000000036
1040
-147.993370176418
1040
-111.2999999999992
1040
-147.993370176418
1040
-111.2999999999992
1040
-415.0080808012011
1040
111.3000000000029
1040
-415.0080808012011
1071
        0
1071
       23
1070
     0
1070
     1
1071
        4
1040
-104.5000000000036
1040
-147.993370176418
1040
-104.5
1040
-341.7933701764182
1040
111.2999999999992
1040
-341.7933701764182
1040
111.2999999999992
1040
-147.993370176418
1071
        0
1070
     0
1070
     1
1040
5.695183882182695
1040
19.969
1070
     0
1070
     1
1040
5.695183882182695
1040
20454.80817320645
1040
4118.287368565272
1040
1.384598579568018
1040
2.076903172775085
1070
     0
1040
0.3749150491259759
1071
        2
1040
-28.72104483923249
1040
-364.5394353583764
1040
0.0
1040
6.878018232684553
1040
-193.3626932046613
1040
0.0
1002
}
  0
LINE
  5
28BE
330
2D7D
100
AcDbEntity
  8
DETAIL
100
AcDbLine
 39
50.0
 10
-111.2999999999992
 20
-147.993370176418
 30
0.0
 11
111.2999999999992
 21
-147.993370176418
 31
0.0
  0
LINE
  5
28BF
330
2D7D
100
AcDbEntity
  8
DETAIL
100
AcDbLine
 39
50.0
 10
-111.2999999999992
 20
-147.993370176418
 30
0.0
 11
-111.2999999999992
 21
-415.0080808012011
 31
0.0
  0
LINE
  5
28C0
330
2D7D
100
AcDbEntity
  8
DETAIL
100
AcDbLine
 39
50.0
 10
111.2999999999992
 20
-147.993370176418
 30
0.0
 11
111.2999999999992
 21
-415.0080808012011
 31
0.0
  0
LINE
  5
28C1
330
2D7D
100
AcDbEntity
  8
OUTLINE
100
AcDbLine
 10
-111.2999999999992
 20
-428.4852274218997
 30
0.0
 11
-111.2999999999992
 21
-147.993370176418
 31
0.0
  0
LINE
  5
28C2
330
2D7D
100
AcDbEntity
  8
OUTLINE
100
AcDbLine
 10
111.2999999999992
 20
-147.9933701764171
 30
0.0
 11
111.2999999999992
 21
-428.4852274218997
 31
0.0
  0
LINE
  5
28C3
330
2D7D
100
AcDbEntity
  8
OUTLINE
100
AcDbLine
 10
-126.0999999999985
 20
-147.993370176418
 30
0.0
 11
126.0999999999985
 21
-147.993370176418
 31
0.0
  0
LINE
  5
28C4
330
2D7D
100
AcDbEntity
  8
DETAIL
100
AcDbLine
 10
-111.2999999999992
 20
-415.0080808012011
 30
0.0
 11
111.2999999999992
 21
-415.0080808012011
 31
0.0
  0
LINE
  5
28C5
330
2D7D
100
AcDbEntity
  8
OUTLINE
100
AcDbLine
 10
-111.2999999999992
 20
-415.0080808012011
 30
0.0
 11
111.2999999999992
 21
-415.0080808012011
 31
0.0
  0
ENDSEC
  0
SECTION
  2
OBJECTS
  0
DICTIONARY
  5
2D15
330
0
100
AcDbDictionary
281
     1
  3
ACAD_2007HEADERVARS_RT
350
2F0A
  3
ACAD_COLOR
350
2D73
  3
ACAD_GROUP
350
2D16
  3
ACAD_LAYOUT
350
2D72
  3
ACAD_MATERIAL
350
2D19
  3
ACAD_MLEADERSTYLE
350
2D76
  3
ACAD_MLINESTYLE
350
2D6F
  3
ACAD_PLOTSETTINGS
350
2D71
  3
ACAD_PLOTSTYLENAME
350
2D17
  3
ACAD_SCALELIST
350
2D43
  3
ACAD_TABLESTYLE
350
2D74
  3
ACAD_VISUALSTYLE
350
2D32
  3
ACDB_RECOMPOSE_DATA
350
2F08
  3
AcDbVariableDictionary
350
2EFF
  3
AcmDictionary
350
2EAF
  3
AMG
350
2DFC
  3
DWGPROPS
350
2F09
  3
MAPISURF_MODULE
350
2E7C
  0
DICTIONARY
  5
2ED7
330
2D65
100
AcDbDictionary
280
     1
281
     1
  3
ADSK_XREC_LAYER_RECONCILED
360
2ED8
  0
DICTIONARY
  5
2ED9
330
2D94
100
AcDbDictionary
280
     1
281
     1
  3
ADSK_XREC_LAYER_RECONCILED
360
2EDA
  0
DICTIONARY
  5
2EDB
330
2D95
100
AcDbDictionary
280
     1
281
     1
  3
ADSK_XREC_LAYER_RECONCILED
360
2EDC
  0
DICTIONARY
  5
2EDD
330
2D96
100
AcDbDictionary
280
     1
281
     1
  3
ADSK_XREC_LAYER_RECONCILED
360
2EDE
  0
DICTIONARY
  5
2EDF
330
2D97
100
AcDbDictionary
280
     1
281
     1
  3
ADSK_XREC_LAYER_RECONCILED
360
2EE0
  0
DICTIONARY
  5
2EE1
330
2D98
100
AcDbDictionary
280
     1
281
     1
  3
ADSK_XREC_LAYER_RECONCILED
360
2EE2
  0
DICTIONARY
  5
2EE3
330
2D9A
100
AcDbDictionary
280
     1
281
     1
  3
ADSK_XREC_LAYER_RECONCILED
360
2EE4
  0
DICTIONARY
  5
2EE5
330
2D9B
100
AcDbDictionary
280
     1
281
     1
  3
ADSK_XREC_LAYER_RECONCILED
360
2EE6
  0
DICTIONARY
  5
2EE7
330
2D9C
100
AcDbDictionary
280
     1
281
     1
  3
ADSK_XREC_LAYER_RECONCILED
360
2EE8
  0
DICTIONARY
  5
2EE9
330
2D9D
100
AcDbDictionary
280
     1
281
     1
  3
ADSK_XREC_LAYER_RECONCILED
360
2EEA
  0
DICTIONARY
  5
2EEB
330
2D9E
100
AcDbDictionary
280
     1
281
     1
  3
ADSK_XREC_LAYER_RECONCILED
360
2EEC
  0
DICTIONARY
  5
2EED
330
2D9F
100
AcDbDictionary
280
     1
281
     1
  3
ADSK_XREC_LAYER_RECONCILED
360
2EEE
  0
DICTIONARY
  5
2EEF
330
2D7D
100
AcDbDictionary
280
     1
281
     1
  3
ACAD_INDEX
360
2EF0
  0
DICTIONARY
  5
2F0A
102
{ACAD_REACTORS
330
2D15
102
}
330
2D15
100
AcDbDictionary
281
     1
  3
DIMARCSYM
350
2F0B
  3
DIMLTEX1
350
2F0D
  3
DIMLTEX2
350
2F0E
  3
DIMLTYPE
350
2F0C
  0
DICTIONARY
  5
2D73
102
{ACAD_REACTORS
330
2D15
102
}
330
2D15
100
AcDbDictionary
281
     1
  0
DICTIONARY
  5
2D16
102
{ACAD_REACTORS
330
2D15
102
}
330
2D15
100
AcDbDictionary
281
     1
  0
DICTIONARY
  5
2D72
102
{ACAD_REACTORS
330
2D15
102
}
330
2D15
100
AcDbDictionary
281
     1
  3
Model
350
2D80
  3
レイアウト1
350
2D7C
  0
DICTIONARY
  5
2D19
102
{ACAD_REACTORS
330
2D15
102
}
330
2D15
100
AcDbDictionary
281
     1
  3
ByBlock
350
2D22
  3
ByLayer
350
2D1A
  3
Global
350
2D2A
  0
DICTIONARY
  5
2D76
102
{ACAD_REACTORS
330
2D15
102
}
330
2D15
100
AcDbDictionary
281
     1
  3
Standard
350
2D77
  0
DICTIONARY
  5
2D6F
102
{ACAD_REACTORS
330
2D15
102
}
330
2D15
100
AcDbDictionary
281
     1
  3
Standard
350
2D70
  0
DICTIONARY
  5
2D71
102
{ACAD_REACTORS
330
2D15
102
}
330
2D15
100
AcDbDictionary
281
     1
  0
ACDBDICTIONARYWDFLT
  5
2D17
102
{ACAD_REACTORS
330
2D15
102
}
330
2D15
100
AcDbDictionary
281
     1
  3
Normal
350
2D18
100
AcDbDictionaryWithDefault
340
2D18
  0
DICTIONARY
  5
2D43
102
{ACAD_REACTORS
330
2D15
102
}
330
2D15
100
AcDbDictionary
281
     1
  3
A0
350
2D44
  3
A1
350
2D45
  3
A2
350
2D46
  3
A3
350
2D47
  3
A4
350
2D48
  3
A5
350
2D49
  3
A6
350
2D4A
  3
A7
350
2D4B
  3
A8
350
2D4C
  3
A9
350
2D4D
  3
B0
350
2D4E
  3
B1
350
2D4F
  3
B2
350
2D50
  3
B3
350
2D51
  3
B4
350
2D52
  3
B5
350
2D53
  3
B6
350
2D54
  3
B7
350
2D55
  3
B8
350
2D56
  3
B9
350
2D57
  3
C0
350
2D58
  3
C1
350
2D59
  3
C2
350
2D5A
  3
C3
350
2D5B
  3
C4
350
2D5C
  3
C5
350
2D5D
  3
C6
350
2D5E
  3
C7
350
2D5F
  3
C8
350
2D60
  3
C9
350
2D61
  3
D0
350
2D62
  3
D1
350
2D63
  3
D2
350
2D64
  0
DICTIONARY
  5
2D74
102
{ACAD_REACTORS
330
2D15
102
}
330
2D15
100
AcDbDictionary
281
     1
  3
Standard
350
2D75
  0
DICTIONARY
  5
2D32
102
{ACAD_REACTORS
330
2D15
102
}
330
2D15
100
AcDbDictionary
281
     1
  3
2dWireframe
350
2D38
  3
3D Hidden
350
2D3A
  3
3dWireframe
350
2D39
  3
Basic
350
2D37
  3
Brighten
350
2D3E
  3
ColorChange
350
2D42
  3
Conceptual
350
2D3B
  3
Dim
350
2D3D
  3
Facepattern
350
2D41
  3
Flat
350
2D33
  3
FlatWithEdges
350
2D34
  3
Gouraud
350
2D35
  3
GouraudWithEdges
350
2D36
  3
Linepattern
350
2D40
  3
Realistic
350
2D3C
  3
Thicken
350
2D3F
  0
XRECORD
  5
2F08
102
{ACAD_REACTORS
330
2D15
102
}
330
2D15
100
AcDbXrecord
280
     1
 90
        1
330
2D75
  0
DICTIONARY
  5
2EFF
102
{ACAD_REACTORS
330
2D15
102
}
330
2D15
100
AcDbDictionary
281
     1
  3
CANNOSCALE
350
2F02
  3
CMLEADERSTYLE
350
2F01
  3
CTABLESTYLE
350
2F00
  3
DIMASSOC
350
2F05
  3
INDEXCTL
350
2F04
  3
SORTENTS
350
2F03
  0
DICTIONARY
  5
2EAF
102
{ACAD_REACTORS
330
2D15
102
}
330
2D15
100
AcDbDictionary
281
     1
  3
AcmStdDictionary
350
2EBD
  0
DICTIONARY
  5
2DFC
102
{ACAD_REACTORS
330
2D15
102
}
330
2D15
100
AcDbDictionary
281
     1
  3
AcMgSettings
350
2DFD
  0
XRECORD
  5
2F09
102
{ACAD_REACTORS
330
2D15
102
}
330
2D15
100
AcDbXrecord
280
     1
  1
DWGPROPS COOKIE
  2

  3

  4

  6

  7

  8
A090053
  9

300
AmdtFileType=84
301
=
302
=
303
=
304
=
305
=
306
=
307
=
308
=
309
=
 40
1.043604594907407
 41
2452321.396199653
 42
2456213.397150023
  1

 90
        1
  0
XRECORD
  5
2ED8
102
{ACAD_REACTORS
330
2ED7
102
}
330
2ED7
100
AcDbXrecord
280
     1
290
     1
  0
XRECORD
  5
2EDA
102
{ACAD_REACTORS
330
2ED9
102
}
330
2ED9
100
AcDbXrecord
280
     1
290
     1
  0
XRECORD
  5
2EDC
102
{ACAD_REACTORS
330
2EDB
102
}
330
2EDB
100
AcDbXrecord
280
     1
290
     1
  0
XRECORD
  5
2EDE
102
{ACAD_REACTORS
330
2EDD
102
}
330
2EDD
100
AcDbXrecord
280
     1
290
     1
  0
XRECORD
  5
2EE0
102
{ACAD_REACTORS
330
2EDF
102
}
330
2EDF
100
AcDbXrecord
280
     1
290
     1
  0
XRECORD
  5
2EE2
102
{ACAD_REACTORS
330
2EE1
102
}
330
2EE1
100
AcDbXrecord
280
     1
290
     1
  0
XRECORD
  5
2EE4
102
{ACAD_REACTORS
330
2EE3
102
}
330
2EE3
100
AcDbXrecord
280
     1
290
     1
  0
XRECORD
  5
2EE6
102
{ACAD_REACTORS
330
2EE5
102
}
330
2EE5
100
AcDbXrecord
280
     1
290
     1
  0
XRECORD
  5
2EE8
102
{ACAD_REACTORS
330
2EE7
102
}
330
2EE7
100
AcDbXrecord
280
     1
290
     1
  0
XRECORD
  5
2EEA
102
{ACAD_REACTORS
330
2EE9
102
}
330
2EE9
100
AcDbXrecord
280
     1
290
     1
  0
XRECORD
  5
2EEC
102
{ACAD_REACTORS
330
2EEB
102
}
330
2EEB
100
AcDbXrecord
280
     1
290
     1
  0
XRECORD
  5
2EEE
102
{ACAD_REACTORS
330
2EED
102
}
330
2EED
100
AcDbXrecord
280
     1
290
     1
  0
DICTIONARY
  5
2EF0
102
{ACAD_REACTORS
330
2EEF
102
}
330
2EEF
100
AcDbDictionary
281
     1
  3
*A1
350
2EF1
  0
XRECORD
  5
2F0B
102
{ACAD_REACTORS
330
2F0A
102
}
330
2F0A
100
AcDbXrecord
280
     1
 70
     1
  0
XRECORD
  5
2F0D
102
{ACAD_REACTORS
330
2F0A
102
}
330
2F0A
100
AcDbXrecord
280
     1
340
2D6B
  0
XRECORD
  5
2F0E
102
{ACAD_REACTORS
330
2F0A
102
}
330
2F0A
100
AcDbXrecord
280
     1
340
2D6B
  0
XRECORD
  5
2F0C
102
{ACAD_REACTORS
330
2F0A
102
}
330
2F0A
100
AcDbXrecord
280
     1
340
2D6B
  0
LAYOUT
  5
2D80
102
{ACAD_XDICTIONARY
360
2F15
102
}
102
{ACAD_REACTORS
330
2D72
102
}
330
2D72
100
AcDbPlotSettings
  1

  2
自動 EPSON LP-9600S (W2450527 上)
  4

  6

 40
0.0
 41
0.0
 42
0.0
 43
0.0
 44
0.0
 45
0.0
 46
0.0
 47
0.0
 48
0.0
 49
0.0
140
0.0
141
0.0
142
1.0
143
1.0
 70
  1712
 72
     0
 73
     0
 74
     0
  7

 75
     0
147
1.0
148
0.0
149
0.0
100
AcDbLayout
  1
Model
 70
     1
 71
     0
 10
0.0
 20
0.0
 11
12.0
 21
9.0
 12
0.0
 22
0.0
 32
0.0
 14
0.0
 24
0.0
 34
0.0
 15
0.0
 25
0.0
 35
0.0
146
0.0
 13
0.0
 23
0.0
 33
0.0
 16
1.0
 26
0.0
 36
0.0
 17
0.0
 27
1.0
 37
0.0
 76
     0
330
2D7D
331
2D81
  0
LAYOUT
  5
2D7C
102
{ACAD_XDICTIONARY
360
2F13
102
}
102
{ACAD_REACTORS
330
2D72
102
}
330
2D72
100
AcDbPlotSettings
  1

  2
自動 EPSON LP-9600S (W2450527 上)
  4

  6

 40
0.0
 41
0.0
 42
0.0
 43
0.0
 44
0.0
 45
0.0
 46
0.0
 47
0.0
 48
0.0
 49
0.0
140
0.0
141
0.0
142
1.0
143
1.0
 70
   688
 72
     0
 73
     0
 74
     5
  7

 75
    16
147
1.0
148
0.0
149
0.0
100
AcDbLayout
  1
レイアウト1
 70
     1
 71
     1
 10
0.0
 20
0.0
 11
12.0
 21
9.0
 12
0.0
 22
0.0
 32
0.0
 14
1.000000000000000E+20
 24
1.000000000000000E+20
 34
1.000000000000000E+20
 15
-1.000000000000000E+20
 25
-1.000000000000000E+20
 35
-1.000000000000000E+20
146
0.0
 13
0.0
 23
0.0
 33
0.0
 16
1.0
 26
0.0
 36
0.0
 17
0.0
 27
1.0
 37
0.0
 76
     0
330
2D79
  0
MATERIAL
  5
2D22
102
{ACAD_XDICTIONARY
360
2D23
102
}
102
{ACAD_REACTORS
330
2D19
102
}
330
2D19
100
AcDbMaterial
  1
ByBlock
 72
     0
 43
0.0208333333333333
 43
0.0
 43
0.0
 43
0.0
 43
0.0
 43
0.0208333333333333
 43
0.0
 43
0.0
 43
0.0
 43
0.0
 43
1.0
 43
0.0
 43
0.0
 43
0.0
 43
0.0
 43
1.0
 77
     0
 47
0.0208333333333333
 47
0.0
 47
0.0
 47
0.0
 47
0.0
 47
0.0208333333333333
 47
0.0
 47
0.0
 47
0.0
 47
0.0
 47
1.0
 47
0.0
 47
0.0
 47
0.0
 47
0.0
 47
1.0
171
     0
 49
0.0208333333333333
 49
0.0
 49
0.0
 49
0.0
 49
0.0
 49
0.0208333333333333
 49
0.0
 49
0.0
 49
0.0
 49
0.0
 49
1.0
 49
0.0
 49
0.0
 49
0.0
 49
0.0
 49
1.0
175
     0
142
0.0208333333333333
142
0.0
142
0.0
142
0.0
142
0.0
142
0.0208333333333333
142
0.0
142
0.0
142
0.0
142
0.0
142
1.0
142
0.0
142
0.0
142
0.0
142
0.0
142
1.0
179
     0
144
0.0208333333333333
144
0.0
144
0.0
144
0.0
144
0.0
144
0.0208333333333333
144
0.0
144
0.0
144
0.0
144
0.0
144
1.0
144
0.0
144
0.0
144
0.0
144
0.0
144
1.0
147
0.0208333333333333
147
0.0
147
0.0
147
0.0
147
0.0
147
0.0208333333333333
147
0.0
147
0.0
147
0.0
147
0.0
147
1.0
147
0.0
147
0.0
147
0.0
147
0.0
147
1.0
  0
MATERIAL
  5
2D1A
102
{ACAD_XDICTIONARY
360
2D1B
102
}
102
{ACAD_REACTORS
330
2D19
102
}
330
2D19
100
AcDbMaterial
  1
ByLayer
 72
     0
 43
0.0208333333333333
 43
0.0
 43
0.0
 43
0.0
 43
0.0
 43
0.0208333333333333
 43
0.0
 43
0.0
 43
0.0
 43
0.0
 43
1.0
 43
0.0
 43
0.0
 43
0.0
 43
0.0
 43
1.0
 77
     0
 47
0.0208333333333333
 47
0.0
 47
0.0
 47
0.0
 47
0.0
 47
0.0208333333333333
 47
0.0
 47
0.0
 47
0.0
 47
0.0
 47
1.0
 47
0.0
 47
0.0
 47
0.0
 47
0.0
 47
1.0
171
     0
 49
0.0208333333333333
 49
0.0
 49
0.0
 49
0.0
 49
0.0
 49
0.0208333333333333
 49
0.0
 49
0.0
 49
0.0
 49
0.0
 49
1.0
 49
0.0
 49
0.0
 49
0.0
 49
0.0
 49
1.0
175
     0
142
0.0208333333333333
142
0.0
142
0.0
142
0.0
142
0.0
142
0.0208333333333333
142
0.0
142
0.0
142
0.0
142
0.0
142
1.0
142
0.0
142
0.0
142
0.0
142
0.0
142
1.0
179
     0
144
0.0208333333333333
144
0.0
144
0.0
144
0.0
144
0.0
144
0.0208333333333333
144
0.0
144
0.0
144
0.0
144
0.0
144
1.0
144
0.0
144
0.0
144
0.0
144
0.0
144
1.0
147
0.0208333333333333
147
0.0
147
0.0
147
0.0
147
0.0
147
0.0208333333333333
147
0.0
147
0.0
147
0.0
147
0.0
147
1.0
147
0.0
147
0.0
147
0.0
147
0.0
147
1.0
  0
MATERIAL
  5
2D2A
102
{ACAD_XDICTIONARY
360
2D2B
102
}
102
{ACAD_REACTORS
330
2D19
102
}
330
2D19
100
AcDbMaterial
  1
Global
 72
     0
 43
0.0208333333333333
 43
0.0
 43
0.0
 43
0.0
 43
0.0
 43
0.0208333333333333
 43
0.0
 43
0.0
 43
0.0
 43
0.0
 43
1.0
 43
0.0
 43
0.0
 43
0.0
 43
0.0
 43
1.0
 77
     0
 47
0.0208333333333333
 47
0.0
 47
0.0
 47
0.0
 47
0.0
 47
0.0208333333333333
 47
0.0
 47
0.0
 47
0.0
 47
0.0
 47
1.0
 47
0.0
 47
0.0
 47
0.0
 47
0.0
 47
1.0
171
     0
 49
0.0208333333333333
 49
0.0
 49
0.0
 49
0.0
 49
0.0
 49
0.0208333333333333
 49
0.0
 49
0.0
 49
0.0
 49
0.0
 49
1.0
 49
0.0
 49
0.0
 49
0.0
 49
0.0
 49
1.0
175
     0
142
0.0208333333333333
142
0.0
142
0.0
142
0.0
142
0.0
142
0.0208333333333333
142
0.0
142
0.0
142
0.0
142
0.0
142
1.0
142
0.0
142
0.0
142
0.0
142
0.0
142
1.0
179
     0
144
0.0208333333333333
144
0.0
144
0.0
144
0.0
144
0.0
144
0.0208333333333333
144
0.0
144
0.0
144
0.0
144
0.0
144
1.0
144
0.0
144
0.0
144
0.0
144
0.0
144
1.0
147
0.0208333333333333
147
0.0
147
0.0
147
0.0
147
0.0
147
0.0208333333333333
147
0.0
147
0.0
147
0.0
147
0.0
147
1.0
147
0.0
147
0.0
147
0.0
147
0.0
147
1.0
  0
MLEADERSTYLE
  5
2D77
102
{ACAD_REACTORS
330
2D76
102
}
330
2D76
100
AcDbMLeaderStyle
170
     2
171
     1
172
     0
 90
        2
 40
0.0
 41
0.0
173
     1
 91
-1056964608
340
2D6B
 92
       -2
290
     1
 42
0.09
291
     1
 43
0.36
  3
Standard
 44
0.18
300

342
2D66
174
     1
178
     6
175
     1
176
     0
 93
-1056964608
 45
0.18
292
     0
297
     0
 46
0.18
 94
-1056964608
 47
1.0
 49
1.0
140
1.0
293
     1
141
0.0
294
     1
177
     0
142
1.0
295
     0
296
     0
143
0.125
1001
ACAD_MLEADERVER
1070
     2
  0
MLINESTYLE
  5
2D70
102
{ACAD_REACTORS
330
2D6F
102
}
330
2D6F
100
AcDbMlineStyle
  2
STANDARD
 70
     0
  3

 62
   256
 51
90.0
 52
90.0
 71
     2
 49
0.5
 62
   256
  6
BYLAYER
 49
-0.5
 62
   256
  6
BYLAYER
  0
ACDBPLACEHOLDER
  5
2D18
102
{ACAD_REACTORS
330
2D17
102
}
330
2D17
  0
SCALE
  5
2D44
102
{ACAD_REACTORS
330
2D43
102
}
330
2D43
100
AcDbScale
 70
     0
300
1:1
140
1.0
141
1.0
290
     1
  0
SCALE
  5
2D45
102
{ACAD_REACTORS
330
2D43
102
}
330
2D43
100
AcDbScale
 70
     0
300
1:2
140
1.0
141
2.0
290
     0
  0
SCALE
  5
2D46
102
{ACAD_REACTORS
330
2D43
102
}
330
2D43
100
AcDbScale
 70
     0
300
1:4
140
1.0
141
4.0
290
     0
  0
SCALE
  5
2D47
102
{ACAD_REACTORS
330
2D43
102
}
330
2D43
100
AcDbScale
 70
     0
300
1:5
140
1.0
141
5.0
290
     0
  0
SCALE
  5
2D48
102
{ACAD_REACTORS
330
2D43
102
}
330
2D43
100
AcDbScale
 70
     0
300
1:8
140
1.0
141
8.0
290
     0
  0
SCALE
  5
2D49
102
{ACAD_REACTORS
330
2D43
102
}
330
2D43
100
AcDbScale
 70
     0
300
1:10
140
1.0
141
10.0
290
     0
  0
SCALE
  5
2D4A
102
{ACAD_REACTORS
330
2D43
102
}
330
2D43
100
AcDbScale
 70
     0
300
1:16
140
1.0
141
16.0
290
     0
  0
SCALE
  5
2D4B
102
{ACAD_REACTORS
330
2D43
102
}
330
2D43
100
AcDbScale
 70
     0
300
1:20
140
1.0
141
20.0
290
     0
  0
SCALE
  5
2D4C
102
{ACAD_REACTORS
330
2D43
102
}
330
2D43
100
AcDbScale
 70
     0
300
1:30
140
1.0
141
30.0
290
     0
  0
SCALE
  5
2D4D
102
{ACAD_REACTORS
330
2D43
102
}
330
2D43
100
AcDbScale
 70
     0
300
1:40
140
1.0
141
40.0
290
     0
  0
SCALE
  5
2D4E
102
{ACAD_REACTORS
330
2D43
102
}
330
2D43
100
AcDbScale
 70
     0
300
1:50
140
1.0
141
50.0
290
     0
  0
SCALE
  5
2D4F
102
{ACAD_REACTORS
330
2D43
102
}
330
2D43
100
AcDbScale
 70
     0
300
1:100
140
1.0
141
100.0
290
     0
  0
SCALE
  5
2D50
102
{ACAD_REACTORS
330
2D43
102
}
330
2D43
100
AcDbScale
 70
     0
300
2:1
140
2.0
141
1.0
290
     0
  0
SCALE
  5
2D51
102
{ACAD_REACTORS
330
2D43
102
}
330
2D43
100
AcDbScale
 70
     0
300
4:1
140
4.0
141
1.0
290
     0
  0
SCALE
  5
2D52
102
{ACAD_REACTORS
330
2D43
102
}
330
2D43
100
AcDbScale
 70
     0
300
8:1
140
8.0
141
1.0
290
     0
  0
SCALE
  5
2D53
102
{ACAD_REACTORS
330
2D43
102
}
330
2D43
100
AcDbScale
 70
     0
300
10:1
140
10.0
141
1.0
290
     0
  0
SCALE
  5
2D54
102
{ACAD_REACTORS
330
2D43
102
}
330
2D43
100
AcDbScale
 70
     0
300
100:1
140
100.0
141
1.0
290
     0
  0
SCALE
  5
2D55
102
{ACAD_REACTORS
330
2D43
102
}
330
2D43
100
AcDbScale
 70
     0
300
1/128" = 1'-0"
140
0.0078125
141
12.0
290
     0
  0
SCALE
  5
2D56
102
{ACAD_REACTORS
330
2D43
102
}
330
2D43
100
AcDbScale
 70
     0
300
1/64" = 1'-0"
140
0.015625
141
12.0
290
     0
  0
SCALE
  5
2D57
102
{ACAD_REACTORS
330
2D43
102
}
330
2D43
100
AcDbScale
 70
     0
300
1/32" = 1'-0"
140
0.03125
141
12.0
290
     0
  0
SCALE
  5
2D58
102
{ACAD_REACTORS
330
2D43
102
}
330
2D43
100
AcDbScale
 70
     0
300
1/16" = 1'-0"
140
0.0625
141
12.0
290
     0
  0
SCALE
  5
2D59
102
{ACAD_REACTORS
330
2D43
102
}
330
2D43
100
AcDbScale
 70
     0
300
3/32" = 1'-0"
140
0.09375
141
12.0
290
     0
  0
SCALE
  5
2D5A
102
{ACAD_REACTORS
330
2D43
102
}
330
2D43
100
AcDbScale
 70
     0
300
1/8" = 1'-0"
140
0.125
141
12.0
290
     0
  0
SCALE
  5
2D5B
102
{ACAD_REACTORS
330
2D43
102
}
330
2D43
100
AcDbScale
 70
     0
300
3/16" = 1'-0"
140
0.1875
141
12.0
290
     0
  0
SCALE
  5
2D5C
102
{ACAD_REACTORS
330
2D43
102
}
330
2D43
100
AcDbScale
 70
     0
300
1/4" = 1'-0"
140
0.25
141
12.0
290
     0
  0
SCALE
  5
2D5D
102
{ACAD_REACTORS
330
2D43
102
}
330
2D43
100
AcDbScale
 70
     0
300
3/8" = 1'-0"
140
0.375
141
12.0
290
     0
  0
SCALE
  5
2D5E
102
{ACAD_REACTORS
330
2D43
102
}
330
2D43
100
AcDbScale
 70
     0
300
1/2" = 1'-0"
140
0.5
141
12.0
290
     0
  0
SCALE
  5
2D5F
102
{ACAD_REACTORS
330
2D43
102
}
330
2D43
100
AcDbScale
 70
     0
300
3/4" = 1'-0"
140
0.75
141
12.0
290
     0
  0
SCALE
  5
2D60
102
{ACAD_REACTORS
330
2D43
102
}
330
2D43
100
AcDbScale
 70
     0
300
1" = 1'-0"
140
1.0
141
12.0
290
     0
  0
SCALE
  5
2D61
102
{ACAD_REACTORS
330
2D43
102
}
330
2D43
100
AcDbScale
 70
     0
300
1-1/2" = 1'-0"
140
1.5
141
12.0
290
     0
  0
SCALE
  5
2D62
102
{ACAD_REACTORS
330
2D43
102
}
330
2D43
100
AcDbScale
 70
     0
300
3" = 1'-0"
140
3.0
141
12.0
290
     0
  0
SCALE
  5
2D63
102
{ACAD_REACTORS
330
2D43
102
}
330
2D43
100
AcDbScale
 70
     0
300
6" = 1'-0"
140
6.0
141
12.0
290
     0
  0
SCALE
  5
2D64
102
{ACAD_REACTORS
330
2D43
102
}
330
2D43
100
AcDbScale
 70
     0
300
1'-0" = 1'-0"
140
12.0
141
12.0
290
     0
  0
TABLESTYLE
  5
2D75
102
{ACAD_XDICTIONARY
360
2F06
102
}
102
{ACAD_REACTORS
330
2D74
102
}
330
2D74
100
AcDbTableStyle
  3
Standard
 70
     0
 71
     0
 40
0.06
 41
0.06
280
     0
281
     0
  7
STANDARD
140
0.18
170
     2
 62
     0
 63
     7
283
     0
274
    -2
284
     1
 64
     0
275
    -2
285
     1
 65
     0
276
    -2
286
     1
 66
     0
277
    -2
287
     1
 67
     0
278
    -2
288
     1
 68
     0
279
    -2
289
     1
 69
     0
  7
STANDARD
140
0.25
170
     5
 62
     0
 63
     7
283
     0
274
    -2
284
     1
 64
     0
275
    -2
285
     1
 65
     0
276
    -2
286
     1
 66
     0
277
    -2
287
     1
 67
     0
278
    -2
288
     1
 68
     0
279
    -2
289
     1
 69
     0
  7
STANDARD
140
0.18
170
     5
 62
     0
 63
     7
283
     0
274
    -2
284
     1
 64
     0
275
    -2
285
     1
 65
     0
276
    -2
286
     1
 66
     0
277
    -2
287
     1
 67
     0
278
    -2
288
     1
 68
     0
279
    -2
289
     1
 69
     0
  0
VISUALSTYLE
  5
2D38
102
{ACAD_REACTORS
330
2D32
102
}
330
2D32
100
AcDbVisualStyle
  2
2dWireframe
 70
     4
 71
     0
 72
     2
 73
     0
 90
        0
 40
-0.6
 41
-30.0
 62
     5
 63
     7
 74
     1
 91
        4
 64
     7
 65
   257
 75
     1
175
     1
 42
1.0
 92
        0
 66
   257
 43
1.0
 76
     1
 77
     6
 78
     2
 67
     7
 79
     5
170
     0
171
     0
290
     0
174
     0
 93
        1
 44
0.0
173
     0
291
     0
 45
0.0
1001
ACAD
1000
AcDbSavedByObjectVersion
1070
     0
  0
VISUALSTYLE
  5
2D3A
102
{ACAD_REACTORS
330
2D32
102
}
330
2D32
100
AcDbVisualStyle
  2
3D Hidden
 70
     6
 71
     1
 72
     2
 73
     2
 90
        0
 40
-0.6
 41
-30.0
 62
     5
 63
     7
 74
     2
 91
        2
 64
     7
 65
   257
 75
     2
175
     1
 42
40.0
 92
        0
 66
   257
 43
1.0
 76
     1
 77
     6
 78
     2
 67
     7
 79
     3
170
     0
171
     0
290
     0
174
     0
 93
        1
 44
0.0
173
     0
291
     0
 45
0.0
1001
ACAD
1000
AcDbSavedByObjectVersion
1070
     0
  0
VISUALSTYLE
  5
2D39
102
{ACAD_REACTORS
330
2D32
102
}
330
2D32
100
AcDbVisualStyle
  2
3dWireframe
 70
     5
 71
     0
 72
     2
 73
     0
 90
        0
 40
-0.6
 41
-30.0
 62
     5
 63
     7
 74
     1
 91
        4
 64
     7
 65
   257
 75
     1
175
     1
 42
1.0
 92
        0
 66
   257
 43
1.0
 76
     1
 77
     6
 78
     2
 67
     7
 79
     5
170
     0
171
     0
290
     0
174
     0
 93
        1
 44
0.0
173
     0
291
     0
 45
0.0
1001
ACAD
1000
AcDbSavedByObjectVersion
1070
     0
  0
VISUALSTYLE
  5
2D37
102
{ACAD_REACTORS
330
2D32
102
}
330
2D32
100
AcDbVisualStyle
  2
Basic
 70
     7
 71
     1
 72
     0
 73
     1
 90
        0
 40
-0.6
 41
-30.0
 62
     5
 63
     7
 74
     0
 91
        4
 64
     7
 65
   257
 75
     1
175
     1
 42
1.0
 92
        8
 66
     7
 43
1.0
 76
     1
 77
     6
 78
     2
 67
     7
 79
     5
170
     0
171
     0
290
     0
174
     0
 93
        1
 44
0.0
173
     0
291
     1
 45
0.0
1001
ACAD
1000
AcDbSavedByObjectVersion
1070
     0
  0
VISUALSTYLE
  5
2D3E
102
{ACAD_REACTORS
330
2D32
102
}
330
2D32
100
AcDbVisualStyle
  2
Brighten
 70
    12
 71
     2
 72
     2
 73
     0
 90
        0
 40
-0.6
 41
-30.0
 62
     5
 63
     7
 74
     1
 91
        4
 64
     7
 65
   257
 75
     1
175
     1
 42
1.0
 92
        8
 66
     7
 43
1.0
 76
     1
 77
     6
 78
     2
 67
     7
 79
     5
170
     0
171
     0
290
     0
174
     0
 93
        1
 44
50.0
173
     0
291
     1
 45
0.0
1001
ACAD
1000
AcDbSavedByObjectVersion
1070
     0
  0
VISUALSTYLE
  5
2D42
102
{ACAD_REACTORS
330
2D32
102
}
330
2D32
100
AcDbVisualStyle
  2
ColorChange
 70
    16
 71
     2
 72
     2
 73
     3
 90
        0
 40
-0.6
 41
-30.0
 62
     5
 63
     8
 74
     1
 91
        4
 64
     7
 65
   257
 75
     1
175
     1
 42
1.0
 92
        8
 66
     8
 43
1.0
 76
     1
 77
     6
 78
     2
 67
     7
 79
     5
170
     0
171
     0
290
     0
174
     0
 93
        1
 44
0.0
173
     0
291
     1
 45
0.0
1001
ACAD
1000
AcDbSavedByObjectVersion
1070
     0
  0
VISUALSTYLE
  5
2D3B
102
{ACAD_REACTORS
330
2D32
102
}
330
2D32
100
AcDbVisualStyle
  2
Conceptual
 70
     9
 71
     3
 72
     2
 73
     0
 90
        0
 40
-0.6
 41
-30.0
 62
     5
 63
     7
 74
     2
 91
        2
 64
     7
 65
   257
 75
     1
175
     1
 42
40.0
 92
        8
 66
     7
 43
1.0
 76
     1
 77
     6
 78
     2
 67
     7
 79
     3
170
     0
171
     0
290
     0
174
     0
 93
        1
 44
0.0
173
     0
291
     0
 45
0.0
1001
ACAD
1000
AcDbSavedByObjectVersion
1070
     0
  0
VISUALSTYLE
  5
2D3D
102
{ACAD_REACTORS
330
2D32
102
}
330
2D32
100
AcDbVisualStyle
  2
Dim
 70
    11
 71
     2
 72
     2
 73
     0
 90
        0
 40
-0.6
 41
-30.0
 62
     5
 63
     7
 74
     1
 91
        4
 64
     7
 65
   257
 75
     1
175
     1
 42
1.0
 92
        8
 66
     7
 43
1.0
 76
     1
 77
     6
 78
     2
 67
     7
 79
     5
170
     0
171
     0
290
     0
174
     0
 93
        1
 44
-50.0
173
     0
291
     1
 45
0.0
1001
ACAD
1000
AcDbSavedByObjectVersion
1070
     0
  0
VISUALSTYLE
  5
2D41
102
{ACAD_REACTORS
330
2D32
102
}
330
2D32
100
AcDbVisualStyle
  2
Facepattern
 70
    15
 71
     2
 72
     2
 73
     0
 90
        0
 40
-0.6
 41
-30.0
 62
     5
 63
     7
 74
     1
 91
        4
 64
     7
 65
   257
 75
     1
175
     1
 42
1.0
 92
        8
 66
     7
 43
1.0
 76
     1
 77
     6
 78
     2
 67
     7
 79
     5
170
     0
171
     0
290
     0
174
     0
 93
        1
 44
0.0
173
     0
291
     1
 45
0.0
1001
ACAD
1000
AcDbSavedByObjectVersion
1070
     0
  0
VISUALSTYLE
  5
2D33
102
{ACAD_REACTORS
330
2D32
102
}
330
2D32
100
AcDbVisualStyle
  2
Flat
 70
     0
 71
     2
 72
     1
 73
     1
 90
        2
 40
-0.6
 41
30.0
 62
     5
 63
     7
 74
     0
 91
        4
 64
     7
 65
   257
 75
     1
175
     1
 42
1.0
 92
        8
 66
     7
 43
1.0
 76
     1
 77
     6
 78
     2
 67
     7
 79
     5
170
     0
171
     0
290
     0
174
     0
 93
       13
 44
0.0
173
     0
291
     1
 45
0.0
1001
ACAD
1000
AcDbSavedByObjectVersion
1070
     0
  0
VISUALSTYLE
  5
2D34
102
{ACAD_REACTORS
330
2D32
102
}
330
2D32
100
AcDbVisualStyle
  2
FlatWithEdges
 70
     1
 71
     2
 72
     1
 73
     1
 90
        2
 40
-0.6
 41
30.0
 62
     5
 63
     7
 74
     1
 91
        4
 64
     7
 65
   257
 75
     1
175
     1
 42
1.0
 92
        0
 66
   257
 43
1.0
 76
     1
 77
     6
 78
     2
 67
     7
 79
     5
170
     0
171
     0
290
     0
174
     0
 93
       13
 44
0.0
173
     0
291
     1
 45
0.0
1001
ACAD
1000
AcDbSavedByObjectVersion
1070
     0
  0
VISUALSTYLE
  5
2D35
102
{ACAD_REACTORS
330
2D32
102
}
330
2D32
100
AcDbVisualStyle
  2
Gouraud
 70
     2
 71
     2
 72
     2
 73
     1
 90
        2
 40
-0.6
 41
30.0
 62
     5
 63
     7
 74
     0
 91
        4
 64
     7
 65
   257
 75
     1
175
     1
 42
1.0
 92
        0
 66
     7
 43
1.0
 76
     1
 77
     6
 78
     2
 67
     7
 79
     5
170
     0
171
     0
290
     0
174
     0
 93
       13
 44
0.0
173
     0
291
     1
 45
0.0
1001
ACAD
1000
AcDbSavedByObjectVersion
1070
     0
  0
VISUALSTYLE
  5
2D36
102
{ACAD_REACTORS
330
2D32
102
}
330
2D32
100
AcDbVisualStyle
  2
GouraudWithEdges
 70
     3
 71
     2
 72
     2
 73
     1
 90
        2
 40
-0.6
 41
30.0
 62
     5
 63
     7
 74
     1
 91
        4
 64
     7
 65
   257
 75
     1
175
     1
 42
1.0
 92
        0
 66
   257
 43
1.0
 76
     1
 77
     6
 78
     2
 67
     7
 79
     5
170
     0
171
     0
290
     0
174
     0
 93
       13
 44
0.0
173
     0
291
     1
 45
0.0
1001
ACAD
1000
AcDbSavedByObjectVersion
1070
     0
  0
VISUALSTYLE
  5
2D40
102
{ACAD_REACTORS
330
2D32
102
}
330
2D32
100
AcDbVisualStyle
  2
Linepattern
 70
    14
 71
     2
 72
     2
 73
     0
 90
        0
 40
-0.6
 41
-30.0
 62
     5
 63
     7
 74
     1
 91
        4
 64
     7
 65
   257
 75
     7
175
     7
 42
1.0
 92
        8
 66
     7
 43
1.0
 76
     1
 77
     6
 78
     2
 67
     7
 79
     5
170
     0
171
     0
290
     0
174
     0
 93
        1
 44
0.0
173
     0
291
     1
 45
0.0
1001
ACAD
1000
AcDbSavedByObjectVersion
1070
     0
  0
VISUALSTYLE
  5
2D3C
102
{ACAD_REACTORS
330
2D32
102
}
330
2D32
100
AcDbVisualStyle
  2
Realistic
 70
     8
 71
     2
 72
     2
 73
     0
 90
        0
 40
-0.6
 41
-30.0
 62
     5
 63
     7
 74
     1
 91
        0
 64
     7
 65
   257
 75
     1
175
     1
 42
1.0
 92
        8
 66
     8
 43
1.0
 76
     1
 77
     6
 78
     2
 67
     7
 79
     5
170
     0
171
     0
290
     0
174
     0
 93
       13
 44
0.0
173
     0
291
     0
 45
0.0
1001
ACAD
1000
AcDbSavedByObjectVersion
1070
     0
  0
VISUALSTYLE
  5
2D3F
102
{ACAD_REACTORS
330
2D32
102
}
330
2D32
100
AcDbVisualStyle
  2
Thicken
 70
    13
 71
     2
 72
     2
 73
     0
 90
        0
 40
-0.6
 41
-30.0
 62
     5
 63
     7
 74
     1
 91
        4
 64
     7
 65
   257
 75
     1
175
     1
 42
1.0
 92
       12
 66
     7
 43
1.0
 76
     1
 77
     6
 78
     2
 67
     7
 79
     5
170
     0
171
     0
290
     0
174
     0
 93
        1
 44
0.0
173
     0
291
     1
 45
0.0
1001
ACAD
1000
AcDbSavedByObjectVersion
1070
     0
  0
DICTIONARYVAR
  5
2F02
102
{ACAD_REACTORS
330
2EFF
102
}
330
2EFF
100
DictionaryVariables
280
     0
  1
1:1
  0
DICTIONARYVAR
  5
2F01
102
{ACAD_REACTORS
330
2EFF
102
}
330
2EFF
100
DictionaryVariables
280
     0
  1
STANDARD
  0
DICTIONARYVAR
  5
2F00
102
{ACAD_REACTORS
330
2EFF
102
}
330
2EFF
100
DictionaryVariables
280
     0
  1
STANDARD
  0
DICTIONARYVAR
  5
2F05
102
{ACAD_REACTORS
330
2EFF
102
}
330
2EFF
100
DictionaryVariables
280
     0
  1
1
  0
DICTIONARYVAR
  5
2F04
102
{ACAD_REACTORS
330
2EFF
102
}
330
2EFF
100
DictionaryVariables
280
     0
  1
1
  0
DICTIONARYVAR
  5
2F03
102
{ACAD_REACTORS
330
2EFF
102
}
330
2EFF
100
DictionaryVariables
280
     0
  1
127
  0
DICTIONARY
  5
2EBD
102
{ACAD_REACTORS
330
2EAF
102
}
330
2EAF
100
AcDbDictionary
281
     1
  0
DICTIONARY
  5
2DFD
102
{ACAD_REACTORS
330
2DFC
102
}
330
2DFC
100
AcDbDictionary
281
     1
  3
DWGSETTINGS
350
2DFE
  3
TRANSSETTINGS
350
2DFF
  0
LAYER_INDEX
  5
2EF1
102
{ACAD_REACTORS
330
2EF0
102
}
330
2EF0
100
AcDbIndex
 40
2456213.397150023
100
AcDbLayerIndex
  8
0
360
2EF2
 90
        0
  8
OUTLINE
360
2EF3
 90
       44
  8
SIZE
360
2EF4
 90
       40
  8
BASIS
360
2EF5
 90
        1
  8
DETAIL
360
2EF6
 90
       47
  8
ARRANGE
360
2EF7
 90
        2
  8
DEFPOINTS
360
2EF8
 90
        0
  8
ETC
360
2EF9
 90
        3
  8
FIX
360
2EFA
 90
        0
  8
NOTE
360
2EFB
 90
        7
  8
SERVICESPACE
360
2EFC
 90
        0
  8
SYMBOLLINE
360
2EFD
 90
        0
  8
DETAIL___1
360
2EFE
 90
        2
  0
DICTIONARY
  5
2F15
330
2D80
100
AcDbDictionary
280
     1
281
     1
  3
ACAD_XREC_ROUNDTRIP
360
2F16
  0
DICTIONARY
  5
2F13
330
2D7C
100
AcDbDictionary
280
     1
281
     1
  3
ACAD_XREC_ROUNDTRIP
360
2F14
  0
DICTIONARY
  5
2D23
330
2D22
100
AcDbDictionary
280
     1
281
     1
  3
ACAD_XREC_ROUNDTRIP
360
2F10
  3
BUMPTILE
360
2D25
  3
DIFFUSETILE
360
2D24
  3
OPACITYTILE
360
2D28
  3
REFLECTIONTILE
360
2D27
  3
REFRACTIONTILE
360
2D29
  3
SPECULARTILE
360
2D26
  0
DICTIONARY
  5
2D1B
330
2D1A
100
AcDbDictionary
280
     1
281
     1
  3
ACAD_XREC_ROUNDTRIP
360
2F0F
  3
BUMPTILE
360
2D1D
  3
DIFFUSETILE
360
2D1C
  3
OPACITYTILE
360
2D20
  3
REFLECTIONTILE
360
2D1F
  3
REFRACTIONTILE
360
2D21
  3
SPECULARTILE
360
2D1E
  0
DICTIONARY
  5
2D2B
330
2D2A
100
AcDbDictionary
280
     1
281
     1
  3
ACAD_XREC_ROUNDTRIP
360
2F11
  3
BUMPTILE
360
2D2D
  3
DIFFUSETILE
360
2D2C
  3
OPACITYTILE
360
2D30
  3
REFLECTIONTILE
360
2D2F
  3
REFRACTIONTILE
360
2D31
  3
SPECULARTILE
360
2D2E
  0
DICTIONARY
  5
2F06
330
2D75
100
AcDbDictionary
280
     1
281
     1
  3
ACAD_ROUNDTRIP_2008_TABLESTYLE_CELLSTYLEMAP
360
2F07
  3
ACAD_XREC_ROUNDTRIP
360
2F12
  0
IDBUFFER
  5
2EF2
330
0
100
AcDbIdBuffer
  0
IDBUFFER
  5
2EF3
330
0
100
AcDbIdBuffer
330
2897
330
2898
330
2899
330
289A
330
289B
330
289C
330
289D
330
289E
330
289F
330
28A0
330
28A1
330
28A2
330
28A3
330
28A4
330
28A5
330
28A6
330
28A7
330
28A8
330
28A9
330
28AA
330
28AB
330
28AC
330
28AD
330
28AE
330
28C1
330
28C2
330
28C3
330
28C5
330
953
330
954
330
955
330
956
330
957
330
958
330
286B
330
2871
330
288F
330
2890
330
2891
330
2892
330
2893
330
2894
330
2895
330
2896
  0
IDBUFFER
  5
2EF4
330
0
100
AcDbIdBuffer
330
2848
330
2849
330
284E
330
284F
330
2850
330
2851
330
2852
330
2853
330
287D
330
287E
330
287F
330
2880
330
2881
330
2882
330
2883
330
2884
330
2885
330
2886
330
2887
330
2888
330
2889
330
288A
330
288B
330
288C
330
2837
330
2838
330
2839
330
283A
330
283B
330
283C
330
283E
330
283F
330
2840
330
2841
330
2842
330
2843
330
2844
330
2845
330
2846
330
2847
  0
IDBUFFER
  5
2EF5
330
0
100
AcDbIdBuffer
330
284D
  0
IDBUFFER
  5
2EF6
330
0
100
AcDbIdBuffer
330
2860
330
2861
330
2862
330
2863
330
2864
330
2865
330
2866
330
2867
330
2868
330
2869
330
286A
330
286C
330
286D
330
286E
330
286F
330
2870
330
2872
330
2873
330
2874
330
2875
330
2876
330
2877
330
2878
330
2879
330
287A
330
287B
330
287C
330
28BE
330
28BF
330
28C0
330
28C4
330
2830
330
2831
330
2832
330
2833
330
2854
330
2855
330
2856
330
2857
330
2858
330
2859
330
285A
330
285B
330
285C
330
285D
330
285E
330
285F
  0
IDBUFFER
  5
2EF7
330
0
100
AcDbIdBuffer
330
283D
330
284C
  0
IDBUFFER
  5
2EF8
330
0
100
AcDbIdBuffer
  0
IDBUFFER
  5
2EF9
330
0
100
AcDbIdBuffer
330
2834
330
2835
330
2836
  0
IDBUFFER
  5
2EFA
330
0
100
AcDbIdBuffer
  0
IDBUFFER
  5
2EFB
330
0
100
AcDbIdBuffer
330
284A
330
284B
330
288D
330
288E
330
28AF
330
28B0
330
28B1
  0
IDBUFFER
  5
2EFC
330
0
100
AcDbIdBuffer
  0
IDBUFFER
  5
2EFD
330
0
100
AcDbIdBuffer
  0
IDBUFFER
  5
2EFE
330
0
100
AcDbIdBuffer
330
28B2
330
28B8
  0
XRECORD
  5
2F16
102
{ACAD_REACTORS
330
2F15
102
}
330
2F15
100
AcDbXrecord
280
     1
102
SHADEPLOT
 70
     0
102
SHADEPLOTRESLEVEL
 70
     2
102
SHADEPLOTCUSTOMDPI
 70
   300
  0
XRECORD
  5
2F14
102
{ACAD_REACTORS
330
2F13
102
}
330
2F13
100
AcDbXrecord
280
     1
102
SHADEPLOT
 70
     0
102
SHADEPLOTRESLEVEL
 70
     2
102
SHADEPLOTCUSTOMDPI
 70
   300
  0
XRECORD
  5
2F10
102
{ACAD_REACTORS
330
2D23
102
}
330
2D23
100
AcDbXrecord
280
     1
102
MATERIAL
148
0.0
149
0.0
149
0.0
 93
        0
 94
      127
282
     0
 72
     0
 77
     0
171
     0
175
     0
179
     0
273
     0
  0
XRECORD
  5
2D25
102
{ACAD_REACTORS
330
2D23
102
}
330
2D23
100
AcDbXrecord
280
     1
270
     1
271
     1
  0
XRECORD
  5
2D24
102
{ACAD_REACTORS
330
2D23
102
}
330
2D23
100
AcDbXrecord
280
     1
270
     1
271
     1
  0
XRECORD
  5
2D28
102
{ACAD_REACTORS
330
2D23
102
}
330
2D23
100
AcDbXrecord
280
     1
270
     1
271
     1
  0
XRECORD
  5
2D27
102
{ACAD_REACTORS
330
2D23
102
}
330
2D23
100
AcDbXrecord
280
     1
270
     1
271
     1
  0
XRECORD
  5
2D29
102
{ACAD_REACTORS
330
2D23
102
}
330
2D23
100
AcDbXrecord
280
     1
270
     1
271
     1
  0
XRECORD
  5
2D26
102
{ACAD_REACTORS
330
2D23
102
}
330
2D23
100
AcDbXrecord
280
     1
270
     1
271
     1
  0
XRECORD
  5
2F0F
102
{ACAD_REACTORS
330
2D1B
102
}
330
2D1B
100
AcDbXrecord
280
     1
102
MATERIAL
148
0.0
149
0.0
149
0.0
 93
        0
 94
      127
282
     0
 72
     0
 77
     0
171
     0
175
     0
179
     0
273
     0
  0
XRECORD
  5
2D1D
102
{ACAD_REACTORS
330
2D1B
102
}
330
2D1B
100
AcDbXrecord
280
     1
270
     1
271
     1
  0
XRECORD
  5
2D1C
102
{ACAD_REACTORS
330
2D1B
102
}
330
2D1B
100
AcDbXrecord
280
     1
270
     1
271
     1
  0
XRECORD
  5
2D20
102
{ACAD_REACTORS
330
2D1B
102
}
330
2D1B
100
AcDbXrecord
280
     1
270
     1
271
     1
  0
XRECORD
  5
2D1F
102
{ACAD_REACTORS
330
2D1B
102
}
330
2D1B
100
AcDbXrecord
280
     1
270
     1
271
     1
  0
XRECORD
  5
2D21
102
{ACAD_REACTORS
330
2D1B
102
}
330
2D1B
100
AcDbXrecord
280
     1
270
     1
271
     1
  0
XRECORD
  5
2D1E
102
{ACAD_REACTORS
330
2D1B
102
}
330
2D1B
100
AcDbXrecord
280
     1
270
     1
271
     1
  0
XRECORD
  5
2F11
102
{ACAD_REACTORS
330
2D2B
102
}
330
2D2B
100
AcDbXrecord
280
     1
102
MATERIAL
148
0.0
149
0.0
149
0.0
 93
        0
 94
      127
282
     0
 72
     0
 77
     0
171
     0
175
     0
179
     0
273
     0
  0
XRECORD
  5
2D2D
102
{ACAD_REACTORS
330
2D2B
102
}
330
2D2B
100
AcDbXrecord
280
     1
270
     1
271
     1
  0
XRECORD
  5
2D2C
102
{ACAD_REACTORS
330
2D2B
102
}
330
2D2B
100
AcDbXrecord
280
     1
270
     1
271
     1
  0
XRECORD
  5
2D30
102
{ACAD_REACTORS
330
2D2B
102
}
330
2D2B
100
AcDbXrecord
280
     1
270
     1
271
     1
  0
XRECORD
  5
2D2F
102
{ACAD_REACTORS
330
2D2B
102
}
330
2D2B
100
AcDbXrecord
280
     1
270
     1
271
     1
  0
XRECORD
  5
2D31
102
{ACAD_REACTORS
330
2D2B
102
}
330
2D2B
100
AcDbXrecord
280
     1
270
     1
271
     1
  0
XRECORD
  5
2D2E
102
{ACAD_REACTORS
330
2D2B
102
}
330
2D2B
100
AcDbXrecord
280
     1
270
     1
271
     1
  0
CELLSTYLEMAP
  5
2F07
102
{ACAD_REACTORS
330
2F06
102
}
330
2F06
100
AcDbCellStyleMap
 90
        3
300
CELLSTYLE
  1
TABLEFORMAT_BEGIN
 90
        5
170
     1
 91
        0
 92
    32768
 62
   257
 93
        1
300
CONTENTFORMAT
  1
CONTENTFORMAT_BEGIN
 90
        0
 91
        0
 92
      512
 93
        0
300

 40
0.0
140
1.0
 94
        5
 62
     0
340
2D66
144
0.25
309
CONTENTFORMAT_END
171
     0
 94
        0
309
TABLEFORMAT_END
  1
CELLSTYLE_BEGIN
 90
        1
 91
        1
300
_TITLE
309
CELLSTYLE_END
300
CELLSTYLE
  1
TABLEFORMAT_BEGIN
 90
        5
170
     1
 91
        0
 92
        0
 62
   257
 93
        1
300
CONTENTFORMAT
  1
CONTENTFORMAT_BEGIN
 90
        0
 91
        0
 92
      512
 93
        0
300

 40
0.0
140
1.0
 94
        5
 62
     0
340
2D66
144
0.18
309
CONTENTFORMAT_END
171
     0
 94
        0
309
TABLEFORMAT_END
  1
CELLSTYLE_BEGIN
 90
        2
 91
        1
300
_HEADER
309
CELLSTYLE_END
300
CELLSTYLE
  1
TABLEFORMAT_BEGIN
 90
        5
170
     1
 91
        0
 92
        0
 62
   257
 93
        1
300
CONTENTFORMAT
  1
CONTENTFORMAT_BEGIN
 90
        0
 91
        0
 92
      512
 93
        0
300

 40
0.0
140
1.0
 94
        2
 62
     0
340
2D66
144
0.18
309
CONTENTFORMAT_END
171
     0
 94
        0
309
TABLEFORMAT_END
  1
CELLSTYLE_BEGIN
 90
        3
 91
        2
300
_DATA
309
CELLSTYLE_END
  0
XRECORD
  5
2F12
102
{ACAD_REACTORS
330
2F06
102
}
330
2F06
100
AcDbXrecord
280
     1
102
ACAD_ROUNDTRIP_PRE2007_TABLESTYLE
 90
      512
 91
        0
  1

 92
      512
 93
        0
  2

 94
      512
 95
        0
  3

  0
ENDSEC
  0
EOF
