  0
SECTION
  2
HEADER
  9
$ACADVER
  1
AC1015
  9
$ACADMAINTVER
 70
    20
  9
$DWGCODEPAGE
  3
ANSI_932
  9
$INSBASE
 10
0.0
 20
0.0
 30
0.0
  9
$EXTMIN
 10
-746.6515183671107
 20
-677.1924168160427
 30
0.0
  9
$EXTMAX
 10
852.1691146059344
 20
569.4236260770333
 30
50.0
  9
$LIMMIN
 10
-2970.0
 20
-2100.0
  9
$LIMMAX
 10
2970.0
 20
2100.0
  9
$ORTHOMODE
 70
     1
  9
$REGENMODE
 70
     0
  9
$FILLMODE
 70
     1
  9
$QTEXTMODE
 70
     0
  9
$MIRRTEXT
 70
     0
  9
$LTSCALE
 40
20.0
  9
$ATTMODE
 70
     1
  9
$TEXTSIZE
 40
64.0
  9
$TRACEWID
 40
0.05
  9
$TEXTSTYLE
  7
STANDARD
  9
$CLAYER
  8
0
  9
$CELTYPE
  6
ByLayer
  9
$CECOLOR
 62
   256
  9
$CELTSCALE
 40
1.0
  9
$DISPSILH
 70
     0
  9
$DIMSCALE
 40
1.0
  9
$DIMASZ
 40
0.12
  9
$DIMEXO
 40
0.05
  9
$DIMDLI
 40
0.5
  9
$DIMRND
 40
0.0
  9
$DIMDLE
 40
0.0
  9
$DIMEXE
 40
0.1
  9
$DIMTP
 40
0.1
  9
$DIMTM
 40
0.1
  9
$DIMTXT
 40
0.12
  9
$DIMCEN
 40
0.0
  9
$DIMTSZ
 40
0.0
  9
$DIMTOL
 70
     0
  9
$DIMLIM
 70
     0
  9
$DIMTIH
 70
     1
  9
$DIMTOH
 70
     1
  9
$DIMSE1
 70
     0
  9
$DIMSE2
 70
     0
  9
$DIMTAD
 70
     0
  9
$DIMZIN
 70
     7
  9
$DIMBLK
  1

  9
$DIMASO
 70
     1
  9
$DIMSHO
 70
     0
  9
$DIMPOST
  1

  9
$DIMAPOST
  1
mm
  9
$DIMALT
 70
     0
  9
$DIMALTD
 70
     2
  9
$DIMALTF
 40
25.4
  9
$DIMLFAC
 40
1.0
  9
$DIMTOFL
 70
     0
  9
$DIMTVP
 40
0.0
  9
$DIMTIX
 70
     0
  9
$DIMSOXD
 70
     0
  9
$DIMSAH
 70
     0
  9
$DIMBLK1
  1

  9
$DIMBLK2
  1

  9
$DIMSTYLE
  2
AM_ANSI
  9
$DIMCLRD
 70
   256
  9
$DIMCLRE
 70
   256
  9
$DIMCLRT
 70
     2
  9
$DIMTFAC
 40
0.71
  9
$DIMGAP
 40
0.06
  9
$DIMJUST
 70
     0
  9
$DIMSD1
 70
     0
  9
$DIMSD2
 70
     0
  9
$DIMTOLJ
 70
     1
  9
$DIMTZIN
 70
     7
  9
$DIMALTZ
 70
     0
  9
$DIMALTTZ
 70
     0
  9
$DIMUPT
 70
     0
  9
$DIMDEC
 70
     4
  9
$DIMTDEC
 70
     4
  9
$DIMALTU
 70
     2
  9
$DIMALTTD
 70
     4
  9
$DIMTXSTY
  7
STANDARD
  9
$DIMAUNIT
 70
     0
  9
$DIMADEC
 70
     0
  9
$DIMALTRND
 40
0.0
  9
$DIMAZIN
 70
     2
  9
$DIMDSEP
 70
    46
  9
$DIMATFIT
 70
     3
  9
$DIMFRAC
 70
     0
  9
$DIMLDRBLK
  1

  9
$DIMLUNIT
 70
     2
  9
$DIMLWD
 70
    -1
  9
$DIMLWE
 70
    -1
  9
$DIMTMOVE
 70
     0
  9
$LUNITS
 70
     2
  9
$LUPREC
 70
     4
  9
$SKETCHINC
 40
0.1
  9
$FILLETRAD
 40
4.0
  9
$AUNITS
 70
     1
  9
$AUPREC
 70
     3
  9
$MENU
  1
ACAD
  9
$ELEVATION
 40
0.0
  9
$PELEVATION
 40
0.0
  9
$THICKNESS
 40
50.0
  9
$LIMCHECK
 70
     0
  9
$CHAMFERA
 40
0.0
  9
$CHAMFERB
 40
0.0
  9
$CHAMFERC
 40
0.0
  9
$CHAMFERD
 40
0.0
  9
$SKPOLY
 70
     0
  9
$TDCREATE
 40
2452321.396199653
  9
$TDUCREATE
 40
2452321.021199653
  9
$TDUPDATE
 40
2456213.397774815
  9
$TDUUPDATE
 40
2456213.022774815
  9
$TDINDWG
 40
1.0426411458
  9
$TDUSRTIMER
 40
1.0426355671
  9
$USRTIMER
 70
     1
  9
$ANGBASE
 50
0.0
  9
$ANGDIR
 70
     0
  9
$PDMODE
 70
     3
  9
$PDSIZE
 40
-2.0
  9
$PLINEWID
 40
0.0
  9
$SPLFRAME
 70
     0
  9
$SPLINETYPE
 70
     6
  9
$SPLINESEGS
 70
     8
  9
$HANDSEED
  5
2C5A
  9
$SURFTAB1
 70
     6
  9
$SURFTAB2
 70
     6
  9
$SURFTYPE
 70
     6
  9
$SURFU
 70
     6
  9
$SURFV
 70
     6
  9
$UCSBASE
  2

  9
$UCSNAME
  2

  9
$UCSORG
 10
0.0
 20
0.0
 30
0.0
  9
$UCSXDIR
 10
1.0
 20
0.0
 30
0.0
  9
$UCSYDIR
 10
0.0
 20
1.0
 30
0.0
  9
$UCSORTHOREF
  2

  9
$UCSORTHOVIEW
 70
     0
  9
$UCSORGTOP
 10
0.0
 20
0.0
 30
0.0
  9
$UCSORGBOTTOM
 10
0.0
 20
0.0
 30
0.0
  9
$UCSORGLEFT
 10
0.0
 20
0.0
 30
0.0
  9
$UCSORGRIGHT
 10
0.0
 20
0.0
 30
0.0
  9
$UCSORGFRONT
 10
0.0
 20
0.0
 30
0.0
  9
$UCSORGBACK
 10
0.0
 20
0.0
 30
0.0
  9
$PUCSBASE
  2

  9
$PUCSNAME
  2

  9
$PUCSORG
 10
0.0
 20
0.0
 30
0.0
  9
$PUCSXDIR
 10
1.0
 20
0.0
 30
0.0
  9
$PUCSYDIR
 10
0.0
 20
1.0
 30
0.0
  9
$PUCSORTHOREF
  2

  9
$PUCSORTHOVIEW
 70
     0
  9
$PUCSORGTOP
 10
0.0
 20
0.0
 30
0.0
  9
$PUCSORGBOTTOM
 10
0.0
 20
0.0
 30
0.0
  9
$PUCSORGLEFT
 10
0.0
 20
0.0
 30
0.0
  9
$PUCSORGRIGHT
 10
0.0
 20
0.0
 30
0.0
  9
$PUCSORGFRONT
 10
0.0
 20
0.0
 30
0.0
  9
$PUCSORGBACK
 10
0.0
 20
0.0
 30
0.0
  9
$USERI1
 70
     0
  9
$USERI2
 70
     0
  9
$USERI3
 70
     0
  9
$USERI4
 70
     0
  9
$USERI5
 70
     0
  9
$USERR1
 40
20.0
  9
$USERR2
 40
0.0
  9
$USERR3
 40
0.0
  9
$USERR4
 40
0.0
  9
$USERR5
 40
0.0
  9
$WORLDVIEW
 70
     1
  9
$SHADEDGE
 70
     3
  9
$SHADEDIF
 70
    70
  9
$TILEMODE
 70
     1
  9
$MAXACTVP
 70
    64
  9
$PINSBASE
 10
0.0
 20
0.0
 30
0.0
  9
$PLIMCHECK
 70
     0
  9
$PEXTMIN
 10
1.000000000000000E+20
 20
1.000000000000000E+20
 30
1.000000000000000E+20
  9
$PEXTMAX
 10
-1.000000000000000E+20
 20
-1.000000000000000E+20
 30
-1.000000000000000E+20
  9
$PLIMMIN
 10
0.0
 20
0.0
  9
$PLIMMAX
 10
12.0
 20
9.0
  9
$UNITMODE
 70
     0
  9
$VISRETAIN
 70
     1
  9
$PLINEGEN
 70
     0
  9
$PSLTSCALE
 70
     1
  9
$TREEDEPTH
 70
  3020
  9
$CMLSTYLE
  2
Standard
  9
$CMLJUST
 70
     0
  9
$CMLSCALE
 40
1.0
  9
$PROXYGRAPHICS
 70
     1
  9
$MEASUREMENT
 70
     0
  9
$CELWEIGHT
370
    -1
  9
$ENDCAPS
280
     0
  9
$JOINSTYLE
280
     0
  9
$LWDISPLAY
290
     0
  9
$INSUNITS
 70
     0
  9
$HYPERLINKBASE
  1

  9
$STYLESHEET
  1

  9
$XEDIT
290
     1
  9
$CEPSNTYPE
380
     0
  9
$PSTYLEMODE
290
     1
  9
$FINGERPRINTGUID
  2
{1AB71287-CA4F-4E93-B40D-EB604F1BE184}
  9
$VERSIONGUID
  2
{16A030A8-6B22-4671-8E45-E46D2055B4AB}
  9
$EXTNAMES
290
     1
  9
$PSVPSCALE
 40
0.0
  9
$OLESTARTUP
290
     0
  0
ENDSEC
  0
SECTION
  2
CLASSES
  0
CLASS
  1
ACDBDICTIONARYWDFLT
  2
AcDbDictionaryWithDefault
  3
ObjectDBX Classes
 90
        0
280
     0
281
     0
  0
CLASS
  1
MATERIAL
  2
AcDbMaterial
  3
ObjectDBX Classes
 90
     1153
280
     0
281
     0
  0
CLASS
  1
VISUALSTYLE
  2
AcDbVisualStyle
  3
ObjectDBX Classes
 90
     4095
280
     0
281
     0
  0
CLASS
  1
SCALE
  2
AcDbScale
  3
ObjectDBX Classes
 90
     1153
280
     0
281
     0
  0
CLASS
  1
TABLESTYLE
  2
AcDbTableStyle
  3
ObjectDBX Classes
 90
     4095
280
     0
281
     0
  0
CLASS
  1
MLEADERSTYLE
  2
AcDbMLeaderStyle
  3
ACDB_MLEADERSTYLE_CLASS
 90
     4095
280
     0
281
     0
  0
CLASS
  1
AMGSETTINGSOBJ
  2
AmgSettingsObj
  3
"AcadM|Product Description: AutoCAD Mechanical|Company: Autodesk, Inc."
 90
     1024
280
     0
281
     0
  0
CLASS
  1
ACME_DOCUMENT
  2
AcMeDbDoc
  3
AcMeServices
 90
     1024
280
     0
281
     0
  0
CLASS
  1
ACMESCOPE
  2
AcMeScope
  3
AcMeServices
 90
     1024
280
     0
281
     0
  0
CLASS
  1
ACMECOMMANDHISTORY
  2
AcMeCommandHistory
  3
AcMeServices
 90
     1024
280
     0
281
     0
  0
CLASS
  1
ACIMSYSVARMAN
  2
AcImSysVarManager
  3
AcMeServices
 90
     1024
280
     0
281
     0
  0
CLASS
  1
ACIMREALSYSVAR
  2
AcImRealSysVar
  3
AcMeServices
 90
     1024
280
     0
281
     0
  0
CLASS
  1
ACIMINTSYSVAR
  2
AcImIntSysVar
  3
AcMeServices
 90
     1024
280
     0
281
     0
  0
CLASS
  1
ACMEDRAWINGMAN
  2
AcMeDrawingMan
  3
AcMeServices
 90
     1024
280
     0
281
     0
  0
CLASS
  1
ACMEVIEW
  2
AcMeView
  3
AcMeServices
 90
     1024
280
     0
281
     0
  0
CLASS
  1
ACDBENTITYCACHE
  2
AcMeEntityCache
  3
AcMeServices
 90
     1024
280
     0
281
     0
  0
CLASS
  1
GSMANAGER
  2
AcMeGSManager
  3
AcMeServices
 90
     1024
280
     0
281
     0
  0
CLASS
  1
AMDTINTERNALREACTOR
  2
AmdtInternalReactor
  3
AcMeServices
 90
     1024
280
     0
281
     0
  0
CLASS
  1
ACMESTATEMGR
  2
AcMeStateMgr
  3
AcMeServices
 90
     1024
280
     0
281
     0
  0
CLASS
  1
ACGREFMASTER
  2
AcGrefMaster
  3
AcAttribServices
 90
     1024
280
     0
281
     0
  0
CLASS
  1
AM_DRAWING_MGR
  2
AcDmDwgMgr
  3
AcMechDwgViewMgmt
 90
     1024
280
     0
281
     0
  0
CLASS
  1
AM_DWG_DOCUMENT
  2
AcDmDwgDocument
  3
AcMechDwgViewMgmt
 90
     1024
280
     0
281
     0
  0
CLASS
  1
AM_DWG_SHEET
  2
AcDmSheet
  3
AcMechDwgViewMgmt
 90
     1024
280
     0
281
     0
  0
CLASS
  1
AM_VIEWDIMPARMAP
  2
AcDmViewDimParMap
  3
AcMechDwgViewMgmt
 90
     1024
280
     0
281
     0
  0
CLASS
  1
AM_DWGMGR_NAME
  2
AcDmDwgMgrName
  3
AcMechDwgViewMgmt
 90
     1024
280
     0
281
     0
  0
CLASS
  1
ACME_DATABASE
  2
AcMeDbDatabase
  3
AcMeServices
 90
     1024
280
     0
281
     0
  0
CLASS
  1
ACRFINSADJUSTERMGR
  2
AcRfInsAdjusterMgr
  3
AcMeServices
 90
     1024
280
     0
281
     0
  0
CLASS
  1
ACGREFACADMASTER
  2
AcGrefacadMaster
  3
AcGrefServices
 90
     1024
280
     0
281
     0
  0
CLASS
  1
AMDTMENUSTATEMGR
  2
AmdtMenuStateMgr
  3
McadcomServices
 90
     1024
280
     0
281
     0
  0
CLASS
  1
AMDTMCOMMENUSTATE
  2
AmdtMcomMenuState
  3
McadcomServices
 90
     1024
280
     0
281
     0
  0
CLASS
  1
AMIMASTER
  2
AmiMaster
  3
AmiServices
 90
     1024
280
     0
281
     0
  0
CLASS
  1
ASAPP
  2
AcAsAppObject
  3
AutoSurfServices
 90
     1024
280
     0
281
     0
  0
CLASS
  1
IM_STATIC_MAN
  2
AcImStaticVarManager
  3
AcMeServices
 90
     1024
280
     0
281
     0
  0
CLASS
  1
ACIMSTRSYSVAR
  2
AcImStrSysVar
  3
AcMeServices
 90
     1024
280
     0
281
     0
  0
CLASS
  1
ACIMDBLSTATICVAR
  2
AcImDblStaticVar
  3
AcMeServices
 90
     1024
280
     0
281
     0
  0
CLASS
  1
ACIMSTRSTATICVAR
  2
AcImStrStaticVar
  3
AcMeServices
 90
     1024
280
     0
281
     0
  0
CLASS
  1
ACIMINTSTATICVAR
  2
AcImIntStaticVar
  3
AcMeServices
 90
     1024
280
     0
281
     0
  0
CLASS
  1
ACASGREFMASTER
  2
AcAsGrefMaster
  3
AutoSurfResolverServices
 90
     1024
280
     0
281
     0
  0
CLASS
  1
ACADGREFMODULE
  2
AcAdGrefModule
  3
AdGrefServices
 90
     1024
280
     0
281
     0
  0
CLASS
  1
AMDTMAPISURFMOUDULE
  2
AmdtMApiSurfModule
  3
MApiSurfServices
 90
     1024
280
     0
281
     0
  0
CLASS
  1
MAPIAMMOUDLE
  2
MApiAmModule
  3
MApiAmServices
 90
     1024
280
     0
281
     0
  0
CLASS
  1
AMDTADMENUSTATE
  2
AmdtAdMenuState
  3
DesignerServices
 90
     1024
280
     0
281
     0
  0
CLASS
  1
ADAPPL
  2
AcAdAppl
  3
DesignerServices
 90
     1024
280
     0
281
     0
  0
CLASS
  1
DEPMGR
  2
AcAdDepMgr
  3
DesignerServices
 90
     1024
280
     0
281
     0
  0
CLASS
  1
PARAMMGR
  2
AcAdParamMgr
  3
DesignerServices
 90
     1024
280
     0
281
     0
  0
CLASS
  1
PARAMSCOPE
  2
AcAdParamScope
  3
DesignerServices
 90
     1024
280
     0
281
     0
  0
CLASS
  1
NAMEDAPPL
  2
AcAdNamedAppl
  3
DesignerServices
 90
     1024
280
     0
281
     0
  0
CLASS
  1
AMDTDMMENUSTATE
  2
AmdtDmMenuState
  3
AcMechDwgViewMgmt
 90
     1024
280
     0
281
     0
  0
CLASS
  1
MAPIADMODULE
  2
MApiAdModule
  3
MApiAdServices
 90
     1024
280
     0
281
     0
  0
CLASS
  1
AMDTAMMENUSTATE
  2
AmdtAmMenuState
  3
DesignerAssemblies
 90
     1024
280
     0
281
     0
  0
CLASS
  1
ACAMPROJECT
  2
AcAmProject
  3
DesignerAssemblies
 90
     1024
280
     0
281
     0
  0
CLASS
  1
ACAMGRCOMPDEF
  2
AcAmGrCompDef
  3
DesignerAssemblies
 90
     1024
280
     0
281
     0
  0
CLASS
  1
ACCMCONTEXT
  2
AcCmContext
  3
DesignerAssemblies
 90
     1024
280
     0
281
     0
  0
CLASS
  1
ACAMCOMPDEF
  2
AcAmCompDef
  3
DesignerAssemblies
 90
     1024
280
     0
281
     0
  0
CLASS
  1
ACAMCOMPDEFMGR
  2
AcAmCompDefMgr
  3
DesignerAssemblies
 90
     1024
280
     0
281
     0
  0
CLASS
  1
AMCONTEXTMGR
  2
AcAmContextMgr
  3
DesignerAssemblies
 90
     1024
280
     0
281
     0
  0
CLASS
  1
ACAMCONTEXTMODELER
  2
AcAmContextModeler
  3
DesignerAssemblies
 90
     1024
280
     0
281
     0
  0
CLASS
  1
ACMDATADICTIONARY
  2
AcmDataDictionary
  3
"AcmSymBB|Product Description: AutoCAD Mechanical|Company: Autodesk, Inc."
 90
     1024
280
     0
281
     0
  0
CLASS
  1
ACMDATAENTRYBLOCK
  2
AcmDataEntryBlock
  3
AcmSymBB|Product Description: AutoCAD Mechanical|Company: Autodesk, Inc.
 90
     1024
280
     0
281
     0
  0
CLASS
  1
ACRFATTGENMGR
  2
AcRfAttGeneralMgr
  3
AcAttribServices
 90
     1024
280
     0
281
     0
  0
CLASS
  1
ACRFOBJATTMGR
  2
AcRfObjAttGroupMgr
  3
AcAttribServices
 90
     1024
280
     0
281
     0
  0
CLASS
  1
ACRFMCADAPIATTHOLDER
  2
AcRfMCADAPIAttHolder
  3
AcAttribServices
 90
     1024
280
     0
281
     0
  0
CLASS
  1
AMDTSYSATTR
  2
AmdtSystemAttribute
  3
AcAttribServices
 90
     1024
280
     0
281
     0
  0
CLASS
  1
CATALOGSTATE
  2
AcAmCatalogState
  3
DesignerAssemblies
 90
     1024
280
     0
281
     0
  0
CLASS
  1
ACAMGRCOMPDEFSET
  2
AcAmGrCompDefSet
  3
DesignerAssemblies
 90
     1024
280
     0
281
     0
  0
CLASS
  1
AMDTBROWSERDBTAB
  2
AmdtBrowserDbTab
  3
McadcomServices
 90
     1024
280
     0
281
     0
  0
CLASS
  1
CBROWSERAPPOBJECT
  2
CBrowserAppObject
  3
McadcomServices
 90
     1024
280
     0
281
     0
  0
CLASS
  1
DM_PLACEHOLDER
  2
AcDmSelsetPlaceholder
  3
AcMechDwgViewMgmt
 90
     1024
280
     0
281
     0
  0
CLASS
  1
ACMSTANDARDANSI
  2
AcmStandardANSI
  3
"Amdt_StdImp|Product Description: AutoCAD Mechanical|Company: Autodesk, Inc."
 90
     1024
280
     0
281
     0
  0
CLASS
  1
ACMSURFSTANDARDANSI
  2
AcmSurfTextStdANSI
  3
"Amdt_StdImp|Product Description: AutoCAD Mechanical|Company: Autodesk, Inc."
 90
     1024
280
     0
281
     0
  0
CLASS
  1
ACMFCFSTANDARDANSI
  2
AcmFCFStdANSI
  3
"Amdt_StdImp|Product Description: AutoCAD Mechanical|Company: Autodesk, Inc."
 90
     1024
280
     0
281
     0
  0
CLASS
  1
ACMWELDSTANDARDANSI
  2
AcmWeldingStdANSI
  3
"Amdt_StdImp|Product Description: AutoCAD Mechanical|Company: Autodesk, Inc."
 90
     1024
280
     0
281
     0
  0
CLASS
  1
ACMIDSTANDARDANSI
  2
AcmIdStdANSI
  3
"Amdt_StdImp|Product Description: AutoCAD Mechanical|Company: Autodesk, Inc."
 90
     1024
280
     0
281
     0
  0
CLASS
  1
ACMDATUMSTANDARDANSI
  2
AcmDatumStdANSI
  3
"Amdt_StdImp|Product Description: AutoCAD Mechanical|Company: Autodesk, Inc."
 90
     1024
280
     0
281
     0
  0
CLASS
  1
ACMBOMSTANDARDANSI
  2
AcmBOMStdANSI
  3
"Amdt_StdImp|Product Description: AutoCAD Mechanical|Company: Autodesk, Inc."
 90
     1024
280
     0
281
     0
  0
CLASS
  1
ACMDETAILSTANDARDANSI
  2
AmdtDetailSymStdANSI
  3
"Amdt_StdImp|Product Description: AutoCAD Mechanical|Company: Autodesk, Inc."
 90
     1024
280
     0
281
     0
  0
CLASS
  1
ACMSECTIONSTANDARDANSI
  2
AmdtSectionSymStdANSI
  3
"Amdt_StdImp|Product Description: AutoCAD Mechanical|Company: Autodesk, Inc."
 90
     1024
280
     0
281
     0
  0
CLASS
  1
ACMCENTERLINESTANDARDANSI
  2
AmdtCenterLineStdANSI
  3
"Amdt_StdImp|Product Description: AutoCAD Mechanical|Company: Autodesk, Inc."
 90
     1024
280
     0
281
     0
  0
CLASS
  1
ACMTHREADLINESTANDARDANSI
  2
AmdtThreadLineStdANSI
  3
"Amdt_StdImp|Product Description: AutoCAD Mechanical|Company: Autodesk, Inc."
 90
     1024
280
     0
281
     0
  0
CLASS
  1
ACMNOTESTANDARDANSI
  2
AmdtNoteStdANSI
  3
"Amdt_StdImp|Product Description: AutoCAD Mechanical|Company: Autodesk, Inc."
 90
     1024
280
     0
281
     0
  0
CLASS
  1
ACMTAPERSTANDARDANSI
  2
AcmTaperStdANSI
  3
"Amdt_StdImp|Product Description: AutoCAD Mechanical|Company: Autodesk, Inc."
 90
     1024
280
     0
281
     0
  0
CLASS
  1
ACMANOOTATIONVIEWSTANDARDANSI
  2
AmdtAnViewStdANSI
  3
"Amdt_StdImp|Product Description: AutoCAD Mechanical|Company: Autodesk, Inc."
 90
     1024
280
     0
281
     0
  0
CLASS
  1
ACAMGLAYSTD
  2
AcAmgLayStd
  3
"AmgLay|Product Description: AutoCAD Mechanical|Company: Autodesk, Inc."
 90
     1024
280
     0
281
     0
  0
CLASS
  1
ACAMGDIMSTD
  2
AcAmgDimStd
  3
"AmgDim|Product Description: AutoCAD Mechanical|Company: Autodesk, Inc."
 90
     1024
280
     0
281
     0
  0
CLASS
  1
ACAMGHOLECHARTSTDANSI
  2
AcAmgHoleChartStdANSI
  3
AmgDim|Product Description: AutoCAD Mechanical|Company: Autodesk, Inc.
 90
     1024
280
     0
281
     0
  0
CLASS
  1
AMGOBJPROPCFG
  2
AmgObjPropCfg
  3
"AmgLay|Product Description: AutoCAD Mechanical|Company: Autodesk, Inc."
 90
     1025
280
     0
281
     0
  0
CLASS
  1
ACAMGTITLESTD
  2
AcAmgTitleStd
  3
"AmgTitle|Product Description: AutoCAD Mechanical|Company: Autodesk, Inc."
 90
     4095
280
     0
281
     0
  0
CLASS
  1
AMDTNOTETEMPLATEDB
  2
AmdtNoteTemplateDB
  3
AcmSymBB|Product Description: AutoCAD Mechanical|Company: Autodesk, Inc.
 90
     1024
280
     0
281
     0
  0
CLASS
  1
LAYER_INDEX
  2
AcDbLayerIndex
  3
ObjectDBX Classes
 90
        0
280
     0
281
     0
  0
CLASS
  1
IDBUFFER
  2
AcDbIdBuffer
  3
ObjectDBX Classes
 90
        0
280
     0
281
     0
  0
CLASS
  1
DICTIONARYVAR
  2
AcDbDictionaryVar
  3
ObjectDBX Classes
 90
        0
280
     0
281
     0
  0
CLASS
  1
CELLSTYLEMAP
  2
AcDbCellStyleMap
  3
ObjectDBX Classes
 90
     1152
280
     0
281
     0
  0
CLASS
  1
ACDBPLACEHOLDER
  2
AcDbPlaceHolder
  3
ObjectDBX Classes
 90
        0
280
     0
281
     0
  0
CLASS
  1
LAYOUT
  2
AcDbLayout
  3
ObjectDBX Classes
 90
        0
280
     0
281
     0
  0
ENDSEC
  0
SECTION
  2
TABLES
  0
TABLE
  2
VPORT
  5
2A5A
330
0
100
AcDbSymbolTable
 70
     1
  0
VPORT
  5
2ACA
330
2A5A
100
AcDbSymbolTableRecord
100
AcDbViewportTableRecord
  2
*ACTIVE
 70
     0
 10
0.0
 20
0.0
 11
1.0
 21
1.0
 12
0.0
 22
0.0
 13
0.0
 23
0.0
 14
1.0
 24
1.0
 15
0.0
 25
0.0
 16
0.0
 26
0.0
 36
1.0
 17
52.7961869873057
 27
-53.83299809628261
 37
0.0
 40
1255.363234279508
 41
1.712555066079295
 42
50.0
 43
0.0
 44
0.0
 50
0.0
 51
0.0
 71
     0
 72
   100
 73
     1
 74
     0
 75
     0
 76
     0
 77
     0
 78
     0
281
     0
 65
     0
110
0.0
120
0.0
130
0.0
111
1.0
121
0.0
131
0.0
112
0.0
122
1.0
132
0.0
 79
     0
146
0.0
  0
ENDTAB
  0
TABLE
  2
LTYPE
  5
2A57
330
0
100
AcDbSymbolTable
 70
    19
  0
LTYPE
  5
2AB4
330
2A57
100
AcDbSymbolTableRecord
100
AcDbLinetypeTableRecord
  2
ByBlock
 70
     0
  3

 72
    65
 73
     0
 40
0.0
  0
LTYPE
  5
2AB5
330
2A57
100
AcDbSymbolTableRecord
100
AcDbLinetypeTableRecord
  2
ByLayer
 70
     0
  3

 72
    65
 73
     0
 40
0.0
  0
LTYPE
  5
2AB6
330
2A57
100
AcDbSymbolTableRecord
100
AcDbLinetypeTableRecord
  2
CONTINUOUS
 70
     0
  3
実線
 72
    65
 73
     0
 40
0.0
  0
LTYPE
  5
2ACB
330
2A57
100
AcDbSymbolTableRecord
100
AcDbLinetypeTableRecord
  2
DASHDOT
 70
     0
  3
____ _ ____ _ ____ _ ____ _ ____ _ ____ _ ____
 72
    65
 73
     4
 40
5.5
 49
4.0
 74
     0
 49
-0.6
 74
     0
 49
0.3
 74
     0
 49
-0.6
 74
     0
  0
LTYPE
  5
2ACC
330
2A57
100
AcDbSymbolTableRecord
100
AcDbLinetypeTableRecord
  2
HIDDEN
 70
     0
  3
Hidden __ __ __ __ __ __ __ __ __ __ __ __ __ _
 72
    65
 73
     2
 40
0.375
 49
0.25
 74
     0
 49
-0.125
 74
     0
  0
LTYPE
  5
2ACD
330
2A57
100
AcDbSymbolTableRecord
100
AcDbLinetypeTableRecord
  2
PHANTOM2
 70
     0
  3
Phantom (.5x) ___ _ _ ___ _ _ ___ _ _ ___ _ _
 72
    65
 73
     6
 40
1.25
 49
0.625
 74
     0
 49
-0.125
 74
     0
 49
0.125
 74
     0
 49
-0.125
 74
     0
 49
0.125
 74
     0
 49
-0.125
 74
     0
  0
LTYPE
  5
2ACE
330
2A57
100
AcDbSymbolTableRecord
100
AcDbLinetypeTableRecord
  2
CENTER
 70
     0
  3
Center ____ _ ____ _ ____ _ ____ _ ____ _ ____
 72
    65
 73
     4
 40
2.0
 49
1.25
 74
     0
 49
-0.25
 74
     0
 49
0.25
 74
     0
 49
-0.25
 74
     0
  0
LTYPE
  5
2ACF
330
2A57
100
AcDbSymbolTableRecord
100
AcDbLinetypeTableRecord
  2
ASULTYPE
 70
     0
  3
実線
 72
    65
 73
     2
 40
3.0
 49
2.5
 74
     0
 49
0.5
 74
     0
  0
LTYPE
  5
2AD0
330
2A57
100
AcDbSymbolTableRecord
100
AcDbLinetypeTableRecord
  2
ASVLTYPE
 70
     0
  3
__ __ __ __ __ __ __ __ __ __ __ __ __ __ __ __ __ __ __ __ __
 72
    65
 73
     2
 40
0.75
 49
0.5
 74
     0
 49
-0.25
 74
     0
  0
LTYPE
  5
2AD1
330
2A57
100
AcDbSymbolTableRecord
100
AcDbLinetypeTableRecord
  2
AM_ISO02W050
 70
     0
  3
__ __ __ __ __ __ __ __ __ __ __ __ __ __ __
 72
    65
 73
     2
 40
7.5
 49
6.0
 74
     0
 49
-1.5
 74
     0
  0
LTYPE
  5
2AD2
330
2A57
100
AcDbSymbolTableRecord
100
AcDbLinetypeTableRecord
  2
AM_ISO08W050
 70
     0
  3
____ . ____ . ____ . ____ . ____ . ____ . ____
 72
    65
 73
     4
 40
18.0
 49
12.0
 74
     0
 49
-1.5
 74
     0
 49
3.0
 74
     0
 49
-1.5
 74
     0
  0
LTYPE
  5
2AD3
330
2A57
100
AcDbSymbolTableRecord
100
AcDbLinetypeTableRecord
  2
AM_ISO09W050
 70
     0
  3
_____ . . _____ . . _____ . . ____ .. ____
 72
    65
 73
     6
 40
22.5
 49
12.0
 74
     0
 49
-1.5
 74
     0
 49
3.0
 74
     0
 49
-1.5
 74
     0
 49
3.0
 74
     0
 49
-1.5
 74
     0
  0
LTYPE
  5
2AD4
330
2A57
100
AcDbSymbolTableRecord
100
AcDbLinetypeTableRecord
  2
AMCONSTR
 70
     0
  3
_______________________
 72
    65
 73
     2
 40
9999.0
 49
9999.0
 74
     0
 49
0.0
 74
     0
  0
LTYPE
  5
2AD5
330
2A57
100
AcDbSymbolTableRecord
100
AcDbLinetypeTableRecord
  2
AM_ISO08W050X2
 70
     0
  3
__ . __ . __ . __ . __ . __
 72
    65
 73
     4
 40
9.0
 49
6.0
 74
     0
 49
-0.75
 74
     0
 49
1.5
 74
     0
 49
-0.75
 74
     0
  0
LTYPE
  5
2AD6
330
2A57
100
AcDbSymbolTableRecord
100
AcDbLinetypeTableRecord
  2
AM_ISO02W050X2
 70
     0
  3
 _ _ _ _ _ _ _ _ _ _ _ _
 72
    65
 73
     2
 40
3.75
 49
3.0
 74
     0
 49
-0.75
 74
     0
  0
LTYPE
  5
2AD7
330
2A57
100
AcDbSymbolTableRecord
100
AcDbLinetypeTableRecord
  2
AMZIGZAG
 70
     0
  3
/\/-/\/-/\/-/\/-/\/-/\/
 72
    65
 73
     2
 40
11.0001
 49
0.0001
 74
     0
 49
-11.0
 74
     0
  0
LTYPE
  5
2AD8
330
2A57
100
AcDbSymbolTableRecord
100
AcDbLinetypeTableRecord
  2
CENTER2
 70
     0
  3
Center (.5x) ___ _ ___ _ ___ _ ___ _ ___ _ ___
 72
    65
 73
     4
 40
1.125
 49
0.75
 74
     0
 49
-0.125
 74
     0
 49
0.125
 74
     0
 49
-0.125
 74
     0
  0
LTYPE
  5
2AD9
330
2A57
100
AcDbSymbolTableRecord
100
AcDbLinetypeTableRecord
  2
HIDDEN2
 70
     0
  3
Hidden (.5x) _ _ _ _ _ _ _ _ _ _ _ _ _ _ _ _ _
 72
    65
 73
     2
 40
0.1875
 49
0.125
 74
     0
 49
-0.0625
 74
     0
  0
LTYPE
  5
2ADA
330
2A57
100
AcDbSymbolTableRecord
100
AcDbLinetypeTableRecord
  2
AMZIGZAG2
 70
     0
  3
/\/-/\/-/\/-/\/-/\/-/\/
 72
    65
 73
     2
 40
0.4401
 49
0.0001
 74
     0
 49
-0.4400000000000003
 74
     0
  0
LTYPE
  5
2ADB
330
2A57
100
AcDbSymbolTableRecord
100
AcDbLinetypeTableRecord
  2
ACANSTGB
 70
     0
  3
__ . . __ . .
 72
    65
 73
     6
 40
0.35433070866
 49
0.15748031496
 74
     0
 49
-0.03937007874
 74
     0
 49
0.03937007874
 74
     0
 49
-0.03937007874
 74
     0
 49
0.03937007874
 74
     0
 49
-0.03937007874
 74
     0
  0
LTYPE
  5
2ADC
330
2A57
100
AcDbSymbolTableRecord
100
AcDbLinetypeTableRecord
  2
ACANSTGL
 70
     0
  3
_ _ _ _ _
 72
    65
 73
     2
 40
0.11811023622
 49
0.07874015748
 74
     0
 49
-0.03937007874
 74
     0
  0
ENDTAB
  0
TABLE
  2
LAYER
  5
2A54
330
0
100
AcDbSymbolTable
 70
    12
  0
LAYER
  5
2AAE
102
{ACAD_XDICTIONARY
360
2C19
102
}
330
2A54
100
AcDbSymbolTableRecord
100
AcDbLayerTableRecord
  2
0
 70
     0
 62
     7
  6
CONTINUOUS
370
    -3
390
2A61
  0
LAYER
  5
2ADD
102
{ACAD_XDICTIONARY
360
2C1B
102
}
330
2A54
100
AcDbSymbolTableRecord
100
AcDbLayerTableRecord
  2
OUTLINE
 70
     0
 62
     3
  6
CONTINUOUS
370
    -3
390
2A61
  0
LAYER
  5
2ADE
102
{ACAD_XDICTIONARY
360
2C1D
102
}
330
2A54
100
AcDbSymbolTableRecord
100
AcDbLayerTableRecord
  2
SIZE
 70
     0
 62
    30
  6
CONTINUOUS
370
    -3
390
2A61
  0
LAYER
  5
2ADF
102
{ACAD_XDICTIONARY
360
2C1F
102
}
330
2A54
100
AcDbSymbolTableRecord
100
AcDbLayerTableRecord
  2
BASIS
 70
     0
 62
     6
  6
DASHDOT
370
    -3
390
2A61
  0
LAYER
  5
2AE0
102
{ACAD_XDICTIONARY
360
2C21
102
}
330
2A54
100
AcDbSymbolTableRecord
100
AcDbLayerTableRecord
  2
DETAIL
 70
     0
 62
     5
  6
CONTINUOUS
370
    -3
390
2A61
  0
LAYER
  5
2AE1
102
{ACAD_XDICTIONARY
360
2C23
102
}
330
2A54
100
AcDbSymbolTableRecord
100
AcDbLayerTableRecord
  2
ARRANGE
 70
     0
 62
     1
  6
CONTINUOUS
370
    -3
390
2A61
  0
LAYER
  5
2AE2
330
2A54
100
AcDbSymbolTableRecord
100
AcDbLayerTableRecord
  2
DEFPOINTS
 70
     0
 62
     7
  6
CONTINUOUS
290
     0
370
    -3
390
2A61
  0
LAYER
  5
2AE3
102
{ACAD_XDICTIONARY
360
2C25
102
}
330
2A54
100
AcDbSymbolTableRecord
100
AcDbLayerTableRecord
  2
ETC
 70
     0
 62
    61
  6
CONTINUOUS
370
    -3
390
2A61
  0
LAYER
  5
2AE4
102
{ACAD_XDICTIONARY
360
2C27
102
}
330
2A54
100
AcDbSymbolTableRecord
100
AcDbLayerTableRecord
  2
FIX
 70
     0
 62
    11
  6
CONTINUOUS
370
    -3
390
2A61
  0
LAYER
  5
2AE5
102
{ACAD_XDICTIONARY
360
2C29
102
}
330
2A54
100
AcDbSymbolTableRecord
100
AcDbLayerTableRecord
  2
NOTE
 70
     0
 62
     4
  6
CONTINUOUS
370
    -3
390
2A61
  0
LAYER
  5
2AE6
102
{ACAD_XDICTIONARY
360
2C2B
102
}
330
2A54
100
AcDbSymbolTableRecord
100
AcDbLayerTableRecord
  2
SERVICESPACE
 70
     0
 62
     2
  6
DASHDOT
370
    -3
390
2A61
  0
LAYER
  5
2AE7
102
{ACAD_XDICTIONARY
360
2C2D
102
}
330
2A54
100
AcDbSymbolTableRecord
100
AcDbLayerTableRecord
  2
SYMBOLLINE
 70
     0
 62
    15
  6
CONTINUOUS
370
    -3
390
2A61
  0
ENDTAB
  0
TABLE
  2
STYLE
  5
2A55
330
0
100
AcDbSymbolTable
 70
     5
  0
STYLE
  5
2AAF
330
2A55
100
AcDbSymbolTableRecord
100
AcDbTextStyleTableRecord
  2
STANDARD
 70
     0
 40
64.0
 41
0.9
 50
0.0
 71
     0
 42
64.0
  3
SIMPLEX.shx
  4
BIGFONT.shx
  0
STYLE
  5
2AB3
330
2A55
100
AcDbSymbolTableRecord
100
AcDbTextStyleTableRecord
  2
ANNOTATIVE
 70
     0
 40
0.0
 41
1.0
 50
0.0
 71
     0
 42
0.2
  3
txt
  4

1001
ACADANNOTATIVE
1000
AnnotativeData
1002
{
1070
     1
1070
     1
1002
}
  0
STYLE
  5
2AE8
330
2A55
100
AcDbSymbolTableRecord
100
AcDbTextStyleTableRecord
  2

 70
     1
 40
0.0
 41
1.0
 50
0.0
 71
     0
 42
64.0
  3
genltshp.shx
  4

  0
STYLE
  5
2AE9
330
2A55
100
AcDbSymbolTableRecord
100
AcDbTextStyleTableRecord
  2
ACANSTS
 70
     0
 40
1.0
 41
1.0
 50
0.0
 71
     0
 42
64.0
  3
romans.shx
  4
extfont.shx
  0
STYLE
  5
2AEA
330
2A55
100
AcDbSymbolTableRecord
100
AcDbTextStyleTableRecord
  2
ACANSGDT
 70
     0
 40
0.0
 41
1.0
 50
0.0
 71
     0
 42
64.0
  3
amgdt.shx
  4

  0
ENDTAB
  0
TABLE
  2
VIEW
  5
2A58
330
0
100
AcDbSymbolTable
 70
     1
  0
VIEW
  5
2AEB
330
2A58
100
AcDbSymbolTableRecord
100
AcDbViewTableRecord
  2
ALL
 70
     0
 40
4282.619807999997
 10
0.0
 20
41.30990399999999
 41
5940.0
 11
0.0
 21
0.0
 31
1.0
 12
0.0
 22
0.0
 32
0.0
 42
50.0
 43
0.0
 44
0.0
 50
0.0
 71
     0
281
     0
 72
     1
110
0.0
120
0.0
130
0.0
111
1.0
121
0.0
131
0.0
112
0.0
122
1.0
132
0.0
 79
     0
146
0.0
  0
ENDTAB
  0
TABLE
  2
UCS
  5
2A59
330
0
100
AcDbSymbolTable
 70
     0
  0
ENDTAB
  0
TABLE
  2
APPID
  5
2A5B
330
0
100
AcDbSymbolTable
 70
    29
  0
APPID
  5
2AB0
330
2A5B
100
AcDbSymbolTableRecord
100
AcDbRegAppTableRecord
  2
ACAD
 70
     0
  0
APPID
  5
2AB7
330
2A5B
100
AcDbSymbolTableRecord
100
AcDbRegAppTableRecord
  2
ACADANNOTATIVE
 70
     0
  0
APPID
  5
2AC1
330
2A5B
100
AcDbSymbolTableRecord
100
AcDbRegAppTableRecord
  2
ACAD_MLEADERVER
 70
     0
  0
APPID
  5
2AEC
330
2A5B
100
AcDbSymbolTableRecord
100
AcDbRegAppTableRecord
  2
GENIUS_GENDIM_13
 70
     0
  0
APPID
  5
2AED
330
2A5B
100
AcDbSymbolTableRecord
100
AcDbRegAppTableRecord
  2
GENIUS_GENDTOL_13
 70
     0
  0
APPID
  5
2AEE
330
2A5B
100
AcDbSymbolTableRecord
100
AcDbRegAppTableRecord
  2
GENIUS_GE3DTOL_13
 70
     0
  0
APPID
  5
2AEF
330
2A5B
100
AcDbSymbolTableRecord
100
AcDbRegAppTableRecord
  2
MCAD_NO_VIS
 70
     0
  0
APPID
  5
2AF0
330
2A5B
100
AcDbSymbolTableRecord
100
AcDbRegAppTableRecord
  2
ACAD_TEMP_GRAPHIC
 70
     0
  0
APPID
  5
2AF1
330
2A5B
100
AcDbSymbolTableRecord
100
AcDbRegAppTableRecord
  2
AD_DRAW
 70
     0
  0
APPID
  5
2AF2
330
2A5B
100
AcDbSymbolTableRecord
100
AcDbRegAppTableRecord
  2
ACATTRIBSERVICES
 70
     0
  0
APPID
  5
2AF3
330
2A5B
100
AcDbSymbolTableRecord
100
AcDbRegAppTableRecord
  2
ASURF_PCURVE_APPNAME
 70
     0
  0
APPID
  5
2AF4
330
2A5B
100
AcDbSymbolTableRecord
100
AcDbRegAppTableRecord
  2
AMG_3D2D_5_0
 70
     0
  0
APPID
  5
2AF5
330
2A5B
100
AcDbSymbolTableRecord
100
AcDbRegAppTableRecord
  2
DESIGNERASSEMBLIES
 70
     0
  0
APPID
  5
2AF6
330
2A5B
100
AcDbSymbolTableRecord
100
AcDbRegAppTableRecord
  2
ACADM_DIM_EDIT
 70
     0
  0
APPID
  5
2AF7
330
2A5B
100
AcDbSymbolTableRecord
100
AcDbRegAppTableRecord
  2
AMDT_DM_ADJ
 70
     0
  0
APPID
  5
2AF8
330
2A5B
100
AcDbSymbolTableRecord
100
AcDbRegAppTableRecord
  2
ACAD_DSTYLE_DIMARC_LENGTH_
 70
     0
  0
APPID
  5
2AF9
330
2A5B
100
AcDbSymbolTableRecord
100
AcDbRegAppTableRecord
  2
ACAD_DSTYLE_DIMJOGGED_JOGA
 70
     0
  0
APPID
  5
2AFA
330
2A5B
100
AcDbSymbolTableRecord
100
AcDbRegAppTableRecord
  2
ACAD_PSEXT
 70
     0
  0
APPID
  5
2AFB
330
2A5B
100
AcDbSymbolTableRecord
100
AcDbRegAppTableRecord
  2
ACAD_EXEMPT_FROM_CAD_STANDARDS
 70
     0
  0
APPID
  5
2AFC
330
2A5B
100
AcDbSymbolTableRecord
100
AcDbRegAppTableRecord
  2
ACAD_DSTYLE_DIMJAG
 70
     0
  0
APPID
  5
2AFD
330
2A5B
100
AcDbSymbolTableRecord
100
AcDbRegAppTableRecord
  2
ACAD_DSTYLE_DIMTALN
 70
     0
  0
APPID
  5
2AFE
330
2A5B
100
AcDbSymbolTableRecord
100
AcDbRegAppTableRecord
  2
AMG_3D2D_5_00
 70
     0
  0
APPID
  5
2AFF
330
2A5B
100
AcDbSymbolTableRecord
100
AcDbRegAppTableRecord
  2
AMG_3D2D_5_01
 70
     0
  0
APPID
  5
2B00
330
2A5B
100
AcDbSymbolTableRecord
100
AcDbRegAppTableRecord
  2
AMG_3D2D_5_02
 70
     0
  0
APPID
  5
2BC0
330
2A5B
100
AcDbSymbolTableRecord
100
AcDbRegAppTableRecord
  2
AMG_3D2D_5.0
 70
     0
  0
APPID
  5
2C56
330
2A5B
100
AcDbSymbolTableRecord
100
AcDbRegAppTableRecord
  2
ACAD_DSTYLE_DIMARC_LENGTH_SYMBOL
 70
     0
  0
APPID
  5
2C57
330
2A5B
100
AcDbSymbolTableRecord
100
AcDbRegAppTableRecord
  2
ACAD_DSTYLE_DIM_LINETYPE
 70
     0
  0
APPID
  5
2C58
330
2A5B
100
AcDbSymbolTableRecord
100
AcDbRegAppTableRecord
  2
ACAD_DSTYLE_DIM_EXT1_LINETYPE
 70
     0
  0
APPID
  5
2C59
330
2A5B
100
AcDbSymbolTableRecord
100
AcDbRegAppTableRecord
  2
ACAD_DSTYLE_DIM_EXT2_LINETYPE
 70
     0
  0
ENDTAB
  0
TABLE
  2
DIMSTYLE
  5
2A5C
330
0
100
AcDbSymbolTable
 70
    10
100
AcDbDimStyleTable
 71
     1
340
2B01
  0
DIMSTYLE
105
2AB1
330
2A5C
100
AcDbSymbolTableRecord
100
AcDbDimStyleTableRecord
  2
STANDARD
 70
     0
 41
12.0
 42
20.0
 44
20.0
 77
     1
 78
     8
140
64.0
141
0.0
147
10.0
172
     1
275
     1
279
     2
284
     7
285
     7
286
     7
340
2AAF
  0
DIMSTYLE
105
2AB2
330
2A5C
100
AcDbSymbolTableRecord
100
AcDbDimStyleTableRecord
  2
ANNOTATIVE
 70
     0
275
     1
279
     2
284
     7
285
     7
286
     7
340
2AAF
1001
ACADANNOTATIVE
1000
AnnotativeData
1002
{
1070
     1
1070
     1
1002
}
  0
DIMSTYLE
105
2B01
330
2A5C
100
AcDbSymbolTableRecord
100
AcDbDimStyleTableRecord
  2
AM_ANSI
 70
     0
  4
mm
 41
0.12
 42
0.05
 43
0.5
 44
0.1
 47
0.1
 48
0.1
 78
     7
 79
     2
140
0.12
141
0.0
146
0.71
147
0.06
176
   256
177
   256
178
     2
274
     4
284
     7
340
2AAF
371
    -1
372
    -1
1001
ACAD_DSTYLE_DIMARC_LENGTH_SYMBOL
1070
   379
1070
     1
1001
ACAD_DSTYLE_DIM_LINETYPE
1070
   380
1005
2AB4
1001
ACAD_DSTYLE_DIM_EXT1_LINETYPE
1070
   381
1005
2AB4
1001
ACAD_DSTYLE_DIM_EXT2_LINETYPE
1070
   382
1005
2AB4
  0
DIMSTYLE
105
2B02
330
2A5C
100
AcDbSymbolTableRecord
100
AcDbDimStyleTableRecord
  2
AM_ANSI$3
 70
     0
  4
mm
 41
0.12
 42
0.05
 43
0.5
 44
0.1
 47
0.1
 48
0.1
 78
     7
 79
     2
140
0.12
141
0.0
146
0.71
147
0.06
176
   256
177
   256
178
     2
274
     4
284
     7
288
     1
289
     0
340
2AAF
371
    -1
372
    -1
1001
ACAD_DSTYLE_DIMARC_LENGTH_SYMBOL
1070
   379
1070
     1
1001
ACAD_DSTYLE_DIM_LINETYPE
1070
   380
1005
2AB4
1001
ACAD_DSTYLE_DIM_EXT1_LINETYPE
1070
   381
1005
2AB4
1001
ACAD_DSTYLE_DIM_EXT2_LINETYPE
1070
   382
1005
2AB4
  0
DIMSTYLE
105
2B03
330
2A5C
100
AcDbSymbolTableRecord
100
AcDbDimStyleTableRecord
  2
AM_ANSI$4
 70
     0
  4
mm
 41
0.12
 42
0.05
 43
0.5
 44
0.1
 47
0.1
 48
0.1
 78
     7
 79
     2
140
0.12
141
0.0
146
0.71
147
0.06
176
   256
177
   256
178
     2
274
     4
284
     7
340
2AAF
371
    -1
372
    -1
1001
ACAD_DSTYLE_DIMARC_LENGTH_SYMBOL
1070
   379
1070
     1
1001
ACAD_DSTYLE_DIM_LINETYPE
1070
   380
1005
2AB4
1001
ACAD_DSTYLE_DIM_EXT1_LINETYPE
1070
   381
1005
2AB4
1001
ACAD_DSTYLE_DIM_EXT2_LINETYPE
1070
   382
1005
2AB4
  0
DIMSTYLE
105
2B04
330
2A5C
100
AcDbSymbolTableRecord
100
AcDbDimStyleTableRecord
  2
AM_ANSI$7
 70
     0
  4
mm
 41
0.12
 42
0.05
 43
0.5
 44
0.1
 47
0.1
 48
0.1
 78
     7
 79
     2
140
0.12
141
0.0
146
0.71
147
0.06
176
   256
177
   256
178
     2
274
     4
284
     7
340
2AAF
371
    -1
372
    -1
1001
ACAD_DSTYLE_DIMARC_LENGTH_SYMBOL
1070
   379
1070
     1
1001
ACAD_DSTYLE_DIM_LINETYPE
1070
   380
1005
2AB4
1001
ACAD_DSTYLE_DIM_EXT1_LINETYPE
1070
   381
1005
2AB4
1001
ACAD_DSTYLE_DIM_EXT2_LINETYPE
1070
   382
1005
2AB4
  0
DIMSTYLE
105
2B05
330
2A5C
100
AcDbSymbolTableRecord
100
AcDbDimStyleTableRecord
  2
AM_ANSI$SF
 70
     0
  4
mm
 41
0.12
 42
0.05
 43
0.5
 44
0.1
 47
0.1
 48
0.1
 75
     1
 76
     1
 78
     7
 79
     2
140
0.12
141
0.0
146
0.71
147
0.06
176
   256
177
   256
178
     2
274
     4
284
     7
340
2AAF
371
    -1
372
    -1
1001
ACAD_DSTYLE_DIMARC_LENGTH_SYMBOL
1070
   379
1070
     1
1001
ACAD_DSTYLE_DIM_LINETYPE
1070
   380
1005
2AB4
1001
ACAD_DSTYLE_DIM_EXT1_LINETYPE
1070
   381
1005
2AB4
1001
ACAD_DSTYLE_DIM_EXT2_LINETYPE
1070
   382
1005
2AB4
  0
DIMSTYLE
105
2B06
330
2A5C
100
AcDbSymbolTableRecord
100
AcDbDimStyleTableRecord
  2
AM_ANSI$SH
 70
     0
  4
mm
 41
0.12
 42
0.05
 43
0.5
 44
0.1
 47
0.1
 48
0.1
 75
     1
 76
     1
 78
     7
 79
     2
140
0.12
141
0.0
146
0.71
147
0.06
173
     1
176
   256
177
   256
178
     2
274
     4
284
     7
340
2AAF
343
2B1A
371
    -1
372
    -1
1001
ACAD_DSTYLE_DIMARC_LENGTH_SYMBOL
1070
   379
1070
     1
1001
ACAD_DSTYLE_DIM_LINETYPE
1070
   380
1005
2AB4
1001
ACAD_DSTYLE_DIM_EXT1_LINETYPE
1070
   381
1005
2AB4
1001
ACAD_DSTYLE_DIM_EXT2_LINETYPE
1070
   382
1005
2AB4
  0
DIMSTYLE
105
2B07
330
2A5C
100
AcDbSymbolTableRecord
100
AcDbDimStyleTableRecord
  2
STANDARD1
 70
     0
 40
6.0
 41
2.5
 42
0.625
 43
6.0
 44
1.25
 47
1.0
 48
0.5
 77
     1
 78
     8
140
2.5
141
0.0
146
0.6
147
1.0
173
     1
275
     1
279
     2
284
     7
285
     7
286
     7
340
2AAF
  0
DIMSTYLE
105
2B08
330
2A5C
100
AcDbSymbolTableRecord
100
AcDbDimStyleTableRecord
  2
STANDARD$0
 70
     0
 41
12.0
 42
20.0
 44
20.0
 73
     0
 74
     0
 77
     1
 78
     8
140
64.0
141
0.0
147
10.0
172
     1
275
     1
279
     2
284
     7
285
     7
286
     7
340
2AAF
  0
ENDTAB
  0
TABLE
  2
BLOCK_RECORD
  5
2A53
330
0
100
AcDbSymbolTable
 70
    24
  0
BLOCK_RECORD
  5
2AC6
102
{ACAD_XDICTIONARY
360
2C2F
102
}
330
2A53
100
AcDbSymbolTableRecord
100
AcDbBlockTableRecord
  2
*Model_Space
340
2AC9
  0
BLOCK_RECORD
  5
2AC2
330
2A53
100
AcDbSymbolTableRecord
100
AcDbBlockTableRecord
  2
*Paper_Space
340
2AC5
  0
BLOCK_RECORD
  5
2B10
330
2A53
100
AcDbSymbolTableRecord
100
AcDbBlockTableRecord
  2
$MODEL_SPACE
340
0
  0
BLOCK_RECORD
  5
2B12
330
2A53
100
AcDbSymbolTableRecord
100
AcDbBlockTableRecord
  2
$PAPER_SPACE
340
0
  0
BLOCK_RECORD
  5
2B14
330
2A53
100
AcDbSymbolTableRecord
100
AcDbBlockTableRecord
  2
_ORIGIN
340
0
  0
BLOCK_RECORD
  5
2B16
330
2A53
100
AcDbSymbolTableRecord
100
AcDbBlockTableRecord
  2
_DOTBLANK
340
0
102
{BLKREFS
331
202C
331
202D
331
2035
331
2036
331
203E
331
203F
331
2047
331
2048
331
2052
331
2053
331
205D
331
205E
331
29D7
331
29D8
331
29DC
331
29DD
331
29E1
331
29E2
331
29E7
331
29E8
331
29ED
331
29EE
331
29F4
331
29F5
331
29F9
331
29FA
331
29FE
331
29FF
331
2A03
331
2A04
331
2A0A
331
2A0B
102
}
  0
BLOCK_RECORD
  5
2B18
330
2A53
100
AcDbSymbolTableRecord
100
AcDbBlockTableRecord
  2
_OPEN30
340
0
102
{BLKREFS
331
2199
331
2586
331
28CE
102
}
  0
BLOCK_RECORD
  5
2B1A
330
2A53
100
AcDbSymbolTableRecord
100
AcDbBlockTableRecord
  2
GENAXEH
340
0
  0
BLOCK_RECORD
  5
2B1C
330
2A53
100
AcDbSymbolTableRecord
100
AcDbBlockTableRecord
  2
*U6
340
0
  0
BLOCK_RECORD
  5
2B1E
330
2A53
100
AcDbSymbolTableRecord
100
AcDbBlockTableRecord
  2
*D7
340
0
  0
BLOCK_RECORD
  5
2B20
330
2A53
100
AcDbSymbolTableRecord
100
AcDbBlockTableRecord
  2
*U8
340
0
102
{BLKREFS
331
202E
102
}
  0
BLOCK_RECORD
  5
2B22
330
2A53
100
AcDbSymbolTableRecord
100
AcDbBlockTableRecord
  2
*D9
340
0
  0
BLOCK_RECORD
  5
2B24
330
2A53
100
AcDbSymbolTableRecord
100
AcDbBlockTableRecord
  2
*U10
340
0
102
{BLKREFS
331
2037
102
}
  0
BLOCK_RECORD
  5
2B26
330
2A53
100
AcDbSymbolTableRecord
100
AcDbBlockTableRecord
  2
*D11
340
0
  0
BLOCK_RECORD
  5
2B28
330
2A53
100
AcDbSymbolTableRecord
100
AcDbBlockTableRecord
  2
*U12
340
0
102
{BLKREFS
331
2040
102
}
  0
BLOCK_RECORD
  5
2B2A
330
2A53
100
AcDbSymbolTableRecord
100
AcDbBlockTableRecord
  2
*D13
340
0
  0
BLOCK_RECORD
  5
2B2C
330
2A53
100
AcDbSymbolTableRecord
100
AcDbBlockTableRecord
  2
*U14
340
0
102
{BLKREFS
331
2049
102
}
  0
BLOCK_RECORD
  5
2B2E
330
2A53
100
AcDbSymbolTableRecord
100
AcDbBlockTableRecord
  2
*D15
340
0
  0
BLOCK_RECORD
  5
2B30
330
2A53
100
AcDbSymbolTableRecord
100
AcDbBlockTableRecord
  2
*U16
340
0
102
{BLKREFS
331
2054
102
}
  0
BLOCK_RECORD
  5
2B32
330
2A53
100
AcDbSymbolTableRecord
100
AcDbBlockTableRecord
  2
*D17
340
0
  0
BLOCK_RECORD
  5
2B34
330
2A53
100
AcDbSymbolTableRecord
100
AcDbBlockTableRecord
  2
*U18
340
0
102
{BLKREFS
331
205F
102
}
  0
BLOCK_RECORD
  5
2B36
330
2A53
100
AcDbSymbolTableRecord
100
AcDbBlockTableRecord
  2
*U19
340
0
  0
BLOCK_RECORD
  5
2B38
330
2A53
100
AcDbSymbolTableRecord
100
AcDbBlockTableRecord
  2
*U20
340
0
  0
BLOCK_RECORD
  5
2B3A
330
2A53
100
AcDbSymbolTableRecord
100
AcDbBlockTableRecord
  2
*U21
340
0
  0
BLOCK_RECORD
  5
2B3C
330
2A53
100
AcDbSymbolTableRecord
100
AcDbBlockTableRecord
  2
*U22
340
0
102
{BLKREFS
331
29AB
102
}
  0
ENDTAB
  0
ENDSEC
  0
SECTION
  2
BLOCKS
  0
BLOCK
  5
2AC7
330
2AC6
100
AcDbEntity
  8
0
100
AcDbBlockBegin
  2
*Model_Space
 70
     0
 10
0.0
 20
0.0
 30
0.0
  3
*Model_Space
  1

  0
ENDBLK
  5
2AC8
330
2AC6
100
AcDbEntity
  8
0
100
AcDbBlockEnd
  0
BLOCK
  5
2AC3
330
2AC2
100
AcDbEntity
 67
     1
  8
0
100
AcDbBlockBegin
  2
*Paper_Space
 70
     0
 10
0.0
 20
0.0
 30
0.0
  3
*Paper_Space
  1

  0
ENDBLK
  5
2AC4
330
2AC2
100
AcDbEntity
 67
     1
  8
0
100
AcDbBlockEnd
  0
BLOCK
  5
2B11
330
2B10
100
AcDbEntity
  8
0
100
AcDbBlockBegin
  2
$MODEL_SPACE
 70
     0
 10
0.0
 20
0.0
 30
0.0
  3
$MODEL_SPACE
  1

  0
ENDBLK
  5
277D
330
2B10
100
AcDbEntity
  8
0
100
AcDbBlockEnd
  0
BLOCK
  5
2B13
330
2B12
100
AcDbEntity
  8
0
100
AcDbBlockBegin
  2
$PAPER_SPACE
 70
     0
 10
0.0
 20
0.0
 30
0.0
  3
$PAPER_SPACE
  1

  0
ENDBLK
  5
2779
330
2B12
100
AcDbEntity
  8
0
100
AcDbBlockEnd
  0
BLOCK
  5
2B15
330
2B14
100
AcDbEntity
  8
0
100
AcDbBlockBegin
  2
_ORIGIN
 70
     0
 10
0.0
 20
0.0
 30
0.0
  3
_ORIGIN
  1

  0
CIRCLE
  5
880
330
2B14
100
AcDbEntity
  8
0
  6
Continuous
 62
     7
100
AcDbCircle
 10
0.0
 20
0.0
 30
0.0
 40
0.5
  0
LINE
  5
881
330
2B14
100
AcDbEntity
  8
0
  6
Continuous
 62
     7
100
AcDbLine
 10
0.0
 20
0.0
 30
0.0
 11
-1.0
 21
0.0
 31
0.0
  0
ENDBLK
  5
882
330
2B14
100
AcDbEntity
  8
0
100
AcDbBlockEnd
  0
BLOCK
  5
2B17
330
2B16
100
AcDbEntity
  8
0
 62
     1
100
AcDbBlockBegin
  2
_DOTBLANK
 70
     0
 10
0.0
 20
0.0
 30
0.0
  3
_DOTBLANK
  1

  0
CIRCLE
  5
AB3
330
2B16
100
AcDbEntity
  8
0
  6
ByBlock
 62
     0
100
AcDbCircle
 10
0.0
 20
0.0
 30
0.0
 40
0.5
  0
LINE
  5
AB4
330
2B16
100
AcDbEntity
  8
0
  6
ByBlock
 62
     0
100
AcDbLine
 10
-0.5
 20
0.0
 30
0.0
 11
-1.0
 21
0.0
 31
0.0
  0
ENDBLK
  5
AB6
330
2B16
100
AcDbEntity
  8
0
 62
     1
100
AcDbBlockEnd
  0
BLOCK
  5
2B19
330
2B18
100
AcDbEntity
  8
0
 62
     1
100
AcDbBlockBegin
  2
_OPEN30
 70
     0
 10
0.0
 20
0.0
 30
0.0
  3
_OPEN30
  1

  0
LINE
  5
AB8
330
2B18
100
AcDbEntity
  8
0
  6
ByBlock
 62
     0
100
AcDbLine
 10
-1.0
 20
0.26794919
 30
0.0
 11
0.0
 21
0.0
 31
0.0
  0
LINE
  5
AB9
330
2B18
100
AcDbEntity
  8
0
  6
ByBlock
 62
     0
100
AcDbLine
 10
0.0
 20
0.0
 30
0.0
 11
-1.0
 21
-0.26794919
 31
0.0
  0
LINE
  5
ABA
330
2B18
100
AcDbEntity
  8
0
  6
ByBlock
 62
     0
100
AcDbLine
 10
0.0
 20
0.0
 30
0.0
 11
-1.0
 21
0.0
 31
0.0
  0
ENDBLK
  5
ABC
330
2B18
100
AcDbEntity
  8
0
 62
     1
100
AcDbBlockEnd
  0
BLOCK
  5
2B1B
330
2B1A
100
AcDbEntity
  8
0
100
AcDbBlockBegin
  2
GENAXEH
 70
     0
 10
0.0
 20
0.0
 30
0.0
  3
GENAXEH
  1

  0
LINE
  5
FDB
330
2B1A
100
AcDbEntity
  8
0
100
AcDbLine
 10
-1.0
 20
0.0
 30
0.0
 11
1.0
 21
0.0
 31
0.0
  0
ENDBLK
  5
FDD
330
2B1A
100
AcDbEntity
  8
0
100
AcDbBlockEnd
  0
BLOCK
  5
2B1D
330
2B1C
100
AcDbEntity
  8
0
100
AcDbBlockBegin
  2
*U6
 70
     1
 10
0.0
 20
0.0
 30
0.0
  3
*U6
  1

  0
ENDBLK
  5
1ED4
330
2B1C
100
AcDbEntity
  8
0
100
AcDbBlockEnd
  0
BLOCK
  5
2B1F
330
2B1E
100
AcDbEntity
  8
0
100
AcDbBlockBegin
  2
*D7
 70
     1
 10
0.0
 20
0.0
 30
0.0
  3
*D7
  1

  0
LINE
  5
2029
330
2B1E
100
AcDbEntity
  8
SIZE
 62
     0
100
AcDbLine
 10
-135.5
 20
-449.4732256776551
 30
0.0
 11
-135.5
 21
-638.0173952306003
 31
0.0
  0
LINE
  5
202A
330
2B1E
100
AcDbEntity
  8
SIZE
 62
     0
100
AcDbLine
 10
135.5
 20
-449.4732256776551
 30
0.0
 11
135.5
 21
-638.0173952306003
 31
0.0
  0
LINE
  5
202B
330
2B1E
100
AcDbEntity
  8
SIZE
 62
     0
100
AcDbLine
 10
-123.5
 20
-618.0173952306001
 30
0.0
 11
123.5
 21
-618.0173952306001
 31
0.0
  0
INSERT
  5
202C
330
2B1E
100
AcDbEntity
  8
SIZE
 62
     0
100
AcDbBlockReference
  2
_DOTBLANK
 10
-135.5
 20
-618.0173952306001
 30
0.0
 41
12.0
 42
12.0
 43
12.0
 50
180.0
  0
INSERT
  5
202D
330
2B1E
100
AcDbEntity
  8
SIZE
 62
     0
100
AcDbBlockReference
  2
_DOTBLANK
 10
135.5
 20
-618.0173952306001
 30
0.0
 41
12.0
 42
12.0
 43
12.0
  0
INSERT
  5
202E
330
2B1E
100
AcDbEntity
  8
0
100
AcDbBlockReference
  2
*U8
 10
0.0
 20
0.0
 30
0.0
  0
POINT
  5
202F
330
2B1E
100
AcDbEntity
  8
DEFPOINTS
 62
     0
100
AcDbPoint
 10
-135.5
 20
-429.473225677655
 30
0.0
  0
POINT
  5
2030
330
2B1E
100
AcDbEntity
  8
DEFPOINTS
 62
     0
100
AcDbPoint
 10
135.5
 20
-429.473225677655
 30
0.0
  0
POINT
  5
2031
330
2B1E
100
AcDbEntity
  8
DEFPOINTS
 62
     0
100
AcDbPoint
 10
135.5
 20
-618.0173952306001
 30
0.0
  0
ENDBLK
  5
1FDF
330
2B1E
100
AcDbEntity
  8
0
100
AcDbBlockEnd
  0
BLOCK
  5
2B21
330
2B20
100
AcDbEntity
  8
0
100
AcDbBlockBegin
  2
*U8
 70
     1
 10
0.0
 20
0.0
 30
0.0
  3
*U8
  1

  0
TEXT
  5
21A6
330
2B20
100
AcDbEntity
  8
SIZE
 62
     0
100
AcDbText
 10
-61.7142857142857
 20
-608.0173952306003
 30
0.0
 40
64.0
  1
271
 41
0.9
100
AcDbText
  0
ENDBLK
  5
21A8
330
2B20
100
AcDbEntity
  8
0
100
AcDbBlockEnd
  0
BLOCK
  5
2B23
330
2B22
100
AcDbEntity
  8
0
100
AcDbBlockBegin
  2
*D9
 70
     1
 10
0.0
 20
0.0
 30
0.0
  3
*D9
  1

  0
LINE
  5
2032
330
2B22
100
AcDbEntity
  8
SIZE
 62
     0
100
AcDbLine
 10
143.7000000000007
 20
-430.0
 30
0.0
 11
304.6432844803784
 21
-430.0
 31
0.0
  0
LINE
  5
2033
330
2B22
100
AcDbEntity
  8
SIZE
 62
     0
100
AcDbLine
 10
177.5
 20
-0.0000000000000057
 30
0.0
 11
304.6432844803785
 21
-0.0000000000000417
 31
0.0
  0
LINE
  5
2034
330
2B22
100
AcDbEntity
  8
SIZE
 62
     0
100
AcDbLine
 10
284.6432844803784
 20
-418.0
 30
0.0
 11
284.6432844803785
 21
-12.00000000000003
 31
0.0
  0
INSERT
  5
2035
330
2B22
100
AcDbEntity
  8
SIZE
 62
     0
100
AcDbBlockReference
  2
_DOTBLANK
 10
284.6432844803784
 20
-430.0
 30
0.0
 41
12.0
 42
12.0
 43
12.0
 50
270.0
  0
INSERT
  5
2036
330
2B22
100
AcDbEntity
  8
SIZE
 62
     0
100
AcDbBlockReference
  2
_DOTBLANK
 10
284.6432844803785
 20
-0.000000000000036
 30
0.0
 41
12.0
 42
12.0
 43
12.0
 50
90.0
  0
INSERT
  5
2037
330
2B22
100
AcDbEntity
  8
0
100
AcDbBlockReference
  2
*U10
 10
0.0
 20
0.0
 30
0.0
  0
POINT
  5
2038
330
2B22
100
AcDbEntity
  8
DEFPOINTS
 62
     0
100
AcDbPoint
 10
123.7000000000007
 20
-430.0
 30
0.0
  0
POINT
  5
2039
330
2B22
100
AcDbEntity
  8
DEFPOINTS
 62
     0
100
AcDbPoint
 10
157.5
 20
0.0
 30
0.0
  0
POINT
  5
203A
330
2B22
100
AcDbEntity
  8
DEFPOINTS
 62
     0
100
AcDbPoint
 10
284.6432844803785
 20
-0.000000000000036
 30
0.0
  0
ENDBLK
  5
1FEB
330
2B22
100
AcDbEntity
  8
0
100
AcDbBlockEnd
  0
BLOCK
  5
2B25
330
2B24
100
AcDbEntity
  8
0
100
AcDbBlockBegin
  2
*U10
 70
     1
 10
0.0
 20
0.0
 30
0.0
  3
*U10
  1

  0
TEXT
  5
21AA
330
2B24
100
AcDbEntity
  8
SIZE
 62
     0
100
AcDbText
 10
274.6432844803785
 20
-289.0571428571429
 30
0.0
 40
64.0
  1
430
 50
90.0
 41
0.9
100
AcDbText
  0
ENDBLK
  5
21AC
330
2B24
100
AcDbEntity
  8
0
100
AcDbBlockEnd
  0
BLOCK
  5
2B27
330
2B26
100
AcDbEntity
  8
0
100
AcDbBlockBegin
  2
*D11
 70
     1
 10
0.0
 20
0.0
 30
0.0
  3
*D11
  1

  0
LINE
  5
203B
330
2B26
100
AcDbEntity
  8
SIZE
 62
     0
100
AcDbLine
 10
-140.0
 20
32.5
 30
0.0
 11
-140.0
 21
136.4516878685499
 31
0.0
  0
LINE
  5
203C
330
2B26
100
AcDbEntity
  8
SIZE
 62
     0
100
AcDbLine
 10
140.0
 20
32.5
 30
0.0
 11
140.0
 21
136.4516878685499
 31
0.0
  0
LINE
  5
203D
330
2B26
100
AcDbEntity
  8
SIZE
 62
     0
100
AcDbLine
 10
-128.0
 20
116.4516878685499
 30
0.0
 11
128.0
 21
116.4516878685499
 31
0.0
  0
INSERT
  5
203E
330
2B26
100
AcDbEntity
  8
SIZE
 62
     0
100
AcDbBlockReference
  2
_DOTBLANK
 10
-140.0
 20
116.4516878685499
 30
0.0
 41
12.0
 42
12.0
 43
12.0
 50
180.0
  0
INSERT
  5
203F
330
2B26
100
AcDbEntity
  8
SIZE
 62
     0
100
AcDbBlockReference
  2
_DOTBLANK
 10
140.0
 20
116.4516878685499
 30
0.0
 41
12.0
 42
12.0
 43
12.0
  0
INSERT
  5
2040
330
2B26
100
AcDbEntity
  8
0
100
AcDbBlockReference
  2
*U12
 10
0.0
 20
0.0
 30
0.0
  0
POINT
  5
2041
330
2B26
100
AcDbEntity
  8
DEFPOINTS
 62
     0
100
AcDbPoint
 10
-140.0
 20
12.5
 30
0.0
  0
POINT
  5
2042
330
2B26
100
AcDbEntity
  8
DEFPOINTS
 62
     0
100
AcDbPoint
 10
140.0
 20
12.5
 30
0.0
  0
POINT
  5
2043
330
2B26
100
AcDbEntity
  8
DEFPOINTS
 62
     0
100
AcDbPoint
 10
140.0
 20
116.4516878685499
 30
0.0
  0
ENDBLK
  5
1FF7
330
2B26
100
AcDbEntity
  8
0
100
AcDbBlockEnd
  0
BLOCK
  5
2B29
330
2B28
100
AcDbEntity
  8
0
100
AcDbBlockBegin
  2
*U12
 70
     1
 10
0.0
 20
0.0
 30
0.0
  3
*U12
  1

  0
TEXT
  5
21AE
330
2B28
100
AcDbEntity
  8
SIZE
 62
     0
100
AcDbText
 10
-74.05714285714283
 20
126.4516878685499
 30
0.0
 40
64.0
  1
280
 41
0.9
100
AcDbText
  0
ENDBLK
  5
21B0
330
2B28
100
AcDbEntity
  8
0
100
AcDbBlockEnd
  0
BLOCK
  5
2B2B
330
2B2A
100
AcDbEntity
  8
0
100
AcDbBlockBegin
  2
*D13
 70
     1
 10
0.0
 20
0.0
 30
0.0
  3
*D13
  1

  0
LINE
  5
2044
330
2B2A
100
AcDbEntity
  8
SIZE
 62
     0
100
AcDbLine
 10
-157.5
 20
20.0
 30
0.0
 11
-157.5
 21
245.5794621189598
 31
0.0
  0
LINE
  5
2045
330
2B2A
100
AcDbEntity
  8
SIZE
 62
     0
100
AcDbLine
 10
157.5
 20
20.0
 30
0.0
 11
157.5
 21
245.5794621189598
 31
0.0
  0
LINE
  5
2046
330
2B2A
100
AcDbEntity
  8
SIZE
 62
     0
100
AcDbLine
 10
-145.5
 20
225.5794621189598
 30
0.0
 11
145.5
 21
225.5794621189598
 31
0.0
  0
INSERT
  5
2047
330
2B2A
100
AcDbEntity
  8
SIZE
 62
     0
100
AcDbBlockReference
  2
_DOTBLANK
 10
-157.5
 20
225.5794621189598
 30
0.0
 41
12.0
 42
12.0
 43
12.0
 50
180.0
  0
INSERT
  5
2048
330
2B2A
100
AcDbEntity
  8
SIZE
 62
     0
100
AcDbBlockReference
  2
_DOTBLANK
 10
157.5
 20
225.5794621189598
 30
0.0
 41
12.0
 42
12.0
 43
12.0
  0
INSERT
  5
2049
330
2B2A
100
AcDbEntity
  8
0
100
AcDbBlockReference
  2
*U14
 10
0.0
 20
0.0
 30
0.0
  0
POINT
  5
204A
330
2B2A
100
AcDbEntity
  8
DEFPOINTS
 62
     0
100
AcDbPoint
 10
-157.5
 20
0.0
 30
0.0
  0
POINT
  5
204B
330
2B2A
100
AcDbEntity
  8
DEFPOINTS
 62
     0
100
AcDbPoint
 10
157.5
 20
0.0
 30
0.0
  0
POINT
  5
204C
330
2B2A
100
AcDbEntity
  8
DEFPOINTS
 62
     0
100
AcDbPoint
 10
157.5
 20
225.5794621189598
 30
0.0
  0
ENDBLK
  5
2003
330
2B2A
100
AcDbEntity
  8
0
100
AcDbBlockEnd
  0
BLOCK
  5
2B2D
330
2B2C
100
AcDbEntity
  8
0
100
AcDbBlockBegin
  2
*U14
 70
     1
 10
0.0
 20
0.0
 30
0.0
  3
*U14
  1

  0
TEXT
  5
21B2
330
2B2C
100
AcDbEntity
  8
SIZE
 62
     0
100
AcDbText
 10
-68.57142857142857
 20
235.5794621189598
 30
0.0
 40
64.0
  1
315
 41
0.9
100
AcDbText
  0
ENDBLK
  5
21B4
330
2B2C
100
AcDbEntity
  8
0
100
AcDbBlockEnd
  0
BLOCK
  5
2B2F
330
2B2E
100
AcDbEntity
  8
0
100
AcDbBlockBegin
  2
*D15
 70
     1
 10
0.0
 20
0.0
 30
0.0
  3
*D15
  1

  0
LINE
  5
204D
330
2B2E
100
AcDbEntity
  8
SIZE
 62
     0
100
AcDbLine
 10
-177.5
 20
0.0000000000000057
 30
0.0
 11
-219.7694545525301
 21
0.0000000000000176
 31
0.0
  0
LINE
  5
204E
330
2B2E
100
AcDbEntity
  8
SIZE
 62
     0
100
AcDbLine
 10
-177.5
 20
-7.999999999999993
 30
0.0
 11
-219.7694545525301
 21
-7.999999999999982
 31
0.0
  0
LINE
  5
204F
330
2B2E
100
AcDbEntity
  8
SIZE
 62
     0
100
AcDbLine
 10
-199.76945455253
 20
12.00000000000001
 30
0.0
 11
-199.76945455253
 21
24.00000000000001
 31
0.0
  0
LINE
  5
2050
330
2B2E
100
AcDbEntity
  8
SIZE
 62
     0
100
AcDbLine
 10
-199.76945455253
 20
-19.99999999999999
 30
0.0
 11
-199.7694545525301
 21
-90.4
 31
0.0
  0
LINE
  5
2051
330
2B2E
100
AcDbEntity
  8
SIZE
 62
     0
100
AcDbLine
 10
-199.76945455253
 20
0.000000000000012
 30
0.0
 11
-199.76945455253
 21
-7.999999999999985
 31
0.0
  0
INSERT
  5
2052
330
2B2E
100
AcDbEntity
  8
SIZE
 62
     0
100
AcDbBlockReference
  2
_DOTBLANK
 10
-199.76945455253
 20
0.000000000000012
 30
0.0
 41
12.0
 42
12.0
 43
12.0
 50
270.0
  0
INSERT
  5
2053
330
2B2E
100
AcDbEntity
  8
SIZE
 62
     0
100
AcDbBlockReference
  2
_DOTBLANK
 10
-199.76945455253
 20
-7.999999999999985
 30
0.0
 41
12.0
 42
12.0
 43
12.0
 50
90.0
  0
INSERT
  5
2054
330
2B2E
100
AcDbEntity
  8
0
100
AcDbBlockReference
  2
*U16
 10
0.0
 20
0.0
 30
0.0
  0
POINT
  5
2055
330
2B2E
100
AcDbEntity
  8
DEFPOINTS
 62
     0
100
AcDbPoint
 10
-157.5
 20
0.0
 30
0.0
  0
POINT
  5
2056
330
2B2E
100
AcDbEntity
  8
DEFPOINTS
 62
     0
100
AcDbPoint
 10
-157.5
 20
-8.0
 30
0.0
  0
POINT
  5
2057
330
2B2E
100
AcDbEntity
  8
DEFPOINTS
 62
     0
100
AcDbPoint
 10
-199.76945455253
 20
-7.999999999999985
 30
0.0
  0
ENDBLK
  5
200F
330
2B2E
100
AcDbEntity
  8
0
100
AcDbBlockEnd
  0
BLOCK
  5
2B31
330
2B30
100
AcDbEntity
  8
0
100
AcDbBlockBegin
  2
*U16
 70
     1
 10
0.0
 20
0.0
 30
0.0
  3
*U16
  1

  0
TEXT
  5
21B6
330
2B30
100
AcDbEntity
  8
SIZE
 62
     0
100
AcDbText
 10
-209.7694545525301
 20
-80.4
 30
0.0
 40
64.0
  1
8
 50
90.0
 41
0.9
100
AcDbText
  0
ENDBLK
  5
21B8
330
2B30
100
AcDbEntity
  8
0
100
AcDbBlockEnd
  0
BLOCK
  5
2B33
330
2B32
100
AcDbEntity
  8
0
100
AcDbBlockBegin
  2
*D17
 70
     1
 10
0.0
 20
0.0
 30
0.0
  3
*D17
  1

  0
LINE
  5
2058
330
2B32
100
AcDbEntity
  8
SIZE
 62
     0
100
AcDbLine
 10
143.7000000000007
 20
-430.0
 30
0.0
 11
304.626441221626
 21
-430.0
 31
0.0
  0
LINE
  5
2059
330
2B32
100
AcDbEntity
  8
SIZE
 62
     0
100
AcDbLine
 10
143.1000000000022
 20
-441.0000000000001
 30
0.0
 11
304.626441221626
 21
-441.0000000000001
 31
0.0
  0
LINE
  5
205A
330
2B32
100
AcDbEntity
  8
SIZE
 62
     0
100
AcDbLine
 10
284.626441221626
 20
-418.0
 30
0.0
 11
284.626441221626
 21
-406.0
 31
0.0
  0
LINE
  5
205B
330
2B32
100
AcDbEntity
  8
SIZE
 62
     0
100
AcDbLine
 10
284.626441221626
 20
-453.0
 30
0.0
 11
284.626441221626
 21
-542.6000000000001
 31
0.0
  0
LINE
  5
205C
330
2B32
100
AcDbEntity
  8
SIZE
 62
     0
100
AcDbLine
 10
284.626441221626
 20
-430.0
 30
0.0
 11
284.626441221626
 21
-441.0000000000001
 31
0.0
  0
INSERT
  5
205D
330
2B32
100
AcDbEntity
  8
SIZE
 62
     0
100
AcDbBlockReference
  2
_DOTBLANK
 10
284.626441221626
 20
-430.0
 30
0.0
 41
12.0
 42
12.0
 43
12.0
 50
270.0
  0
INSERT
  5
205E
330
2B32
100
AcDbEntity
  8
SIZE
 62
     0
100
AcDbBlockReference
  2
_DOTBLANK
 10
284.626441221626
 20
-441.0000000000001
 30
0.0
 41
12.0
 42
12.0
 43
12.0
 50
90.0
  0
INSERT
  5
205F
330
2B32
100
AcDbEntity
  8
0
100
AcDbBlockReference
  2
*U18
 10
0.0
 20
0.0
 30
0.0
  0
POINT
  5
2060
330
2B32
100
AcDbEntity
  8
DEFPOINTS
 62
     0
100
AcDbPoint
 10
123.7000000000007
 20
-430.0
 30
0.0
  0
POINT
  5
2061
330
2B32
100
AcDbEntity
  8
DEFPOINTS
 62
     0
100
AcDbPoint
 10
123.1000000000022
 20
-441.0
 30
0.0
  0
POINT
  5
2062
330
2B32
100
AcDbEntity
  8
DEFPOINTS
 62
     0
100
AcDbPoint
 10
284.626441221626
 20
-441.0000000000001
 30
0.0
  0
ENDBLK
  5
201D
330
2B32
100
AcDbEntity
  8
0
100
AcDbBlockEnd
  0
BLOCK
  5
2B35
330
2B34
100
AcDbEntity
  8
0
100
AcDbBlockBegin
  2
*U18
 70
     1
 10
0.0
 20
0.0
 30
0.0
  3
*U18
  1

  0
TEXT
  5
21BA
330
2B34
100
AcDbEntity
  8
SIZE
 62
     0
100
AcDbText
 10
274.6264412216261
 20
-532.6
 30
0.0
 40
64.0
  1
11
 50
90.0
 41
0.9
100
AcDbText
  0
ENDBLK
  5
21BC
330
2B34
100
AcDbEntity
  8
0
100
AcDbBlockEnd
  0
BLOCK
  5
2B37
330
2B36
100
AcDbEntity
  8
0
100
AcDbBlockBegin
  2
*U19
 70
     1
 10
0.0
 20
0.0
 30
0.0
  3
*U19
  1

  0
INSERT
  5
2199
330
2B36
100
AcDbEntity
  8
NOTE
100
AcDbBlockReference
  2
_OPEN30
 10
-140.0
 20
0.0
 30
0.0
 41
12.0
 42
12.0
 43
12.0
 50
312.6090116116894
  0
POLYLINE
  5
219A
330
2B36
100
AcDbEntity
  8
NOTE
100
AcDb2dPolyline
 66
     1
 10
0.0
 20
0.0
 30
0.0
  0
VERTEX
  5
219B
330
219A
100
AcDbEntity
  8
NOTE
100
AcDbVertex
100
AcDb2dVertex
 10
-148.1239008361894
 20
8.831887408915472
 30
0.0
  0
VERTEX
  5
219C
330
219A
100
AcDbEntity
  8
NOTE
100
AcDbVertex
100
AcDb2dVertex
 10
-227.8693999922543
 20
95.5270950580134
 30
0.0
  0
VERTEX
  5
219D
330
219A
100
AcDbEntity
  8
NOTE
100
AcDbVertex
100
AcDb2dVertex
 10
-776.4522571351115
 20
95.5270950580134
 30
0.0
  0
SEQEND
  5
219E
330
219A
100
AcDbEntity
  8
NOTE
  0
ENDBLK
  5
21A0
330
2B36
100
AcDbEntity
  8
0
100
AcDbBlockEnd
  0
BLOCK
  5
2B39
330
2B38
100
AcDbEntity
  8
0
100
AcDbBlockBegin
  2
*U20
 70
     1
 10
0.0
 20
0.0
 30
0.0
  3
*U20
  1

  0
TEXT
  5
21A2
330
2B38
100
AcDbEntity
  8
NOTE
100
AcDbText
 10
-773.7093999922541
 20
113.5270950580134
 30
0.0
 40
64.0
  1
4×φ10取付穴
 41
0.9
100
AcDbText
  0
ENDBLK
  5
21A4
330
2B38
100
AcDbEntity
  8
0
100
AcDbBlockEnd
  0
BLOCK
  5
2B3B
330
2B3A
100
AcDbEntity
  8
0
100
AcDbBlockBegin
  2
*U21
 70
     1
 10
0.0
 20
0.0
 30
0.0
  3
*U21
  1

  0
INSERT
  5
2586
330
2B3A
100
AcDbEntity
  8
NOTE
100
AcDbBlockReference
  2
_OPEN30
 10
0.0
 20
139.9999999999998
 30
0.0
 41
12.0
 42
12.0
 43
12.0
 50
312.6090116116895
  0
POLYLINE
  5
2587
330
2B3A
100
AcDbEntity
  8
NOTE
100
AcDb2dPolyline
 66
     1
 10
0.0
 20
0.0
 30
0.0
  0
VERTEX
  5
2588
330
2587
100
AcDbEntity
  8
NOTE
100
AcDbVertex
100
AcDb2dVertex
 10
-8.1239008361895
 20
148.8318874089152
 30
0.0
  0
VERTEX
  5
2589
330
2587
100
AcDbEntity
  8
NOTE
100
AcDbVertex
100
AcDb2dVertex
 10
-87.86939999225406
 20
235.5270950580129
 30
0.0
  0
VERTEX
  5
258A
330
2587
100
AcDbEntity
  8
NOTE
100
AcDbVertex
100
AcDb2dVertex
 10
-636.4522571351113
 20
235.5270950580129
 30
0.0
  0
SEQEND
  5
258B
330
2587
100
AcDbEntity
  8
NOTE
  0
ENDBLK
  5
258C
330
2B3A
100
AcDbEntity
  8
0
100
AcDbBlockEnd
  0
BLOCK
  5
2B3D
330
2B3C
100
AcDbEntity
  8
0
100
AcDbBlockBegin
  2
*U22
 70
     1
 10
0.0
 20
0.0
 30
0.0
  3
*U22
  1

  0
INSERT
  5
28CE
330
2B3C
100
AcDbEntity
  8
NOTE
100
AcDbBlockReference
  2
_OPEN30
 10
0.0
 20
165.0
 30
0.0
 41
12.0
 42
12.0
 43
12.0
 50
312.6090116116895
  0
POLYLINE
  5
28CF
330
2B3C
100
AcDbEntity
  8
NOTE
100
AcDb2dPolyline
 66
     1
 10
0.0
 20
0.0
 30
0.0
  0
VERTEX
  5
28D0
330
28CF
100
AcDbEntity
  8
NOTE
100
AcDbVertex
100
AcDb2dVertex
 10
-8.123900836189513
 20
173.8318874089154
 30
0.0
  0
VERTEX
  5
28D1
330
28CF
100
AcDbEntity
  8
NOTE
100
AcDbVertex
100
AcDb2dVertex
 10
-87.86939999225436
 20
260.527095058013
 30
0.0
  0
VERTEX
  5
28D2
330
28CF
100
AcDbEntity
  8
NOTE
100
AcDbVertex
100
AcDb2dVertex
 10
-636.4522571351113
 20
260.527095058013
 30
0.0
  0
SEQEND
  5
28D3
330
28CF
100
AcDbEntity
  8
NOTE
  0
ENDBLK
  5
28D4
330
2B3C
100
AcDbEntity
  8
0
100
AcDbBlockEnd
  0
ENDSEC
  0
SECTION
  2
ENTITIES
  0
TEXT
  5
953
330
2AC6
100
AcDbEntity
  8
OUTLINE
  6
Continuous
 62
     3
100
AcDbText
 10
-418.231467
 20
13.715189
 30
0.0
 40
64.0
  1
 
 41
0.9
100
AcDbText
  0
TEXT
  5
954
330
2AC6
100
AcDbEntity
  8
OUTLINE
  6
Continuous
 62
     3
100
AcDbText
 10
-418.231467
 20
13.715189
 30
0.0
 40
64.0
  1
 
 41
0.9
100
AcDbText
  0
TEXT
  5
955
330
2AC6
100
AcDbEntity
  8
OUTLINE
  6
Continuous
 62
     3
100
AcDbText
 10
1341.41903
 20
-706.0588199999997
 30
0.0
 40
64.0
  1
 
 41
0.9
100
AcDbText
  0
TEXT
  5
956
330
2AC6
100
AcDbEntity
  8
OUTLINE
  6
Continuous
 62
     3
100
AcDbText
 10
1341.41903
 20
-706.0588199999997
 30
0.0
 40
64.0
  1
 
 41
0.9
100
AcDbText
  0
TEXT
  5
957
330
2AC6
100
AcDbEntity
  8
OUTLINE
  6
Continuous
 62
     3
100
AcDbText
 10
1341.41903
 20
-706.0588199999997
 30
0.0
 40
64.0
  1
 
 41
0.9
100
AcDbText
  0
TEXT
  5
958
330
2AC6
100
AcDbEntity
  8
OUTLINE
  6
Continuous
 62
     3
100
AcDbText
 10
1341.41903
 20
-706.0588199999997
 30
0.0
 40
64.0
  1
 
 41
0.9
100
AcDbText
  0
TEXT
  5
297C
330
2AC6
100
AcDbEntity
  8
ETC
100
AcDbText
 10
256.2468308916505
 20
404.5403000770328
 30
0.0
 40
64.0
  1
システム部材
 41
0.9
100
AcDbText
  0
TEXT
  5
297D
330
2AC6
100
AcDbEntity
  8
ETC
100
AcDbText
 10
262.4548288916485
 20
505.4236260770331
 30
0.0
 40
64.0
  1
QWH-25SA_4
 41
0.9
100
AcDbText
  0
LINE
  5
297E
330
2AC6
100
AcDbEntity
  8
BASIS
100
AcDbLine
 39
50.0
 10
25.0
 20
0.0
 30
0.0
 11
-500.0
 21
0.0
 31
0.0
  0
CIRCLE
  5
297F
330
2AC6
100
AcDbEntity
  8
ARRANGE
100
AcDbCircle
 39
50.0
 10
0.0
 20
0.0
 30
0.0
 40
40.0
  0
POINT
  5
2980
330
2AC6
100
AcDbEntity
  8
ARRANGE
100
AcDbPoint
 10
0.0
 20
0.0
 30
0.0
 39
50.0
  0
LINE
  5
2981
330
2AC6
100
AcDbEntity
  8
NOTE
100
AcDbLine
 10
12.5
 20
-165.0
 30
0.0
 11
-12.5
 21
-165.0
 31
0.0
  0
LINE
  5
2982
330
2AC6
100
AcDbEntity
  8
NOTE
100
AcDbLine
 10
-12.5
 20
165.0
 30
0.0
 11
12.5
 21
165.0
 31
0.0
  0
LINE
  5
2983
330
2AC6
100
AcDbEntity
  8
DETAIL
100
AcDbLine
 10
-474.3999999999974
 20
-406.7000000000001
 30
0.0
 11
-474.3749214528689
 21
-406.6969187524597
 31
0.0
  0
LINE
  5
2984
330
2AC6
100
AcDbEntity
  8
DETAIL
100
AcDbLine
 10
-474.4731681390183
 20
-406.1044780243919
 30
0.0
 11
-474.3999999999974
 21
-406.7000000000006
 31
0.0
  0
LINE
  5
2985
330
2AC6
100
AcDbEntity
  8
DETAIL
100
AcDbLine
 10
-474.4480721930081
 20
-406.1013946391577
 30
0.0
 11
-474.4731681390183
 21
-406.1044780243919
 31
0.0
  0
LINE
  5
2986
330
2AC6
100
AcDbEntity
  8
DETAIL
100
AcDbLine
 10
0.0
 20
-182.5
 30
0.0
 11
0.0
 21
182.5
 31
0.0
  0
LINE
  5
2987
330
2AC6
100
AcDbEntity
  8
DETAIL
100
AcDbLine
 10
-8.0
 20
-182.5
 30
0.0
 11
-8.0
 21
182.5
 31
0.0
  0
LINE
  5
2988
330
2AC6
100
AcDbEntity
  8
DETAIL
100
AcDbLine
 10
-8.0
 20
148.0999999999994
 30
0.0
 11
-125.4000000000014
 21
148.0999999999994
 31
0.0
  0
LINE
  5
2989
330
2AC6
100
AcDbEntity
  8
DETAIL
100
AcDbLine
 10
-475.0
 20
-201.5
 30
0.0
 11
-475.0
 21
-400.5991078669793
 31
0.0
  0
LINE
  5
298A
330
2AC6
100
AcDbEntity
  8
DETAIL
100
AcDbLine
 10
-475.0
 20
-401.608120651414
 30
0.0
 11
-475.0
 21
-406.1000000000003
 31
0.0
  0
LINE
  5
298B
330
2AC6
100
AcDbEntity
  8
DETAIL
100
AcDbLine
 10
-475.0
 20
-406.1000000000003
 30
0.0
 11
-474.4482435024256
 21
-406.1000000000003
 31
0.0
  0
LINE
  5
298C
330
2AC6
100
AcDbEntity
  8
DETAIL
100
AcDbLine
 10
-486.0
 20
-406.7
 30
0.0
 11
-474.3999999999974
 21
-406.7
 31
0.0
  0
LINE
  5
298D
330
2AC6
100
AcDbEntity
  8
DETAIL
100
AcDbLine
 10
-475.0
 20
-406.1000000000003
 30
0.0
 11
-485.3999999999976
 21
-406.1000000000003
 31
0.0
  0
LINE
  5
298E
330
2AC6
100
AcDbEntity
  8
DETAIL
100
AcDbLine
 10
-485.3999999999976
 20
-406.1000000000003
 30
0.0
 11
-485.3999999999976
 21
-399.7000000000006
 31
0.0
  0
LINE
  5
298F
330
2AC6
100
AcDbEntity
  8
DETAIL
100
AcDbLine
 10
-485.3999999999976
 20
-399.7
 30
0.0
 11
-486.0
 21
-399.7
 31
0.0
  0
LINE
  5
2990
330
2AC6
100
AcDbEntity
  8
DETAIL
100
AcDbLine
 10
-485.3999999999976
 20
-394.7000000000006
 30
0.0
 11
-485.3999999999976
 21
-399.7000000000006
 31
0.0
  0
LINE
  5
2991
330
2AC6
100
AcDbEntity
  8
DETAIL
100
AcDbLine
 10
-486.0
 20
-394.7
 30
0.0
 11
-485.3999999999976
 21
-394.7
 31
0.0
  0
LINE
  5
2992
330
2AC6
100
AcDbEntity
  8
DETAIL
100
AcDbLine
 10
-486.0
 20
-399.7
 30
0.0
 11
-486.0
 21
-406.7
 31
0.0
  0
LINE
  5
2993
330
2AC6
100
AcDbEntity
  8
DETAIL
100
AcDbLine
 10
-486.0
 20
-399.7
 30
0.0
 11
-486.0
 21
-394.7
 31
0.0
  0
ARC
  5
2994
330
2AC6
100
AcDbEntity
  8
DETAIL
100
AcDbCircle
 10
-125.4000000000014
 20
-201.5
 30
0.0
 40
349.5999999999999
100
AcDbArc
 50
90.0
 51
180.0
  0
LINE
  5
2995
330
2AC6
100
AcDbEntity
  8
DETAIL
100
AcDbLine
 10
-134.3999999999978
 20
-353.8481343300992
 30
0.0
 11
-134.3999999999978
 21
-183.1297370293168
 31
0.0
  0
LINE
  5
2996
330
2AC6
100
AcDbEntity
  8
DETAIL
100
AcDbLine
 10
-99.39999999999779
 20
-148.1000000000008
 30
0.0
 11
-8.0
 21
-148.1000000000003
 31
0.0
  0
LINE
  5
2997
330
2AC6
100
AcDbEntity
  8
DETAIL
100
AcDbLine
 10
-474.2539120693764
 20
-407.6820626575852
 30
0.0
 11
-474.400000000001
 21
-407.6999999999999
 31
0.0
  0
LINE
  5
2998
330
2AC6
100
AcDbEntity
  8
DETAIL
100
AcDbLine
 10
-474.3999999999974
 20
-407.6999999999999
 30
0.0
 11
-474.3999999999974
 21
-406.7
 31
0.0
  0
LINE
  5
2999
330
2AC6
100
AcDbEntity
  8
DETAIL
100
AcDbLine
 10
0.0
 20
-182.5
 30
0.0
 11
-8.0
 21
-182.5
 31
0.0
  0
LINE
  5
299A
330
2AC6
100
AcDbEntity
  8
DETAIL
100
AcDbLine
 10
0.0
 20
182.5
 30
0.0
 11
-8.0
 21
182.5
 31
0.0
  0
LINE
  5
299B
330
2AC6
100
AcDbEntity
  8
DETAIL
100
AcDbLine
 10
-123.4630148022078
 20
-352.5046982806314
 30
0.0
 11
-470.7539896570557
 21
-395.1639144025605
 31
0.0
  0
LINE
  5
299C
330
2AC6
100
AcDbEntity
  8
DETAIL
100
AcDbLine
 10
-474.2536757969133
 20
-407.6839861644357
 30
0.0
 11
-475.1071010982014
 21
-400.7362048455457
 31
0.0
  0
LINE
  5
299D
330
2AC6
100
AcDbEntity
  8
DETAIL
100
AcDbLine
 10
-470.7539896570557
 20
-395.1639144025606
 30
0.0
 11
-475.1071010981974
 21
-400.7362048455463
 31
0.0
  0
LINE
  5
299E
330
2AC6
100
AcDbEntity
  8
DETAIL
100
AcDbLine
 10
-122.0
 20
-364.4151805415869
 30
0.0
 11
-474.2536757969133
 21
-407.6839861644359
 31
0.0
  0
LINE
  5
299F
330
2AC6
100
AcDbEntity
  8
DETAIL
100
AcDbLine
 10
-122.0
 20
-364.4151805415863
 30
0.0
 11
-123.4630148022078
 21
-352.504698280632
 31
0.0
  0
LINE
  5
29A0
330
2AC6
100
AcDbEntity
  8
OUTLINE
100
AcDbLine
 10
-134.0978075386374
 20
-371.7447973942552
 30
0.0
 11
-134.7073970395577
 21
-366.7820964521919
 31
0.0
  0
LINE
  5
29A1
330
2AC6
100
AcDbEntity
  8
OUTLINE
100
AcDbLine
 10
-147.9933701764164
 20
-373.4516479968336
 30
0.0
 11
-134.0978075386374
 21
-371.7447973942552
 31
0.0
  0
LINE
  5
29A2
330
2AC6
100
AcDbEntity
  8
DETAIL
100
AcDbLine
 10
-474.1561414767637
 20
-408.4780183151663
 30
0.0
 11
-473.5392702720274
 21
-413.4999999999998
 31
0.0
  0
LINE
  5
29A3
330
2AC6
100
AcDbEntity
  8
DETAIL
100
AcDbLine
 10
-134.7073970395577
 20
-366.7820964521908
 30
0.0
 11
-134.0978075386374
 21
-371.7447973942552
 31
0.0
  0
LINE
  5
29A4
330
2AC6
100
AcDbEntity
  8
DETAIL
100
AcDbLine
 10
-474.2536757969133
 20
-407.6839861644359
 30
0.0
 11
-474.1561414767637
 21
-408.4780183151663
 31
0.0
  0
LINE
  5
29A5
330
2AC6
100
AcDbEntity
  8
DETAIL
100
AcDbLine
 10
-474.1561414767637
 20
-408.4780183151663
 30
0.0
 11
-134.7073970395577
 21
-366.7820964521914
 31
0.0
  0
LINE
  5
29A6
330
2AC6
100
AcDbEntity
  8
DETAIL
100
AcDbLine
 10
-134.8049313597039
 20
-365.9880643014608
 30
0.0
 11
-134.7073970395577
 21
-366.7820964521914
 31
0.0
  0
LINE
  5
29A7
330
2AC6
100
AcDbEntity
  8
DETAIL
100
AcDbLine
 10
-474.2536757969133
 20
-407.6839861644359
 30
0.0
 11
-134.8049313597039
 21
-365.9880643014608
 31
0.0
  0
LINE
  5
29A8
330
2AC6
100
AcDbEntity
  8
DETAIL
100
AcDbLine
 10
-473.5392702720274
 20
-413.4999999999998
 30
0.0
 11
-134.0978075386374
 21
-371.7447973942552
 31
0.0
  0
LINE
  5
29A9
330
2AC6
100
AcDbEntity
  8
OUTLINE
100
AcDbLine
 10
-133.8417312154631
 20
-365.8740466228842
 30
0.0
 11
-134.0096559150913
 21
-365.9006517037403
 31
0.0
  0
TEXT
  5
29AA
330
2AC6
100
AcDbEntity
  8
ETC
100
AcDbText
 10
262.4548288916485
 20
305.4236260770331
 30
0.0
 40
64.0
  1
QWH-25SA
 41
0.9
100
AcDbText
  0
INSERT
  5
29AB
330
2AC6
100
AcDbEntity
  8
0
100
AcDbBlockReference
  2
*U22
 10
0.0
 20
0.0
 30
0.0
1001
ACAD
1000
DSTYLE
1002
{
1070
    41
1040
12.0
1070
    42
1040
20.0
1070
    43
1040
200.0
1070
    44
1040
20.0
1070
    73
1070
     0
1070
    74
1070
     0
1070
    77
1070
     1
1070
    78
1070
     8
1070
   140
1040
64.0
1070
   147
1040
50.0
1070
   172
1070
     1
1070
   174
1070
     1
1070
   275
1070
     0
1070
   284
1070
     0
1070
   285
1070
     0
1070
   286
1070
     0
1070
   341
1005
0
1070
   342
1005
0
1002
}
  0
LINE
  5
29AC
330
2AC6
100
AcDbEntity
  8
NOTE
100
AcDbLine
 39
50.0
 10
0.0
 20
177.5
 30
0.0
 11
0.0
 21
152.5
 31
0.0
  0
LINE
  5
29AD
330
2AC6
100
AcDbEntity
  8
NOTE
100
AcDbLine
 39
50.0
 10
0.0
 20
-152.5
 30
0.0
 11
0.0
 21
-177.5
 31
0.0
  0
LINE
  5
29AE
330
2AC6
100
AcDbEntity
  8
OUTLINE
100
AcDbLine
 39
50.0
 10
0.0
 20
182.5
 30
0.0
 11
0.0
 21
-182.5
 31
0.0
  0
LINE
  5
29AF
330
2AC6
100
AcDbEntity
  8
DETAIL
100
AcDbLine
 39
50.0
 10
-99.39999999999779
 20
-148.1000000000008
 30
0.0
 11
-134.3999999999978
 21
-183.1297370293168
 31
0.0
  0
LINE
  5
29B0
330
2AC6
100
AcDbEntity
  8
OUTLINE
100
AcDbLine
 10
-474.3999999999974
 20
-406.7000000000001
 30
0.0
 11
-474.3749214528689
 21
-406.6969187524597
 31
0.0
  0
LINE
  5
29B1
330
2AC6
100
AcDbEntity
  8
OUTLINE
100
AcDbLine
 10
-474.4731681390183
 20
-406.1044780243919
 30
0.0
 11
-474.3999999999974
 21
-406.7000000000006
 31
0.0
  0
LINE
  5
29B2
330
2AC6
100
AcDbEntity
  8
OUTLINE
100
AcDbLine
 10
-474.4480721930081
 20
-406.1013946391577
 30
0.0
 11
-474.4731681390183
 21
-406.1044780243919
 31
0.0
  0
LINE
  5
29B3
330
2AC6
100
AcDbEntity
  8
OUTLINE
100
AcDbLine
 10
-8.0
 20
-182.5
 30
0.0
 11
-8.0
 21
182.5
 31
0.0
  0
LINE
  5
29B4
330
2AC6
100
AcDbEntity
  8
OUTLINE
100
AcDbLine
 10
-8.0
 20
148.0999999999994
 30
0.0
 11
-125.4000000000014
 21
148.0999999999994
 31
0.0
  0
LINE
  5
29B5
330
2AC6
100
AcDbEntity
  8
OUTLINE
100
AcDbLine
 10
-475.0
 20
-201.5
 30
0.0
 11
-475.0
 21
-400.5991078669793
 31
0.0
  0
LINE
  5
29B6
330
2AC6
100
AcDbEntity
  8
OUTLINE
100
AcDbLine
 10
-475.0
 20
-401.608120651414
 30
0.0
 11
-475.0
 21
-406.1000000000003
 31
0.0
  0
LINE
  5
29B7
330
2AC6
100
AcDbEntity
  8
OUTLINE
100
AcDbLine
 10
-475.0
 20
-406.1000000000003
 30
0.0
 11
-474.4482435024256
 21
-406.1000000000003
 31
0.0
  0
LINE
  5
29B8
330
2AC6
100
AcDbEntity
  8
OUTLINE
100
AcDbLine
 10
-486.0
 20
-406.7
 30
0.0
 11
-474.3999999999974
 21
-406.7
 31
0.0
  0
LINE
  5
29B9
330
2AC6
100
AcDbEntity
  8
OUTLINE
100
AcDbLine
 10
-475.0
 20
-406.1000000000003
 30
0.0
 11
-485.3999999999976
 21
-406.1000000000003
 31
0.0
  0
LINE
  5
29BA
330
2AC6
100
AcDbEntity
  8
OUTLINE
100
AcDbLine
 10
-485.3999999999976
 20
-406.1000000000003
 30
0.0
 11
-485.3999999999976
 21
-399.7000000000006
 31
0.0
  0
LINE
  5
29BB
330
2AC6
100
AcDbEntity
  8
OUTLINE
100
AcDbLine
 10
-485.3999999999976
 20
-399.7
 30
0.0
 11
-486.0
 21
-399.7
 31
0.0
  0
LINE
  5
29BC
330
2AC6
100
AcDbEntity
  8
OUTLINE
100
AcDbLine
 10
-485.3999999999976
 20
-394.7000000000006
 30
0.0
 11
-485.3999999999976
 21
-399.7000000000006
 31
0.0
  0
LINE
  5
29BD
330
2AC6
100
AcDbEntity
  8
OUTLINE
100
AcDbLine
 10
-486.0
 20
-394.7
 30
0.0
 11
-485.3999999999976
 21
-394.7
 31
0.0
  0
LINE
  5
29BE
330
2AC6
100
AcDbEntity
  8
OUTLINE
100
AcDbLine
 10
-486.0
 20
-399.7
 30
0.0
 11
-486.0
 21
-406.7
 31
0.0
  0
LINE
  5
29BF
330
2AC6
100
AcDbEntity
  8
OUTLINE
100
AcDbLine
 10
-486.0
 20
-399.7
 30
0.0
 11
-486.0
 21
-394.7
 31
0.0
  0
ARC
  5
29C0
330
2AC6
100
AcDbEntity
  8
OUTLINE
100
AcDbCircle
 10
-125.4000000000014
 20
-201.5
 30
0.0
 40
349.5999999999999
100
AcDbArc
 50
90.0
 51
180.0
  0
LINE
  5
29C1
330
2AC6
100
AcDbEntity
  8
OUTLINE
100
AcDbLine
 10
-134.3999999999978
 20
-353.8481343300992
 30
0.0
 11
-134.3999999999978
 21
-183.1297370293168
 31
0.0
  0
LINE
  5
29C2
330
2AC6
100
AcDbEntity
  8
OUTLINE
100
AcDbLine
 10
-99.39999999999779
 20
-148.1000000000008
 30
0.0
 11
-8.0
 21
-148.1000000000003
 31
0.0
  0
LINE
  5
29C3
330
2AC6
100
AcDbEntity
  8
OUTLINE
100
AcDbLine
 10
-474.2539120693764
 20
-407.6820626575852
 30
0.0
 11
-474.400000000001
 21
-407.6999999999999
 31
0.0
  0
LINE
  5
29C4
330
2AC6
100
AcDbEntity
  8
OUTLINE
100
AcDbLine
 10
-474.3999999999974
 20
-407.6999999999999
 30
0.0
 11
-474.3999999999974
 21
-406.7
 31
0.0
  0
LINE
  5
29C5
330
2AC6
100
AcDbEntity
  8
OUTLINE
100
AcDbLine
 10
0.0
 20
-182.5
 30
0.0
 11
-8.0
 21
-182.5
 31
0.0
  0
LINE
  5
29C6
330
2AC6
100
AcDbEntity
  8
OUTLINE
100
AcDbLine
 10
0.0
 20
182.5
 30
0.0
 11
-8.0
 21
182.5
 31
0.0
  0
LINE
  5
29C7
330
2AC6
100
AcDbEntity
  8
OUTLINE
100
AcDbLine
 10
-123.4630148022078
 20
-352.5046982806314
 30
0.0
 11
-470.7539896570557
 21
-395.1639144025605
 31
0.0
  0
LINE
  5
29C8
330
2AC6
100
AcDbEntity
  8
OUTLINE
100
AcDbLine
 10
-474.2536757969133
 20
-407.6839861644357
 30
0.0
 11
-475.1071010982014
 21
-400.7362048455457
 31
0.0
  0
LINE
  5
29C9
330
2AC6
100
AcDbEntity
  8
OUTLINE
100
AcDbLine
 10
-470.7539896570557
 20
-395.1639144025606
 30
0.0
 11
-475.1071010981974
 21
-400.7362048455463
 31
0.0
  0
LINE
  5
29CA
330
2AC6
100
AcDbEntity
  8
OUTLINE
100
AcDbLine
 10
-122.0
 20
-364.4151805415869
 30
0.0
 11
-474.2536757969133
 21
-407.6839861644359
 31
0.0
  0
LINE
  5
29CB
330
2AC6
100
AcDbEntity
  8
OUTLINE
100
AcDbLine
 10
-122.0
 20
-364.4151805415863
 30
0.0
 11
-123.4630148022078
 21
-352.504698280632
 31
0.0
  0
LINE
  5
29CC
330
2AC6
100
AcDbEntity
  8
OUTLINE
100
AcDbLine
 10
-474.1561414767637
 20
-408.4780183151663
 30
0.0
 11
-473.5392702720274
 21
-413.4999999999998
 31
0.0
  0
LINE
  5
29CD
330
2AC6
100
AcDbEntity
  8
OUTLINE
100
AcDbLine
 10
-134.7073970395577
 20
-366.7820964521908
 30
0.0
 11
-134.0978075386374
 21
-371.7447973942552
 31
0.0
  0
LINE
  5
29CE
330
2AC6
100
AcDbEntity
  8
OUTLINE
100
AcDbLine
 10
-474.2536757969133
 20
-407.6839861644359
 30
0.0
 11
-474.1561414767637
 21
-408.4780183151663
 31
0.0
  0
LINE
  5
29CF
330
2AC6
100
AcDbEntity
  8
OUTLINE
100
AcDbLine
 10
-474.1561414767637
 20
-408.4780183151663
 30
0.0
 11
-134.7073970395577
 21
-366.7820964521914
 31
0.0
  0
LINE
  5
29D0
330
2AC6
100
AcDbEntity
  8
OUTLINE
100
AcDbLine
 10
-474.2536757969133
 20
-407.6839861644359
 30
0.0
 11
-134.8049313597039
 21
-365.9880643014608
 31
0.0
  0
LINE
  5
29D1
330
2AC6
100
AcDbEntity
  8
OUTLINE
100
AcDbLine
 10
-473.5392702720274
 20
-413.4999999999998
 30
0.0
 11
-134.0978075386374
 21
-371.7447973942552
 31
0.0
  0
LINE
  5
29D2
330
2AC6
100
AcDbEntity
  8
OUTLINE
100
AcDbLine
 39
50.0
 10
-99.39999999999779
 20
-148.1000000000008
 30
0.0
 11
-134.3999999999978
 21
-183.1297370293168
 31
0.0
  0
LINE
  5
29D3
330
2AC6
100
AcDbEntity
  8
OUTLINE
100
AcDbLine
 10
-134.8049313597039
 20
-365.9880643014612
 30
0.0
 11
-134.7073970395577
 21
-366.7820964521919
 31
0.0
  0
LINE
  5
29D4
330
2AC6
100
AcDbEntity
  8
SIZE
100
AcDbLine
 10
20.0
 20
182.5
 30
0.0
 11
543.2238947631957
 21
182.4999999999997
 31
0.0
  0
LINE
  5
29D5
330
2AC6
100
AcDbEntity
  8
SIZE
100
AcDbLine
 10
20.0
 20
-182.5
 30
0.0
 11
543.2238947631957
 21
-182.5000000000001
 31
0.0
  0
LINE
  5
29D6
330
2AC6
100
AcDbEntity
  8
SIZE
100
AcDbLine
 10
523.2238947631957
 20
170.4999999999998
 30
0.0
 11
523.2238947631957
 21
-170.5000000000001
 31
0.0
  0
INSERT
  5
29D7
330
2AC6
100
AcDbEntity
  8
SIZE
100
AcDbBlockReference
  2
_DOTBLANK
 10
523.2238947631957
 20
182.4999999999997
 30
0.0
 41
12.0
 42
12.0
 43
12.0
 50
90.0
  0
INSERT
  5
29D8
330
2AC6
100
AcDbEntity
  8
SIZE
100
AcDbBlockReference
  2
_DOTBLANK
 10
523.2238947631957
 20
-182.5000000000001
 30
0.0
 41
12.0
 42
12.0
 43
12.0
 50
270.0
  0
LINE
  5
29D9
330
2AC6
100
AcDbEntity
  8
SIZE
100
AcDbLine
 10
20.0
 20
147.5
 30
0.0
 11
304.4055751598317
 21
147.4999999999998
 31
0.0
  0
LINE
  5
29DA
330
2AC6
100
AcDbEntity
  8
SIZE
100
AcDbLine
 10
20.0
 20
-147.5
 30
0.0
 11
304.4055751598317
 21
-147.5000000000001
 31
0.0
  0
LINE
  5
29DB
330
2AC6
100
AcDbEntity
  8
SIZE
100
AcDbLine
 10
284.4055751598316
 20
135.4999999999998
 30
0.0
 11
284.4055751598316
 21
-135.5000000000001
 31
0.0
  0
INSERT
  5
29DC
330
2AC6
100
AcDbEntity
  8
SIZE
100
AcDbBlockReference
  2
_DOTBLANK
 10
284.4055751598316
 20
147.4999999999998
 30
0.0
 41
12.0
 42
12.0
 43
12.0
 50
90.0
  0
INSERT
  5
29DD
330
2AC6
100
AcDbEntity
  8
SIZE
100
AcDbBlockReference
  2
_DOTBLANK
 10
284.4055751598316
 20
-147.5000000000001
 30
0.0
 41
12.0
 42
12.0
 43
12.0
 50
270.0
  0
LINE
  5
29DE
330
2AC6
100
AcDbEntity
  8
SIZE
100
AcDbLine
 10
32.5
 20
-165.0
 30
0.0
 11
426.591708303018
 21
-165.0000000000001
 31
0.0
  0
LINE
  5
29DF
330
2AC6
100
AcDbEntity
  8
SIZE
100
AcDbLine
 10
32.5
 20
165.0
 30
0.0
 11
426.591708303018
 21
164.9999999999998
 31
0.0
  0
LINE
  5
29E0
330
2AC6
100
AcDbEntity
  8
SIZE
100
AcDbLine
 10
406.591708303018
 20
-153.0000000000001
 30
0.0
 11
406.591708303018
 21
152.9999999999998
 31
0.0
  0
INSERT
  5
29E1
330
2AC6
100
AcDbEntity
  8
SIZE
100
AcDbBlockReference
  2
_DOTBLANK
 10
406.591708303018
 20
-165.0000000000001
 30
0.0
 41
12.0
 42
12.0
 43
12.0
 50
270.0
  0
INSERT
  5
29E2
330
2AC6
100
AcDbEntity
  8
SIZE
100
AcDbBlockReference
  2
_DOTBLANK
 10
406.591708303018
 20
164.9999999999998
 30
0.0
 41
12.0
 42
12.0
 43
12.0
 50
90.0
  0
LINE
  5
29E3
330
2AC6
100
AcDbEntity
  8
SIZE
100
AcDbLine
 10
20.0
 20
-147.5
 30
0.0
 11
304.4055751598317
 21
-147.5000000000001
 31
0.0
  0
LINE
  5
29E4
330
2AC6
100
AcDbEntity
  8
SIZE
100
AcDbLine
 10
-115.0
 20
-365.5000000000002
 30
0.0
 11
304.4055751598317
 21
-365.5000000000002
 31
0.0
  0
LINE
  5
29E5
330
2AC6
100
AcDbEntity
  8
SIZE
100
AcDbLine
 10
284.4055751598316
 20
-159.5000000000001
 30
0.0
 11
284.4055751598316
 21
-353.5000000000002
 31
0.0
  0
LINE
  5
29E6
330
2AC6
100
AcDbEntity
  8
SIZE
100
AcDbLine
 10
284.4055751598316
 20
-365.5000000000002
 30
0.0
 11
284.4055751598316
 21
-540.128571428575
 31
0.0
  0
INSERT
  5
29E7
330
2AC6
100
AcDbEntity
  8
SIZE
100
AcDbBlockReference
  2
_DOTBLANK
 10
284.4055751598316
 20
-147.5000000000001
 30
0.0
 41
12.0
 42
12.0
 43
12.0
 50
90.0
  0
INSERT
  5
29E8
330
2AC6
100
AcDbEntity
  8
SIZE
100
AcDbBlockReference
  2
_DOTBLANK
 10
284.4055751598316
 20
-365.5000000000002
 30
0.0
 41
12.0
 42
12.0
 43
12.0
 50
270.0
  0
LINE
  5
29E9
330
2AC6
100
AcDbEntity
  8
SIZE
100
AcDbLine
 10
-122.0
 20
-384.4151805415863
 30
0.0
 11
-122.0
 21
-536.4099893700974
 31
0.0
  0
LINE
  5
29EA
330
2AC6
100
AcDbEntity
  8
SIZE
100
AcDbLine
 10
0.0
 20
-202.5
 30
0.0
 11
0.0
 21
-536.4099893700974
 31
0.0
  0
LINE
  5
29EB
330
2AC6
100
AcDbEntity
  8
SIZE
100
AcDbLine
 10
-110.0
 20
-516.4099893700976
 30
0.0
 11
-12.0
 21
-516.4099893700976
 31
0.0
  0
LINE
  5
29EC
330
2AC6
100
AcDbEntity
  8
SIZE
100
AcDbLine
 10
0.0
 20
-516.4099893700976
 30
0.0
 11
170.5142857142866
 21
-516.4099893700976
 31
0.0
  0
INSERT
  5
29ED
330
2AC6
100
AcDbEntity
  8
SIZE
100
AcDbBlockReference
  2
_DOTBLANK
 10
-122.0
 20
-516.4099893700976
 30
0.0
 41
12.0
 42
12.0
 43
12.0
 50
180.0
  0
INSERT
  5
29EE
330
2AC6
100
AcDbEntity
  8
SIZE
100
AcDbBlockReference
  2
_DOTBLANK
 10
0.0
 20
-516.4099893700976
 30
0.0
 41
12.0
 42
12.0
 43
12.0
  0
LINE
  5
29EF
330
2AC6
100
AcDbEntity
  8
SIZE
100
AcDbLine
 10
-475.0
 20
-426.1000000000001
 30
0.0
 11
-475.0
 21
-677.1924168160427
 31
0.0
  0
LINE
  5
29F0
330
2AC6
100
AcDbEntity
  8
SIZE
100
AcDbLine
 10
-486.0
 20
-426.7
 30
0.0
 11
-486.0
 21
-677.1924168160427
 31
0.0
  0
LINE
  5
29F1
330
2AC6
100
AcDbEntity
  8
SIZE
100
AcDbLine
 10
-463.0
 20
-657.1924168160427
 30
0.0
 11
-451.0
 21
-657.1924168160427
 31
0.0
  0
LINE
  5
29F2
330
2AC6
100
AcDbEntity
  8
SIZE
100
AcDbLine
 10
-498.0
 20
-657.1924168160427
 30
0.0
 11
-593.0857142857133
 21
-657.1924168160427
 31
0.0
  0
LINE
  5
29F3
330
2AC6
100
AcDbEntity
  8
SIZE
100
AcDbLine
 10
-475.0
 20
-657.1924168160427
 30
0.0
 11
-486.0
 21
-657.1924168160427
 31
0.0
  0
INSERT
  5
29F4
330
2AC6
100
AcDbEntity
  8
SIZE
100
AcDbBlockReference
  2
_DOTBLANK
 10
-475.0
 20
-657.1924168160427
 30
0.0
 41
12.0
 42
12.0
 43
12.0
 50
180.0
  0
INSERT
  5
29F5
330
2AC6
100
AcDbEntity
  8
SIZE
100
AcDbBlockReference
  2
_DOTBLANK
 10
-486.0
 20
-657.1924168160427
 30
0.0
 41
12.0
 42
12.0
 43
12.0
  0
LINE
  5
29F6
330
2AC6
100
AcDbEntity
  8
SIZE
100
AcDbLine
 10
-135.0
 20
-385.5
 30
0.0
 11
-135.0
 21
-569.94193187061
 31
0.0
  0
LINE
  5
29F7
330
2AC6
100
AcDbEntity
  8
SIZE
100
AcDbLine
 10
-475.0
 20
-426.1000000000001
 30
0.0
 11
-475.0
 21
-569.94193187061
 31
0.0
  0
LINE
  5
29F8
330
2AC6
100
AcDbEntity
  8
SIZE
100
AcDbLine
 10
-147.0
 20
-549.94193187061
 30
0.0
 11
-463.0
 21
-549.94193187061
 31
0.0
  0
INSERT
  5
29F9
330
2AC6
100
AcDbEntity
  8
SIZE
100
AcDbBlockReference
  2
_DOTBLANK
 10
-135.0
 20
-549.94193187061
 30
0.0
 41
12.0
 42
12.0
 43
12.0
  0
INSERT
  5
29FA
330
2AC6
100
AcDbEntity
  8
SIZE
100
AcDbBlockReference
  2
_DOTBLANK
 10
-475.0
 20
-549.94193187061
 30
0.0
 41
12.0
 42
12.0
 43
12.0
 50
180.0
  0
LINE
  5
29FB
330
2AC6
100
AcDbEntity
  8
SIZE
100
AcDbLine
 10
-475.0
 20
-426.1000000000001
 30
0.0
 11
-475.0
 21
-677.1924168160427
 31
0.0
  0
LINE
  5
29FC
330
2AC6
100
AcDbEntity
  8
SIZE
100
AcDbLine
 10
0.0
 20
-202.5
 30
0.0
 11
0.0
 21
-677.1924168160427
 31
0.0
  0
LINE
  5
29FD
330
2AC6
100
AcDbEntity
  8
SIZE
100
AcDbLine
 10
-463.0
 20
-657.1924168160427
 30
0.0
 11
-12.0
 21
-657.1924168160427
 31
0.0
  0
INSERT
  5
29FE
330
2AC6
100
AcDbEntity
  8
SIZE
100
AcDbBlockReference
  2
_DOTBLANK
 10
-475.0
 20
-657.1924168160427
 30
0.0
 41
12.0
 42
12.0
 43
12.0
 50
180.0
  0
INSERT
  5
29FF
330
2AC6
100
AcDbEntity
  8
SIZE
100
AcDbBlockReference
  2
_DOTBLANK
 10
0.0
 20
-657.1924168160427
 30
0.0
 41
12.0
 42
12.0
 43
12.0
  0
LINE
  5
2A00
330
2AC6
100
AcDbEntity
  8
SIZE
100
AcDbLine
 10
-28.0
 20
182.5
 30
0.0
 11
-692.6515183671105
 21
182.5000000000001
 31
0.0
  0
LINE
  5
2A01
330
2AC6
100
AcDbEntity
  8
SIZE
100
AcDbLine
 10
-493.5392702720271
 20
-413.4999999999998
 30
0.0
 11
-692.6515183671105
 21
-413.4999999999998
 31
0.0
  0
LINE
  5
2A02
330
2AC6
100
AcDbEntity
  8
SIZE
100
AcDbLine
 10
-672.6515183671105
 20
170.5000000000002
 30
0.0
 11
-672.6515183671105
 21
-401.4999999999997
 31
0.0
  0
INSERT
  5
2A03
330
2AC6
100
AcDbEntity
  8
SIZE
100
AcDbBlockReference
  2
_DOTBLANK
 10
-672.6515183671105
 20
182.5000000000001
 30
0.0
 41
12.0
 42
12.0
 43
12.0
 50
90.0
  0
INSERT
  5
2A04
330
2AC6
100
AcDbEntity
  8
SIZE
100
AcDbBlockReference
  2
_DOTBLANK
 10
-672.6515183671105
 20
-413.4999999999998
 30
0.0
 41
12.0
 42
12.0
 43
12.0
 50
270.0
  0
LINE
  5
2A05
330
2AC6
100
AcDbEntity
  8
SIZE
100
AcDbLine
 10
-8.0
 20
202.5
 30
0.0
 11
-8.0
 21
280.3046893802612
 31
0.0
  0
LINE
  5
2A06
330
2AC6
100
AcDbEntity
  8
SIZE
100
AcDbLine
 10
0.0
 20
202.5
 30
0.0
 11
0.0
 21
280.3046893802612
 31
0.0
  0
LINE
  5
2A07
330
2AC6
100
AcDbEntity
  8
SIZE
100
AcDbLine
 10
-20.0
 20
260.3046893802611
 30
0.0
 11
-32.0
 21
260.3046893802611
 31
0.0
  0
LINE
  5
2A08
330
2AC6
100
AcDbEntity
  8
SIZE
100
AcDbLine
 10
12.0
 20
260.3046893802611
 30
0.0
 11
82.40000000000076
 21
260.3046893802611
 31
0.0
  0
LINE
  5
2A09
330
2AC6
100
AcDbEntity
  8
SIZE
100
AcDbLine
 10
-8.0
 20
260.3046893802611
 30
0.0
 11
0.0
 21
260.3046893802611
 31
0.0
  0
INSERT
  5
2A0A
330
2AC6
100
AcDbEntity
  8
SIZE
100
AcDbBlockReference
  2
_DOTBLANK
 10
-8.0
 20
260.3046893802611
 30
0.0
 41
12.0
 42
12.0
 43
12.0
  0
INSERT
  5
2A0B
330
2AC6
100
AcDbEntity
  8
SIZE
100
AcDbBlockReference
  2
_DOTBLANK
 10
0.0
 20
260.3046893802611
 30
0.0
 41
12.0
 42
12.0
 43
12.0
 50
180.0
  0
TEXT
  5
2A0C
330
2AC6
100
AcDbEntity
  8
SIZE
100
AcDbText
 10
-682.6515183671105
 20
-188.1857142857143
 30
0.0
 40
64.0
  1
596
 50
90.0
 41
0.9
100
AcDbText
  0
TEXT
  5
2A0D
330
2AC6
100
AcDbEntity
  8
SIZE
100
AcDbText
 10
-583.0857142857134
 20
-647.1924168160427
 30
0.0
 40
64.0
  1
11
 41
0.9
100
AcDbText
  0
TEXT
  5
2A0E
330
2AC6
100
AcDbEntity
  8
SIZE
100
AcDbText
 10
-379.0571428571427
 20
-539.94193187061
 30
0.0
 40
64.0
  1
340
 41
0.9
100
AcDbText
  0
TEXT
  5
2A0F
330
2AC6
100
AcDbEntity
  8
SIZE
100
AcDbText
 10
-311.5571428571428
 20
-647.1924168160427
 30
0.0
 40
64.0
  1
475
 41
0.9
100
AcDbText
  0
TEXT
  5
2A10
330
2AC6
100
AcDbEntity
  8
SIZE
100
AcDbText
 10
23.37142857142953
 20
-506.4099893700976
 30
0.0
 40
64.0
  1
122
 41
0.9
100
AcDbText
  0
TEXT
  5
2A11
330
2AC6
100
AcDbEntity
  8
SIZE
100
AcDbText
 10
274.4055751598316
 20
-530.1285714285746
 30
0.0
 40
64.0
  1
218
 50
90.0
 41
0.9
100
AcDbText
  0
TEXT
  5
2A12
330
2AC6
100
AcDbEntity
  8
SIZE
100
AcDbText
 10
274.4055751598316
 20
-74.05714285714293
 30
0.0
 40
64.0
  1
295
 50
90.0
 41
0.9
100
AcDbText
  0
TEXT
  5
2A13
330
2AC6
100
AcDbEntity
  8
SIZE
100
AcDbText
 10
396.5917083030181
 20
-74.05714285714599
 30
0.0
 40
64.0
  1
330
 50
90.0
 41
0.9
100
AcDbText
  0
TEXT
  5
2A14
330
2AC6
100
AcDbEntity
  8
SIZE
100
AcDbText
 10
513.2238947631957
 20
-74.05714285714599
 30
0.0
 40
64.0
  1
365
 50
90.0
 41
0.9
100
AcDbText
  0
TEXT
  5
2A15
330
2AC6
100
AcDbEntity
  8
SIZE
100
AcDbText
 10
34.00000000000091
 20
270.3046893802611
 30
0.0
 40
64.0
  1
8
 41
0.9
100
AcDbText
  0
TEXT
  5
2A16
330
2AC6
100
AcDbEntity
  8
NOTE
100
AcDbText
 10
-633.7093999922545
 20
278.5270950580129
 30
0.0
 40
64.0
  1
4×φ10取付穴
 41
0.9
100
AcDbText
  0
ENDSEC
  0
SECTION
  2
OBJECTS
  0
DICTIONARY
  5
2A5E
330
0
100
AcDbDictionary
281
     1
  3
ACAD_2007HEADERVARS_RT
350
2C49
  3
ACAD_COLOR
350
2ABC
  3
ACAD_GROUP
350
2A5F
  3
ACAD_LAYOUT
350
2ABB
  3
ACAD_MATERIAL
350
2A62
  3
ACAD_MLEADERSTYLE
350
2ABF
  3
ACAD_MLINESTYLE
350
2AB8
  3
ACAD_PLOTSETTINGS
350
2ABA
  3
ACAD_PLOTSTYLENAME
350
2A60
  3
ACAD_SCALELIST
350
2A8C
  3
ACAD_TABLESTYLE
350
2ABD
  3
ACAD_VISUALSTYLE
350
2A7B
  3
ACDB_RECOMPOSE_DATA
350
2C47
  3
AcDbVariableDictionary
350
2C3E
  3
AcmDictionary
350
2BF1
  3
AMG
350
2B3E
  3
DWGPROPS
350
2C48
  3
MAPISURF_MODULE
350
2BBE
  0
DICTIONARY
  5
2C19
330
2AAE
100
AcDbDictionary
280
     1
281
     1
  3
ADSK_XREC_LAYER_RECONCILED
360
2C1A
  0
DICTIONARY
  5
2C1B
330
2ADD
100
AcDbDictionary
280
     1
281
     1
  3
ADSK_XREC_LAYER_RECONCILED
360
2C1C
  0
DICTIONARY
  5
2C1D
330
2ADE
100
AcDbDictionary
280
     1
281
     1
  3
ADSK_XREC_LAYER_RECONCILED
360
2C1E
  0
DICTIONARY
  5
2C1F
330
2ADF
100
AcDbDictionary
280
     1
281
     1
  3
ADSK_XREC_LAYER_RECONCILED
360
2C20
  0
DICTIONARY
  5
2C21
330
2AE0
100
AcDbDictionary
280
     1
281
     1
  3
ADSK_XREC_LAYER_RECONCILED
360
2C22
  0
DICTIONARY
  5
2C23
330
2AE1
100
AcDbDictionary
280
     1
281
     1
  3
ADSK_XREC_LAYER_RECONCILED
360
2C24
  0
DICTIONARY
  5
2C25
330
2AE3
100
AcDbDictionary
280
     1
281
     1
  3
ADSK_XREC_LAYER_RECONCILED
360
2C26
  0
DICTIONARY
  5
2C27
330
2AE4
100
AcDbDictionary
280
     1
281
     1
  3
ADSK_XREC_LAYER_RECONCILED
360
2C28
  0
DICTIONARY
  5
2C29
330
2AE5
100
AcDbDictionary
280
     1
281
     1
  3
ADSK_XREC_LAYER_RECONCILED
360
2C2A
  0
DICTIONARY
  5
2C2B
330
2AE6
100
AcDbDictionary
280
     1
281
     1
  3
ADSK_XREC_LAYER_RECONCILED
360
2C2C
  0
DICTIONARY
  5
2C2D
330
2AE7
100
AcDbDictionary
280
     1
281
     1
  3
ADSK_XREC_LAYER_RECONCILED
360
2C2E
  0
DICTIONARY
  5
2C2F
330
2AC6
100
AcDbDictionary
280
     1
281
     1
  3
ACAD_INDEX
360
2C30
  0
DICTIONARY
  5
2C49
102
{ACAD_REACTORS
330
2A5E
102
}
330
2A5E
100
AcDbDictionary
281
     1
  3
DIMARCSYM
350
2C4A
  3
DIMLTEX1
350
2C4C
  3
DIMLTEX2
350
2C4D
  3
DIMLTYPE
350
2C4B
  0
DICTIONARY
  5
2ABC
102
{ACAD_REACTORS
330
2A5E
102
}
330
2A5E
100
AcDbDictionary
281
     1
  0
DICTIONARY
  5
2A5F
102
{ACAD_REACTORS
330
2A5E
102
}
330
2A5E
100
AcDbDictionary
281
     1
  0
DICTIONARY
  5
2ABB
102
{ACAD_REACTORS
330
2A5E
102
}
330
2A5E
100
AcDbDictionary
281
     1
  3
Model
350
2AC9
  3
レイアウト1
350
2AC5
  0
DICTIONARY
  5
2A62
102
{ACAD_REACTORS
330
2A5E
102
}
330
2A5E
100
AcDbDictionary
281
     1
  3
ByBlock
350
2A6B
  3
ByLayer
350
2A63
  3
Global
350
2A73
  0
DICTIONARY
  5
2ABF
102
{ACAD_REACTORS
330
2A5E
102
}
330
2A5E
100
AcDbDictionary
281
     1
  3
Standard
350
2AC0
  0
DICTIONARY
  5
2AB8
102
{ACAD_REACTORS
330
2A5E
102
}
330
2A5E
100
AcDbDictionary
281
     1
  3
Standard
350
2AB9
  0
DICTIONARY
  5
2ABA
102
{ACAD_REACTORS
330
2A5E
102
}
330
2A5E
100
AcDbDictionary
281
     1
  0
ACDBDICTIONARYWDFLT
  5
2A60
102
{ACAD_REACTORS
330
2A5E
102
}
330
2A5E
100
AcDbDictionary
281
     1
  3
Normal
350
2A61
100
AcDbDictionaryWithDefault
340
2A61
  0
DICTIONARY
  5
2A8C
102
{ACAD_REACTORS
330
2A5E
102
}
330
2A5E
100
AcDbDictionary
281
     1
  3
A0
350
2A8D
  3
A1
350
2A8E
  3
A2
350
2A8F
  3
A3
350
2A90
  3
A4
350
2A91
  3
A5
350
2A92
  3
A6
350
2A93
  3
A7
350
2A94
  3
A8
350
2A95
  3
A9
350
2A96
  3
B0
350
2A97
  3
B1
350
2A98
  3
B2
350
2A99
  3
B3
350
2A9A
  3
B4
350
2A9B
  3
B5
350
2A9C
  3
B6
350
2A9D
  3
B7
350
2A9E
  3
B8
350
2A9F
  3
B9
350
2AA0
  3
C0
350
2AA1
  3
C1
350
2AA2
  3
C2
350
2AA3
  3
C3
350
2AA4
  3
C4
350
2AA5
  3
C5
350
2AA6
  3
C6
350
2AA7
  3
C7
350
2AA8
  3
C8
350
2AA9
  3
C9
350
2AAA
  3
D0
350
2AAB
  3
D1
350
2AAC
  3
D2
350
2AAD
  0
DICTIONARY
  5
2ABD
102
{ACAD_REACTORS
330
2A5E
102
}
330
2A5E
100
AcDbDictionary
281
     1
  3
Standard
350
2ABE
  0
DICTIONARY
  5
2A7B
102
{ACAD_REACTORS
330
2A5E
102
}
330
2A5E
100
AcDbDictionary
281
     1
  3
2dWireframe
350
2A81
  3
3D Hidden
350
2A83
  3
3dWireframe
350
2A82
  3
Basic
350
2A80
  3
Brighten
350
2A87
  3
ColorChange
350
2A8B
  3
Conceptual
350
2A84
  3
Dim
350
2A86
  3
Facepattern
350
2A8A
  3
Flat
350
2A7C
  3
FlatWithEdges
350
2A7D
  3
Gouraud
350
2A7E
  3
GouraudWithEdges
350
2A7F
  3
Linepattern
350
2A89
  3
Realistic
350
2A85
  3
Thicken
350
2A88
  0
XRECORD
  5
2C47
102
{ACAD_REACTORS
330
2A5E
102
}
330
2A5E
100
AcDbXrecord
280
     1
 90
        1
330
2ABE
  0
DICTIONARY
  5
2C3E
102
{ACAD_REACTORS
330
2A5E
102
}
330
2A5E
100
AcDbDictionary
281
     1
  3
CANNOSCALE
350
2C41
  3
CMLEADERSTYLE
350
2C40
  3
CTABLESTYLE
350
2C3F
  3
DIMASSOC
350
2C44
  3
INDEXCTL
350
2C43
  3
SORTENTS
350
2C42
  0
DICTIONARY
  5
2BF1
102
{ACAD_REACTORS
330
2A5E
102
}
330
2A5E
100
AcDbDictionary
281
     1
  3
AcmStdDictionary
350
2BFF
  0
DICTIONARY
  5
2B3E
102
{ACAD_REACTORS
330
2A5E
102
}
330
2A5E
100
AcDbDictionary
281
     1
  3
AcMgSettings
350
2B3F
  0
XRECORD
  5
2C48
102
{ACAD_REACTORS
330
2A5E
102
}
330
2A5E
100
AcDbXrecord
280
     1
  1
DWGPROPS COOKIE
  2

  3

  4

  6

  7

  8
A090053
  9

300
AmdtFileType=84
301
=
302
=
303
=
304
=
305
=
306
=
307
=
308
=
309
=
 40
1.042641145833333
 41
2452321.396199653
 42
2456213.397774815
  1

 90
        1
  0
XRECORD
  5
2C1A
102
{ACAD_REACTORS
330
2C19
102
}
330
2C19
100
AcDbXrecord
280
     1
290
     1
  0
XRECORD
  5
2C1C
102
{ACAD_REACTORS
330
2C1B
102
}
330
2C1B
100
AcDbXrecord
280
     1
290
     1
  0
XRECORD
  5
2C1E
102
{ACAD_REACTORS
330
2C1D
102
}
330
2C1D
100
AcDbXrecord
280
     1
290
     1
  0
XRECORD
  5
2C20
102
{ACAD_REACTORS
330
2C1F
102
}
330
2C1F
100
AcDbXrecord
280
     1
290
     1
  0
XRECORD
  5
2C22
102
{ACAD_REACTORS
330
2C21
102
}
330
2C21
100
AcDbXrecord
280
     1
290
     1
  0
XRECORD
  5
2C24
102
{ACAD_REACTORS
330
2C23
102
}
330
2C23
100
AcDbXrecord
280
     1
290
     1
  0
XRECORD
  5
2C26
102
{ACAD_REACTORS
330
2C25
102
}
330
2C25
100
AcDbXrecord
280
     1
290
     1
  0
XRECORD
  5
2C28
102
{ACAD_REACTORS
330
2C27
102
}
330
2C27
100
AcDbXrecord
280
     1
290
     1
  0
XRECORD
  5
2C2A
102
{ACAD_REACTORS
330
2C29
102
}
330
2C29
100
AcDbXrecord
280
     1
290
     1
  0
XRECORD
  5
2C2C
102
{ACAD_REACTORS
330
2C2B
102
}
330
2C2B
100
AcDbXrecord
280
     1
290
     1
  0
XRECORD
  5
2C2E
102
{ACAD_REACTORS
330
2C2D
102
}
330
2C2D
100
AcDbXrecord
280
     1
290
     1
  0
DICTIONARY
  5
2C30
102
{ACAD_REACTORS
330
2C2F
102
}
330
2C2F
100
AcDbDictionary
281
     1
  3
*A1
350
2C31
  0
XRECORD
  5
2C4A
102
{ACAD_REACTORS
330
2C49
102
}
330
2C49
100
AcDbXrecord
280
     1
 70
     1
  0
XRECORD
  5
2C4C
102
{ACAD_REACTORS
330
2C49
102
}
330
2C49
100
AcDbXrecord
280
     1
340
2AB4
  0
XRECORD
  5
2C4D
102
{ACAD_REACTORS
330
2C49
102
}
330
2C49
100
AcDbXrecord
280
     1
340
2AB4
  0
XRECORD
  5
2C4B
102
{ACAD_REACTORS
330
2C49
102
}
330
2C49
100
AcDbXrecord
280
     1
340
2AB4
  0
LAYOUT
  5
2AC9
102
{ACAD_XDICTIONARY
360
2C54
102
}
102
{ACAD_REACTORS
330
2ABB
102
}
330
2ABB
100
AcDbPlotSettings
  1

  2
自動 EPSON LP-9600S (W2450527 上)
  4

  6

 40
0.0
 41
0.0
 42
0.0
 43
0.0
 44
0.0
 45
0.0
 46
0.0
 47
0.0
 48
0.0
 49
0.0
140
0.0
141
0.0
142
1.0
143
1.0
 70
  1712
 72
     0
 73
     0
 74
     0
  7

 75
     0
147
1.0
148
0.0
149
0.0
100
AcDbLayout
  1
Model
 70
     1
 71
     0
 10
0.0
 20
0.0
 11
12.0
 21
9.0
 12
0.0
 22
0.0
 32
0.0
 14
0.0
 24
0.0
 34
0.0
 15
0.0
 25
0.0
 35
0.0
146
0.0
 13
0.0
 23
0.0
 33
0.0
 16
1.0
 26
0.0
 36
0.0
 17
0.0
 27
1.0
 37
0.0
 76
     0
330
2AC6
331
2ACA
  0
LAYOUT
  5
2AC5
102
{ACAD_XDICTIONARY
360
2C52
102
}
102
{ACAD_REACTORS
330
2ABB
102
}
330
2ABB
100
AcDbPlotSettings
  1

  2
自動 EPSON LP-9600S (W2450527 上)
  4

  6

 40
0.0
 41
0.0
 42
0.0
 43
0.0
 44
0.0
 45
0.0
 46
0.0
 47
0.0
 48
0.0
 49
0.0
140
0.0
141
0.0
142
1.0
143
1.0
 70
   688
 72
     0
 73
     0
 74
     5
  7

 75
    16
147
1.0
148
0.0
149
0.0
100
AcDbLayout
  1
レイアウト1
 70
     1
 71
     1
 10
0.0
 20
0.0
 11
12.0
 21
9.0
 12
0.0
 22
0.0
 32
0.0
 14
1.000000000000000E+20
 24
1.000000000000000E+20
 34
1.000000000000000E+20
 15
-1.000000000000000E+20
 25
-1.000000000000000E+20
 35
-1.000000000000000E+20
146
0.0
 13
0.0
 23
0.0
 33
0.0
 16
1.0
 26
0.0
 36
0.0
 17
0.0
 27
1.0
 37
0.0
 76
     0
330
2AC2
  0
MATERIAL
  5
2A6B
102
{ACAD_XDICTIONARY
360
2A6C
102
}
102
{ACAD_REACTORS
330
2A62
102
}
330
2A62
100
AcDbMaterial
  1
ByBlock
 72
     0
 43
0.0208333333333333
 43
0.0
 43
0.0
 43
0.0
 43
0.0
 43
0.0208333333333333
 43
0.0
 43
0.0
 43
0.0
 43
0.0
 43
1.0
 43
0.0
 43
0.0
 43
0.0
 43
0.0
 43
1.0
 77
     0
 47
0.0208333333333333
 47
0.0
 47
0.0
 47
0.0
 47
0.0
 47
0.0208333333333333
 47
0.0
 47
0.0
 47
0.0
 47
0.0
 47
1.0
 47
0.0
 47
0.0
 47
0.0
 47
0.0
 47
1.0
171
     0
 49
0.0208333333333333
 49
0.0
 49
0.0
 49
0.0
 49
0.0
 49
0.0208333333333333
 49
0.0
 49
0.0
 49
0.0
 49
0.0
 49
1.0
 49
0.0
 49
0.0
 49
0.0
 49
0.0
 49
1.0
175
     0
142
0.0208333333333333
142
0.0
142
0.0
142
0.0
142
0.0
142
0.0208333333333333
142
0.0
142
0.0
142
0.0
142
0.0
142
1.0
142
0.0
142
0.0
142
0.0
142
0.0
142
1.0
179
     0
144
0.0208333333333333
144
0.0
144
0.0
144
0.0
144
0.0
144
0.0208333333333333
144
0.0
144
0.0
144
0.0
144
0.0
144
1.0
144
0.0
144
0.0
144
0.0
144
0.0
144
1.0
147
0.0208333333333333
147
0.0
147
0.0
147
0.0
147
0.0
147
0.0208333333333333
147
0.0
147
0.0
147
0.0
147
0.0
147
1.0
147
0.0
147
0.0
147
0.0
147
0.0
147
1.0
  0
MATERIAL
  5
2A63
102
{ACAD_XDICTIONARY
360
2A64
102
}
102
{ACAD_REACTORS
330
2A62
102
}
330
2A62
100
AcDbMaterial
  1
ByLayer
 72
     0
 43
0.0208333333333333
 43
0.0
 43
0.0
 43
0.0
 43
0.0
 43
0.0208333333333333
 43
0.0
 43
0.0
 43
0.0
 43
0.0
 43
1.0
 43
0.0
 43
0.0
 43
0.0
 43
0.0
 43
1.0
 77
     0
 47
0.0208333333333333
 47
0.0
 47
0.0
 47
0.0
 47
0.0
 47
0.0208333333333333
 47
0.0
 47
0.0
 47
0.0
 47
0.0
 47
1.0
 47
0.0
 47
0.0
 47
0.0
 47
0.0
 47
1.0
171
     0
 49
0.0208333333333333
 49
0.0
 49
0.0
 49
0.0
 49
0.0
 49
0.0208333333333333
 49
0.0
 49
0.0
 49
0.0
 49
0.0
 49
1.0
 49
0.0
 49
0.0
 49
0.0
 49
0.0
 49
1.0
175
     0
142
0.0208333333333333
142
0.0
142
0.0
142
0.0
142
0.0
142
0.0208333333333333
142
0.0
142
0.0
142
0.0
142
0.0
142
1.0
142
0.0
142
0.0
142
0.0
142
0.0
142
1.0
179
     0
144
0.0208333333333333
144
0.0
144
0.0
144
0.0
144
0.0
144
0.0208333333333333
144
0.0
144
0.0
144
0.0
144
0.0
144
1.0
144
0.0
144
0.0
144
0.0
144
0.0
144
1.0
147
0.0208333333333333
147
0.0
147
0.0
147
0.0
147
0.0
147
0.0208333333333333
147
0.0
147
0.0
147
0.0
147
0.0
147
1.0
147
0.0
147
0.0
147
0.0
147
0.0
147
1.0
  0
MATERIAL
  5
2A73
102
{ACAD_XDICTIONARY
360
2A74
102
}
102
{ACAD_REACTORS
330
2A62
102
}
330
2A62
100
AcDbMaterial
  1
Global
 72
     0
 43
0.0208333333333333
 43
0.0
 43
0.0
 43
0.0
 43
0.0
 43
0.0208333333333333
 43
0.0
 43
0.0
 43
0.0
 43
0.0
 43
1.0
 43
0.0
 43
0.0
 43
0.0
 43
0.0
 43
1.0
 77
     0
 47
0.0208333333333333
 47
0.0
 47
0.0
 47
0.0
 47
0.0
 47
0.0208333333333333
 47
0.0
 47
0.0
 47
0.0
 47
0.0
 47
1.0
 47
0.0
 47
0.0
 47
0.0
 47
0.0
 47
1.0
171
     0
 49
0.0208333333333333
 49
0.0
 49
0.0
 49
0.0
 49
0.0
 49
0.0208333333333333
 49
0.0
 49
0.0
 49
0.0
 49
0.0
 49
1.0
 49
0.0
 49
0.0
 49
0.0
 49
0.0
 49
1.0
175
     0
142
0.0208333333333333
142
0.0
142
0.0
142
0.0
142
0.0
142
0.0208333333333333
142
0.0
142
0.0
142
0.0
142
0.0
142
1.0
142
0.0
142
0.0
142
0.0
142
0.0
142
1.0
179
     0
144
0.0208333333333333
144
0.0
144
0.0
144
0.0
144
0.0
144
0.0208333333333333
144
0.0
144
0.0
144
0.0
144
0.0
144
1.0
144
0.0
144
0.0
144
0.0
144
0.0
144
1.0
147
0.0208333333333333
147
0.0
147
0.0
147
0.0
147
0.0
147
0.0208333333333333
147
0.0
147
0.0
147
0.0
147
0.0
147
1.0
147
0.0
147
0.0
147
0.0
147
0.0
147
1.0
  0
MLEADERSTYLE
  5
2AC0
102
{ACAD_REACTORS
330
2ABF
102
}
330
2ABF
100
AcDbMLeaderStyle
170
     2
171
     1
172
     0
 90
        2
 40
0.0
 41
0.0
173
     1
 91
-1056964608
340
2AB4
 92
       -2
290
     1
 42
0.09
291
     1
 43
0.36
  3
Standard
 44
0.18
300

342
2AAF
174
     1
178
     6
175
     1
176
     0
 93
-1056964608
 45
0.18
292
     0
297
     0
 46
0.18
 94
-1056964608
 47
1.0
 49
1.0
140
1.0
293
     1
141
0.0
294
     1
177
     0
142
1.0
295
     0
296
     0
143
0.125
1001
ACAD_MLEADERVER
1070
     2
  0
MLINESTYLE
  5
2AB9
102
{ACAD_REACTORS
330
2AB8
102
}
330
2AB8
100
AcDbMlineStyle
  2
STANDARD
 70
     0
  3

 62
   256
 51
90.0
 52
90.0
 71
     2
 49
0.5
 62
   256
  6
BYLAYER
 49
-0.5
 62
   256
  6
BYLAYER
  0
ACDBPLACEHOLDER
  5
2A61
102
{ACAD_REACTORS
330
2A60
102
}
330
2A60
  0
SCALE
  5
2A8D
102
{ACAD_REACTORS
330
2A8C
102
}
330
2A8C
100
AcDbScale
 70
     0
300
1:1
140
1.0
141
1.0
290
     1
  0
SCALE
  5
2A8E
102
{ACAD_REACTORS
330
2A8C
102
}
330
2A8C
100
AcDbScale
 70
     0
300
1:2
140
1.0
141
2.0
290
     0
  0
SCALE
  5
2A8F
102
{ACAD_REACTORS
330
2A8C
102
}
330
2A8C
100
AcDbScale
 70
     0
300
1:4
140
1.0
141
4.0
290
     0
  0
SCALE
  5
2A90
102
{ACAD_REACTORS
330
2A8C
102
}
330
2A8C
100
AcDbScale
 70
     0
300
1:5
140
1.0
141
5.0
290
     0
  0
SCALE
  5
2A91
102
{ACAD_REACTORS
330
2A8C
102
}
330
2A8C
100
AcDbScale
 70
     0
300
1:8
140
1.0
141
8.0
290
     0
  0
SCALE
  5
2A92
102
{ACAD_REACTORS
330
2A8C
102
}
330
2A8C
100
AcDbScale
 70
     0
300
1:10
140
1.0
141
10.0
290
     0
  0
SCALE
  5
2A93
102
{ACAD_REACTORS
330
2A8C
102
}
330
2A8C
100
AcDbScale
 70
     0
300
1:16
140
1.0
141
16.0
290
     0
  0
SCALE
  5
2A94
102
{ACAD_REACTORS
330
2A8C
102
}
330
2A8C
100
AcDbScale
 70
     0
300
1:20
140
1.0
141
20.0
290
     0
  0
SCALE
  5
2A95
102
{ACAD_REACTORS
330
2A8C
102
}
330
2A8C
100
AcDbScale
 70
     0
300
1:30
140
1.0
141
30.0
290
     0
  0
SCALE
  5
2A96
102
{ACAD_REACTORS
330
2A8C
102
}
330
2A8C
100
AcDbScale
 70
     0
300
1:40
140
1.0
141
40.0
290
     0
  0
SCALE
  5
2A97
102
{ACAD_REACTORS
330
2A8C
102
}
330
2A8C
100
AcDbScale
 70
     0
300
1:50
140
1.0
141
50.0
290
     0
  0
SCALE
  5
2A98
102
{ACAD_REACTORS
330
2A8C
102
}
330
2A8C
100
AcDbScale
 70
     0
300
1:100
140
1.0
141
100.0
290
     0
  0
SCALE
  5
2A99
102
{ACAD_REACTORS
330
2A8C
102
}
330
2A8C
100
AcDbScale
 70
     0
300
2:1
140
2.0
141
1.0
290
     0
  0
SCALE
  5
2A9A
102
{ACAD_REACTORS
330
2A8C
102
}
330
2A8C
100
AcDbScale
 70
     0
300
4:1
140
4.0
141
1.0
290
     0
  0
SCALE
  5
2A9B
102
{ACAD_REACTORS
330
2A8C
102
}
330
2A8C
100
AcDbScale
 70
     0
300
8:1
140
8.0
141
1.0
290
     0
  0
SCALE
  5
2A9C
102
{ACAD_REACTORS
330
2A8C
102
}
330
2A8C
100
AcDbScale
 70
     0
300
10:1
140
10.0
141
1.0
290
     0
  0
SCALE
  5
2A9D
102
{ACAD_REACTORS
330
2A8C
102
}
330
2A8C
100
AcDbScale
 70
     0
300
100:1
140
100.0
141
1.0
290
     0
  0
SCALE
  5
2A9E
102
{ACAD_REACTORS
330
2A8C
102
}
330
2A8C
100
AcDbScale
 70
     0
300
1/128" = 1'-0"
140
0.0078125
141
12.0
290
     0
  0
SCALE
  5
2A9F
102
{ACAD_REACTORS
330
2A8C
102
}
330
2A8C
100
AcDbScale
 70
     0
300
1/64" = 1'-0"
140
0.015625
141
12.0
290
     0
  0
SCALE
  5
2AA0
102
{ACAD_REACTORS
330
2A8C
102
}
330
2A8C
100
AcDbScale
 70
     0
300
1/32" = 1'-0"
140
0.03125
141
12.0
290
     0
  0
SCALE
  5
2AA1
102
{ACAD_REACTORS
330
2A8C
102
}
330
2A8C
100
AcDbScale
 70
     0
300
1/16" = 1'-0"
140
0.0625
141
12.0
290
     0
  0
SCALE
  5
2AA2
102
{ACAD_REACTORS
330
2A8C
102
}
330
2A8C
100
AcDbScale
 70
     0
300
3/32" = 1'-0"
140
0.09375
141
12.0
290
     0
  0
SCALE
  5
2AA3
102
{ACAD_REACTORS
330
2A8C
102
}
330
2A8C
100
AcDbScale
 70
     0
300
1/8" = 1'-0"
140
0.125
141
12.0
290
     0
  0
SCALE
  5
2AA4
102
{ACAD_REACTORS
330
2A8C
102
}
330
2A8C
100
AcDbScale
 70
     0
300
3/16" = 1'-0"
140
0.1875
141
12.0
290
     0
  0
SCALE
  5
2AA5
102
{ACAD_REACTORS
330
2A8C
102
}
330
2A8C
100
AcDbScale
 70
     0
300
1/4" = 1'-0"
140
0.25
141
12.0
290
     0
  0
SCALE
  5
2AA6
102
{ACAD_REACTORS
330
2A8C
102
}
330
2A8C
100
AcDbScale
 70
     0
300
3/8" = 1'-0"
140
0.375
141
12.0
290
     0
  0
SCALE
  5
2AA7
102
{ACAD_REACTORS
330
2A8C
102
}
330
2A8C
100
AcDbScale
 70
     0
300
1/2" = 1'-0"
140
0.5
141
12.0
290
     0
  0
SCALE
  5
2AA8
102
{ACAD_REACTORS
330
2A8C
102
}
330
2A8C
100
AcDbScale
 70
     0
300
3/4" = 1'-0"
140
0.75
141
12.0
290
     0
  0
SCALE
  5
2AA9
102
{ACAD_REACTORS
330
2A8C
102
}
330
2A8C
100
AcDbScale
 70
     0
300
1" = 1'-0"
140
1.0
141
12.0
290
     0
  0
SCALE
  5
2AAA
102
{ACAD_REACTORS
330
2A8C
102
}
330
2A8C
100
AcDbScale
 70
     0
300
1-1/2" = 1'-0"
140
1.5
141
12.0
290
     0
  0
SCALE
  5
2AAB
102
{ACAD_REACTORS
330
2A8C
102
}
330
2A8C
100
AcDbScale
 70
     0
300
3" = 1'-0"
140
3.0
141
12.0
290
     0
  0
SCALE
  5
2AAC
102
{ACAD_REACTORS
330
2A8C
102
}
330
2A8C
100
AcDbScale
 70
     0
300
6" = 1'-0"
140
6.0
141
12.0
290
     0
  0
SCALE
  5
2AAD
102
{ACAD_REACTORS
330
2A8C
102
}
330
2A8C
100
AcDbScale
 70
     0
300
1'-0" = 1'-0"
140
12.0
141
12.0
290
     0
  0
TABLESTYLE
  5
2ABE
102
{ACAD_XDICTIONARY
360
2C45
102
}
102
{ACAD_REACTORS
330
2ABD
102
}
330
2ABD
100
AcDbTableStyle
  3
Standard
 70
     0
 71
     0
 40
0.06
 41
0.06
280
     0
281
     0
  7
STANDARD
140
0.18
170
     2
 62
     0
 63
     7
283
     0
274
    -2
284
     1
 64
     0
275
    -2
285
     1
 65
     0
276
    -2
286
     1
 66
     0
277
    -2
287
     1
 67
     0
278
    -2
288
     1
 68
     0
279
    -2
289
     1
 69
     0
  7
STANDARD
140
0.25
170
     5
 62
     0
 63
     7
283
     0
274
    -2
284
     1
 64
     0
275
    -2
285
     1
 65
     0
276
    -2
286
     1
 66
     0
277
    -2
287
     1
 67
     0
278
    -2
288
     1
 68
     0
279
    -2
289
     1
 69
     0
  7
STANDARD
140
0.18
170
     5
 62
     0
 63
     7
283
     0
274
    -2
284
     1
 64
     0
275
    -2
285
     1
 65
     0
276
    -2
286
     1
 66
     0
277
    -2
287
     1
 67
     0
278
    -2
288
     1
 68
     0
279
    -2
289
     1
 69
     0
  0
VISUALSTYLE
  5
2A81
102
{ACAD_REACTORS
330
2A7B
102
}
330
2A7B
100
AcDbVisualStyle
  2
2dWireframe
 70
     4
 71
     0
 72
     2
 73
     0
 90
        0
 40
-0.6
 41
-30.0
 62
     5
 63
     7
 74
     1
 91
        4
 64
     7
 65
   257
 75
     1
175
     1
 42
1.0
 92
        0
 66
   257
 43
1.0
 76
     1
 77
     6
 78
     2
 67
     7
 79
     5
170
     0
171
     0
290
     0
174
     0
 93
        1
 44
0.0
173
     0
291
     0
 45
0.0
1001
ACAD
1000
AcDbSavedByObjectVersion
1070
     0
  0
VISUALSTYLE
  5
2A83
102
{ACAD_REACTORS
330
2A7B
102
}
330
2A7B
100
AcDbVisualStyle
  2
3D Hidden
 70
     6
 71
     1
 72
     2
 73
     2
 90
        0
 40
-0.6
 41
-30.0
 62
     5
 63
     7
 74
     2
 91
        2
 64
     7
 65
   257
 75
     2
175
     1
 42
40.0
 92
        0
 66
   257
 43
1.0
 76
     1
 77
     6
 78
     2
 67
     7
 79
     3
170
     0
171
     0
290
     0
174
     0
 93
        1
 44
0.0
173
     0
291
     0
 45
0.0
1001
ACAD
1000
AcDbSavedByObjectVersion
1070
     0
  0
VISUALSTYLE
  5
2A82
102
{ACAD_REACTORS
330
2A7B
102
}
330
2A7B
100
AcDbVisualStyle
  2
3dWireframe
 70
     5
 71
     0
 72
     2
 73
     0
 90
        0
 40
-0.6
 41
-30.0
 62
     5
 63
     7
 74
     1
 91
        4
 64
     7
 65
   257
 75
     1
175
     1
 42
1.0
 92
        0
 66
   257
 43
1.0
 76
     1
 77
     6
 78
     2
 67
     7
 79
     5
170
     0
171
     0
290
     0
174
     0
 93
        1
 44
0.0
173
     0
291
     0
 45
0.0
1001
ACAD
1000
AcDbSavedByObjectVersion
1070
     0
  0
VISUALSTYLE
  5
2A80
102
{ACAD_REACTORS
330
2A7B
102
}
330
2A7B
100
AcDbVisualStyle
  2
Basic
 70
     7
 71
     1
 72
     0
 73
     1
 90
        0
 40
-0.6
 41
-30.0
 62
     5
 63
     7
 74
     0
 91
        4
 64
     7
 65
   257
 75
     1
175
     1
 42
1.0
 92
        8
 66
     7
 43
1.0
 76
     1
 77
     6
 78
     2
 67
     7
 79
     5
170
     0
171
     0
290
     0
174
     0
 93
        1
 44
0.0
173
     0
291
     1
 45
0.0
1001
ACAD
1000
AcDbSavedByObjectVersion
1070
     0
  0
VISUALSTYLE
  5
2A87
102
{ACAD_REACTORS
330
2A7B
102
}
330
2A7B
100
AcDbVisualStyle
  2
Brighten
 70
    12
 71
     2
 72
     2
 73
     0
 90
        0
 40
-0.6
 41
-30.0
 62
     5
 63
     7
 74
     1
 91
        4
 64
     7
 65
   257
 75
     1
175
     1
 42
1.0
 92
        8
 66
     7
 43
1.0
 76
     1
 77
     6
 78
     2
 67
     7
 79
     5
170
     0
171
     0
290
     0
174
     0
 93
        1
 44
50.0
173
     0
291
     1
 45
0.0
1001
ACAD
1000
AcDbSavedByObjectVersion
1070
     0
  0
VISUALSTYLE
  5
2A8B
102
{ACAD_REACTORS
330
2A7B
102
}
330
2A7B
100
AcDbVisualStyle
  2
ColorChange
 70
    16
 71
     2
 72
     2
 73
     3
 90
        0
 40
-0.6
 41
-30.0
 62
     5
 63
     8
 74
     1
 91
        4
 64
     7
 65
   257
 75
     1
175
     1
 42
1.0
 92
        8
 66
     8
 43
1.0
 76
     1
 77
     6
 78
     2
 67
     7
 79
     5
170
     0
171
     0
290
     0
174
     0
 93
        1
 44
0.0
173
     0
291
     1
 45
0.0
1001
ACAD
1000
AcDbSavedByObjectVersion
1070
     0
  0
VISUALSTYLE
  5
2A84
102
{ACAD_REACTORS
330
2A7B
102
}
330
2A7B
100
AcDbVisualStyle
  2
Conceptual
 70
     9
 71
     3
 72
     2
 73
     0
 90
        0
 40
-0.6
 41
-30.0
 62
     5
 63
     7
 74
     2
 91
        2
 64
     7
 65
   257
 75
     1
175
     1
 42
40.0
 92
        8
 66
     7
 43
1.0
 76
     1
 77
     6
 78
     2
 67
     7
 79
     3
170
     0
171
     0
290
     0
174
     0
 93
        1
 44
0.0
173
     0
291
     0
 45
0.0
1001
ACAD
1000
AcDbSavedByObjectVersion
1070
     0
  0
VISUALSTYLE
  5
2A86
102
{ACAD_REACTORS
330
2A7B
102
}
330
2A7B
100
AcDbVisualStyle
  2
Dim
 70
    11
 71
     2
 72
     2
 73
     0
 90
        0
 40
-0.6
 41
-30.0
 62
     5
 63
     7
 74
     1
 91
        4
 64
     7
 65
   257
 75
     1
175
     1
 42
1.0
 92
        8
 66
     7
 43
1.0
 76
     1
 77
     6
 78
     2
 67
     7
 79
     5
170
     0
171
     0
290
     0
174
     0
 93
        1
 44
-50.0
173
     0
291
     1
 45
0.0
1001
ACAD
1000
AcDbSavedByObjectVersion
1070
     0
  0
VISUALSTYLE
  5
2A8A
102
{ACAD_REACTORS
330
2A7B
102
}
330
2A7B
100
AcDbVisualStyle
  2
Facepattern
 70
    15
 71
     2
 72
     2
 73
     0
 90
        0
 40
-0.6
 41
-30.0
 62
     5
 63
     7
 74
     1
 91
        4
 64
     7
 65
   257
 75
     1
175
     1
 42
1.0
 92
        8
 66
     7
 43
1.0
 76
     1
 77
     6
 78
     2
 67
     7
 79
     5
170
     0
171
     0
290
     0
174
     0
 93
        1
 44
0.0
173
     0
291
     1
 45
0.0
1001
ACAD
1000
AcDbSavedByObjectVersion
1070
     0
  0
VISUALSTYLE
  5
2A7C
102
{ACAD_REACTORS
330
2A7B
102
}
330
2A7B
100
AcDbVisualStyle
  2
Flat
 70
     0
 71
     2
 72
     1
 73
     1
 90
        2
 40
-0.6
 41
30.0
 62
     5
 63
     7
 74
     0
 91
        4
 64
     7
 65
   257
 75
     1
175
     1
 42
1.0
 92
        8
 66
     7
 43
1.0
 76
     1
 77
     6
 78
     2
 67
     7
 79
     5
170
     0
171
     0
290
     0
174
     0
 93
       13
 44
0.0
173
     0
291
     1
 45
0.0
1001
ACAD
1000
AcDbSavedByObjectVersion
1070
     0
  0
VISUALSTYLE
  5
2A7D
102
{ACAD_REACTORS
330
2A7B
102
}
330
2A7B
100
AcDbVisualStyle
  2
FlatWithEdges
 70
     1
 71
     2
 72
     1
 73
     1
 90
        2
 40
-0.6
 41
30.0
 62
     5
 63
     7
 74
     1
 91
        4
 64
     7
 65
   257
 75
     1
175
     1
 42
1.0
 92
        0
 66
   257
 43
1.0
 76
     1
 77
     6
 78
     2
 67
     7
 79
     5
170
     0
171
     0
290
     0
174
     0
 93
       13
 44
0.0
173
     0
291
     1
 45
0.0
1001
ACAD
1000
AcDbSavedByObjectVersion
1070
     0
  0
VISUALSTYLE
  5
2A7E
102
{ACAD_REACTORS
330
2A7B
102
}
330
2A7B
100
AcDbVisualStyle
  2
Gouraud
 70
     2
 71
     2
 72
     2
 73
     1
 90
        2
 40
-0.6
 41
30.0
 62
     5
 63
     7
 74
     0
 91
        4
 64
     7
 65
   257
 75
     1
175
     1
 42
1.0
 92
        0
 66
     7
 43
1.0
 76
     1
 77
     6
 78
     2
 67
     7
 79
     5
170
     0
171
     0
290
     0
174
     0
 93
       13
 44
0.0
173
     0
291
     1
 45
0.0
1001
ACAD
1000
AcDbSavedByObjectVersion
1070
     0
  0
VISUALSTYLE
  5
2A7F
102
{ACAD_REACTORS
330
2A7B
102
}
330
2A7B
100
AcDbVisualStyle
  2
GouraudWithEdges
 70
     3
 71
     2
 72
     2
 73
     1
 90
        2
 40
-0.6
 41
30.0
 62
     5
 63
     7
 74
     1
 91
        4
 64
     7
 65
   257
 75
     1
175
     1
 42
1.0
 92
        0
 66
   257
 43
1.0
 76
     1
 77
     6
 78
     2
 67
     7
 79
     5
170
     0
171
     0
290
     0
174
     0
 93
       13
 44
0.0
173
     0
291
     1
 45
0.0
1001
ACAD
1000
AcDbSavedByObjectVersion
1070
     0
  0
VISUALSTYLE
  5
2A89
102
{ACAD_REACTORS
330
2A7B
102
}
330
2A7B
100
AcDbVisualStyle
  2
Linepattern
 70
    14
 71
     2
 72
     2
 73
     0
 90
        0
 40
-0.6
 41
-30.0
 62
     5
 63
     7
 74
     1
 91
        4
 64
     7
 65
   257
 75
     7
175
     7
 42
1.0
 92
        8
 66
     7
 43
1.0
 76
     1
 77
     6
 78
     2
 67
     7
 79
     5
170
     0
171
     0
290
     0
174
     0
 93
        1
 44
0.0
173
     0
291
     1
 45
0.0
1001
ACAD
1000
AcDbSavedByObjectVersion
1070
     0
  0
VISUALSTYLE
  5
2A85
102
{ACAD_REACTORS
330
2A7B
102
}
330
2A7B
100
AcDbVisualStyle
  2
Realistic
 70
     8
 71
     2
 72
     2
 73
     0
 90
        0
 40
-0.6
 41
-30.0
 62
     5
 63
     7
 74
     1
 91
        0
 64
     7
 65
   257
 75
     1
175
     1
 42
1.0
 92
        8
 66
     8
 43
1.0
 76
     1
 77
     6
 78
     2
 67
     7
 79
     5
170
     0
171
     0
290
     0
174
     0
 93
       13
 44
0.0
173
     0
291
     0
 45
0.0
1001
ACAD
1000
AcDbSavedByObjectVersion
1070
     0
  0
VISUALSTYLE
  5
2A88
102
{ACAD_REACTORS
330
2A7B
102
}
330
2A7B
100
AcDbVisualStyle
  2
Thicken
 70
    13
 71
     2
 72
     2
 73
     0
 90
        0
 40
-0.6
 41
-30.0
 62
     5
 63
     7
 74
     1
 91
        4
 64
     7
 65
   257
 75
     1
175
     1
 42
1.0
 92
       12
 66
     7
 43
1.0
 76
     1
 77
     6
 78
     2
 67
     7
 79
     5
170
     0
171
     0
290
     0
174
     0
 93
        1
 44
0.0
173
     0
291
     1
 45
0.0
1001
ACAD
1000
AcDbSavedByObjectVersion
1070
     0
  0
DICTIONARYVAR
  5
2C41
102
{ACAD_REACTORS
330
2C3E
102
}
330
2C3E
100
DictionaryVariables
280
     0
  1
1:1
  0
DICTIONARYVAR
  5
2C40
102
{ACAD_REACTORS
330
2C3E
102
}
330
2C3E
100
DictionaryVariables
280
     0
  1
STANDARD
  0
DICTIONARYVAR
  5
2C3F
102
{ACAD_REACTORS
330
2C3E
102
}
330
2C3E
100
DictionaryVariables
280
     0
  1
STANDARD
  0
DICTIONARYVAR
  5
2C44
102
{ACAD_REACTORS
330
2C3E
102
}
330
2C3E
100
DictionaryVariables
280
     0
  1
1
  0
DICTIONARYVAR
  5
2C43
102
{ACAD_REACTORS
330
2C3E
102
}
330
2C3E
100
DictionaryVariables
280
     0
  1
1
  0
DICTIONARYVAR
  5
2C42
102
{ACAD_REACTORS
330
2C3E
102
}
330
2C3E
100
DictionaryVariables
280
     0
  1
127
  0
DICTIONARY
  5
2BFF
102
{ACAD_REACTORS
330
2BF1
102
}
330
2BF1
100
AcDbDictionary
281
     1
  0
DICTIONARY
  5
2B3F
102
{ACAD_REACTORS
330
2B3E
102
}
330
2B3E
100
AcDbDictionary
281
     1
  3
DWGSETTINGS
350
2B40
  3
TRANSSETTINGS
350
2B41
  0
LAYER_INDEX
  5
2C31
102
{ACAD_REACTORS
330
2C30
102
}
330
2C30
100
AcDbIndex
 40
2456213.397774815
100
AcDbLayerIndex
  8
0
360
2C32
 90
        1
  8
OUTLINE
360
2C33
 90
       46
  8
SIZE
360
2C34
 90
       66
  8
BASIS
360
2C35
 90
        1
  8
DETAIL
360
2C36
 90
       37
  8
ARRANGE
360
2C37
 90
        2
  8
DEFPOINTS
360
2C38
 90
        0
  8
ETC
360
2C39
 90
        3
  8
FIX
360
2C3A
 90
        0
  8
NOTE
360
2C3B
 90
        5
  8
SERVICESPACE
360
2C3C
 90
        0
  8
SYMBOLLINE
360
2C3D
 90
        0
  0
DICTIONARY
  5
2C54
330
2AC9
100
AcDbDictionary
280
     1
281
     1
  3
ACAD_XREC_ROUNDTRIP
360
2C55
  0
DICTIONARY
  5
2C52
330
2AC5
100
AcDbDictionary
280
     1
281
     1
  3
ACAD_XREC_ROUNDTRIP
360
2C53
  0
DICTIONARY
  5
2A6C
330
2A6B
100
AcDbDictionary
280
     1
281
     1
  3
ACAD_XREC_ROUNDTRIP
360
2C4F
  3
BUMPTILE
360
2A6E
  3
DIFFUSETILE
360
2A6D
  3
OPACITYTILE
360
2A71
  3
REFLECTIONTILE
360
2A70
  3
REFRACTIONTILE
360
2A72
  3
SPECULARTILE
360
2A6F
  0
DICTIONARY
  5
2A64
330
2A63
100
AcDbDictionary
280
     1
281
     1
  3
ACAD_XREC_ROUNDTRIP
360
2C4E
  3
BUMPTILE
360
2A66
  3
DIFFUSETILE
360
2A65
  3
OPACITYTILE
360
2A69
  3
REFLECTIONTILE
360
2A68
  3
REFRACTIONTILE
360
2A6A
  3
SPECULARTILE
360
2A67
  0
DICTIONARY
  5
2A74
330
2A73
100
AcDbDictionary
280
     1
281
     1
  3
ACAD_XREC_ROUNDTRIP
360
2C50
  3
BUMPTILE
360
2A76
  3
DIFFUSETILE
360
2A75
  3
OPACITYTILE
360
2A79
  3
REFLECTIONTILE
360
2A78
  3
REFRACTIONTILE
360
2A7A
  3
SPECULARTILE
360
2A77
  0
DICTIONARY
  5
2C45
330
2ABE
100
AcDbDictionary
280
     1
281
     1
  3
ACAD_ROUNDTRIP_2008_TABLESTYLE_CELLSTYLEMAP
360
2C46
  3
ACAD_XREC_ROUNDTRIP
360
2C51
  0
IDBUFFER
  5
2C32
330
0
100
AcDbIdBuffer
330
29AB
  0
IDBUFFER
  5
2C33
330
0
100
AcDbIdBuffer
330
29B6
330
29B7
330
29B8
330
29B9
330
29BA
330
29BB
330
29BC
330
29BD
330
29BE
330
29BF
330
29C0
330
29C1
330
29C2
330
29C3
330
29C4
330
29C5
330
29C6
330
29C7
330
29C8
330
29C9
330
29CA
330
29CB
330
29CC
330
29CD
330
29CE
330
29CF
330
29D0
330
29D1
330
29D2
330
29D3
330
953
330
954
330
955
330
956
330
957
330
958
330
29A0
330
29A1
330
29A9
330
29AE
330
29B0
330
29B1
330
29B2
330
29B3
330
29B4
330
29B5
  0
IDBUFFER
  5
2C34
330
0
100
AcDbIdBuffer
330
2A04
330
2A05
330
2A06
330
2A07
330
2A08
330
2A09
330
2A0A
330
2A0B
330
2A0C
330
2A0D
330
2A0E
330
2A0F
330
2A10
330
2A11
330
2A12
330
2A13
330
2A14
330
2A15
330
29D4
330
29D5
330
29D6
330
29D7
330
29D8
330
29D9
330
29DA
330
29DB
330
29DC
330
29DD
330
29DE
330
29DF
330
29E0
330
29E1
330
29E2
330
29E3
330
29E4
330
29E5
330
29E6
330
29E7
330
29E8
330
29E9
330
29EA
330
29EB
330
29EC
330
29ED
330
29EE
330
29EF
330
29F0
330
29F1
330
29F2
330
29F3
330
29F4
330
29F5
330
29F6
330
29F7
330
29F8
330
29F9
330
29FA
330
29FB
330
29FC
330
29FD
330
29FE
330
29FF
330
2A00
330
2A01
330
2A02
330
2A03
  0
IDBUFFER
  5
2C35
330
0
100
AcDbIdBuffer
330
297E
  0
IDBUFFER
  5
2C36
330
0
100
AcDbIdBuffer
330
2993
330
2994
330
2995
330
2996
330
2997
330
2998
330
2999
330
299A
330
299B
330
299C
330
299D
330
299E
330
299F
330
29A2
330
29A3
330
29A4
330
29A5
330
29A6
330
29A7
330
29A8
330
29AF
330
2983
330
2984
330
2985
330
2986
330
2987
330
2988
330
2989
330
298A
330
298B
330
298C
330
298D
330
298E
330
298F
330
2990
330
2991
330
2992
  0
IDBUFFER
  5
2C37
330
0
100
AcDbIdBuffer
330
297F
330
2980
  0
IDBUFFER
  5
2C38
330
0
100
AcDbIdBuffer
  0
IDBUFFER
  5
2C39
330
0
100
AcDbIdBuffer
330
297C
330
297D
330
29AA
  0
IDBUFFER
  5
2C3A
330
0
100
AcDbIdBuffer
  0
IDBUFFER
  5
2C3B
330
0
100
AcDbIdBuffer
330
2981
330
2982
330
29AC
330
29AD
330
2A16
  0
IDBUFFER
  5
2C3C
330
0
100
AcDbIdBuffer
  0
IDBUFFER
  5
2C3D
330
0
100
AcDbIdBuffer
  0
XRECORD
  5
2C55
102
{ACAD_REACTORS
330
2C54
102
}
330
2C54
100
AcDbXrecord
280
     1
102
SHADEPLOT
 70
     0
102
SHADEPLOTRESLEVEL
 70
     2
102
SHADEPLOTCUSTOMDPI
 70
   300
  0
XRECORD
  5
2C53
102
{ACAD_REACTORS
330
2C52
102
}
330
2C52
100
AcDbXrecord
280
     1
102
SHADEPLOT
 70
     0
102
SHADEPLOTRESLEVEL
 70
     2
102
SHADEPLOTCUSTOMDPI
 70
   300
  0
XRECORD
  5
2C4F
102
{ACAD_REACTORS
330
2A6C
102
}
330
2A6C
100
AcDbXrecord
280
     1
102
MATERIAL
148
0.0
149
0.0
149
0.0
 93
        0
 94
      127
282
     0
 72
     0
 77
     0
171
     0
175
     0
179
     0
273
     0
  0
XRECORD
  5
2A6E
102
{ACAD_REACTORS
330
2A6C
102
}
330
2A6C
100
AcDbXrecord
280
     1
270
     1
271
     1
  0
XRECORD
  5
2A6D
102
{ACAD_REACTORS
330
2A6C
102
}
330
2A6C
100
AcDbXrecord
280
     1
270
     1
271
     1
  0
XRECORD
  5
2A71
102
{ACAD_REACTORS
330
2A6C
102
}
330
2A6C
100
AcDbXrecord
280
     1
270
     1
271
     1
  0
XRECORD
  5
2A70
102
{ACAD_REACTORS
330
2A6C
102
}
330
2A6C
100
AcDbXrecord
280
     1
270
     1
271
     1
  0
XRECORD
  5
2A72
102
{ACAD_REACTORS
330
2A6C
102
}
330
2A6C
100
AcDbXrecord
280
     1
270
     1
271
     1
  0
XRECORD
  5
2A6F
102
{ACAD_REACTORS
330
2A6C
102
}
330
2A6C
100
AcDbXrecord
280
     1
270
     1
271
     1
  0
XRECORD
  5
2C4E
102
{ACAD_REACTORS
330
2A64
102
}
330
2A64
100
AcDbXrecord
280
     1
102
MATERIAL
148
0.0
149
0.0
149
0.0
 93
        0
 94
      127
282
     0
 72
     0
 77
     0
171
     0
175
     0
179
     0
273
     0
  0
XRECORD
  5
2A66
102
{ACAD_REACTORS
330
2A64
102
}
330
2A64
100
AcDbXrecord
280
     1
270
     1
271
     1
  0
XRECORD
  5
2A65
102
{ACAD_REACTORS
330
2A64
102
}
330
2A64
100
AcDbXrecord
280
     1
270
     1
271
     1
  0
XRECORD
  5
2A69
102
{ACAD_REACTORS
330
2A64
102
}
330
2A64
100
AcDbXrecord
280
     1
270
     1
271
     1
  0
XRECORD
  5
2A68
102
{ACAD_REACTORS
330
2A64
102
}
330
2A64
100
AcDbXrecord
280
     1
270
     1
271
     1
  0
XRECORD
  5
2A6A
102
{ACAD_REACTORS
330
2A64
102
}
330
2A64
100
AcDbXrecord
280
     1
270
     1
271
     1
  0
XRECORD
  5
2A67
102
{ACAD_REACTORS
330
2A64
102
}
330
2A64
100
AcDbXrecord
280
     1
270
     1
271
     1
  0
XRECORD
  5
2C50
102
{ACAD_REACTORS
330
2A74
102
}
330
2A74
100
AcDbXrecord
280
     1
102
MATERIAL
148
0.0
149
0.0
149
0.0
 93
        0
 94
      127
282
     0
 72
     0
 77
     0
171
     0
175
     0
179
     0
273
     0
  0
XRECORD
  5
2A76
102
{ACAD_REACTORS
330
2A74
102
}
330
2A74
100
AcDbXrecord
280
     1
270
     1
271
     1
  0
XRECORD
  5
2A75
102
{ACAD_REACTORS
330
2A74
102
}
330
2A74
100
AcDbXrecord
280
     1
270
     1
271
     1
  0
XRECORD
  5
2A79
102
{ACAD_REACTORS
330
2A74
102
}
330
2A74
100
AcDbXrecord
280
     1
270
     1
271
     1
  0
XRECORD
  5
2A78
102
{ACAD_REACTORS
330
2A74
102
}
330
2A74
100
AcDbXrecord
280
     1
270
     1
271
     1
  0
XRECORD
  5
2A7A
102
{ACAD_REACTORS
330
2A74
102
}
330
2A74
100
AcDbXrecord
280
     1
270
     1
271
     1
  0
XRECORD
  5
2A77
102
{ACAD_REACTORS
330
2A74
102
}
330
2A74
100
AcDbXrecord
280
     1
270
     1
271
     1
  0
CELLSTYLEMAP
  5
2C46
102
{ACAD_REACTORS
330
2C45
102
}
330
2C45
100
AcDbCellStyleMap
 90
        3
300
CELLSTYLE
  1
TABLEFORMAT_BEGIN
 90
        5
170
     1
 91
        0
 92
    32768
 62
   257
 93
        1
300
CONTENTFORMAT
  1
CONTENTFORMAT_BEGIN
 90
        0
 91
        0
 92
      512
 93
        0
300

 40
0.0
140
1.0
 94
        5
 62
     0
340
2AAF
144
0.25
309
CONTENTFORMAT_END
171
     0
 94
        0
309
TABLEFORMAT_END
  1
CELLSTYLE_BEGIN
 90
        1
 91
        1
300
_TITLE
309
CELLSTYLE_END
300
CELLSTYLE
  1
TABLEFORMAT_BEGIN
 90
        5
170
     1
 91
        0
 92
        0
 62
   257
 93
        1
300
CONTENTFORMAT
  1
CONTENTFORMAT_BEGIN
 90
        0
 91
        0
 92
      512
 93
        0
300

 40
0.0
140
1.0
 94
        5
 62
     0
340
2AAF
144
0.18
309
CONTENTFORMAT_END
171
     0
 94
        0
309
TABLEFORMAT_END
  1
CELLSTYLE_BEGIN
 90
        2
 91
        1
300
_HEADER
309
CELLSTYLE_END
300
CELLSTYLE
  1
TABLEFORMAT_BEGIN
 90
        5
170
     1
 91
        0
 92
        0
 62
   257
 93
        1
300
CONTENTFORMAT
  1
CONTENTFORMAT_BEGIN
 90
        0
 91
        0
 92
      512
 93
        0
300

 40
0.0
140
1.0
 94
        2
 62
     0
340
2AAF
144
0.18
309
CONTENTFORMAT_END
171
     0
 94
        0
309
TABLEFORMAT_END
  1
CELLSTYLE_BEGIN
 90
        3
 91
        2
300
_DATA
309
CELLSTYLE_END
  0
XRECORD
  5
2C51
102
{ACAD_REACTORS
330
2C45
102
}
330
2C45
100
AcDbXrecord
280
     1
102
ACAD_ROUNDTRIP_PRE2007_TABLESTYLE
 90
      512
 91
        0
  1

 92
      512
 93
        0
  2

 94
      512
 95
        0
  3

  0
ENDSEC
  0
EOF
