  0
SECTION
  2
HEADER
  9
$ACADVER
  1
AC1015
  9
$ACADMAINTVER
 70
    20
  9
$DWGCODEPAGE
  3
ANSI_932
  9
$INSBASE
 10
0.0
 20
0.0
 30
0.0
  9
$EXTMIN
 10
-575.2038702198622
 20
-758.157955625531
 30
0.0
  9
$EXTMAX
 10
1250.343548889869
 20
771.9666087072052
 30
50.0
  9
$LIMMIN
 10
-2970.0
 20
-2100.0
  9
$LIMMAX
 10
2970.0
 20
2100.0
  9
$ORTHOMODE
 70
     1
  9
$REGENMODE
 70
     0
  9
$FILLMODE
 70
     1
  9
$QTEXTMODE
 70
     0
  9
$MIRRTEXT
 70
     0
  9
$LTSCALE
 40
20.0
  9
$ATTMODE
 70
     1
  9
$TEXTSIZE
 40
64.0
  9
$TRACEWID
 40
0.05
  9
$TEXTSTYLE
  7
STANDARD
  9
$CLAYER
  8
0
  9
$CELTYPE
  6
ByLayer
  9
$CECOLOR
 62
   256
  9
$CELTSCALE
 40
1.0
  9
$DISPSILH
 70
     0
  9
$DIMSCALE
 40
1.0
  9
$DIMASZ
 40
0.12
  9
$DIMEXO
 40
0.05
  9
$DIMDLI
 40
0.5
  9
$DIMRND
 40
0.0
  9
$DIMDLE
 40
0.0
  9
$DIMEXE
 40
0.1
  9
$DIMTP
 40
0.1
  9
$DIMTM
 40
0.1
  9
$DIMTXT
 40
0.12
  9
$DIMCEN
 40
0.0
  9
$DIMTSZ
 40
0.0
  9
$DIMTOL
 70
     0
  9
$DIMLIM
 70
     0
  9
$DIMTIH
 70
     1
  9
$DIMTOH
 70
     1
  9
$DIMSE1
 70
     0
  9
$DIMSE2
 70
     0
  9
$DIMTAD
 70
     0
  9
$DIMZIN
 70
     7
  9
$DIMBLK
  1

  9
$DIMASO
 70
     1
  9
$DIMSHO
 70
     0
  9
$DIMPOST
  1

  9
$DIMAPOST
  1
mm
  9
$DIMALT
 70
     0
  9
$DIMALTD
 70
     2
  9
$DIMALTF
 40
25.4
  9
$DIMLFAC
 40
1.0
  9
$DIMTOFL
 70
     0
  9
$DIMTVP
 40
0.0
  9
$DIMTIX
 70
     0
  9
$DIMSOXD
 70
     0
  9
$DIMSAH
 70
     0
  9
$DIMBLK1
  1

  9
$DIMBLK2
  1

  9
$DIMSTYLE
  2
AM_ANSI
  9
$DIMCLRD
 70
   256
  9
$DIMCLRE
 70
   256
  9
$DIMCLRT
 70
     2
  9
$DIMTFAC
 40
0.71
  9
$DIMGAP
 40
0.06
  9
$DIMJUST
 70
     0
  9
$DIMSD1
 70
     0
  9
$DIMSD2
 70
     0
  9
$DIMTOLJ
 70
     1
  9
$DIMTZIN
 70
     7
  9
$DIMALTZ
 70
     0
  9
$DIMALTTZ
 70
     0
  9
$DIMUPT
 70
     0
  9
$DIMDEC
 70
     4
  9
$DIMTDEC
 70
     4
  9
$DIMALTU
 70
     2
  9
$DIMALTTD
 70
     4
  9
$DIMTXSTY
  7
STANDARD
  9
$DIMAUNIT
 70
     0
  9
$DIMADEC
 70
     0
  9
$DIMALTRND
 40
0.0
  9
$DIMAZIN
 70
     2
  9
$DIMDSEP
 70
    46
  9
$DIMATFIT
 70
     3
  9
$DIMFRAC
 70
     0
  9
$DIMLDRBLK
  1

  9
$DIMLUNIT
 70
     2
  9
$DIMLWD
 70
    -1
  9
$DIMLWE
 70
    -1
  9
$DIMTMOVE
 70
     0
  9
$LUNITS
 70
     2
  9
$LUPREC
 70
     4
  9
$SKETCHINC
 40
0.1
  9
$FILLETRAD
 40
4.0
  9
$AUNITS
 70
     1
  9
$AUPREC
 70
     3
  9
$MENU
  1
ACAD
  9
$ELEVATION
 40
0.0
  9
$PELEVATION
 40
0.0
  9
$THICKNESS
 40
50.0
  9
$LIMCHECK
 70
     0
  9
$CHAMFERA
 40
0.0
  9
$CHAMFERB
 40
0.0
  9
$CHAMFERC
 40
0.0
  9
$CHAMFERD
 40
0.0
  9
$SKPOLY
 70
     0
  9
$TDCREATE
 40
2452321.396199653
  9
$TDUCREATE
 40
2452321.021199653
  9
$TDUPDATE
 40
2456213.400384641
  9
$TDUUPDATE
 40
2456213.025384641
  9
$TDINDWG
 40
1.0462615394
  9
$TDUSRTIMER
 40
1.0462557755
  9
$USRTIMER
 70
     1
  9
$ANGBASE
 50
0.0
  9
$ANGDIR
 70
     0
  9
$PDMODE
 70
     3
  9
$PDSIZE
 40
-2.0
  9
$PLINEWID
 40
0.0
  9
$SPLFRAME
 70
     0
  9
$SPLINETYPE
 70
     6
  9
$SPLINESEGS
 70
     8
  9
$HANDSEED
  5
31E8
  9
$SURFTAB1
 70
     6
  9
$SURFTAB2
 70
     6
  9
$SURFTYPE
 70
     6
  9
$SURFU
 70
     6
  9
$SURFV
 70
     6
  9
$UCSBASE
  2

  9
$UCSNAME
  2

  9
$UCSORG
 10
0.0
 20
0.0
 30
0.0
  9
$UCSXDIR
 10
1.0
 20
0.0
 30
0.0
  9
$UCSYDIR
 10
0.0
 20
1.0
 30
0.0
  9
$UCSORTHOREF
  2

  9
$UCSORTHOVIEW
 70
     0
  9
$UCSORGTOP
 10
0.0
 20
0.0
 30
0.0
  9
$UCSORGBOTTOM
 10
0.0
 20
0.0
 30
0.0
  9
$UCSORGLEFT
 10
0.0
 20
0.0
 30
0.0
  9
$UCSORGRIGHT
 10
0.0
 20
0.0
 30
0.0
  9
$UCSORGFRONT
 10
0.0
 20
0.0
 30
0.0
  9
$UCSORGBACK
 10
0.0
 20
0.0
 30
0.0
  9
$PUCSBASE
  2

  9
$PUCSNAME
  2

  9
$PUCSORG
 10
0.0
 20
0.0
 30
0.0
  9
$PUCSXDIR
 10
1.0
 20
0.0
 30
0.0
  9
$PUCSYDIR
 10
0.0
 20
1.0
 30
0.0
  9
$PUCSORTHOREF
  2

  9
$PUCSORTHOVIEW
 70
     0
  9
$PUCSORGTOP
 10
0.0
 20
0.0
 30
0.0
  9
$PUCSORGBOTTOM
 10
0.0
 20
0.0
 30
0.0
  9
$PUCSORGLEFT
 10
0.0
 20
0.0
 30
0.0
  9
$PUCSORGRIGHT
 10
0.0
 20
0.0
 30
0.0
  9
$PUCSORGFRONT
 10
0.0
 20
0.0
 30
0.0
  9
$PUCSORGBACK
 10
0.0
 20
0.0
 30
0.0
  9
$USERI1
 70
     0
  9
$USERI2
 70
     0
  9
$USERI3
 70
     0
  9
$USERI4
 70
     0
  9
$USERI5
 70
     0
  9
$USERR1
 40
20.0
  9
$USERR2
 40
0.0
  9
$USERR3
 40
0.0
  9
$USERR4
 40
0.0
  9
$USERR5
 40
0.0
  9
$WORLDVIEW
 70
     1
  9
$SHADEDGE
 70
     3
  9
$SHADEDIF
 70
    70
  9
$TILEMODE
 70
     1
  9
$MAXACTVP
 70
    64
  9
$PINSBASE
 10
0.0
 20
0.0
 30
0.0
  9
$PLIMCHECK
 70
     0
  9
$PEXTMIN
 10
1.000000000000000E+20
 20
1.000000000000000E+20
 30
1.000000000000000E+20
  9
$PEXTMAX
 10
-1.000000000000000E+20
 20
-1.000000000000000E+20
 30
-1.000000000000000E+20
  9
$PLIMMIN
 10
0.0
 20
0.0
  9
$PLIMMAX
 10
12.0
 20
9.0
  9
$UNITMODE
 70
     0
  9
$VISRETAIN
 70
     1
  9
$PLINEGEN
 70
     0
  9
$PSLTSCALE
 70
     1
  9
$TREEDEPTH
 70
  3020
  9
$CMLSTYLE
  2
Standard
  9
$CMLJUST
 70
     0
  9
$CMLSCALE
 40
1.0
  9
$PROXYGRAPHICS
 70
     1
  9
$MEASUREMENT
 70
     0
  9
$CELWEIGHT
370
    -1
  9
$ENDCAPS
280
     0
  9
$JOINSTYLE
280
     0
  9
$LWDISPLAY
290
     0
  9
$INSUNITS
 70
     0
  9
$HYPERLINKBASE
  1

  9
$STYLESHEET
  1

  9
$XEDIT
290
     1
  9
$CEPSNTYPE
380
     0
  9
$PSTYLEMODE
290
     1
  9
$FINGERPRINTGUID
  2
{91BC8954-2B9B-457D-8A5F-216E19626A5E}
  9
$VERSIONGUID
  2
{52C5FC47-62AE-468B-A4FE-6C602E3FE160}
  9
$EXTNAMES
290
     1
  9
$PSVPSCALE
 40
0.0
  9
$OLESTARTUP
290
     0
  0
ENDSEC
  0
SECTION
  2
CLASSES
  0
CLASS
  1
ACDBDICTIONARYWDFLT
  2
AcDbDictionaryWithDefault
  3
ObjectDBX Classes
 90
        0
280
     0
281
     0
  0
CLASS
  1
MATERIAL
  2
AcDbMaterial
  3
ObjectDBX Classes
 90
     1153
280
     0
281
     0
  0
CLASS
  1
VISUALSTYLE
  2
AcDbVisualStyle
  3
ObjectDBX Classes
 90
     4095
280
     0
281
     0
  0
CLASS
  1
SCALE
  2
AcDbScale
  3
ObjectDBX Classes
 90
     1153
280
     0
281
     0
  0
CLASS
  1
TABLESTYLE
  2
AcDbTableStyle
  3
ObjectDBX Classes
 90
     4095
280
     0
281
     0
  0
CLASS
  1
MLEADERSTYLE
  2
AcDbMLeaderStyle
  3
ACDB_MLEADERSTYLE_CLASS
 90
     4095
280
     0
281
     0
  0
CLASS
  1
AMGSETTINGSOBJ
  2
AmgSettingsObj
  3
"AcadM|Product Description: AutoCAD Mechanical|Company: Autodesk, Inc."
 90
     1024
280
     0
281
     0
  0
CLASS
  1
ACME_DOCUMENT
  2
AcMeDbDoc
  3
AcMeServices
 90
     1024
280
     0
281
     0
  0
CLASS
  1
ACMESCOPE
  2
AcMeScope
  3
AcMeServices
 90
     1024
280
     0
281
     0
  0
CLASS
  1
ACMECOMMANDHISTORY
  2
AcMeCommandHistory
  3
AcMeServices
 90
     1024
280
     0
281
     0
  0
CLASS
  1
ACIMSYSVARMAN
  2
AcImSysVarManager
  3
AcMeServices
 90
     1024
280
     0
281
     0
  0
CLASS
  1
ACIMREALSYSVAR
  2
AcImRealSysVar
  3
AcMeServices
 90
     1024
280
     0
281
     0
  0
CLASS
  1
ACIMINTSYSVAR
  2
AcImIntSysVar
  3
AcMeServices
 90
     1024
280
     0
281
     0
  0
CLASS
  1
ACMEDRAWINGMAN
  2
AcMeDrawingMan
  3
AcMeServices
 90
     1024
280
     0
281
     0
  0
CLASS
  1
ACMEVIEW
  2
AcMeView
  3
AcMeServices
 90
     1024
280
     0
281
     0
  0
CLASS
  1
ACDBENTITYCACHE
  2
AcMeEntityCache
  3
AcMeServices
 90
     1024
280
     0
281
     0
  0
CLASS
  1
GSMANAGER
  2
AcMeGSManager
  3
AcMeServices
 90
     1024
280
     0
281
     0
  0
CLASS
  1
AMDTINTERNALREACTOR
  2
AmdtInternalReactor
  3
AcMeServices
 90
     1024
280
     0
281
     0
  0
CLASS
  1
ACMESTATEMGR
  2
AcMeStateMgr
  3
AcMeServices
 90
     1024
280
     0
281
     0
  0
CLASS
  1
ACGREFMASTER
  2
AcGrefMaster
  3
AcAttribServices
 90
     1024
280
     0
281
     0
  0
CLASS
  1
AM_DRAWING_MGR
  2
AcDmDwgMgr
  3
AcMechDwgViewMgmt
 90
     1024
280
     0
281
     0
  0
CLASS
  1
AM_DWG_DOCUMENT
  2
AcDmDwgDocument
  3
AcMechDwgViewMgmt
 90
     1024
280
     0
281
     0
  0
CLASS
  1
AM_DWG_SHEET
  2
AcDmSheet
  3
AcMechDwgViewMgmt
 90
     1024
280
     0
281
     0
  0
CLASS
  1
AM_VIEWDIMPARMAP
  2
AcDmViewDimParMap
  3
AcMechDwgViewMgmt
 90
     1024
280
     0
281
     0
  0
CLASS
  1
AM_DWGMGR_NAME
  2
AcDmDwgMgrName
  3
AcMechDwgViewMgmt
 90
     1024
280
     0
281
     0
  0
CLASS
  1
ACME_DATABASE
  2
AcMeDbDatabase
  3
AcMeServices
 90
     1024
280
     0
281
     0
  0
CLASS
  1
ACRFINSADJUSTERMGR
  2
AcRfInsAdjusterMgr
  3
AcMeServices
 90
     1024
280
     0
281
     0
  0
CLASS
  1
ACGREFACADMASTER
  2
AcGrefacadMaster
  3
AcGrefServices
 90
     1024
280
     0
281
     0
  0
CLASS
  1
AMDTMENUSTATEMGR
  2
AmdtMenuStateMgr
  3
McadcomServices
 90
     1024
280
     0
281
     0
  0
CLASS
  1
AMDTMCOMMENUSTATE
  2
AmdtMcomMenuState
  3
McadcomServices
 90
     1024
280
     0
281
     0
  0
CLASS
  1
AMIMASTER
  2
AmiMaster
  3
AmiServices
 90
     1024
280
     0
281
     0
  0
CLASS
  1
ASAPP
  2
AcAsAppObject
  3
AutoSurfServices
 90
     1024
280
     0
281
     0
  0
CLASS
  1
IM_STATIC_MAN
  2
AcImStaticVarManager
  3
AcMeServices
 90
     1024
280
     0
281
     0
  0
CLASS
  1
ACIMSTRSYSVAR
  2
AcImStrSysVar
  3
AcMeServices
 90
     1024
280
     0
281
     0
  0
CLASS
  1
ACIMDBLSTATICVAR
  2
AcImDblStaticVar
  3
AcMeServices
 90
     1024
280
     0
281
     0
  0
CLASS
  1
ACIMSTRSTATICVAR
  2
AcImStrStaticVar
  3
AcMeServices
 90
     1024
280
     0
281
     0
  0
CLASS
  1
ACIMINTSTATICVAR
  2
AcImIntStaticVar
  3
AcMeServices
 90
     1024
280
     0
281
     0
  0
CLASS
  1
ACASGREFMASTER
  2
AcAsGrefMaster
  3
AutoSurfResolverServices
 90
     1024
280
     0
281
     0
  0
CLASS
  1
ACADGREFMODULE
  2
AcAdGrefModule
  3
AdGrefServices
 90
     1024
280
     0
281
     0
  0
CLASS
  1
AMDTMAPISURFMOUDULE
  2
AmdtMApiSurfModule
  3
MApiSurfServices
 90
     1024
280
     0
281
     0
  0
CLASS
  1
MAPIAMMOUDLE
  2
MApiAmModule
  3
MApiAmServices
 90
     1024
280
     0
281
     0
  0
CLASS
  1
AMDTADMENUSTATE
  2
AmdtAdMenuState
  3
DesignerServices
 90
     1024
280
     0
281
     0
  0
CLASS
  1
ADAPPL
  2
AcAdAppl
  3
DesignerServices
 90
     1024
280
     0
281
     0
  0
CLASS
  1
DEPMGR
  2
AcAdDepMgr
  3
DesignerServices
 90
     1024
280
     0
281
     0
  0
CLASS
  1
PARAMMGR
  2
AcAdParamMgr
  3
DesignerServices
 90
     1024
280
     0
281
     0
  0
CLASS
  1
PARAMSCOPE
  2
AcAdParamScope
  3
DesignerServices
 90
     1024
280
     0
281
     0
  0
CLASS
  1
NAMEDAPPL
  2
AcAdNamedAppl
  3
DesignerServices
 90
     1024
280
     0
281
     0
  0
CLASS
  1
AMDTDMMENUSTATE
  2
AmdtDmMenuState
  3
AcMechDwgViewMgmt
 90
     1024
280
     0
281
     0
  0
CLASS
  1
MAPIADMODULE
  2
MApiAdModule
  3
MApiAdServices
 90
     1024
280
     0
281
     0
  0
CLASS
  1
AMDTAMMENUSTATE
  2
AmdtAmMenuState
  3
DesignerAssemblies
 90
     1024
280
     0
281
     0
  0
CLASS
  1
ACAMPROJECT
  2
AcAmProject
  3
DesignerAssemblies
 90
     1024
280
     0
281
     0
  0
CLASS
  1
ACAMGRCOMPDEF
  2
AcAmGrCompDef
  3
DesignerAssemblies
 90
     1024
280
     0
281
     0
  0
CLASS
  1
ACCMCONTEXT
  2
AcCmContext
  3
DesignerAssemblies
 90
     1024
280
     0
281
     0
  0
CLASS
  1
ACAMCOMPDEF
  2
AcAmCompDef
  3
DesignerAssemblies
 90
     1024
280
     0
281
     0
  0
CLASS
  1
ACAMCOMPDEFMGR
  2
AcAmCompDefMgr
  3
DesignerAssemblies
 90
     1024
280
     0
281
     0
  0
CLASS
  1
AMCONTEXTMGR
  2
AcAmContextMgr
  3
DesignerAssemblies
 90
     1024
280
     0
281
     0
  0
CLASS
  1
ACAMCONTEXTMODELER
  2
AcAmContextModeler
  3
DesignerAssemblies
 90
     1024
280
     0
281
     0
  0
CLASS
  1
ACMDATADICTIONARY
  2
AcmDataDictionary
  3
"AcmSymBB|Product Description: AutoCAD Mechanical|Company: Autodesk, Inc."
 90
     1024
280
     0
281
     0
  0
CLASS
  1
ACMDATAENTRYBLOCK
  2
AcmDataEntryBlock
  3
AcmSymBB|Product Description: AutoCAD Mechanical|Company: Autodesk, Inc.
 90
     1024
280
     0
281
     0
  0
CLASS
  1
ACRFATTGENMGR
  2
AcRfAttGeneralMgr
  3
AcAttribServices
 90
     1024
280
     0
281
     0
  0
CLASS
  1
ACRFOBJATTMGR
  2
AcRfObjAttGroupMgr
  3
AcAttribServices
 90
     1024
280
     0
281
     0
  0
CLASS
  1
ACRFMCADAPIATTHOLDER
  2
AcRfMCADAPIAttHolder
  3
AcAttribServices
 90
     1024
280
     0
281
     0
  0
CLASS
  1
AMDTSYSATTR
  2
AmdtSystemAttribute
  3
AcAttribServices
 90
     1024
280
     0
281
     0
  0
CLASS
  1
CATALOGSTATE
  2
AcAmCatalogState
  3
DesignerAssemblies
 90
     1024
280
     0
281
     0
  0
CLASS
  1
ACAMGRCOMPDEFSET
  2
AcAmGrCompDefSet
  3
DesignerAssemblies
 90
     1024
280
     0
281
     0
  0
CLASS
  1
AMDTBROWSERDBTAB
  2
AmdtBrowserDbTab
  3
McadcomServices
 90
     1024
280
     0
281
     0
  0
CLASS
  1
CBROWSERAPPOBJECT
  2
CBrowserAppObject
  3
McadcomServices
 90
     1024
280
     0
281
     0
  0
CLASS
  1
DM_PLACEHOLDER
  2
AcDmSelsetPlaceholder
  3
AcMechDwgViewMgmt
 90
     1024
280
     0
281
     0
  0
CLASS
  1
ACMSTANDARDANSI
  2
AcmStandardANSI
  3
"Amdt_StdImp|Product Description: AutoCAD Mechanical|Company: Autodesk, Inc."
 90
     1024
280
     0
281
     0
  0
CLASS
  1
ACMSURFSTANDARDANSI
  2
AcmSurfTextStdANSI
  3
"Amdt_StdImp|Product Description: AutoCAD Mechanical|Company: Autodesk, Inc."
 90
     1024
280
     0
281
     0
  0
CLASS
  1
ACMFCFSTANDARDANSI
  2
AcmFCFStdANSI
  3
"Amdt_StdImp|Product Description: AutoCAD Mechanical|Company: Autodesk, Inc."
 90
     1024
280
     0
281
     0
  0
CLASS
  1
ACMWELDSTANDARDANSI
  2
AcmWeldingStdANSI
  3
"Amdt_StdImp|Product Description: AutoCAD Mechanical|Company: Autodesk, Inc."
 90
     1024
280
     0
281
     0
  0
CLASS
  1
ACMIDSTANDARDANSI
  2
AcmIdStdANSI
  3
"Amdt_StdImp|Product Description: AutoCAD Mechanical|Company: Autodesk, Inc."
 90
     1024
280
     0
281
     0
  0
CLASS
  1
ACMDATUMSTANDARDANSI
  2
AcmDatumStdANSI
  3
"Amdt_StdImp|Product Description: AutoCAD Mechanical|Company: Autodesk, Inc."
 90
     1024
280
     0
281
     0
  0
CLASS
  1
ACMBOMSTANDARDANSI
  2
AcmBOMStdANSI
  3
"Amdt_StdImp|Product Description: AutoCAD Mechanical|Company: Autodesk, Inc."
 90
     1024
280
     0
281
     0
  0
CLASS
  1
ACMDETAILSTANDARDANSI
  2
AmdtDetailSymStdANSI
  3
"Amdt_StdImp|Product Description: AutoCAD Mechanical|Company: Autodesk, Inc."
 90
     1024
280
     0
281
     0
  0
CLASS
  1
ACMSECTIONSTANDARDANSI
  2
AmdtSectionSymStdANSI
  3
"Amdt_StdImp|Product Description: AutoCAD Mechanical|Company: Autodesk, Inc."
 90
     1024
280
     0
281
     0
  0
CLASS
  1
ACMCENTERLINESTANDARDANSI
  2
AmdtCenterLineStdANSI
  3
"Amdt_StdImp|Product Description: AutoCAD Mechanical|Company: Autodesk, Inc."
 90
     1024
280
     0
281
     0
  0
CLASS
  1
ACMTHREADLINESTANDARDANSI
  2
AmdtThreadLineStdANSI
  3
"Amdt_StdImp|Product Description: AutoCAD Mechanical|Company: Autodesk, Inc."
 90
     1024
280
     0
281
     0
  0
CLASS
  1
ACMNOTESTANDARDANSI
  2
AmdtNoteStdANSI
  3
"Amdt_StdImp|Product Description: AutoCAD Mechanical|Company: Autodesk, Inc."
 90
     1024
280
     0
281
     0
  0
CLASS
  1
ACMTAPERSTANDARDANSI
  2
AcmTaperStdANSI
  3
"Amdt_StdImp|Product Description: AutoCAD Mechanical|Company: Autodesk, Inc."
 90
     1024
280
     0
281
     0
  0
CLASS
  1
ACMANOOTATIONVIEWSTANDARDANSI
  2
AmdtAnViewStdANSI
  3
"Amdt_StdImp|Product Description: AutoCAD Mechanical|Company: Autodesk, Inc."
 90
     1024
280
     0
281
     0
  0
CLASS
  1
ACAMGLAYSTD
  2
AcAmgLayStd
  3
"AmgLay|Product Description: AutoCAD Mechanical|Company: Autodesk, Inc."
 90
     1024
280
     0
281
     0
  0
CLASS
  1
ACAMGDIMSTD
  2
AcAmgDimStd
  3
"AmgDim|Product Description: AutoCAD Mechanical|Company: Autodesk, Inc."
 90
     1024
280
     0
281
     0
  0
CLASS
  1
ACAMGHOLECHARTSTDANSI
  2
AcAmgHoleChartStdANSI
  3
AmgDim|Product Description: AutoCAD Mechanical|Company: Autodesk, Inc.
 90
     1024
280
     0
281
     0
  0
CLASS
  1
AMGOBJPROPCFG
  2
AmgObjPropCfg
  3
"AmgLay|Product Description: AutoCAD Mechanical|Company: Autodesk, Inc."
 90
     1025
280
     0
281
     0
  0
CLASS
  1
ACAMGTITLESTD
  2
AcAmgTitleStd
  3
"AmgTitle|Product Description: AutoCAD Mechanical|Company: Autodesk, Inc."
 90
     4095
280
     0
281
     0
  0
CLASS
  1
AMDTNOTETEMPLATEDB
  2
AmdtNoteTemplateDB
  3
AcmSymBB|Product Description: AutoCAD Mechanical|Company: Autodesk, Inc.
 90
     1024
280
     0
281
     0
  0
CLASS
  1
LAYER_INDEX
  2
AcDbLayerIndex
  3
ObjectDBX Classes
 90
        0
280
     0
281
     0
  0
CLASS
  1
IDBUFFER
  2
AcDbIdBuffer
  3
ObjectDBX Classes
 90
        0
280
     0
281
     0
  0
CLASS
  1
DICTIONARYVAR
  2
AcDbDictionaryVar
  3
ObjectDBX Classes
 90
        0
280
     0
281
     0
  0
CLASS
  1
CELLSTYLEMAP
  2
AcDbCellStyleMap
  3
ObjectDBX Classes
 90
     1152
280
     0
281
     0
  0
CLASS
  1
ACDBPLACEHOLDER
  2
AcDbPlaceHolder
  3
ObjectDBX Classes
 90
        0
280
     0
281
     0
  0
CLASS
  1
LAYOUT
  2
AcDbLayout
  3
ObjectDBX Classes
 90
        0
280
     0
281
     0
  0
ENDSEC
  0
SECTION
  2
TABLES
  0
TABLE
  2
VPORT
  5
2FDF
330
0
100
AcDbSymbolTable
 70
     1
  0
VPORT
  5
304F
330
2FDF
100
AcDbSymbolTableRecord
100
AcDbViewportTableRecord
  2
*ACTIVE
 70
     0
 10
0.0
 20
0.0
 11
1.0
 21
1.0
 12
0.0
 22
0.0
 13
0.0
 23
0.0
 14
1.0
 24
1.0
 15
0.0
 25
0.0
 16
0.0
 26
0.0
 36
1.0
 17
304.5410298096713
 27
6.889353048625705
 37
0.0
 40
1540.819674848131
 41
1.712555066079295
 42
50.0
 43
0.0
 44
0.0
 50
0.0
 51
0.0
 71
     0
 72
   100
 73
     1
 74
     0
 75
     0
 76
     0
 77
     0
 78
     0
281
     0
 65
     0
110
0.0
120
0.0
130
0.0
111
1.0
121
0.0
131
0.0
112
0.0
122
1.0
132
0.0
 79
     0
146
0.0
  0
ENDTAB
  0
TABLE
  2
LTYPE
  5
2FDC
330
0
100
AcDbSymbolTable
 70
    19
  0
LTYPE
  5
3039
330
2FDC
100
AcDbSymbolTableRecord
100
AcDbLinetypeTableRecord
  2
ByBlock
 70
     0
  3

 72
    65
 73
     0
 40
0.0
  0
LTYPE
  5
303A
330
2FDC
100
AcDbSymbolTableRecord
100
AcDbLinetypeTableRecord
  2
ByLayer
 70
     0
  3

 72
    65
 73
     0
 40
0.0
  0
LTYPE
  5
303B
330
2FDC
100
AcDbSymbolTableRecord
100
AcDbLinetypeTableRecord
  2
CONTINUOUS
 70
     0
  3
実線
 72
    65
 73
     0
 40
0.0
  0
LTYPE
  5
3050
330
2FDC
100
AcDbSymbolTableRecord
100
AcDbLinetypeTableRecord
  2
DASHDOT
 70
     0
  3
____ _ ____ _ ____ _ ____ _ ____ _ ____ _ ____
 72
    65
 73
     4
 40
5.5
 49
4.0
 74
     0
 49
-0.6
 74
     0
 49
0.3
 74
     0
 49
-0.6
 74
     0
  0
LTYPE
  5
3051
330
2FDC
100
AcDbSymbolTableRecord
100
AcDbLinetypeTableRecord
  2
HIDDEN
 70
     0
  3
Hidden __ __ __ __ __ __ __ __ __ __ __ __ __ _
 72
    65
 73
     2
 40
0.375
 49
0.25
 74
     0
 49
-0.125
 74
     0
  0
LTYPE
  5
3052
330
2FDC
100
AcDbSymbolTableRecord
100
AcDbLinetypeTableRecord
  2
PHANTOM2
 70
     0
  3
Phantom (.5x) ___ _ _ ___ _ _ ___ _ _ ___ _ _
 72
    65
 73
     6
 40
1.25
 49
0.625
 74
     0
 49
-0.125
 74
     0
 49
0.125
 74
     0
 49
-0.125
 74
     0
 49
0.125
 74
     0
 49
-0.125
 74
     0
  0
LTYPE
  5
3053
330
2FDC
100
AcDbSymbolTableRecord
100
AcDbLinetypeTableRecord
  2
CENTER
 70
     0
  3
Center ____ _ ____ _ ____ _ ____ _ ____ _ ____
 72
    65
 73
     4
 40
2.0
 49
1.25
 74
     0
 49
-0.25
 74
     0
 49
0.25
 74
     0
 49
-0.25
 74
     0
  0
LTYPE
  5
3054
330
2FDC
100
AcDbSymbolTableRecord
100
AcDbLinetypeTableRecord
  2
ASULTYPE
 70
     0
  3
実線
 72
    65
 73
     2
 40
3.0
 49
2.5
 74
     0
 49
0.5
 74
     0
  0
LTYPE
  5
3055
330
2FDC
100
AcDbSymbolTableRecord
100
AcDbLinetypeTableRecord
  2
ASVLTYPE
 70
     0
  3
__ __ __ __ __ __ __ __ __ __ __ __ __ __ __ __ __ __ __ __ __
 72
    65
 73
     2
 40
0.75
 49
0.5
 74
     0
 49
-0.25
 74
     0
  0
LTYPE
  5
3056
330
2FDC
100
AcDbSymbolTableRecord
100
AcDbLinetypeTableRecord
  2
AM_ISO02W050
 70
     0
  3
__ __ __ __ __ __ __ __ __ __ __ __ __ __ __
 72
    65
 73
     2
 40
7.5
 49
6.0
 74
     0
 49
-1.5
 74
     0
  0
LTYPE
  5
3057
330
2FDC
100
AcDbSymbolTableRecord
100
AcDbLinetypeTableRecord
  2
AM_ISO08W050
 70
     0
  3
____ . ____ . ____ . ____ . ____ . ____ . ____
 72
    65
 73
     4
 40
18.0
 49
12.0
 74
     0
 49
-1.5
 74
     0
 49
3.0
 74
     0
 49
-1.5
 74
     0
  0
LTYPE
  5
3058
330
2FDC
100
AcDbSymbolTableRecord
100
AcDbLinetypeTableRecord
  2
AM_ISO09W050
 70
     0
  3
_____ . . _____ . . _____ . . ____ .. ____
 72
    65
 73
     6
 40
22.5
 49
12.0
 74
     0
 49
-1.5
 74
     0
 49
3.0
 74
     0
 49
-1.5
 74
     0
 49
3.0
 74
     0
 49
-1.5
 74
     0
  0
LTYPE
  5
3059
330
2FDC
100
AcDbSymbolTableRecord
100
AcDbLinetypeTableRecord
  2
AMCONSTR
 70
     0
  3
_______________________
 72
    65
 73
     2
 40
9999.0
 49
9999.0
 74
     0
 49
0.0
 74
     0
  0
LTYPE
  5
305A
330
2FDC
100
AcDbSymbolTableRecord
100
AcDbLinetypeTableRecord
  2
AM_ISO08W050X2
 70
     0
  3
__ . __ . __ . __ . __ . __
 72
    65
 73
     4
 40
9.0
 49
6.0
 74
     0
 49
-0.75
 74
     0
 49
1.5
 74
     0
 49
-0.75
 74
     0
  0
LTYPE
  5
305B
330
2FDC
100
AcDbSymbolTableRecord
100
AcDbLinetypeTableRecord
  2
AM_ISO02W050X2
 70
     0
  3
 _ _ _ _ _ _ _ _ _ _ _ _
 72
    65
 73
     2
 40
3.75
 49
3.0
 74
     0
 49
-0.75
 74
     0
  0
LTYPE
  5
305C
330
2FDC
100
AcDbSymbolTableRecord
100
AcDbLinetypeTableRecord
  2
AMZIGZAG
 70
     0
  3
/\/-/\/-/\/-/\/-/\/-/\/
 72
    65
 73
     2
 40
11.0001
 49
0.0001
 74
     0
 49
-11.0
 74
     0
  0
LTYPE
  5
305D
330
2FDC
100
AcDbSymbolTableRecord
100
AcDbLinetypeTableRecord
  2
CENTER2
 70
     0
  3
Center (.5x) ___ _ ___ _ ___ _ ___ _ ___ _ ___
 72
    65
 73
     4
 40
1.125
 49
0.75
 74
     0
 49
-0.125
 74
     0
 49
0.125
 74
     0
 49
-0.125
 74
     0
  0
LTYPE
  5
305E
330
2FDC
100
AcDbSymbolTableRecord
100
AcDbLinetypeTableRecord
  2
HIDDEN2
 70
     0
  3
Hidden (.5x) _ _ _ _ _ _ _ _ _ _ _ _ _ _ _ _ _
 72
    65
 73
     2
 40
0.1875
 49
0.125
 74
     0
 49
-0.0625
 74
     0
  0
LTYPE
  5
305F
330
2FDC
100
AcDbSymbolTableRecord
100
AcDbLinetypeTableRecord
  2
AMZIGZAG2
 70
     0
  3
/\/-/\/-/\/-/\/-/\/-/\/
 72
    65
 73
     2
 40
0.4401
 49
0.0001
 74
     0
 49
-0.4400000000000003
 74
     0
  0
LTYPE
  5
3060
330
2FDC
100
AcDbSymbolTableRecord
100
AcDbLinetypeTableRecord
  2
ACANSTGB
 70
     0
  3
__ . . __ . .
 72
    65
 73
     6
 40
0.35433070866
 49
0.15748031496
 74
     0
 49
-0.03937007874
 74
     0
 49
0.03937007874
 74
     0
 49
-0.03937007874
 74
     0
 49
0.03937007874
 74
     0
 49
-0.03937007874
 74
     0
  0
LTYPE
  5
3061
330
2FDC
100
AcDbSymbolTableRecord
100
AcDbLinetypeTableRecord
  2
ACANSTGL
 70
     0
  3
_ _ _ _ _
 72
    65
 73
     2
 40
0.11811023622
 49
0.07874015748
 74
     0
 49
-0.03937007874
 74
     0
  0
ENDTAB
  0
TABLE
  2
LAYER
  5
2FD9
330
0
100
AcDbSymbolTable
 70
    12
  0
LAYER
  5
3033
102
{ACAD_XDICTIONARY
360
31A7
102
}
330
2FD9
100
AcDbSymbolTableRecord
100
AcDbLayerTableRecord
  2
0
 70
     0
 62
     7
  6
CONTINUOUS
370
    -3
390
2FE6
  0
LAYER
  5
3062
102
{ACAD_XDICTIONARY
360
31A9
102
}
330
2FD9
100
AcDbSymbolTableRecord
100
AcDbLayerTableRecord
  2
OUTLINE
 70
     0
 62
     3
  6
CONTINUOUS
370
    -3
390
2FE6
  0
LAYER
  5
3063
102
{ACAD_XDICTIONARY
360
31AB
102
}
330
2FD9
100
AcDbSymbolTableRecord
100
AcDbLayerTableRecord
  2
SIZE
 70
     0
 62
    30
  6
CONTINUOUS
370
    -3
390
2FE6
  0
LAYER
  5
3064
102
{ACAD_XDICTIONARY
360
31AD
102
}
330
2FD9
100
AcDbSymbolTableRecord
100
AcDbLayerTableRecord
  2
BASIS
 70
     0
 62
     6
  6
DASHDOT
370
    -3
390
2FE6
  0
LAYER
  5
3065
102
{ACAD_XDICTIONARY
360
31AF
102
}
330
2FD9
100
AcDbSymbolTableRecord
100
AcDbLayerTableRecord
  2
DETAIL
 70
     0
 62
     5
  6
CONTINUOUS
370
    -3
390
2FE6
  0
LAYER
  5
3066
102
{ACAD_XDICTIONARY
360
31B1
102
}
330
2FD9
100
AcDbSymbolTableRecord
100
AcDbLayerTableRecord
  2
ARRANGE
 70
     0
 62
     1
  6
CONTINUOUS
370
    -3
390
2FE6
  0
LAYER
  5
3067
330
2FD9
100
AcDbSymbolTableRecord
100
AcDbLayerTableRecord
  2
DEFPOINTS
 70
     0
 62
     7
  6
CONTINUOUS
290
     0
370
    -3
390
2FE6
  0
LAYER
  5
3068
102
{ACAD_XDICTIONARY
360
31B3
102
}
330
2FD9
100
AcDbSymbolTableRecord
100
AcDbLayerTableRecord
  2
ETC
 70
     0
 62
    61
  6
CONTINUOUS
370
    -3
390
2FE6
  0
LAYER
  5
3069
102
{ACAD_XDICTIONARY
360
31B5
102
}
330
2FD9
100
AcDbSymbolTableRecord
100
AcDbLayerTableRecord
  2
FIX
 70
     0
 62
    11
  6
CONTINUOUS
370
    -3
390
2FE6
  0
LAYER
  5
306A
102
{ACAD_XDICTIONARY
360
31B7
102
}
330
2FD9
100
AcDbSymbolTableRecord
100
AcDbLayerTableRecord
  2
NOTE
 70
     0
 62
     4
  6
CONTINUOUS
370
    -3
390
2FE6
  0
LAYER
  5
306B
102
{ACAD_XDICTIONARY
360
31B9
102
}
330
2FD9
100
AcDbSymbolTableRecord
100
AcDbLayerTableRecord
  2
SERVICESPACE
 70
     0
 62
     2
  6
DASHDOT
370
    -3
390
2FE6
  0
LAYER
  5
306C
102
{ACAD_XDICTIONARY
360
31BB
102
}
330
2FD9
100
AcDbSymbolTableRecord
100
AcDbLayerTableRecord
  2
SYMBOLLINE
 70
     0
 62
    15
  6
CONTINUOUS
370
    -3
390
2FE6
  0
ENDTAB
  0
TABLE
  2
STYLE
  5
2FDA
330
0
100
AcDbSymbolTable
 70
     5
  0
STYLE
  5
3034
330
2FDA
100
AcDbSymbolTableRecord
100
AcDbTextStyleTableRecord
  2
STANDARD
 70
     0
 40
64.0
 41
0.9
 50
0.0
 71
     0
 42
64.0
  3
SIMPLEX.shx
  4
BIGFONT.shx
  0
STYLE
  5
3038
330
2FDA
100
AcDbSymbolTableRecord
100
AcDbTextStyleTableRecord
  2
ANNOTATIVE
 70
     0
 40
0.0
 41
1.0
 50
0.0
 71
     0
 42
0.2
  3
txt
  4

1001
ACADANNOTATIVE
1000
AnnotativeData
1002
{
1070
     1
1070
     1
1002
}
  0
STYLE
  5
306D
330
2FDA
100
AcDbSymbolTableRecord
100
AcDbTextStyleTableRecord
  2

 70
     1
 40
0.0
 41
1.0
 50
0.0
 71
     0
 42
64.0
  3
genltshp.shx
  4

  0
STYLE
  5
306E
330
2FDA
100
AcDbSymbolTableRecord
100
AcDbTextStyleTableRecord
  2
ACANSTS
 70
     0
 40
1.0
 41
1.0
 50
0.0
 71
     0
 42
64.0
  3
romans.shx
  4
extfont.shx
  0
STYLE
  5
306F
330
2FDA
100
AcDbSymbolTableRecord
100
AcDbTextStyleTableRecord
  2
ACANSGDT
 70
     0
 40
0.0
 41
1.0
 50
0.0
 71
     0
 42
64.0
  3
amgdt.shx
  4

  0
ENDTAB
  0
TABLE
  2
VIEW
  5
2FDD
330
0
100
AcDbSymbolTable
 70
     1
  0
VIEW
  5
3070
330
2FDD
100
AcDbSymbolTableRecord
100
AcDbViewTableRecord
  2
ALL
 70
     0
 40
4282.619807999997
 10
0.0
 20
41.30990399999999
 41
5940.0
 11
0.0
 21
0.0
 31
1.0
 12
0.0
 22
0.0
 32
0.0
 42
50.0
 43
0.0
 44
0.0
 50
0.0
 71
     0
281
     0
 72
     1
110
0.0
120
0.0
130
0.0
111
1.0
121
0.0
131
0.0
112
0.0
122
1.0
132
0.0
 79
     0
146
0.0
  0
ENDTAB
  0
TABLE
  2
UCS
  5
2FDE
330
0
100
AcDbSymbolTable
 70
     0
  0
ENDTAB
  0
TABLE
  2
APPID
  5
2FE0
330
0
100
AcDbSymbolTable
 70
    34
  0
APPID
  5
3035
330
2FE0
100
AcDbSymbolTableRecord
100
AcDbRegAppTableRecord
  2
ACAD
 70
     0
  0
APPID
  5
303C
330
2FE0
100
AcDbSymbolTableRecord
100
AcDbRegAppTableRecord
  2
ACADANNOTATIVE
 70
     0
  0
APPID
  5
3046
330
2FE0
100
AcDbSymbolTableRecord
100
AcDbRegAppTableRecord
  2
ACAD_MLEADERVER
 70
     0
  0
APPID
  5
3071
330
2FE0
100
AcDbSymbolTableRecord
100
AcDbRegAppTableRecord
  2
GENIUS_GENDIM_13
 70
     0
  0
APPID
  5
3072
330
2FE0
100
AcDbSymbolTableRecord
100
AcDbRegAppTableRecord
  2
GENIUS_GENDTOL_13
 70
     0
  0
APPID
  5
3073
330
2FE0
100
AcDbSymbolTableRecord
100
AcDbRegAppTableRecord
  2
GENIUS_GE3DTOL_13
 70
     0
  0
APPID
  5
3074
330
2FE0
100
AcDbSymbolTableRecord
100
AcDbRegAppTableRecord
  2
MCAD_NO_VIS
 70
     0
  0
APPID
  5
3075
330
2FE0
100
AcDbSymbolTableRecord
100
AcDbRegAppTableRecord
  2
ACAD_TEMP_GRAPHIC
 70
     0
  0
APPID
  5
3076
330
2FE0
100
AcDbSymbolTableRecord
100
AcDbRegAppTableRecord
  2
AD_DRAW
 70
     0
  0
APPID
  5
3077
330
2FE0
100
AcDbSymbolTableRecord
100
AcDbRegAppTableRecord
  2
ACATTRIBSERVICES
 70
     0
  0
APPID
  5
3078
330
2FE0
100
AcDbSymbolTableRecord
100
AcDbRegAppTableRecord
  2
ASURF_PCURVE_APPNAME
 70
     0
  0
APPID
  5
3079
330
2FE0
100
AcDbSymbolTableRecord
100
AcDbRegAppTableRecord
  2
AMG_3D2D_5_0
 70
     0
  0
APPID
  5
307A
330
2FE0
100
AcDbSymbolTableRecord
100
AcDbRegAppTableRecord
  2
DESIGNERASSEMBLIES
 70
     0
  0
APPID
  5
307B
330
2FE0
100
AcDbSymbolTableRecord
100
AcDbRegAppTableRecord
  2
ACADM_DIM_EDIT
 70
     0
  0
APPID
  5
307C
330
2FE0
100
AcDbSymbolTableRecord
100
AcDbRegAppTableRecord
  2
AMDT_DM_ADJ
 70
     0
  0
APPID
  5
307D
330
2FE0
100
AcDbSymbolTableRecord
100
AcDbRegAppTableRecord
  2
ACAD_DSTYLE_DIMARC_LENGTH_
 70
     0
  0
APPID
  5
307E
330
2FE0
100
AcDbSymbolTableRecord
100
AcDbRegAppTableRecord
  2
ACAD_DSTYLE_DIMJOGGED_JOGA
 70
     0
  0
APPID
  5
307F
330
2FE0
100
AcDbSymbolTableRecord
100
AcDbRegAppTableRecord
  2
ACAD_PSEXT
 70
     0
  0
APPID
  5
3080
330
2FE0
100
AcDbSymbolTableRecord
100
AcDbRegAppTableRecord
  2
ACAD_EXEMPT_FROM_CAD_STANDARDS
 70
     0
  0
APPID
  5
3081
330
2FE0
100
AcDbSymbolTableRecord
100
AcDbRegAppTableRecord
  2
ACAD_DSTYLE_DIMJAG
 70
     0
  0
APPID
  5
3082
330
2FE0
100
AcDbSymbolTableRecord
100
AcDbRegAppTableRecord
  2
ACAD_DSTYLE_DIMTALN
 70
     0
  0
APPID
  5
3083
330
2FE0
100
AcDbSymbolTableRecord
100
AcDbRegAppTableRecord
  2
AMG_3D2D_5_00
 70
     0
  0
APPID
  5
3084
330
2FE0
100
AcDbSymbolTableRecord
100
AcDbRegAppTableRecord
  2
AMG_3D2D_5_01
 70
     0
  0
APPID
  5
3085
330
2FE0
100
AcDbSymbolTableRecord
100
AcDbRegAppTableRecord
  2
ACAD_DSTYLE_DIMJOGGED_JOG0
 70
     0
  0
APPID
  5
3086
330
2FE0
100
AcDbSymbolTableRecord
100
AcDbRegAppTableRecord
  2
AMG_3D2D_5_02
 70
     0
  0
APPID
  5
3087
330
2FE0
100
AcDbSymbolTableRecord
100
AcDbRegAppTableRecord
  2
ACAD_DSTYLE_DIMJOGGED_JOG1
 70
     0
  0
APPID
  5
3088
330
2FE0
100
AcDbSymbolTableRecord
100
AcDbRegAppTableRecord
  2
AMG_3D2D_5_03
 70
     0
  0
APPID
  5
3089
330
2FE0
100
AcDbSymbolTableRecord
100
AcDbRegAppTableRecord
  2
ACAD_DSTYLE_DIMJOGGED_JOG2
 70
     0
  0
APPID
  5
308A
330
2FE0
100
AcDbSymbolTableRecord
100
AcDbRegAppTableRecord
  2
AMG_3D2D_5_04
 70
     0
  0
APPID
  5
314E
330
2FE0
100
AcDbSymbolTableRecord
100
AcDbRegAppTableRecord
  2
AMG_3D2D_5.0
 70
     0
  0
APPID
  5
31E4
330
2FE0
100
AcDbSymbolTableRecord
100
AcDbRegAppTableRecord
  2
ACAD_DSTYLE_DIMARC_LENGTH_SYMBOL
 70
     0
  0
APPID
  5
31E5
330
2FE0
100
AcDbSymbolTableRecord
100
AcDbRegAppTableRecord
  2
ACAD_DSTYLE_DIM_LINETYPE
 70
     0
  0
APPID
  5
31E6
330
2FE0
100
AcDbSymbolTableRecord
100
AcDbRegAppTableRecord
  2
ACAD_DSTYLE_DIM_EXT1_LINETYPE
 70
     0
  0
APPID
  5
31E7
330
2FE0
100
AcDbSymbolTableRecord
100
AcDbRegAppTableRecord
  2
ACAD_DSTYLE_DIM_EXT2_LINETYPE
 70
     0
  0
ENDTAB
  0
TABLE
  2
DIMSTYLE
  5
2FE1
330
0
100
AcDbSymbolTable
 70
    10
100
AcDbDimStyleTable
 71
     1
340
308B
  0
DIMSTYLE
105
3036
330
2FE1
100
AcDbSymbolTableRecord
100
AcDbDimStyleTableRecord
  2
STANDARD
 70
     0
 41
12.0
 42
20.0
 44
20.0
 77
     1
 78
     8
140
64.0
141
0.0
147
10.0
172
     1
275
     1
279
     2
284
     7
285
     7
286
     7
340
3034
  0
DIMSTYLE
105
3037
330
2FE1
100
AcDbSymbolTableRecord
100
AcDbDimStyleTableRecord
  2
ANNOTATIVE
 70
     0
275
     1
279
     2
284
     7
285
     7
286
     7
340
3034
1001
ACADANNOTATIVE
1000
AnnotativeData
1002
{
1070
     1
1070
     1
1002
}
  0
DIMSTYLE
105
308B
330
2FE1
100
AcDbSymbolTableRecord
100
AcDbDimStyleTableRecord
  2
AM_ANSI
 70
     0
  4
mm
 41
0.12
 42
0.05
 43
0.5
 44
0.1
 47
0.1
 48
0.1
 78
     7
 79
     2
140
0.12
141
0.0
146
0.71
147
0.06
176
   256
177
   256
178
     2
274
     4
284
     7
340
3034
371
    -1
372
    -1
1001
ACAD_DSTYLE_DIMARC_LENGTH_SYMBOL
1070
   379
1070
     1
1001
ACAD_DSTYLE_DIM_LINETYPE
1070
   380
1005
3039
1001
ACAD_DSTYLE_DIM_EXT1_LINETYPE
1070
   381
1005
3039
1001
ACAD_DSTYLE_DIM_EXT2_LINETYPE
1070
   382
1005
3039
  0
DIMSTYLE
105
308C
330
2FE1
100
AcDbSymbolTableRecord
100
AcDbDimStyleTableRecord
  2
AM_ANSI$3
 70
     0
  4
mm
 41
0.12
 42
0.05
 43
0.5
 44
0.1
 47
0.1
 48
0.1
 78
     7
 79
     2
140
0.12
141
0.0
146
0.71
147
0.06
176
   256
177
   256
178
     2
274
     4
284
     7
288
     1
289
     0
340
3034
371
    -1
372
    -1
1001
ACAD_DSTYLE_DIMARC_LENGTH_SYMBOL
1070
   379
1070
     1
1001
ACAD_DSTYLE_DIM_LINETYPE
1070
   380
1005
3039
1001
ACAD_DSTYLE_DIM_EXT1_LINETYPE
1070
   381
1005
3039
1001
ACAD_DSTYLE_DIM_EXT2_LINETYPE
1070
   382
1005
3039
  0
DIMSTYLE
105
308D
330
2FE1
100
AcDbSymbolTableRecord
100
AcDbDimStyleTableRecord
  2
AM_ANSI$4
 70
     0
  4
mm
 41
0.12
 42
0.05
 43
0.5
 44
0.1
 47
0.1
 48
0.1
 78
     7
 79
     2
140
0.12
141
0.0
146
0.71
147
0.06
176
   256
177
   256
178
     2
274
     4
284
     7
340
3034
371
    -1
372
    -1
1001
ACAD_DSTYLE_DIMARC_LENGTH_SYMBOL
1070
   379
1070
     1
1001
ACAD_DSTYLE_DIM_LINETYPE
1070
   380
1005
3039
1001
ACAD_DSTYLE_DIM_EXT1_LINETYPE
1070
   381
1005
3039
1001
ACAD_DSTYLE_DIM_EXT2_LINETYPE
1070
   382
1005
3039
  0
DIMSTYLE
105
308E
330
2FE1
100
AcDbSymbolTableRecord
100
AcDbDimStyleTableRecord
  2
AM_ANSI$7
 70
     0
  4
mm
 41
0.12
 42
0.05
 43
0.5
 44
0.1
 47
0.1
 48
0.1
 78
     7
 79
     2
140
0.12
141
0.0
146
0.71
147
0.06
176
   256
177
   256
178
     2
274
     4
284
     7
340
3034
371
    -1
372
    -1
1001
ACAD_DSTYLE_DIMARC_LENGTH_SYMBOL
1070
   379
1070
     1
1001
ACAD_DSTYLE_DIM_LINETYPE
1070
   380
1005
3039
1001
ACAD_DSTYLE_DIM_EXT1_LINETYPE
1070
   381
1005
3039
1001
ACAD_DSTYLE_DIM_EXT2_LINETYPE
1070
   382
1005
3039
  0
DIMSTYLE
105
308F
330
2FE1
100
AcDbSymbolTableRecord
100
AcDbDimStyleTableRecord
  2
AM_ANSI$SF
 70
     0
  4
mm
 41
0.12
 42
0.05
 43
0.5
 44
0.1
 47
0.1
 48
0.1
 75
     1
 76
     1
 78
     7
 79
     2
140
0.12
141
0.0
146
0.71
147
0.06
176
   256
177
   256
178
     2
274
     4
284
     7
340
3034
371
    -1
372
    -1
1001
ACAD_DSTYLE_DIMARC_LENGTH_SYMBOL
1070
   379
1070
     1
1001
ACAD_DSTYLE_DIM_LINETYPE
1070
   380
1005
3039
1001
ACAD_DSTYLE_DIM_EXT1_LINETYPE
1070
   381
1005
3039
1001
ACAD_DSTYLE_DIM_EXT2_LINETYPE
1070
   382
1005
3039
  0
DIMSTYLE
105
3090
330
2FE1
100
AcDbSymbolTableRecord
100
AcDbDimStyleTableRecord
  2
AM_ANSI$SH
 70
     0
  4
mm
 41
0.12
 42
0.05
 43
0.5
 44
0.1
 47
0.1
 48
0.1
 75
     1
 76
     1
 78
     7
 79
     2
140
0.12
141
0.0
146
0.71
147
0.06
173
     1
176
   256
177
   256
178
     2
274
     4
284
     7
340
3034
343
30A4
371
    -1
372
    -1
1001
ACAD_DSTYLE_DIMARC_LENGTH_SYMBOL
1070
   379
1070
     1
1001
ACAD_DSTYLE_DIM_LINETYPE
1070
   380
1005
3039
1001
ACAD_DSTYLE_DIM_EXT1_LINETYPE
1070
   381
1005
3039
1001
ACAD_DSTYLE_DIM_EXT2_LINETYPE
1070
   382
1005
3039
  0
DIMSTYLE
105
3091
330
2FE1
100
AcDbSymbolTableRecord
100
AcDbDimStyleTableRecord
  2
STANDARD1
 70
     0
 40
6.0
 41
2.5
 42
0.625
 43
6.0
 44
1.25
 47
1.0
 48
0.5
 77
     1
 78
     8
140
2.5
141
0.0
146
0.6
147
1.0
173
     1
275
     1
279
     2
284
     7
285
     7
286
     7
340
3034
  0
DIMSTYLE
105
3092
330
2FE1
100
AcDbSymbolTableRecord
100
AcDbDimStyleTableRecord
  2
STANDARD$0
 70
     0
 41
12.0
 42
20.0
 44
20.0
 73
     0
 74
     0
 77
     1
 78
     8
140
64.0
141
0.0
147
10.0
172
     1
275
     1
279
     2
284
     7
285
     7
286
     7
340
3034
  0
ENDTAB
  0
TABLE
  2
BLOCK_RECORD
  5
2FD8
330
0
100
AcDbSymbolTable
 70
    26
  0
BLOCK_RECORD
  5
304B
102
{ACAD_XDICTIONARY
360
31BD
102
}
330
2FD8
100
AcDbSymbolTableRecord
100
AcDbBlockTableRecord
  2
*Model_Space
340
304E
  0
BLOCK_RECORD
  5
3047
330
2FD8
100
AcDbSymbolTableRecord
100
AcDbBlockTableRecord
  2
*Paper_Space
340
304A
  0
BLOCK_RECORD
  5
309A
330
2FD8
100
AcDbSymbolTableRecord
100
AcDbBlockTableRecord
  2
$MODEL_SPACE
340
0
  0
BLOCK_RECORD
  5
309C
330
2FD8
100
AcDbSymbolTableRecord
100
AcDbBlockTableRecord
  2
$PAPER_SPACE
340
0
  0
BLOCK_RECORD
  5
309E
330
2FD8
100
AcDbSymbolTableRecord
100
AcDbBlockTableRecord
  2
_ORIGIN
340
0
  0
BLOCK_RECORD
  5
30A0
330
2FD8
100
AcDbSymbolTableRecord
100
AcDbBlockTableRecord
  2
_DOTBLANK
340
0
102
{BLKREFS
331
202C
331
202D
331
2035
331
2036
331
203E
331
203F
331
2047
331
2048
331
2052
331
2053
331
205D
331
205E
331
2CEF
331
2CF0
331
2CF6
331
2CF7
331
2CFC
331
2CFD
331
2D05
331
2D06
331
2D0D
331
2D0E
331
2D43
331
2D44
331
2D49
331
2D4A
331
2D4F
331
2D50
331
2D55
331
2D56
331
2D5B
331
2D5C
102
}
  0
BLOCK_RECORD
  5
30A2
330
2FD8
100
AcDbSymbolTableRecord
100
AcDbBlockTableRecord
  2
_OPEN30
340
0
102
{BLKREFS
331
2199
331
270D
331
2A65
331
2D3B
102
}
  0
BLOCK_RECORD
  5
30A4
330
2FD8
100
AcDbSymbolTableRecord
100
AcDbBlockTableRecord
  2
GENAXEH
340
0
  0
BLOCK_RECORD
  5
30A6
330
2FD8
100
AcDbSymbolTableRecord
100
AcDbBlockTableRecord
  2
*U6
340
0
  0
BLOCK_RECORD
  5
30A8
330
2FD8
100
AcDbSymbolTableRecord
100
AcDbBlockTableRecord
  2
*D7
340
0
  0
BLOCK_RECORD
  5
30AA
330
2FD8
100
AcDbSymbolTableRecord
100
AcDbBlockTableRecord
  2
*U8
340
0
102
{BLKREFS
331
202E
102
}
  0
BLOCK_RECORD
  5
30AC
330
2FD8
100
AcDbSymbolTableRecord
100
AcDbBlockTableRecord
  2
*D9
340
0
  0
BLOCK_RECORD
  5
30AE
330
2FD8
100
AcDbSymbolTableRecord
100
AcDbBlockTableRecord
  2
*U10
340
0
102
{BLKREFS
331
2037
102
}
  0
BLOCK_RECORD
  5
30B0
330
2FD8
100
AcDbSymbolTableRecord
100
AcDbBlockTableRecord
  2
*D11
340
0
  0
BLOCK_RECORD
  5
30B2
330
2FD8
100
AcDbSymbolTableRecord
100
AcDbBlockTableRecord
  2
*U12
340
0
102
{BLKREFS
331
2040
102
}
  0
BLOCK_RECORD
  5
30B4
330
2FD8
100
AcDbSymbolTableRecord
100
AcDbBlockTableRecord
  2
*D13
340
0
  0
BLOCK_RECORD
  5
30B6
330
2FD8
100
AcDbSymbolTableRecord
100
AcDbBlockTableRecord
  2
*U14
340
0
102
{BLKREFS
331
2049
102
}
  0
BLOCK_RECORD
  5
30B8
330
2FD8
100
AcDbSymbolTableRecord
100
AcDbBlockTableRecord
  2
*D15
340
0
  0
BLOCK_RECORD
  5
30BA
330
2FD8
100
AcDbSymbolTableRecord
100
AcDbBlockTableRecord
  2
*U16
340
0
102
{BLKREFS
331
2054
102
}
  0
BLOCK_RECORD
  5
30BC
330
2FD8
100
AcDbSymbolTableRecord
100
AcDbBlockTableRecord
  2
*D17
340
0
  0
BLOCK_RECORD
  5
30BE
330
2FD8
100
AcDbSymbolTableRecord
100
AcDbBlockTableRecord
  2
*U18
340
0
102
{BLKREFS
331
205F
102
}
  0
BLOCK_RECORD
  5
30C0
330
2FD8
100
AcDbSymbolTableRecord
100
AcDbBlockTableRecord
  2
*U19
340
0
  0
BLOCK_RECORD
  5
30C2
330
2FD8
100
AcDbSymbolTableRecord
100
AcDbBlockTableRecord
  2
*U20
340
0
  0
BLOCK_RECORD
  5
30C4
330
2FD8
100
AcDbSymbolTableRecord
100
AcDbBlockTableRecord
  2
*U21
340
0
  0
BLOCK_RECORD
  5
30C6
330
2FD8
100
AcDbSymbolTableRecord
100
AcDbBlockTableRecord
  2
*U22
340
0
  0
BLOCK_RECORD
  5
30C8
330
2FD8
100
AcDbSymbolTableRecord
100
AcDbBlockTableRecord
  2
*U23
340
0
  0
BLOCK_RECORD
  5
30CA
330
2FD8
100
AcDbSymbolTableRecord
100
AcDbBlockTableRecord
  2
*U24
340
0
  0
ENDTAB
  0
ENDSEC
  0
SECTION
  2
BLOCKS
  0
BLOCK
  5
304C
330
304B
100
AcDbEntity
  8
0
100
AcDbBlockBegin
  2
*Model_Space
 70
     0
 10
0.0
 20
0.0
 30
0.0
  3
*Model_Space
  1

  0
ENDBLK
  5
304D
330
304B
100
AcDbEntity
  8
0
100
AcDbBlockEnd
  0
BLOCK
  5
3048
330
3047
100
AcDbEntity
 67
     1
  8
0
100
AcDbBlockBegin
  2
*Paper_Space
 70
     0
 10
0.0
 20
0.0
 30
0.0
  3
*Paper_Space
  1

  0
ENDBLK
  5
3049
330
3047
100
AcDbEntity
 67
     1
  8
0
100
AcDbBlockEnd
  0
BLOCK
  5
309B
330
309A
100
AcDbEntity
  8
0
100
AcDbBlockBegin
  2
$MODEL_SPACE
 70
     0
 10
0.0
 20
0.0
 30
0.0
  3
$MODEL_SPACE
  1

  0
ENDBLK
  5
2E3C
330
309A
100
AcDbEntity
  8
0
100
AcDbBlockEnd
  0
BLOCK
  5
309D
330
309C
100
AcDbEntity
  8
0
100
AcDbBlockBegin
  2
$PAPER_SPACE
 70
     0
 10
0.0
 20
0.0
 30
0.0
  3
$PAPER_SPACE
  1

  0
ENDBLK
  5
2E38
330
309C
100
AcDbEntity
  8
0
100
AcDbBlockEnd
  0
BLOCK
  5
309F
330
309E
100
AcDbEntity
  8
0
100
AcDbBlockBegin
  2
_ORIGIN
 70
     0
 10
0.0
 20
0.0
 30
0.0
  3
_ORIGIN
  1

  0
CIRCLE
  5
880
330
309E
100
AcDbEntity
  8
0
  6
Continuous
 62
     7
100
AcDbCircle
 10
0.0
 20
0.0
 30
0.0
 40
0.5
  0
LINE
  5
881
330
309E
100
AcDbEntity
  8
0
  6
Continuous
 62
     7
100
AcDbLine
 10
0.0
 20
0.0
 30
0.0
 11
-1.0
 21
0.0
 31
0.0
  0
ENDBLK
  5
882
330
309E
100
AcDbEntity
  8
0
100
AcDbBlockEnd
  0
BLOCK
  5
30A1
330
30A0
100
AcDbEntity
  8
0
 62
     1
100
AcDbBlockBegin
  2
_DOTBLANK
 70
     0
 10
0.0
 20
0.0
 30
0.0
  3
_DOTBLANK
  1

  0
CIRCLE
  5
AB3
330
30A0
100
AcDbEntity
  8
0
  6
ByBlock
 62
     0
100
AcDbCircle
 10
0.0
 20
0.0
 30
0.0
 40
0.5
  0
LINE
  5
AB4
330
30A0
100
AcDbEntity
  8
0
  6
ByBlock
 62
     0
100
AcDbLine
 10
-0.5
 20
0.0
 30
0.0
 11
-1.0
 21
0.0
 31
0.0
  0
ENDBLK
  5
AB6
330
30A0
100
AcDbEntity
  8
0
 62
     1
100
AcDbBlockEnd
  0
BLOCK
  5
30A3
330
30A2
100
AcDbEntity
  8
0
 62
     1
100
AcDbBlockBegin
  2
_OPEN30
 70
     0
 10
0.0
 20
0.0
 30
0.0
  3
_OPEN30
  1

  0
LINE
  5
AB8
330
30A2
100
AcDbEntity
  8
0
  6
ByBlock
 62
     0
100
AcDbLine
 10
-1.0
 20
0.26794919
 30
0.0
 11
0.0
 21
0.0
 31
0.0
  0
LINE
  5
AB9
330
30A2
100
AcDbEntity
  8
0
  6
ByBlock
 62
     0
100
AcDbLine
 10
0.0
 20
0.0
 30
0.0
 11
-1.0
 21
-0.26794919
 31
0.0
  0
LINE
  5
ABA
330
30A2
100
AcDbEntity
  8
0
  6
ByBlock
 62
     0
100
AcDbLine
 10
0.0
 20
0.0
 30
0.0
 11
-1.0
 21
0.0
 31
0.0
  0
ENDBLK
  5
ABC
330
30A2
100
AcDbEntity
  8
0
 62
     1
100
AcDbBlockEnd
  0
BLOCK
  5
30A5
330
30A4
100
AcDbEntity
  8
0
100
AcDbBlockBegin
  2
GENAXEH
 70
     0
 10
0.0
 20
0.0
 30
0.0
  3
GENAXEH
  1

  0
LINE
  5
FDB
330
30A4
100
AcDbEntity
  8
0
100
AcDbLine
 10
-1.0
 20
0.0
 30
0.0
 11
1.0
 21
0.0
 31
0.0
  0
ENDBLK
  5
FDD
330
30A4
100
AcDbEntity
  8
0
100
AcDbBlockEnd
  0
BLOCK
  5
30A7
330
30A6
100
AcDbEntity
  8
0
100
AcDbBlockBegin
  2
*U6
 70
     1
 10
0.0
 20
0.0
 30
0.0
  3
*U6
  1

  0
ENDBLK
  5
1ED4
330
30A6
100
AcDbEntity
  8
0
100
AcDbBlockEnd
  0
BLOCK
  5
30A9
330
30A8
100
AcDbEntity
  8
0
100
AcDbBlockBegin
  2
*D7
 70
     1
 10
0.0
 20
0.0
 30
0.0
  3
*D7
  1

  0
LINE
  5
2029
330
30A8
100
AcDbEntity
  8
SIZE
 62
     0
100
AcDbLine
 10
-135.5
 20
-449.4732256776551
 30
0.0
 11
-135.5
 21
-638.0173952306003
 31
0.0
  0
LINE
  5
202A
330
30A8
100
AcDbEntity
  8
SIZE
 62
     0
100
AcDbLine
 10
135.5
 20
-449.4732256776551
 30
0.0
 11
135.5
 21
-638.0173952306003
 31
0.0
  0
LINE
  5
202B
330
30A8
100
AcDbEntity
  8
SIZE
 62
     0
100
AcDbLine
 10
-123.5
 20
-618.0173952306001
 30
0.0
 11
123.5
 21
-618.0173952306001
 31
0.0
  0
INSERT
  5
202C
330
30A8
100
AcDbEntity
  8
SIZE
 62
     0
100
AcDbBlockReference
  2
_DOTBLANK
 10
-135.5
 20
-618.0173952306001
 30
0.0
 41
12.0
 42
12.0
 43
12.0
 50
180.0
  0
INSERT
  5
202D
330
30A8
100
AcDbEntity
  8
SIZE
 62
     0
100
AcDbBlockReference
  2
_DOTBLANK
 10
135.5
 20
-618.0173952306001
 30
0.0
 41
12.0
 42
12.0
 43
12.0
  0
INSERT
  5
202E
330
30A8
100
AcDbEntity
  8
0
100
AcDbBlockReference
  2
*U8
 10
0.0
 20
0.0
 30
0.0
  0
POINT
  5
202F
330
30A8
100
AcDbEntity
  8
DEFPOINTS
 62
     0
100
AcDbPoint
 10
-135.5
 20
-429.473225677655
 30
0.0
  0
POINT
  5
2030
330
30A8
100
AcDbEntity
  8
DEFPOINTS
 62
     0
100
AcDbPoint
 10
135.5
 20
-429.473225677655
 30
0.0
  0
POINT
  5
2031
330
30A8
100
AcDbEntity
  8
DEFPOINTS
 62
     0
100
AcDbPoint
 10
135.5
 20
-618.0173952306001
 30
0.0
  0
ENDBLK
  5
1FDF
330
30A8
100
AcDbEntity
  8
0
100
AcDbBlockEnd
  0
BLOCK
  5
30AB
330
30AA
100
AcDbEntity
  8
0
100
AcDbBlockBegin
  2
*U8
 70
     1
 10
0.0
 20
0.0
 30
0.0
  3
*U8
  1

  0
TEXT
  5
21A6
330
30AA
100
AcDbEntity
  8
SIZE
 62
     0
100
AcDbText
 10
-61.7142857142857
 20
-608.0173952306003
 30
0.0
 40
64.0
  1
271
 41
0.9
100
AcDbText
  0
ENDBLK
  5
21A8
330
30AA
100
AcDbEntity
  8
0
100
AcDbBlockEnd
  0
BLOCK
  5
30AD
330
30AC
100
AcDbEntity
  8
0
100
AcDbBlockBegin
  2
*D9
 70
     1
 10
0.0
 20
0.0
 30
0.0
  3
*D9
  1

  0
LINE
  5
2032
330
30AC
100
AcDbEntity
  8
SIZE
 62
     0
100
AcDbLine
 10
143.7000000000007
 20
-430.0
 30
0.0
 11
304.6432844803784
 21
-430.0
 31
0.0
  0
LINE
  5
2033
330
30AC
100
AcDbEntity
  8
SIZE
 62
     0
100
AcDbLine
 10
177.5
 20
-0.0000000000000057
 30
0.0
 11
304.6432844803785
 21
-0.0000000000000417
 31
0.0
  0
LINE
  5
2034
330
30AC
100
AcDbEntity
  8
SIZE
 62
     0
100
AcDbLine
 10
284.6432844803784
 20
-418.0
 30
0.0
 11
284.6432844803785
 21
-12.00000000000003
 31
0.0
  0
INSERT
  5
2035
330
30AC
100
AcDbEntity
  8
SIZE
 62
     0
100
AcDbBlockReference
  2
_DOTBLANK
 10
284.6432844803784
 20
-430.0
 30
0.0
 41
12.0
 42
12.0
 43
12.0
 50
270.0
  0
INSERT
  5
2036
330
30AC
100
AcDbEntity
  8
SIZE
 62
     0
100
AcDbBlockReference
  2
_DOTBLANK
 10
284.6432844803785
 20
-0.000000000000036
 30
0.0
 41
12.0
 42
12.0
 43
12.0
 50
90.0
  0
INSERT
  5
2037
330
30AC
100
AcDbEntity
  8
0
100
AcDbBlockReference
  2
*U10
 10
0.0
 20
0.0
 30
0.0
  0
POINT
  5
2038
330
30AC
100
AcDbEntity
  8
DEFPOINTS
 62
     0
100
AcDbPoint
 10
123.7000000000007
 20
-430.0
 30
0.0
  0
POINT
  5
2039
330
30AC
100
AcDbEntity
  8
DEFPOINTS
 62
     0
100
AcDbPoint
 10
157.5
 20
0.0
 30
0.0
  0
POINT
  5
203A
330
30AC
100
AcDbEntity
  8
DEFPOINTS
 62
     0
100
AcDbPoint
 10
284.6432844803785
 20
-0.000000000000036
 30
0.0
  0
ENDBLK
  5
1FEB
330
30AC
100
AcDbEntity
  8
0
100
AcDbBlockEnd
  0
BLOCK
  5
30AF
330
30AE
100
AcDbEntity
  8
0
100
AcDbBlockBegin
  2
*U10
 70
     1
 10
0.0
 20
0.0
 30
0.0
  3
*U10
  1

  0
TEXT
  5
21AA
330
30AE
100
AcDbEntity
  8
SIZE
 62
     0
100
AcDbText
 10
274.6432844803785
 20
-289.0571428571429
 30
0.0
 40
64.0
  1
430
 50
90.0
 41
0.9
100
AcDbText
  0
ENDBLK
  5
21AC
330
30AE
100
AcDbEntity
  8
0
100
AcDbBlockEnd
  0
BLOCK
  5
30B1
330
30B0
100
AcDbEntity
  8
0
100
AcDbBlockBegin
  2
*D11
 70
     1
 10
0.0
 20
0.0
 30
0.0
  3
*D11
  1

  0
LINE
  5
203B
330
30B0
100
AcDbEntity
  8
SIZE
 62
     0
100
AcDbLine
 10
-140.0
 20
32.5
 30
0.0
 11
-140.0
 21
136.4516878685499
 31
0.0
  0
LINE
  5
203C
330
30B0
100
AcDbEntity
  8
SIZE
 62
     0
100
AcDbLine
 10
140.0
 20
32.5
 30
0.0
 11
140.0
 21
136.4516878685499
 31
0.0
  0
LINE
  5
203D
330
30B0
100
AcDbEntity
  8
SIZE
 62
     0
100
AcDbLine
 10
-128.0
 20
116.4516878685499
 30
0.0
 11
128.0
 21
116.4516878685499
 31
0.0
  0
INSERT
  5
203E
330
30B0
100
AcDbEntity
  8
SIZE
 62
     0
100
AcDbBlockReference
  2
_DOTBLANK
 10
-140.0
 20
116.4516878685499
 30
0.0
 41
12.0
 42
12.0
 43
12.0
 50
180.0
  0
INSERT
  5
203F
330
30B0
100
AcDbEntity
  8
SIZE
 62
     0
100
AcDbBlockReference
  2
_DOTBLANK
 10
140.0
 20
116.4516878685499
 30
0.0
 41
12.0
 42
12.0
 43
12.0
  0
INSERT
  5
2040
330
30B0
100
AcDbEntity
  8
0
100
AcDbBlockReference
  2
*U12
 10
0.0
 20
0.0
 30
0.0
  0
POINT
  5
2041
330
30B0
100
AcDbEntity
  8
DEFPOINTS
 62
     0
100
AcDbPoint
 10
-140.0
 20
12.5
 30
0.0
  0
POINT
  5
2042
330
30B0
100
AcDbEntity
  8
DEFPOINTS
 62
     0
100
AcDbPoint
 10
140.0
 20
12.5
 30
0.0
  0
POINT
  5
2043
330
30B0
100
AcDbEntity
  8
DEFPOINTS
 62
     0
100
AcDbPoint
 10
140.0
 20
116.4516878685499
 30
0.0
  0
ENDBLK
  5
1FF7
330
30B0
100
AcDbEntity
  8
0
100
AcDbBlockEnd
  0
BLOCK
  5
30B3
330
30B2
100
AcDbEntity
  8
0
100
AcDbBlockBegin
  2
*U12
 70
     1
 10
0.0
 20
0.0
 30
0.0
  3
*U12
  1

  0
TEXT
  5
21AE
330
30B2
100
AcDbEntity
  8
SIZE
 62
     0
100
AcDbText
 10
-74.05714285714283
 20
126.4516878685499
 30
0.0
 40
64.0
  1
280
 41
0.9
100
AcDbText
  0
ENDBLK
  5
21B0
330
30B2
100
AcDbEntity
  8
0
100
AcDbBlockEnd
  0
BLOCK
  5
30B5
330
30B4
100
AcDbEntity
  8
0
100
AcDbBlockBegin
  2
*D13
 70
     1
 10
0.0
 20
0.0
 30
0.0
  3
*D13
  1

  0
LINE
  5
2044
330
30B4
100
AcDbEntity
  8
SIZE
 62
     0
100
AcDbLine
 10
-157.5
 20
20.0
 30
0.0
 11
-157.5
 21
245.5794621189598
 31
0.0
  0
LINE
  5
2045
330
30B4
100
AcDbEntity
  8
SIZE
 62
     0
100
AcDbLine
 10
157.5
 20
20.0
 30
0.0
 11
157.5
 21
245.5794621189598
 31
0.0
  0
LINE
  5
2046
330
30B4
100
AcDbEntity
  8
SIZE
 62
     0
100
AcDbLine
 10
-145.5
 20
225.5794621189598
 30
0.0
 11
145.5
 21
225.5794621189598
 31
0.0
  0
INSERT
  5
2047
330
30B4
100
AcDbEntity
  8
SIZE
 62
     0
100
AcDbBlockReference
  2
_DOTBLANK
 10
-157.5
 20
225.5794621189598
 30
0.0
 41
12.0
 42
12.0
 43
12.0
 50
180.0
  0
INSERT
  5
2048
330
30B4
100
AcDbEntity
  8
SIZE
 62
     0
100
AcDbBlockReference
  2
_DOTBLANK
 10
157.5
 20
225.5794621189598
 30
0.0
 41
12.0
 42
12.0
 43
12.0
  0
INSERT
  5
2049
330
30B4
100
AcDbEntity
  8
0
100
AcDbBlockReference
  2
*U14
 10
0.0
 20
0.0
 30
0.0
  0
POINT
  5
204A
330
30B4
100
AcDbEntity
  8
DEFPOINTS
 62
     0
100
AcDbPoint
 10
-157.5
 20
0.0
 30
0.0
  0
POINT
  5
204B
330
30B4
100
AcDbEntity
  8
DEFPOINTS
 62
     0
100
AcDbPoint
 10
157.5
 20
0.0
 30
0.0
  0
POINT
  5
204C
330
30B4
100
AcDbEntity
  8
DEFPOINTS
 62
     0
100
AcDbPoint
 10
157.5
 20
225.5794621189598
 30
0.0
  0
ENDBLK
  5
2003
330
30B4
100
AcDbEntity
  8
0
100
AcDbBlockEnd
  0
BLOCK
  5
30B7
330
30B6
100
AcDbEntity
  8
0
100
AcDbBlockBegin
  2
*U14
 70
     1
 10
0.0
 20
0.0
 30
0.0
  3
*U14
  1

  0
TEXT
  5
21B2
330
30B6
100
AcDbEntity
  8
SIZE
 62
     0
100
AcDbText
 10
-68.57142857142857
 20
235.5794621189598
 30
0.0
 40
64.0
  1
315
 41
0.9
100
AcDbText
  0
ENDBLK
  5
21B4
330
30B6
100
AcDbEntity
  8
0
100
AcDbBlockEnd
  0
BLOCK
  5
30B9
330
30B8
100
AcDbEntity
  8
0
100
AcDbBlockBegin
  2
*D15
 70
     1
 10
0.0
 20
0.0
 30
0.0
  3
*D15
  1

  0
LINE
  5
204D
330
30B8
100
AcDbEntity
  8
SIZE
 62
     0
100
AcDbLine
 10
-177.5
 20
0.0000000000000057
 30
0.0
 11
-219.7694545525301
 21
0.0000000000000176
 31
0.0
  0
LINE
  5
204E
330
30B8
100
AcDbEntity
  8
SIZE
 62
     0
100
AcDbLine
 10
-177.5
 20
-7.999999999999993
 30
0.0
 11
-219.7694545525301
 21
-7.999999999999982
 31
0.0
  0
LINE
  5
204F
330
30B8
100
AcDbEntity
  8
SIZE
 62
     0
100
AcDbLine
 10
-199.76945455253
 20
12.00000000000001
 30
0.0
 11
-199.76945455253
 21
24.00000000000001
 31
0.0
  0
LINE
  5
2050
330
30B8
100
AcDbEntity
  8
SIZE
 62
     0
100
AcDbLine
 10
-199.76945455253
 20
-19.99999999999999
 30
0.0
 11
-199.7694545525301
 21
-90.4
 31
0.0
  0
LINE
  5
2051
330
30B8
100
AcDbEntity
  8
SIZE
 62
     0
100
AcDbLine
 10
-199.76945455253
 20
0.000000000000012
 30
0.0
 11
-199.76945455253
 21
-7.999999999999985
 31
0.0
  0
INSERT
  5
2052
330
30B8
100
AcDbEntity
  8
SIZE
 62
     0
100
AcDbBlockReference
  2
_DOTBLANK
 10
-199.76945455253
 20
0.000000000000012
 30
0.0
 41
12.0
 42
12.0
 43
12.0
 50
270.0
  0
INSERT
  5
2053
330
30B8
100
AcDbEntity
  8
SIZE
 62
     0
100
AcDbBlockReference
  2
_DOTBLANK
 10
-199.76945455253
 20
-7.999999999999985
 30
0.0
 41
12.0
 42
12.0
 43
12.0
 50
90.0
  0
INSERT
  5
2054
330
30B8
100
AcDbEntity
  8
0
100
AcDbBlockReference
  2
*U16
 10
0.0
 20
0.0
 30
0.0
  0
POINT
  5
2055
330
30B8
100
AcDbEntity
  8
DEFPOINTS
 62
     0
100
AcDbPoint
 10
-157.5
 20
0.0
 30
0.0
  0
POINT
  5
2056
330
30B8
100
AcDbEntity
  8
DEFPOINTS
 62
     0
100
AcDbPoint
 10
-157.5
 20
-8.0
 30
0.0
  0
POINT
  5
2057
330
30B8
100
AcDbEntity
  8
DEFPOINTS
 62
     0
100
AcDbPoint
 10
-199.76945455253
 20
-7.999999999999985
 30
0.0
  0
ENDBLK
  5
200F
330
30B8
100
AcDbEntity
  8
0
100
AcDbBlockEnd
  0
BLOCK
  5
30BB
330
30BA
100
AcDbEntity
  8
0
100
AcDbBlockBegin
  2
*U16
 70
     1
 10
0.0
 20
0.0
 30
0.0
  3
*U16
  1

  0
TEXT
  5
21B6
330
30BA
100
AcDbEntity
  8
SIZE
 62
     0
100
AcDbText
 10
-209.7694545525301
 20
-80.4
 30
0.0
 40
64.0
  1
8
 50
90.0
 41
0.9
100
AcDbText
  0
ENDBLK
  5
21B8
330
30BA
100
AcDbEntity
  8
0
100
AcDbBlockEnd
  0
BLOCK
  5
30BD
330
30BC
100
AcDbEntity
  8
0
100
AcDbBlockBegin
  2
*D17
 70
     1
 10
0.0
 20
0.0
 30
0.0
  3
*D17
  1

  0
LINE
  5
2058
330
30BC
100
AcDbEntity
  8
SIZE
 62
     0
100
AcDbLine
 10
143.7000000000007
 20
-430.0
 30
0.0
 11
304.626441221626
 21
-430.0
 31
0.0
  0
LINE
  5
2059
330
30BC
100
AcDbEntity
  8
SIZE
 62
     0
100
AcDbLine
 10
143.1000000000022
 20
-441.0000000000001
 30
0.0
 11
304.626441221626
 21
-441.0000000000001
 31
0.0
  0
LINE
  5
205A
330
30BC
100
AcDbEntity
  8
SIZE
 62
     0
100
AcDbLine
 10
284.626441221626
 20
-418.0
 30
0.0
 11
284.626441221626
 21
-406.0
 31
0.0
  0
LINE
  5
205B
330
30BC
100
AcDbEntity
  8
SIZE
 62
     0
100
AcDbLine
 10
284.626441221626
 20
-453.0
 30
0.0
 11
284.626441221626
 21
-542.6000000000001
 31
0.0
  0
LINE
  5
205C
330
30BC
100
AcDbEntity
  8
SIZE
 62
     0
100
AcDbLine
 10
284.626441221626
 20
-430.0
 30
0.0
 11
284.626441221626
 21
-441.0000000000001
 31
0.0
  0
INSERT
  5
205D
330
30BC
100
AcDbEntity
  8
SIZE
 62
     0
100
AcDbBlockReference
  2
_DOTBLANK
 10
284.626441221626
 20
-430.0
 30
0.0
 41
12.0
 42
12.0
 43
12.0
 50
270.0
  0
INSERT
  5
205E
330
30BC
100
AcDbEntity
  8
SIZE
 62
     0
100
AcDbBlockReference
  2
_DOTBLANK
 10
284.626441221626
 20
-441.0000000000001
 30
0.0
 41
12.0
 42
12.0
 43
12.0
 50
90.0
  0
INSERT
  5
205F
330
30BC
100
AcDbEntity
  8
0
100
AcDbBlockReference
  2
*U18
 10
0.0
 20
0.0
 30
0.0
  0
POINT
  5
2060
330
30BC
100
AcDbEntity
  8
DEFPOINTS
 62
     0
100
AcDbPoint
 10
123.7000000000007
 20
-430.0
 30
0.0
  0
POINT
  5
2061
330
30BC
100
AcDbEntity
  8
DEFPOINTS
 62
     0
100
AcDbPoint
 10
123.1000000000022
 20
-441.0
 30
0.0
  0
POINT
  5
2062
330
30BC
100
AcDbEntity
  8
DEFPOINTS
 62
     0
100
AcDbPoint
 10
284.626441221626
 20
-441.0000000000001
 30
0.0
  0
ENDBLK
  5
201D
330
30BC
100
AcDbEntity
  8
0
100
AcDbBlockEnd
  0
BLOCK
  5
30BF
330
30BE
100
AcDbEntity
  8
0
100
AcDbBlockBegin
  2
*U18
 70
     1
 10
0.0
 20
0.0
 30
0.0
  3
*U18
  1

  0
TEXT
  5
21BA
330
30BE
100
AcDbEntity
  8
SIZE
 62
     0
100
AcDbText
 10
274.6264412216261
 20
-532.6
 30
0.0
 40
64.0
  1
11
 50
90.0
 41
0.9
100
AcDbText
  0
ENDBLK
  5
21BC
330
30BE
100
AcDbEntity
  8
0
100
AcDbBlockEnd
  0
BLOCK
  5
30C1
330
30C0
100
AcDbEntity
  8
0
100
AcDbBlockBegin
  2
*U19
 70
     1
 10
0.0
 20
0.0
 30
0.0
  3
*U19
  1

  0
INSERT
  5
2199
330
30C0
100
AcDbEntity
  8
NOTE
100
AcDbBlockReference
  2
_OPEN30
 10
-140.0
 20
0.0
 30
0.0
 41
12.0
 42
12.0
 43
12.0
 50
312.6090116116894
  0
POLYLINE
  5
219A
330
30C0
100
AcDbEntity
  8
NOTE
100
AcDb2dPolyline
 66
     1
 10
0.0
 20
0.0
 30
0.0
  0
VERTEX
  5
219B
330
219A
100
AcDbEntity
  8
NOTE
100
AcDbVertex
100
AcDb2dVertex
 10
-148.1239008361894
 20
8.831887408915472
 30
0.0
  0
VERTEX
  5
219C
330
219A
100
AcDbEntity
  8
NOTE
100
AcDbVertex
100
AcDb2dVertex
 10
-227.8693999922543
 20
95.5270950580134
 30
0.0
  0
VERTEX
  5
219D
330
219A
100
AcDbEntity
  8
NOTE
100
AcDbVertex
100
AcDb2dVertex
 10
-776.4522571351115
 20
95.5270950580134
 30
0.0
  0
SEQEND
  5
219E
330
219A
100
AcDbEntity
  8
NOTE
  0
ENDBLK
  5
21A0
330
30C0
100
AcDbEntity
  8
0
100
AcDbBlockEnd
  0
BLOCK
  5
30C3
330
30C2
100
AcDbEntity
  8
0
100
AcDbBlockBegin
  2
*U20
 70
     1
 10
0.0
 20
0.0
 30
0.0
  3
*U20
  1

  0
TEXT
  5
21A2
330
30C2
100
AcDbEntity
  8
NOTE
100
AcDbText
 10
-773.7093999922541
 20
113.5270950580134
 30
0.0
 40
64.0
  1
4×φ10取付穴
 41
0.9
100
AcDbText
  0
ENDBLK
  5
21A4
330
30C2
100
AcDbEntity
  8
0
100
AcDbBlockEnd
  0
BLOCK
  5
30C5
330
30C4
100
AcDbEntity
  8
0
100
AcDbBlockBegin
  2
*U21
 70
     1
 10
0.0
 20
0.0
 30
0.0
  3
*U21
  1

  0
POLYLINE
  5
2706
330
30C4
100
AcDbEntity
  8
NOTE
100
AcDb2dPolyline
 66
     1
 10
0.0
 20
0.0
 30
0.0
  0
VERTEX
  5
2707
330
2706
100
AcDbEntity
  8
NOTE
100
AcDbVertex
100
AcDb2dVertex
 10
560.81428561626
 20
788.4870806964439
 30
0.0
  0
VERTEX
  5
2708
330
2706
100
AcDbEntity
  8
NOTE
100
AcDbVertex
100
AcDb2dVertex
 10
652.0119765085743
 20
875.7195111267567
 30
0.0
  0
SEQEND
  5
2709
330
2706
100
AcDbEntity
  8
NOTE
  0
ENDBLK
  5
270B
330
30C4
100
AcDbEntity
  8
0
100
AcDbBlockEnd
  0
BLOCK
  5
30C7
330
30C6
100
AcDbEntity
  8
0
100
AcDbBlockBegin
  2
*U22
 70
     1
 10
0.0
 20
0.0
 30
0.0
  3
*U22
  1

  0
INSERT
  5
270D
330
30C6
100
AcDbEntity
  8
NOTE
100
AcDbBlockReference
  2
_OPEN30
 10
0.0
 20
139.9999999999998
 30
0.0
 41
12.0
 42
12.0
 43
12.0
 50
223.7269229107866
  0
POLYLINE
  5
270E
330
30C6
100
AcDbEntity
  8
NOTE
100
AcDb2dPolyline
 66
     1
 10
0.0
 20
0.0
 30
0.0
  0
VERTEX
  5
270F
330
270E
100
AcDbEntity
  8
NOTE
100
AcDbVertex
100
AcDb2dVertex
 10
8.671709099939857
 20
148.2946646277001
 30
0.0
  0
VERTEX
  5
2710
330
270E
100
AcDbEntity
  8
NOTE
100
AcDbVertex
100
AcDb2dVertex
 10
99.86939999225436
 20
235.5270950580129
 30
0.0
  0
SEQEND
  5
2711
330
270E
100
AcDbEntity
  8
NOTE
  0
ENDBLK
  5
2713
330
30C6
100
AcDbEntity
  8
0
100
AcDbBlockEnd
  0
BLOCK
  5
30C9
330
30C8
100
AcDbEntity
  8
0
100
AcDbBlockBegin
  2
*U23
 70
     1
 10
0.0
 20
0.0
 30
0.0
  3
*U23
  1

  0
POLYLINE
  5
2A5D
330
30C8
100
AcDbEntity
  8
NOTE
100
AcDb2dPolyline
 66
     1
 10
0.0
 20
0.0
 30
0.0
  0
VERTEX
  5
2A5E
330
2A5D
100
AcDbEntity
  8
NOTE
100
AcDbVertex
100
AcDb2dVertex
 10
559.4766098002649
 20
789.6904135308401
 30
0.0
  0
VERTEX
  5
2A5F
330
2A5D
100
AcDbEntity
  8
NOTE
100
AcDbVertex
100
AcDb2dVertex
 10
625.9053773035279
 20
875.7195111267567
 30
0.0
  0
VERTEX
  5
2A60
330
2A5D
100
AcDbEntity
  8
NOTE
100
AcDbVertex
100
AcDb2dVertex
 10
1174.488234446384
 20
875.7195111267567
 30
0.0
  0
SEQEND
  5
2A61
330
2A5D
100
AcDbEntity
  8
NOTE
  0
ENDBLK
  5
2A63
330
30C8
100
AcDbEntity
  8
0
100
AcDbBlockEnd
  0
BLOCK
  5
30CB
330
30CA
100
AcDbEntity
  8
0
100
AcDbBlockBegin
  2
*U24
 70
     1
 10
0.0
 20
0.0
 30
0.0
  3
*U24
  1

  0
INSERT
  5
2A65
330
30CA
100
AcDbEntity
  8
NOTE
100
AcDbBlockReference
  2
_OPEN30
 10
0.0
 20
140.0000000000002
 30
0.0
 41
12.0
 42
12.0
 43
12.0
 50
232.3258907693335
  0
POLYLINE
  5
2A66
330
30CA
100
AcDbEntity
  8
NOTE
100
AcDb2dPolyline
 66
     1
 10
0.0
 20
0.0
 30
0.0
  0
VERTEX
  5
2A67
330
2A66
100
AcDbEntity
  8
NOTE
100
AcDbVertex
100
AcDb2dVertex
 10
7.334033283944799
 20
149.4979974620966
 30
0.0
  0
VERTEX
  5
2A68
330
2A66
100
AcDbEntity
  8
NOTE
100
AcDbVertex
100
AcDb2dVertex
 10
73.76280078720809
 20
235.5270950580132
 30
0.0
  0
VERTEX
  5
2A69
330
2A66
100
AcDbEntity
  8
NOTE
100
AcDbVertex
100
AcDb2dVertex
 10
622.3456579300652
 20
235.5270950580132
 30
0.0
  0
SEQEND
  5
2A6A
330
2A66
100
AcDbEntity
  8
NOTE
  0
ENDBLK
  5
2A6C
330
30CA
100
AcDbEntity
  8
0
100
AcDbBlockEnd
  0
ENDSEC
  0
SECTION
  2
ENTITIES
  0
TEXT
  5
953
330
304B
100
AcDbEntity
  8
OUTLINE
  6
Continuous
 62
     3
100
AcDbText
 10
-418.231467
 20
13.715189
 30
0.0
 40
64.0
  1
 
 41
0.9
100
AcDbText
  0
TEXT
  5
954
330
304B
100
AcDbEntity
  8
OUTLINE
  6
Continuous
 62
     3
100
AcDbText
 10
-418.231467
 20
13.715189
 30
0.0
 40
64.0
  1
 
 41
0.9
100
AcDbText
  0
TEXT
  5
955
330
304B
100
AcDbEntity
  8
OUTLINE
  6
Continuous
 62
     3
100
AcDbText
 10
1341.41903
 20
-706.0588199999997
 30
0.0
 40
64.0
  1
 
 41
0.9
100
AcDbText
  0
TEXT
  5
956
330
304B
100
AcDbEntity
  8
OUTLINE
  6
Continuous
 62
     3
100
AcDbText
 10
1341.41903
 20
-706.0588199999997
 30
0.0
 40
64.0
  1
 
 41
0.9
100
AcDbText
  0
TEXT
  5
957
330
304B
100
AcDbEntity
  8
OUTLINE
  6
Continuous
 62
     3
100
AcDbText
 10
1341.41903
 20
-706.0588199999997
 30
0.0
 40
64.0
  1
 
 41
0.9
100
AcDbText
  0
TEXT
  5
958
330
304B
100
AcDbEntity
  8
OUTLINE
  6
Continuous
 62
     3
100
AcDbText
 10
1341.41903
 20
-706.0588199999997
 30
0.0
 40
64.0
  1
 
 41
0.9
100
AcDbText
  0
TEXT
  5
2CE7
330
304B
100
AcDbEntity
  8
ETC
100
AcDbText
 10
591.3355508898712
 20
607.083282707204
 30
0.0
 40
64.0
  1
システム部材
 41
0.9
100
AcDbText
  0
TEXT
  5
2CE8
330
304B
100
AcDbEntity
  8
ETC
100
AcDbText
 10
597.5435488898693
 20
707.966608707205
 30
0.0
 40
64.0
  1
QWH-30SAM_5
 41
0.9
100
AcDbText
  0
TEXT
  5
2CE9
330
304B
100
AcDbEntity
  8
ETC
100
AcDbText
 10
597.5435488898693
 20
507.9666087072048
 30
0.0
 40
64.0
  1
QWH-30SAM
 41
0.9
100
AcDbText
  0
CIRCLE
  5
2CEA
330
304B
100
AcDbEntity
  8
ARRANGE
100
AcDbCircle
 39
50.0
 10
0.0
 20
0.0000000000002274
 30
0.0
 40
40.0
  0
POINT
  5
2CEB
330
304B
100
AcDbEntity
  8
ARRANGE
100
AcDbPoint
 10
0.0
 20
0.0000000000002274
 30
0.0
 39
50.0
 50
180.0
  0
LINE
  5
2CEC
330
304B
100
AcDbEntity
  8
SIZE
100
AcDbLine
 10
-32.5
 20
-189.9999999999994
 30
0.0
 11
-393.3825527012014
 21
-189.9999999999994
 31
0.0
  0
LINE
  5
2CED
330
304B
100
AcDbEntity
  8
SIZE
100
AcDbLine
 10
-32.5
 20
190.0000000000004
 30
0.0
 11
-393.3825527012014
 21
190.0000000000004
 31
0.0
  0
LINE
  5
2CEE
330
304B
100
AcDbEntity
  8
SIZE
100
AcDbLine
 10
-373.3825527012012
 20
-177.9999999999994
 30
0.0
 11
-373.3825527012012
 21
178.0000000000006
 31
0.0
  0
INSERT
  5
2CEF
330
304B
100
AcDbEntity
  8
SIZE
100
AcDbBlockReference
  2
_DOTBLANK
 10
-373.3825527012012
 20
-189.9999999999994
 30
0.0
 41
12.0
 42
12.0
 43
12.0
 50
270.0
  0
INSERT
  5
2CF0
330
304B
100
AcDbEntity
  8
SIZE
100
AcDbBlockReference
  2
_DOTBLANK
 10
-373.3825527012012
 20
190.0000000000004
 30
0.0
 41
12.0
 42
12.0
 43
12.0
 50
90.0
  0
TEXT
  5
2CF1
330
304B
100
AcDbEntity
  8
SIZE
100
AcDbText
 10
-383.3825527012012
 20
-74.05714285714555
 30
0.0
 40
64.0
  1
380
 50
90.0
 41
0.9
100
AcDbText
  0
LINE
  5
2CF2
330
304B
100
AcDbEntity
  8
BASIS
100
AcDbLine
 39
50.0
 10
-25.0
 20
0.0
 30
0.0
 11
560.0
 21
0.0000000000002274
 31
0.0
  0
LINE
  5
2CF3
330
304B
100
AcDbEntity
  8
SIZE
100
AcDbLine
 10
535.0
 20
-483.4999999999993
 30
0.0
 11
535.0
 21
-594.9401438257705
 31
0.0
  0
LINE
  5
2CF4
330
304B
100
AcDbEntity
  8
SIZE
100
AcDbLine
 10
135.0
 20
-435.4999999999995
 30
0.0
 11
135.0
 21
-594.9401438257705
 31
0.0
  0
LINE
  5
2CF5
330
304B
100
AcDbEntity
  8
SIZE
100
AcDbLine
 10
523.0
 20
-574.9401438257705
 30
0.0
 11
147.0
 21
-574.9401438257705
 31
0.0
  0
INSERT
  5
2CF6
330
304B
100
AcDbEntity
  8
SIZE
100
AcDbBlockReference
  2
_DOTBLANK
 10
535.0
 20
-574.9401438257705
 30
0.0
 41
12.0
 42
12.0
 43
12.0
  0
INSERT
  5
2CF7
330
304B
100
AcDbEntity
  8
SIZE
100
AcDbBlockReference
  2
_DOTBLANK
 10
135.0
 20
-574.9401438257705
 30
0.0
 41
12.0
 42
12.0
 43
12.0
 50
180.0
  0
TEXT
  5
2CF8
330
304B
100
AcDbEntity
  8
SIZE
100
AcDbText
 10
273.5527761513176
 20
-564.9401438257703
 30
0.0
 40
64.0
  1
400
 41
0.9
100
AcDbText
  0
LINE
  5
2CF9
330
304B
100
AcDbEntity
  8
SIZE
100
AcDbLine
 10
535.0
 20
-483.4999999999993
 30
0.0
 11
535.0
 21
-758.157955625531
 31
0.0
  0
LINE
  5
2CFA
330
304B
100
AcDbEntity
  8
SIZE
100
AcDbLine
 10
0.0
 20
-348.4999999999998
 30
0.0
 11
0.0
 21
-758.157955625531
 31
0.0
  0
LINE
  5
2CFB
330
304B
100
AcDbEntity
  8
SIZE
100
AcDbLine
 10
523.0
 20
-738.157955625531
 30
0.0
 11
12.0
 21
-738.157955625531
 31
0.0
  0
INSERT
  5
2CFC
330
304B
100
AcDbEntity
  8
SIZE
100
AcDbBlockReference
  2
_DOTBLANK
 10
535.0
 20
-738.157955625531
 30
0.0
 41
12.0
 42
12.0
 43
12.0
  0
INSERT
  5
2CFD
330
304B
100
AcDbEntity
  8
SIZE
100
AcDbBlockReference
  2
_DOTBLANK
 10
0.0
 20
-738.157955625531
 30
0.0
 41
12.0
 42
12.0
 43
12.0
 50
180.0
  0
TEXT
  5
2CFE
330
304B
100
AcDbEntity
  8
SIZE
100
AcDbText
 10
204.3415882071449
 20
-728.157955625531
 30
0.0
 40
64.0
  1
535
 41
0.9
100
AcDbText
  0
LINE
  5
2CFF
330
304B
100
AcDbEntity
  8
NOTE
100
AcDbLine
 10
12.5
 20
-189.9999999999994
 30
0.0
 11
-12.5
 21
-189.9999999999994
 31
0.0
  0
LINE
  5
2D00
330
304B
100
AcDbEntity
  8
NOTE
100
AcDbLine
 10
-12.5
 20
190.0000000000004
 30
0.0
 11
12.5
 21
190.0000000000004
 31
0.0
  0
LINE
  5
2D01
330
304B
100
AcDbEntity
  8
SIZE
100
AcDbLine
 10
0.0
 20
-227.4999999999998
 30
0.0
 11
0.0
 21
-526.9247430145378
 31
0.0
  0
LINE
  5
2D02
330
304B
100
AcDbEntity
  8
SIZE
100
AcDbLine
 10
122.0
 20
-434.4151805415856
 30
0.0
 11
122.0
 21
-526.9247430145378
 31
0.0
  0
LINE
  5
2D03
330
304B
100
AcDbEntity
  8
SIZE
100
AcDbLine
 10
110.0
 20
-506.9247430145376
 30
0.0
 11
12.0
 21
-506.9247430145376
 31
0.0
  0
LINE
  5
2D04
330
304B
100
AcDbEntity
  8
SIZE
100
AcDbLine
 10
0.0
 20
-506.9247430145376
 30
0.0
 11
-170.5142857142869
 21
-506.9247430145376
 31
0.0
  0
INSERT
  5
2D05
330
304B
100
AcDbEntity
  8
SIZE
100
AcDbBlockReference
  2
_DOTBLANK
 10
122.0
 20
-506.9247430145376
 30
0.0
 41
12.0
 42
12.0
 43
12.0
  0
INSERT
  5
2D06
330
304B
100
AcDbEntity
  8
SIZE
100
AcDbBlockReference
  2
_DOTBLANK
 10
0.0
 20
-506.9247430145376
 30
0.0
 41
12.0
 42
12.0
 43
12.0
 50
180.0
  0
TEXT
  5
2D07
330
304B
100
AcDbEntity
  8
SIZE
100
AcDbText
 10
-160.5142857142868
 20
-496.9247430145379
 30
0.0
 40
64.0
  1
122
 41
0.9
100
AcDbText
  0
LINE
  5
2D08
330
304B
100
AcDbEntity
  8
SIZE
100
AcDbLine
 10
535.0
 20
-483.4999999999993
 30
0.0
 11
535.0
 21
-758.157955625531
 31
0.0
  0
LINE
  5
2D09
330
304B
100
AcDbEntity
  8
SIZE
100
AcDbLine
 10
546.0
 20
-484.0999999999996
 30
0.0
 11
546.0
 21
-758.157955625531
 31
0.0
  0
LINE
  5
2D0A
330
304B
100
AcDbEntity
  8
SIZE
100
AcDbLine
 10
523.0
 20
-738.157955625531
 30
0.0
 11
511.0
 21
-738.157955625531
 31
0.0
  0
LINE
  5
2D0B
330
304B
100
AcDbEntity
  8
SIZE
100
AcDbLine
 10
558.0
 20
-738.157955625531
 30
0.0
 11
653.0857142857135
 21
-738.157955625531
 31
0.0
  0
LINE
  5
2D0C
330
304B
100
AcDbEntity
  8
SIZE
100
AcDbLine
 10
535.0
 20
-738.157955625531
 30
0.0
 11
546.0
 21
-738.157955625531
 31
0.0
  0
INSERT
  5
2D0D
330
304B
100
AcDbEntity
  8
SIZE
100
AcDbBlockReference
  2
_DOTBLANK
 10
535.0
 20
-738.157955625531
 30
0.0
 41
12.0
 42
12.0
 43
12.0
  0
INSERT
  5
2D0E
330
304B
100
AcDbEntity
  8
SIZE
100
AcDbBlockReference
  2
_DOTBLANK
 10
546.0
 20
-738.157955625531
 30
0.0
 41
12.0
 42
12.0
 43
12.0
 50
180.0
  0
TEXT
  5
2D0F
330
304B
100
AcDbEntity
  8
SIZE
100
AcDbText
 10
585.4857142857134
 20
-728.157955625531
 30
0.0
 40
64.0
  1
11
 41
0.9
100
AcDbText
  0
LINE
  5
2D10
330
304B
100
AcDbEntity
  8
DETAIL
100
AcDbLine
 10
534.3999999999978
 20
-464.0999999999997
 30
0.0
 11
534.3207258915608
 21
-464.0902544849166
 31
0.0
  0
LINE
  5
2D11
330
304B
100
AcDbEntity
  8
DETAIL
100
AcDbLine
 10
534.4732095126196
 20
-463.5044831091711
 30
0.0
 11
534.3999999999978
 21
-464.0999999999997
 31
0.0
  0
LINE
  5
2D12
330
304B
100
AcDbEntity
  8
DETAIL
100
AcDbLine
 10
534.3938766320316
 20
-463.4947303689683
 30
0.0
 11
534.4732095126196
 21
-463.5044831091705
 31
0.0
  0
LINE
  5
2D13
330
304B
100
AcDbEntity
  8
DETAIL
100
AcDbLine
 10
0.0
 20
-207.4999999999998
 30
0.0
 11
0.0
 21
207.5
 31
0.0
  0
LINE
  5
2D14
330
304B
100
AcDbEntity
  8
DETAIL
100
AcDbLine
 10
8.0
 20
-207.4999999999998
 30
0.0
 11
8.0
 21
207.5
 31
0.0
  0
LINE
  5
2D15
330
304B
100
AcDbEntity
  8
DETAIL
100
AcDbLine
 10
8.0
 20
173.0999999999999
 30
0.0
 11
123.3999999999978
 21
173.0999999999999
 31
0.0
  0
LINE
  5
2D16
330
304B
100
AcDbEntity
  8
DETAIL
100
AcDbLine
 10
535.0
 20
-238.4999999999998
 30
0.0
 11
535.0
 21
-458.0276855673951
 31
0.0
  0
LINE
  5
2D17
330
304B
100
AcDbEntity
  8
DETAIL
100
AcDbLine
 10
535.0
 20
-458.5602474018465
 30
0.0
 11
535.0
 21
-463.4999999999991
 31
0.0
  0
LINE
  5
2D18
330
304B
100
AcDbEntity
  8
DETAIL
100
AcDbLine
 10
535.0
 20
-463.4999999999995
 30
0.0
 11
534.4367420217199
 21
-463.4999999999995
 31
0.0
  0
LINE
  5
2D19
330
304B
100
AcDbEntity
  8
DETAIL
100
AcDbLine
 10
546.0
 20
-464.0999999999997
 30
0.0
 11
534.3999999999978
 21
-464.0999999999997
 31
0.0
  0
LINE
  5
2D1A
330
304B
100
AcDbEntity
  8
DETAIL
100
AcDbLine
 10
535.0
 20
-463.4999999999995
 30
0.0
 11
545.3999999999978
 21
-463.4999999999995
 31
0.0
  0
LINE
  5
2D1B
330
304B
100
AcDbEntity
  8
DETAIL
100
AcDbLine
 10
545.3999999999978
 20
-463.4999999999995
 30
0.0
 11
545.3999999999978
 21
-457.0999999999997
 31
0.0
  0
LINE
  5
2D1C
330
304B
100
AcDbEntity
  8
DETAIL
100
AcDbLine
 10
545.3999999999978
 20
-457.0999999999997
 30
0.0
 11
546.0
 21
-457.0999999999997
 31
0.0
  0
LINE
  5
2D1D
330
304B
100
AcDbEntity
  8
DETAIL
100
AcDbLine
 10
545.3999999999978
 20
-452.0999999999997
 30
0.0
 11
545.3999999999978
 21
-457.0999999999997
 31
0.0
  0
LINE
  5
2D1E
330
304B
100
AcDbEntity
  8
DETAIL
100
AcDbLine
 10
546.0
 20
-452.0999999999997
 30
0.0
 11
545.3999999999978
 21
-452.0999999999997
 31
0.0
  0
LINE
  5
2D1F
330
304B
100
AcDbEntity
  8
DETAIL
100
AcDbLine
 10
546.0
 20
-457.0999999999997
 30
0.0
 11
546.0
 21
-464.0999999999997
 31
0.0
  0
LINE
  5
2D20
330
304B
100
AcDbEntity
  8
DETAIL
100
AcDbLine
 10
546.0
 20
-457.0999999999997
 30
0.0
 11
546.0
 21
-452.0999999999997
 31
0.0
  0
ARC
  5
2D21
330
304B
100
AcDbEntity
  8
DETAIL
100
AcDbCircle
 10
123.3999999999978
 20
-238.4999999999998
 30
0.0
 40
411.5999999999998
100
AcDbArc
 50
0.0
 51
90.0
  0
LINE
  5
2D22
330
304B
100
AcDbEntity
  8
DETAIL
100
AcDbLine
 10
134.3999999999978
 20
-403.8481343300989
 30
0.0
 11
134.3999999999978
 21
-207.7485281374236
 31
0.0
  0
LINE
  5
2D23
330
304B
100
AcDbEntity
  8
DETAIL
100
AcDbLine
 10
99.75147186257892
 20
-173.0999999999997
 30
0.0
 11
8.0
 21
-173.0999999999997
 31
0.0
  0
LINE
  5
2D24
330
304B
100
AcDbEntity
  8
DETAIL
100
AcDbLine
 10
134.3999999999978
 20
-207.7485281374241
 30
0.0
 11
99.7514718625753
 21
-173.1000000000001
 31
0.0
  0
LINE
  5
2D25
330
304B
100
AcDbEntity
  8
DETAIL
100
AcDbLine
 10
534.1997153113693
 20
-465.0754081324505
 30
0.0
 11
534.3999999999978
 21
-465.0999999999997
 31
0.0
  0
LINE
  5
2D26
330
304B
100
AcDbEntity
  8
DETAIL
100
AcDbLine
 10
534.3999999999978
 20
-465.0999999999997
 30
0.0
 11
534.3999999999978
 21
-464.0999999999997
 31
0.0
  0
LINE
  5
2D27
330
304B
100
AcDbEntity
  8
DETAIL
100
AcDbLine
 10
0.0
 20
-207.4999999999998
 30
0.0
 11
8.0
 21
-207.4999999999998
 31
0.0
  0
LINE
  5
2D28
330
304B
100
AcDbEntity
  8
DETAIL
100
AcDbLine
 10
0.0
 20
207.5000000000005
 30
0.0
 11
8.0
 21
207.5000000000005
 31
0.0
  0
LINE
  5
2D29
330
304B
100
AcDbEntity
  8
DETAIL
100
AcDbLine
 10
122.0
 20
-414.4151805415856
 30
0.0
 11
123.4630148022078
 21
-402.5046982806308
 31
0.0
  0
LINE
  5
2D2A
330
304B
100
AcDbEntity
  8
DETAIL
100
AcDbLine
 10
123.4630148022078
 20
-402.5046982806309
 30
0.0
 11
530.7034170371953
 21
-452.5277555736817
 31
0.0
  0
LINE
  5
2D2B
330
304B
100
AcDbEntity
  8
DETAIL
100
AcDbLine
 10
122.0
 20
-414.4151805415856
 30
0.0
 11
534.2031031770492
 21
-465.0478273355572
 31
0.0
  0
LINE
  5
2D2C
330
304B
100
AcDbEntity
  8
DETAIL
100
AcDbLine
 10
534.2031031770492
 20
-465.0478273355576
 30
0.0
 11
535.0565284783406
 21
-458.1000460166674
 31
0.0
  0
LINE
  5
2D2D
330
304B
100
AcDbEntity
  8
DETAIL
100
AcDbLine
 10
530.7034170371953
 20
-452.5277555736821
 30
0.0
 11
535.0565284783406
 21
-458.1000460166674
 31
0.0
  0
LINE
  5
2D2E
330
304B
100
AcDbEntity
  8
DETAIL
100
AcDbLine
 10
134.0978075386374
 20
-421.7447973942545
 30
0.0
 11
134.7073970395577
 21
-416.7820964521903
 31
0.0
  0
LINE
  5
2D2F
330
304B
100
AcDbEntity
  8
OUTLINE
100
AcDbLine
 10
147.9933701764203
 20
-423.4516479968326
 30
0.0
 11
134.0978075386374
 21
-421.7447973942545
 31
0.0
  0
LINE
  5
2D30
330
304B
100
AcDbEntity
  8
DETAIL
100
AcDbLine
 10
534.1055688569062
 20
-465.841859486288
 30
0.0
 11
533.5333897987433
 21
-470.5
 31
0.0
  0
LINE
  5
2D31
330
304B
100
AcDbEntity
  8
DETAIL
100
AcDbLine
 10
134.7073970395613
 20
-416.7820964521903
 30
0.0
 11
134.097807538641
 21
-421.7447973942551
 31
0.0
  0
LINE
  5
2D32
330
304B
100
AcDbEntity
  8
DETAIL
100
AcDbLine
 10
534.2031031770492
 20
-465.0478273355576
 30
0.0
 11
534.1055688569031
 21
-465.841859486288
 31
0.0
  0
LINE
  5
2D33
330
304B
100
AcDbEntity
  8
DETAIL
100
AcDbLine
 10
534.1055688569062
 20
-465.841859486288
 30
0.0
 11
134.7073970395613
 21
-416.7820964521903
 31
0.0
  0
LINE
  5
2D34
330
304B
100
AcDbEntity
  8
DETAIL
100
AcDbLine
 10
134.8049313597039
 20
-415.98806430146
 30
0.0
 11
134.7073970395613
 21
-416.7820964521903
 31
0.0
  0
LINE
  5
2D35
330
304B
100
AcDbEntity
  8
DETAIL
100
AcDbLine
 10
534.2031031770492
 20
-465.0478273355576
 30
0.0
 11
134.8049313597039
 21
-415.98806430146
 31
0.0
  0
LINE
  5
2D36
330
304B
100
AcDbEntity
  8
DETAIL
100
AcDbLine
 10
533.5333897987433
 20
-470.5
 30
0.0
 11
134.0978075386374
 21
-421.7447973942551
 31
0.0
  0
LINE
  5
2D37
330
304B
100
AcDbEntity
  8
OUTLINE
100
AcDbLine
 10
133.841731215467
 20
-415.8740466228834
 30
0.0
 11
134.0096559150952
 21
-415.9006517037393
 31
0.0
  0
LINE
  5
2D38
330
304B
100
AcDbEntity
  8
NOTE
100
AcDbLine
 39
50.0
 10
0.0
 20
-177.4999999999994
 30
0.0
 11
0.0
 21
-202.4999999999995
 31
0.0
  0
LINE
  5
2D39
330
304B
100
AcDbEntity
  8
NOTE
100
AcDbLine
 39
50.0
 10
0.0
 20
202.5000000000005
 30
0.0
 11
0.0
 21
177.5000000000004
 31
0.0
  0
LINE
  5
2D3A
330
304B
100
AcDbEntity
  8
OUTLINE
100
AcDbLine
 39
50.0
 10
0.0
 20
207.5
 30
0.0
 11
0.0
 21
-207.4999999999998
 31
0.0
  0
INSERT
  5
2D3B
330
304B
100
AcDbEntity
  8
NOTE
100
AcDbBlockReference
  2
_OPEN30
 10
0.0
 20
190.0000000000004
 30
0.0
 41
11.99999999999998
 42
12.0
 43
12.0
 50
227.3909883883106
1001
ACAD
1000
DSTYLE
1002
{
1070
    41
1040
12.0
1070
    42
1040
20.0
1070
    43
1040
200.0
1070
    44
1040
20.0
1070
    73
1070
     0
1070
    74
1070
     0
1070
    77
1070
     1
1070
    78
1070
     8
1070
   140
1040
64.0
1070
   147
1040
50.0
1070
   172
1070
     1
1070
   174
1070
     1
1070
   275
1070
     0
1070
   284
1070
     0
1070
   285
1070
     0
1070
   286
1070
     0
1070
   341
1005
2B34
1070
   342
1005
2B32
1002
}
  0
POLYLINE
  5
2D3C
330
304B
100
AcDbEntity
  8
NOTE
100
AcDb2dPolyline
 66
     1
 10
0.0
 20
0.0
 30
0.0
1001
ACAD
1000
DSTYLE
1002
{
1070
    41
1040
12.0
1070
    42
1040
20.0
1070
    43
1040
200.0
1070
    44
1040
20.0
1070
    73
1070
     0
1070
    74
1070
     0
1070
    77
1070
     1
1070
    78
1070
     8
1070
   140
1040
64.0
1070
   147
1040
50.0
1070
   172
1070
     1
1070
   174
1070
     1
1070
   275
1070
     0
1070
   284
1070
     0
1070
   285
1070
     0
1070
   286
1070
     0
1070
   341
1005
2B34
1070
   342
1005
2B32
1002
}
  0
VERTEX
  5
2DC3
330
2D3C
100
AcDbEntity
  8
NOTE
100
AcDbVertex
100
AcDb2dVertex
 10
8.123900836189024
 20
198.8318874089158
 30
0.0
  0
VERTEX
  5
2DC4
330
2D3C
100
AcDbEntity
  8
NOTE
100
AcDbVertex
100
AcDb2dVertex
 10
87.86939999225433
 20
285.5270950580134
 30
0.0
  0
VERTEX
  5
2DC5
330
2D3C
100
AcDbEntity
  8
NOTE
100
AcDbVertex
100
AcDb2dVertex
 10
633.7093999922545
 20
285.5270950580134
 30
0.0
  0
SEQEND
  5
2DC6
330
2D3C
100
AcDbEntity
  8
NOTE
  0
TEXT
  5
2D3D
330
304B
100
AcDbEntity
  8
NOTE
100
AcDbText
 10
149.8693999922543
 20
303.5270950580134
 30
0.0
 40
64.0
  1
4×φ10取付穴
 41
0.9
100
AcDbText
  0
LINE
  5
2D3E
330
304B
100
AcDbEntity
  8
SIZE
100
AcDbLine
 10
8.0
 20
227.5000000000005
 30
0.0
 11
8.0
 21
308.6776441223616
 31
0.0
  0
LINE
  5
2D3F
330
304B
100
AcDbEntity
  8
SIZE
100
AcDbLine
 10
0.0
 20
227.5
 30
0.0
 11
0.0
 21
308.6776441223616
 31
0.0
  0
LINE
  5
2D40
330
304B
100
AcDbEntity
  8
SIZE
100
AcDbLine
 10
20.0
 20
288.6776441223616
 30
0.0
 11
32.0
 21
288.6776441223616
 31
0.0
  0
LINE
  5
2D41
330
304B
100
AcDbEntity
  8
SIZE
100
AcDbLine
 10
-12.0
 20
288.6776441223616
 30
0.0
 11
-82.40000000000099
 21
288.6776441223616
 31
0.0
  0
LINE
  5
2D42
330
304B
100
AcDbEntity
  8
SIZE
100
AcDbLine
 10
8.0
 20
288.6776441223616
 30
0.0
 11
0.0
 21
288.6776441223616
 31
0.0
  0
INSERT
  5
2D43
330
304B
100
AcDbEntity
  8
SIZE
100
AcDbBlockReference
  2
_DOTBLANK
 10
8.0
 20
288.6776441223616
 30
0.0
 41
12.0
 42
12.0
 43
12.0
 50
180.0
  0
INSERT
  5
2D44
330
304B
100
AcDbEntity
  8
SIZE
100
AcDbBlockReference
  2
_DOTBLANK
 10
0.0
 20
288.6776441223616
 30
0.0
 41
12.0
 42
12.0
 43
12.0
  0
TEXT
  5
2D45
330
304B
100
AcDbEntity
  8
SIZE
100
AcDbText
 10
-72.400000000001
 20
298.6776441223616
 30
0.0
 40
64.0
  1
8
 41
0.9
100
AcDbText
  0
LINE
  5
2D46
330
304B
100
AcDbEntity
  8
SIZE
100
AcDbLine
 10
-20.0
 20
172.5000000000004
 30
0.0
 11
-276.1257113692117
 21
172.5000000000004
 31
0.0
  0
LINE
  5
2D47
330
304B
100
AcDbEntity
  8
SIZE
100
AcDbLine
 10
-20.0
 20
-172.4999999999998
 30
0.0
 11
-276.125711369212
 21
-172.4999999999996
 31
0.0
  0
LINE
  5
2D48
330
304B
100
AcDbEntity
  8
SIZE
100
AcDbLine
 10
-256.1257113692117
 20
160.5000000000004
 30
0.0
 11
-256.125711369212
 21
-160.4999999999996
 31
0.0
  0
INSERT
  5
2D49
330
304B
100
AcDbEntity
  8
SIZE
100
AcDbBlockReference
  2
_DOTBLANK
 10
-256.1257113692117
 20
172.5000000000004
 30
0.0
 41
12.0
 42
12.0
 43
12.0
 50
90.0
  0
INSERT
  5
2D4A
330
304B
100
AcDbEntity
  8
SIZE
100
AcDbBlockReference
  2
_DOTBLANK
 10
-256.125711369212
 20
-172.4999999999996
 30
0.0
 41
12.0
 42
12.0
 43
12.0
 50
270.0
  0
TEXT
  5
2D4B
330
304B
100
AcDbEntity
  8
SIZE
100
AcDbText
 10
-266.1257113692117
 20
-74.05714285714248
 30
0.0
 40
64.0
  1
345
 50
90.0
 41
0.9
100
AcDbText
  0
LINE
  5
2D4C
330
304B
100
AcDbEntity
  8
SIZE
100
AcDbLine
 10
-20.0
 20
207.5
 30
0.0
 11
-521.2038702198622
 21
207.5000000000001
 31
0.0
  0
LINE
  5
2D4D
330
304B
100
AcDbEntity
  8
SIZE
100
AcDbLine
 10
-20.0
 20
-207.4999999999998
 30
0.0
 11
-521.2038702198623
 21
-207.4999999999995
 31
0.0
  0
LINE
  5
2D4E
330
304B
100
AcDbEntity
  8
SIZE
100
AcDbLine
 10
-501.2038702198624
 20
195.5000000000001
 30
0.0
 11
-501.2038702198624
 21
-195.4999999999994
 31
0.0
  0
INSERT
  5
2D4F
330
304B
100
AcDbEntity
  8
SIZE
100
AcDbBlockReference
  2
_DOTBLANK
 10
-501.2038702198624
 20
207.5000000000001
 30
0.0
 41
12.0
 42
12.0
 43
12.0
 50
90.0
  0
INSERT
  5
2D50
330
304B
100
AcDbEntity
  8
SIZE
100
AcDbBlockReference
  2
_DOTBLANK
 10
-501.2038702198624
 20
-207.4999999999995
 30
0.0
 41
12.0
 42
12.0
 43
12.0
 50
270.0
  0
TEXT
  5
2D51
330
304B
100
AcDbEntity
  8
SIZE
100
AcDbText
 10
-511.2038702198622
 20
-68.57142857142844
 30
0.0
 40
64.0
  1
415
 50
90.0
 41
0.9
100
AcDbText
  0
LINE
  5
2D52
330
304B
100
AcDbEntity
  8
SIZE
100
AcDbLine
 10
28.0
 20
207.5
 30
0.0
 11
716.7732059985864
 21
207.4999999999998
 31
0.0
  0
LINE
  5
2D53
330
304B
100
AcDbEntity
  8
SIZE
100
AcDbLine
 10
553.5333897987433
 20
-470.5
 30
0.0
 11
716.7732059985861
 21
-470.5
 31
0.0
  0
LINE
  5
2D54
330
304B
100
AcDbEntity
  8
SIZE
100
AcDbLine
 10
696.7732059985861
 20
195.4999999999998
 30
0.0
 11
696.7732059985861
 21
-458.5
 31
0.0
  0
INSERT
  5
2D55
330
304B
100
AcDbEntity
  8
SIZE
100
AcDbBlockReference
  2
_DOTBLANK
 10
696.7732059985861
 20
207.4999999999998
 30
0.0
 41
12.0
 42
12.0
 43
12.0
 50
90.0
  0
INSERT
  5
2D56
330
304B
100
AcDbEntity
  8
SIZE
100
AcDbBlockReference
  2
_DOTBLANK
 10
696.7732059985861
 20
-470.5
 30
0.0
 41
12.0
 42
12.0
 43
12.0
 50
270.0
  0
TEXT
  5
2D57
330
304B
100
AcDbEntity
  8
SIZE
100
AcDbText
 10
686.7732059985865
 20
-205.5571428571429
 30
0.0
 40
64.0
  1
678
 50
90.0
 41
0.9
100
AcDbText
  0
LINE
  5
2D58
330
304B
100
AcDbEntity
  8
SIZE
100
AcDbLine
 10
115.0
 20
-415.4999999999997
 30
0.0
 11
-276.125711369212
 21
-415.4999999999994
 31
0.0
  0
LINE
  5
2D59
330
304B
100
AcDbEntity
  8
SIZE
100
AcDbLine
 10
-20.0
 20
-172.4999999999998
 30
0.0
 11
-276.125711369212
 21
-172.4999999999996
 31
0.0
  0
LINE
  5
2D5A
330
304B
100
AcDbEntity
  8
SIZE
100
AcDbLine
 10
-256.125711369212
 20
-403.4999999999993
 30
0.0
 11
-256.125711369212
 21
-184.4999999999996
 31
0.0
  0
INSERT
  5
2D5B
330
304B
100
AcDbEntity
  8
SIZE
100
AcDbBlockReference
  2
_DOTBLANK
 10
-256.125711369212
 20
-415.4999999999994
 30
0.0
 41
12.0
 42
12.0
 43
12.0
 50
270.0
  0
INSERT
  5
2D5C
330
304B
100
AcDbEntity
  8
SIZE
100
AcDbBlockReference
  2
_DOTBLANK
 10
-256.125711369212
 20
-172.4999999999996
 30
0.0
 41
12.0
 42
12.0
 43
12.0
 50
90.0
  0
TEXT
  5
2D5D
330
304B
100
AcDbEntity
  8
SIZE
100
AcDbText
 10
-266.1257113692117
 20
-368.0571428571425
 30
0.0
 40
64.0
  1
243
 50
90.0
 41
0.9
100
AcDbText
  0
LINE
  5
2D5E
330
304B
100
AcDbEntity
  8
OUTLINE
100
AcDbLine
 10
534.3999999999978
 20
-464.1
 30
0.0
 11
534.3207258915608
 21
-464.0902544849168
 31
0.0
  0
LINE
  5
2D5F
330
304B
100
AcDbEntity
  8
OUTLINE
100
AcDbLine
 10
534.4732095126196
 20
-463.5044831091716
 30
0.0
 11
534.3999999999978
 21
-464.1
 31
0.0
  0
LINE
  5
2D60
330
304B
100
AcDbEntity
  8
OUTLINE
100
AcDbLine
 10
534.3938766320316
 20
-463.4947303689687
 30
0.0
 11
534.4732095126196
 21
-463.5044831091711
 31
0.0
  0
LINE
  5
2D61
330
304B
100
AcDbEntity
  8
OUTLINE
100
AcDbLine
 10
8.0
 20
-207.5000000000002
 30
0.0
 11
8.0
 21
207.4999999999995
 31
0.0
  0
LINE
  5
2D62
330
304B
100
AcDbEntity
  8
OUTLINE
100
AcDbLine
 10
8.0
 20
173.0999999999994
 30
0.0
 11
123.3999999999978
 21
173.0999999999994
 31
0.0
  0
LINE
  5
2D63
330
304B
100
AcDbEntity
  8
OUTLINE
100
AcDbLine
 10
535.0
 20
-238.5000000000002
 30
0.0
 11
535.0
 21
-458.0276855673957
 31
0.0
  0
LINE
  5
2D64
330
304B
100
AcDbEntity
  8
OUTLINE
100
AcDbLine
 10
535.0
 20
-458.5602474018468
 30
0.0
 11
535.0
 21
-463.4999999999998
 31
0.0
  0
LINE
  5
2D65
330
304B
100
AcDbEntity
  8
OUTLINE
100
AcDbLine
 10
535.0
 20
-463.4999999999998
 30
0.0
 11
534.4367420217199
 21
-463.4999999999998
 31
0.0
  0
LINE
  5
2D66
330
304B
100
AcDbEntity
  8
OUTLINE
100
AcDbLine
 10
546.0
 20
-464.1
 30
0.0
 11
534.3999999999978
 21
-464.1
 31
0.0
  0
LINE
  5
2D67
330
304B
100
AcDbEntity
  8
OUTLINE
100
AcDbLine
 10
535.0
 20
-463.4999999999998
 30
0.0
 11
545.3999999999978
 21
-463.4999999999998
 31
0.0
  0
LINE
  5
2D68
330
304B
100
AcDbEntity
  8
OUTLINE
100
AcDbLine
 10
545.3999999999978
 20
-463.4999999999998
 30
0.0
 11
545.3999999999978
 21
-457.1
 31
0.0
  0
LINE
  5
2D69
330
304B
100
AcDbEntity
  8
OUTLINE
100
AcDbLine
 10
545.3999999999978
 20
-457.1
 30
0.0
 11
546.0
 21
-457.1
 31
0.0
  0
LINE
  5
2D6A
330
304B
100
AcDbEntity
  8
OUTLINE
100
AcDbLine
 10
545.3999999999978
 20
-452.0999999999999
 30
0.0
 11
545.3999999999978
 21
-457.1
 31
0.0
  0
LINE
  5
2D6B
330
304B
100
AcDbEntity
  8
OUTLINE
100
AcDbLine
 10
546.0
 20
-452.0999999999999
 30
0.0
 11
545.3999999999978
 21
-452.0999999999999
 31
0.0
  0
LINE
  5
2D6C
330
304B
100
AcDbEntity
  8
OUTLINE
100
AcDbLine
 10
546.0
 20
-457.1
 30
0.0
 11
546.0
 21
-464.1
 31
0.0
  0
LINE
  5
2D6D
330
304B
100
AcDbEntity
  8
OUTLINE
100
AcDbLine
 10
546.0
 20
-457.1
 30
0.0
 11
546.0
 21
-452.0999999999999
 31
0.0
  0
ARC
  5
2D6E
330
304B
100
AcDbEntity
  8
OUTLINE
100
AcDbCircle
 10
123.3999999999978
 20
-238.5000000000002
 30
0.0
 40
411.5999999999998
100
AcDbArc
 50
0.0
 51
90.0
  0
LINE
  5
2D6F
330
304B
100
AcDbEntity
  8
OUTLINE
100
AcDbLine
 10
134.3999999999978
 20
-403.8481343300993
 30
0.0
 11
134.3999999999978
 21
-207.7485281374241
 31
0.0
  0
LINE
  5
2D70
330
304B
100
AcDbEntity
  8
OUTLINE
100
AcDbLine
 10
99.75147186257892
 20
-173.1000000000001
 30
0.0
 11
8.0
 21
-173.1000000000001
 31
0.0
  0
LINE
  5
2D71
330
304B
100
AcDbEntity
  8
OUTLINE
100
AcDbLine
 10
134.3999999999978
 20
-207.7485281374245
 30
0.0
 11
99.7514718625753
 21
-173.1000000000006
 31
0.0
  0
LINE
  5
2D72
330
304B
100
AcDbEntity
  8
OUTLINE
100
AcDbLine
 10
534.1997153113693
 20
-465.0754081324508
 30
0.0
 11
534.3999999999978
 21
-465.1
 31
0.0
  0
LINE
  5
2D73
330
304B
100
AcDbEntity
  8
OUTLINE
100
AcDbLine
 10
534.3999999999978
 20
-465.1
 30
0.0
 11
534.3999999999978
 21
-464.1
 31
0.0
  0
LINE
  5
2D74
330
304B
100
AcDbEntity
  8
OUTLINE
100
AcDbLine
 10
0.0
 20
-207.5000000000002
 30
0.0
 11
8.0
 21
-207.5000000000002
 31
0.0
  0
LINE
  5
2D75
330
304B
100
AcDbEntity
  8
OUTLINE
100
AcDbLine
 10
0.0
 20
207.5
 30
0.0
 11
8.0
 21
207.5
 31
0.0
  0
LINE
  5
2D76
330
304B
100
AcDbEntity
  8
OUTLINE
100
AcDbLine
 10
122.0
 20
-414.4151805415861
 30
0.0
 11
123.4630148022078
 21
-402.5046982806314
 31
0.0
  0
LINE
  5
2D77
330
304B
100
AcDbEntity
  8
OUTLINE
100
AcDbLine
 10
123.4630148022078
 20
-402.5046982806316
 30
0.0
 11
530.7034170371953
 21
-452.5277555736821
 31
0.0
  0
LINE
  5
2D78
330
304B
100
AcDbEntity
  8
OUTLINE
100
AcDbLine
 10
122.0
 20
-414.4151805415861
 30
0.0
 11
534.2031031770492
 21
-465.0478273355576
 31
0.0
  0
LINE
  5
2D79
330
304B
100
AcDbEntity
  8
OUTLINE
100
AcDbLine
 10
534.2031031770492
 20
-465.0478273355581
 30
0.0
 11
535.0565284783406
 21
-458.1000460166676
 31
0.0
  0
LINE
  5
2D7A
330
304B
100
AcDbEntity
  8
OUTLINE
100
AcDbLine
 10
530.7034170371953
 20
-452.5277555736828
 30
0.0
 11
535.0565284783406
 21
-458.1000460166676
 31
0.0
  0
LINE
  5
2D7B
330
304B
100
AcDbEntity
  8
OUTLINE
100
AcDbLine
 10
134.0978075386374
 20
-421.7447973942551
 30
0.0
 11
134.7073970395577
 21
-416.7820964521907
 31
0.0
  0
LINE
  5
2D7C
330
304B
100
AcDbEntity
  8
OUTLINE
100
AcDbLine
 10
534.1055688569062
 20
-465.8418594862885
 30
0.0
 11
533.5333897987433
 21
-470.5000000000007
 31
0.0
  0
LINE
  5
2D7D
330
304B
100
AcDbEntity
  8
OUTLINE
100
AcDbLine
 10
134.7073970395613
 20
-416.7820964521907
 30
0.0
 11
134.097807538641
 21
-421.7447973942554
 31
0.0
  0
LINE
  5
2D7E
330
304B
100
AcDbEntity
  8
OUTLINE
100
AcDbLine
 10
534.2031031770492
 20
-465.0478273355581
 30
0.0
 11
534.1055688569031
 21
-465.8418594862885
 31
0.0
  0
LINE
  5
2D7F
330
304B
100
AcDbEntity
  8
OUTLINE
100
AcDbLine
 10
534.1055688569062
 20
-465.8418594862885
 30
0.0
 11
134.7073970395613
 21
-416.7820964521907
 31
0.0
  0
LINE
  5
2D80
330
304B
100
AcDbEntity
  8
OUTLINE
100
AcDbLine
 10
534.2031031770492
 20
-465.0478273355581
 30
0.0
 11
134.8049313597039
 21
-415.9880643014605
 31
0.0
  0
LINE
  5
2D81
330
304B
100
AcDbEntity
  8
OUTLINE
100
AcDbLine
 10
533.5333897987433
 20
-470.5000000000004
 30
0.0
 11
134.0978075386374
 21
-421.7447973942554
 31
0.0
  0
LINE
  5
2D82
330
304B
100
AcDbEntity
  8
OUTLINE
100
AcDbLine
 10
134.8049313597003
 20
-415.9880643014605
 30
0.0
 11
134.7073970395577
 21
-416.7820964521907
 31
0.0
  0
ENDSEC
  0
SECTION
  2
OBJECTS
  0
DICTIONARY
  5
2FE3
330
0
100
AcDbDictionary
281
     1
  3
ACAD_2007HEADERVARS_RT
350
31D7
  3
ACAD_COLOR
350
3041
  3
ACAD_GROUP
350
2FE4
  3
ACAD_LAYOUT
350
3040
  3
ACAD_MATERIAL
350
2FE7
  3
ACAD_MLEADERSTYLE
350
3044
  3
ACAD_MLINESTYLE
350
303D
  3
ACAD_PLOTSETTINGS
350
303F
  3
ACAD_PLOTSTYLENAME
350
2FE5
  3
ACAD_SCALELIST
350
3011
  3
ACAD_TABLESTYLE
350
3042
  3
ACAD_VISUALSTYLE
350
3000
  3
ACDB_RECOMPOSE_DATA
350
31D5
  3
AcDbVariableDictionary
350
31CC
  3
AcmDictionary
350
317F
  3
AMG
350
30CC
  3
DWGPROPS
350
31D6
  3
MAPISURF_MODULE
350
314C
  0
DICTIONARY
  5
31A7
330
3033
100
AcDbDictionary
280
     1
281
     1
  3
ADSK_XREC_LAYER_RECONCILED
360
31A8
  0
DICTIONARY
  5
31A9
330
3062
100
AcDbDictionary
280
     1
281
     1
  3
ADSK_XREC_LAYER_RECONCILED
360
31AA
  0
DICTIONARY
  5
31AB
330
3063
100
AcDbDictionary
280
     1
281
     1
  3
ADSK_XREC_LAYER_RECONCILED
360
31AC
  0
DICTIONARY
  5
31AD
330
3064
100
AcDbDictionary
280
     1
281
     1
  3
ADSK_XREC_LAYER_RECONCILED
360
31AE
  0
DICTIONARY
  5
31AF
330
3065
100
AcDbDictionary
280
     1
281
     1
  3
ADSK_XREC_LAYER_RECONCILED
360
31B0
  0
DICTIONARY
  5
31B1
330
3066
100
AcDbDictionary
280
     1
281
     1
  3
ADSK_XREC_LAYER_RECONCILED
360
31B2
  0
DICTIONARY
  5
31B3
330
3068
100
AcDbDictionary
280
     1
281
     1
  3
ADSK_XREC_LAYER_RECONCILED
360
31B4
  0
DICTIONARY
  5
31B5
330
3069
100
AcDbDictionary
280
     1
281
     1
  3
ADSK_XREC_LAYER_RECONCILED
360
31B6
  0
DICTIONARY
  5
31B7
330
306A
100
AcDbDictionary
280
     1
281
     1
  3
ADSK_XREC_LAYER_RECONCILED
360
31B8
  0
DICTIONARY
  5
31B9
330
306B
100
AcDbDictionary
280
     1
281
     1
  3
ADSK_XREC_LAYER_RECONCILED
360
31BA
  0
DICTIONARY
  5
31BB
330
306C
100
AcDbDictionary
280
     1
281
     1
  3
ADSK_XREC_LAYER_RECONCILED
360
31BC
  0
DICTIONARY
  5
31BD
330
304B
100
AcDbDictionary
280
     1
281
     1
  3
ACAD_INDEX
360
31BE
  0
DICTIONARY
  5
31D7
102
{ACAD_REACTORS
330
2FE3
102
}
330
2FE3
100
AcDbDictionary
281
     1
  3
DIMARCSYM
350
31D8
  3
DIMLTEX1
350
31DA
  3
DIMLTEX2
350
31DB
  3
DIMLTYPE
350
31D9
  0
DICTIONARY
  5
3041
102
{ACAD_REACTORS
330
2FE3
102
}
330
2FE3
100
AcDbDictionary
281
     1
  0
DICTIONARY
  5
2FE4
102
{ACAD_REACTORS
330
2FE3
102
}
330
2FE3
100
AcDbDictionary
281
     1
  0
DICTIONARY
  5
3040
102
{ACAD_REACTORS
330
2FE3
102
}
330
2FE3
100
AcDbDictionary
281
     1
  3
Model
350
304E
  3
レイアウト1
350
304A
  0
DICTIONARY
  5
2FE7
102
{ACAD_REACTORS
330
2FE3
102
}
330
2FE3
100
AcDbDictionary
281
     1
  3
ByBlock
350
2FF0
  3
ByLayer
350
2FE8
  3
Global
350
2FF8
  0
DICTIONARY
  5
3044
102
{ACAD_REACTORS
330
2FE3
102
}
330
2FE3
100
AcDbDictionary
281
     1
  3
Standard
350
3045
  0
DICTIONARY
  5
303D
102
{ACAD_REACTORS
330
2FE3
102
}
330
2FE3
100
AcDbDictionary
281
     1
  3
Standard
350
303E
  0
DICTIONARY
  5
303F
102
{ACAD_REACTORS
330
2FE3
102
}
330
2FE3
100
AcDbDictionary
281
     1
  0
ACDBDICTIONARYWDFLT
  5
2FE5
102
{ACAD_REACTORS
330
2FE3
102
}
330
2FE3
100
AcDbDictionary
281
     1
  3
Normal
350
2FE6
100
AcDbDictionaryWithDefault
340
2FE6
  0
DICTIONARY
  5
3011
102
{ACAD_REACTORS
330
2FE3
102
}
330
2FE3
100
AcDbDictionary
281
     1
  3
A0
350
3012
  3
A1
350
3013
  3
A2
350
3014
  3
A3
350
3015
  3
A4
350
3016
  3
A5
350
3017
  3
A6
350
3018
  3
A7
350
3019
  3
A8
350
301A
  3
A9
350
301B
  3
B0
350
301C
  3
B1
350
301D
  3
B2
350
301E
  3
B3
350
301F
  3
B4
350
3020
  3
B5
350
3021
  3
B6
350
3022
  3
B7
350
3023
  3
B8
350
3024
  3
B9
350
3025
  3
C0
350
3026
  3
C1
350
3027
  3
C2
350
3028
  3
C3
350
3029
  3
C4
350
302A
  3
C5
350
302B
  3
C6
350
302C
  3
C7
350
302D
  3
C8
350
302E
  3
C9
350
302F
  3
D0
350
3030
  3
D1
350
3031
  3
D2
350
3032
  0
DICTIONARY
  5
3042
102
{ACAD_REACTORS
330
2FE3
102
}
330
2FE3
100
AcDbDictionary
281
     1
  3
Standard
350
3043
  0
DICTIONARY
  5
3000
102
{ACAD_REACTORS
330
2FE3
102
}
330
2FE3
100
AcDbDictionary
281
     1
  3
2dWireframe
350
3006
  3
3D Hidden
350
3008
  3
3dWireframe
350
3007
  3
Basic
350
3005
  3
Brighten
350
300C
  3
ColorChange
350
3010
  3
Conceptual
350
3009
  3
Dim
350
300B
  3
Facepattern
350
300F
  3
Flat
350
3001
  3
FlatWithEdges
350
3002
  3
Gouraud
350
3003
  3
GouraudWithEdges
350
3004
  3
Linepattern
350
300E
  3
Realistic
350
300A
  3
Thicken
350
300D
  0
XRECORD
  5
31D5
102
{ACAD_REACTORS
330
2FE3
102
}
330
2FE3
100
AcDbXrecord
280
     1
 90
        1
330
3043
  0
DICTIONARY
  5
31CC
102
{ACAD_REACTORS
330
2FE3
102
}
330
2FE3
100
AcDbDictionary
281
     1
  3
CANNOSCALE
350
31CF
  3
CMLEADERSTYLE
350
31CE
  3
CTABLESTYLE
350
31CD
  3
DIMASSOC
350
31D2
  3
INDEXCTL
350
31D1
  3
SORTENTS
350
31D0
  0
DICTIONARY
  5
317F
102
{ACAD_REACTORS
330
2FE3
102
}
330
2FE3
100
AcDbDictionary
281
     1
  3
AcmStdDictionary
350
318D
  0
DICTIONARY
  5
30CC
102
{ACAD_REACTORS
330
2FE3
102
}
330
2FE3
100
AcDbDictionary
281
     1
  3
AcMgSettings
350
30CD
  0
XRECORD
  5
31D6
102
{ACAD_REACTORS
330
2FE3
102
}
330
2FE3
100
AcDbXrecord
280
     1
  1
DWGPROPS COOKIE
  2

  3

  4

  6

  7

  8
A090053
  9

300
AmdtFileType=84
301
=
302
=
303
=
304
=
305
=
306
=
307
=
308
=
309
=
 40
1.046261539351851
 41
2452321.396199653
 42
2456213.400384641
  1

 90
        1
  0
XRECORD
  5
31A8
102
{ACAD_REACTORS
330
31A7
102
}
330
31A7
100
AcDbXrecord
280
     1
290
     1
  0
XRECORD
  5
31AA
102
{ACAD_REACTORS
330
31A9
102
}
330
31A9
100
AcDbXrecord
280
     1
290
     1
  0
XRECORD
  5
31AC
102
{ACAD_REACTORS
330
31AB
102
}
330
31AB
100
AcDbXrecord
280
     1
290
     1
  0
XRECORD
  5
31AE
102
{ACAD_REACTORS
330
31AD
102
}
330
31AD
100
AcDbXrecord
280
     1
290
     1
  0
XRECORD
  5
31B0
102
{ACAD_REACTORS
330
31AF
102
}
330
31AF
100
AcDbXrecord
280
     1
290
     1
  0
XRECORD
  5
31B2
102
{ACAD_REACTORS
330
31B1
102
}
330
31B1
100
AcDbXrecord
280
     1
290
     1
  0
XRECORD
  5
31B4
102
{ACAD_REACTORS
330
31B3
102
}
330
31B3
100
AcDbXrecord
280
     1
290
     1
  0
XRECORD
  5
31B6
102
{ACAD_REACTORS
330
31B5
102
}
330
31B5
100
AcDbXrecord
280
     1
290
     1
  0
XRECORD
  5
31B8
102
{ACAD_REACTORS
330
31B7
102
}
330
31B7
100
AcDbXrecord
280
     1
290
     1
  0
XRECORD
  5
31BA
102
{ACAD_REACTORS
330
31B9
102
}
330
31B9
100
AcDbXrecord
280
     1
290
     1
  0
XRECORD
  5
31BC
102
{ACAD_REACTORS
330
31BB
102
}
330
31BB
100
AcDbXrecord
280
     1
290
     1
  0
DICTIONARY
  5
31BE
102
{ACAD_REACTORS
330
31BD
102
}
330
31BD
100
AcDbDictionary
281
     1
  3
*A1
350
31BF
  0
XRECORD
  5
31D8
102
{ACAD_REACTORS
330
31D7
102
}
330
31D7
100
AcDbXrecord
280
     1
 70
     1
  0
XRECORD
  5
31DA
102
{ACAD_REACTORS
330
31D7
102
}
330
31D7
100
AcDbXrecord
280
     1
340
3039
  0
XRECORD
  5
31DB
102
{ACAD_REACTORS
330
31D7
102
}
330
31D7
100
AcDbXrecord
280
     1
340
3039
  0
XRECORD
  5
31D9
102
{ACAD_REACTORS
330
31D7
102
}
330
31D7
100
AcDbXrecord
280
     1
340
3039
  0
LAYOUT
  5
304E
102
{ACAD_XDICTIONARY
360
31E2
102
}
102
{ACAD_REACTORS
330
3040
102
}
330
3040
100
AcDbPlotSettings
  1

  2
自動 EPSON LP-9600S (W2450527 上)
  4

  6

 40
0.0
 41
0.0
 42
0.0
 43
0.0
 44
0.0
 45
0.0
 46
0.0
 47
0.0
 48
0.0
 49
0.0
140
0.0
141
0.0
142
1.0
143
1.0
 70
  1712
 72
     0
 73
     0
 74
     0
  7

 75
     0
147
1.0
148
0.0
149
0.0
100
AcDbLayout
  1
Model
 70
     1
 71
     0
 10
0.0
 20
0.0
 11
12.0
 21
9.0
 12
0.0
 22
0.0
 32
0.0
 14
0.0
 24
0.0
 34
0.0
 15
0.0
 25
0.0
 35
0.0
146
0.0
 13
0.0
 23
0.0
 33
0.0
 16
1.0
 26
0.0
 36
0.0
 17
0.0
 27
1.0
 37
0.0
 76
     0
330
304B
331
304F
  0
LAYOUT
  5
304A
102
{ACAD_XDICTIONARY
360
31E0
102
}
102
{ACAD_REACTORS
330
3040
102
}
330
3040
100
AcDbPlotSettings
  1

  2
自動 EPSON LP-9600S (W2450527 上)
  4

  6

 40
0.0
 41
0.0
 42
0.0
 43
0.0
 44
0.0
 45
0.0
 46
0.0
 47
0.0
 48
0.0
 49
0.0
140
0.0
141
0.0
142
1.0
143
1.0
 70
   688
 72
     0
 73
     0
 74
     5
  7

 75
    16
147
1.0
148
0.0
149
0.0
100
AcDbLayout
  1
レイアウト1
 70
     1
 71
     1
 10
0.0
 20
0.0
 11
12.0
 21
9.0
 12
0.0
 22
0.0
 32
0.0
 14
1.000000000000000E+20
 24
1.000000000000000E+20
 34
1.000000000000000E+20
 15
-1.000000000000000E+20
 25
-1.000000000000000E+20
 35
-1.000000000000000E+20
146
0.0
 13
0.0
 23
0.0
 33
0.0
 16
1.0
 26
0.0
 36
0.0
 17
0.0
 27
1.0
 37
0.0
 76
     0
330
3047
  0
MATERIAL
  5
2FF0
102
{ACAD_XDICTIONARY
360
2FF1
102
}
102
{ACAD_REACTORS
330
2FE7
102
}
330
2FE7
100
AcDbMaterial
  1
ByBlock
 72
     0
 43
0.0208333333333333
 43
0.0
 43
0.0
 43
0.0
 43
0.0
 43
0.0208333333333333
 43
0.0
 43
0.0
 43
0.0
 43
0.0
 43
1.0
 43
0.0
 43
0.0
 43
0.0
 43
0.0
 43
1.0
 77
     0
 47
0.0208333333333333
 47
0.0
 47
0.0
 47
0.0
 47
0.0
 47
0.0208333333333333
 47
0.0
 47
0.0
 47
0.0
 47
0.0
 47
1.0
 47
0.0
 47
0.0
 47
0.0
 47
0.0
 47
1.0
171
     0
 49
0.0208333333333333
 49
0.0
 49
0.0
 49
0.0
 49
0.0
 49
0.0208333333333333
 49
0.0
 49
0.0
 49
0.0
 49
0.0
 49
1.0
 49
0.0
 49
0.0
 49
0.0
 49
0.0
 49
1.0
175
     0
142
0.0208333333333333
142
0.0
142
0.0
142
0.0
142
0.0
142
0.0208333333333333
142
0.0
142
0.0
142
0.0
142
0.0
142
1.0
142
0.0
142
0.0
142
0.0
142
0.0
142
1.0
179
     0
144
0.0208333333333333
144
0.0
144
0.0
144
0.0
144
0.0
144
0.0208333333333333
144
0.0
144
0.0
144
0.0
144
0.0
144
1.0
144
0.0
144
0.0
144
0.0
144
0.0
144
1.0
147
0.0208333333333333
147
0.0
147
0.0
147
0.0
147
0.0
147
0.0208333333333333
147
0.0
147
0.0
147
0.0
147
0.0
147
1.0
147
0.0
147
0.0
147
0.0
147
0.0
147
1.0
  0
MATERIAL
  5
2FE8
102
{ACAD_XDICTIONARY
360
2FE9
102
}
102
{ACAD_REACTORS
330
2FE7
102
}
330
2FE7
100
AcDbMaterial
  1
ByLayer
 72
     0
 43
0.0208333333333333
 43
0.0
 43
0.0
 43
0.0
 43
0.0
 43
0.0208333333333333
 43
0.0
 43
0.0
 43
0.0
 43
0.0
 43
1.0
 43
0.0
 43
0.0
 43
0.0
 43
0.0
 43
1.0
 77
     0
 47
0.0208333333333333
 47
0.0
 47
0.0
 47
0.0
 47
0.0
 47
0.0208333333333333
 47
0.0
 47
0.0
 47
0.0
 47
0.0
 47
1.0
 47
0.0
 47
0.0
 47
0.0
 47
0.0
 47
1.0
171
     0
 49
0.0208333333333333
 49
0.0
 49
0.0
 49
0.0
 49
0.0
 49
0.0208333333333333
 49
0.0
 49
0.0
 49
0.0
 49
0.0
 49
1.0
 49
0.0
 49
0.0
 49
0.0
 49
0.0
 49
1.0
175
     0
142
0.0208333333333333
142
0.0
142
0.0
142
0.0
142
0.0
142
0.0208333333333333
142
0.0
142
0.0
142
0.0
142
0.0
142
1.0
142
0.0
142
0.0
142
0.0
142
0.0
142
1.0
179
     0
144
0.0208333333333333
144
0.0
144
0.0
144
0.0
144
0.0
144
0.0208333333333333
144
0.0
144
0.0
144
0.0
144
0.0
144
1.0
144
0.0
144
0.0
144
0.0
144
0.0
144
1.0
147
0.0208333333333333
147
0.0
147
0.0
147
0.0
147
0.0
147
0.0208333333333333
147
0.0
147
0.0
147
0.0
147
0.0
147
1.0
147
0.0
147
0.0
147
0.0
147
0.0
147
1.0
  0
MATERIAL
  5
2FF8
102
{ACAD_XDICTIONARY
360
2FF9
102
}
102
{ACAD_REACTORS
330
2FE7
102
}
330
2FE7
100
AcDbMaterial
  1
Global
 72
     0
 43
0.0208333333333333
 43
0.0
 43
0.0
 43
0.0
 43
0.0
 43
0.0208333333333333
 43
0.0
 43
0.0
 43
0.0
 43
0.0
 43
1.0
 43
0.0
 43
0.0
 43
0.0
 43
0.0
 43
1.0
 77
     0
 47
0.0208333333333333
 47
0.0
 47
0.0
 47
0.0
 47
0.0
 47
0.0208333333333333
 47
0.0
 47
0.0
 47
0.0
 47
0.0
 47
1.0
 47
0.0
 47
0.0
 47
0.0
 47
0.0
 47
1.0
171
     0
 49
0.0208333333333333
 49
0.0
 49
0.0
 49
0.0
 49
0.0
 49
0.0208333333333333
 49
0.0
 49
0.0
 49
0.0
 49
0.0
 49
1.0
 49
0.0
 49
0.0
 49
0.0
 49
0.0
 49
1.0
175
     0
142
0.0208333333333333
142
0.0
142
0.0
142
0.0
142
0.0
142
0.0208333333333333
142
0.0
142
0.0
142
0.0
142
0.0
142
1.0
142
0.0
142
0.0
142
0.0
142
0.0
142
1.0
179
     0
144
0.0208333333333333
144
0.0
144
0.0
144
0.0
144
0.0
144
0.0208333333333333
144
0.0
144
0.0
144
0.0
144
0.0
144
1.0
144
0.0
144
0.0
144
0.0
144
0.0
144
1.0
147
0.0208333333333333
147
0.0
147
0.0
147
0.0
147
0.0
147
0.0208333333333333
147
0.0
147
0.0
147
0.0
147
0.0
147
1.0
147
0.0
147
0.0
147
0.0
147
0.0
147
1.0
  0
MLEADERSTYLE
  5
3045
102
{ACAD_REACTORS
330
3044
102
}
330
3044
100
AcDbMLeaderStyle
170
     2
171
     1
172
     0
 90
        2
 40
0.0
 41
0.0
173
     1
 91
-1056964608
340
3039
 92
       -2
290
     1
 42
0.09
291
     1
 43
0.36
  3
Standard
 44
0.18
300

342
3034
174
     1
178
     6
175
     1
176
     0
 93
-1056964608
 45
0.18
292
     0
297
     0
 46
0.18
 94
-1056964608
 47
1.0
 49
1.0
140
1.0
293
     1
141
0.0
294
     1
177
     0
142
1.0
295
     0
296
     0
143
0.125
1001
ACAD_MLEADERVER
1070
     2
  0
MLINESTYLE
  5
303E
102
{ACAD_REACTORS
330
303D
102
}
330
303D
100
AcDbMlineStyle
  2
STANDARD
 70
     0
  3

 62
   256
 51
90.0
 52
90.0
 71
     2
 49
0.5
 62
   256
  6
BYLAYER
 49
-0.5
 62
   256
  6
BYLAYER
  0
ACDBPLACEHOLDER
  5
2FE6
102
{ACAD_REACTORS
330
2FE5
102
}
330
2FE5
  0
SCALE
  5
3012
102
{ACAD_REACTORS
330
3011
102
}
330
3011
100
AcDbScale
 70
     0
300
1:1
140
1.0
141
1.0
290
     1
  0
SCALE
  5
3013
102
{ACAD_REACTORS
330
3011
102
}
330
3011
100
AcDbScale
 70
     0
300
1:2
140
1.0
141
2.0
290
     0
  0
SCALE
  5
3014
102
{ACAD_REACTORS
330
3011
102
}
330
3011
100
AcDbScale
 70
     0
300
1:4
140
1.0
141
4.0
290
     0
  0
SCALE
  5
3015
102
{ACAD_REACTORS
330
3011
102
}
330
3011
100
AcDbScale
 70
     0
300
1:5
140
1.0
141
5.0
290
     0
  0
SCALE
  5
3016
102
{ACAD_REACTORS
330
3011
102
}
330
3011
100
AcDbScale
 70
     0
300
1:8
140
1.0
141
8.0
290
     0
  0
SCALE
  5
3017
102
{ACAD_REACTORS
330
3011
102
}
330
3011
100
AcDbScale
 70
     0
300
1:10
140
1.0
141
10.0
290
     0
  0
SCALE
  5
3018
102
{ACAD_REACTORS
330
3011
102
}
330
3011
100
AcDbScale
 70
     0
300
1:16
140
1.0
141
16.0
290
     0
  0
SCALE
  5
3019
102
{ACAD_REACTORS
330
3011
102
}
330
3011
100
AcDbScale
 70
     0
300
1:20
140
1.0
141
20.0
290
     0
  0
SCALE
  5
301A
102
{ACAD_REACTORS
330
3011
102
}
330
3011
100
AcDbScale
 70
     0
300
1:30
140
1.0
141
30.0
290
     0
  0
SCALE
  5
301B
102
{ACAD_REACTORS
330
3011
102
}
330
3011
100
AcDbScale
 70
     0
300
1:40
140
1.0
141
40.0
290
     0
  0
SCALE
  5
301C
102
{ACAD_REACTORS
330
3011
102
}
330
3011
100
AcDbScale
 70
     0
300
1:50
140
1.0
141
50.0
290
     0
  0
SCALE
  5
301D
102
{ACAD_REACTORS
330
3011
102
}
330
3011
100
AcDbScale
 70
     0
300
1:100
140
1.0
141
100.0
290
     0
  0
SCALE
  5
301E
102
{ACAD_REACTORS
330
3011
102
}
330
3011
100
AcDbScale
 70
     0
300
2:1
140
2.0
141
1.0
290
     0
  0
SCALE
  5
301F
102
{ACAD_REACTORS
330
3011
102
}
330
3011
100
AcDbScale
 70
     0
300
4:1
140
4.0
141
1.0
290
     0
  0
SCALE
  5
3020
102
{ACAD_REACTORS
330
3011
102
}
330
3011
100
AcDbScale
 70
     0
300
8:1
140
8.0
141
1.0
290
     0
  0
SCALE
  5
3021
102
{ACAD_REACTORS
330
3011
102
}
330
3011
100
AcDbScale
 70
     0
300
10:1
140
10.0
141
1.0
290
     0
  0
SCALE
  5
3022
102
{ACAD_REACTORS
330
3011
102
}
330
3011
100
AcDbScale
 70
     0
300
100:1
140
100.0
141
1.0
290
     0
  0
SCALE
  5
3023
102
{ACAD_REACTORS
330
3011
102
}
330
3011
100
AcDbScale
 70
     0
300
1/128" = 1'-0"
140
0.0078125
141
12.0
290
     0
  0
SCALE
  5
3024
102
{ACAD_REACTORS
330
3011
102
}
330
3011
100
AcDbScale
 70
     0
300
1/64" = 1'-0"
140
0.015625
141
12.0
290
     0
  0
SCALE
  5
3025
102
{ACAD_REACTORS
330
3011
102
}
330
3011
100
AcDbScale
 70
     0
300
1/32" = 1'-0"
140
0.03125
141
12.0
290
     0
  0
SCALE
  5
3026
102
{ACAD_REACTORS
330
3011
102
}
330
3011
100
AcDbScale
 70
     0
300
1/16" = 1'-0"
140
0.0625
141
12.0
290
     0
  0
SCALE
  5
3027
102
{ACAD_REACTORS
330
3011
102
}
330
3011
100
AcDbScale
 70
     0
300
3/32" = 1'-0"
140
0.09375
141
12.0
290
     0
  0
SCALE
  5
3028
102
{ACAD_REACTORS
330
3011
102
}
330
3011
100
AcDbScale
 70
     0
300
1/8" = 1'-0"
140
0.125
141
12.0
290
     0
  0
SCALE
  5
3029
102
{ACAD_REACTORS
330
3011
102
}
330
3011
100
AcDbScale
 70
     0
300
3/16" = 1'-0"
140
0.1875
141
12.0
290
     0
  0
SCALE
  5
302A
102
{ACAD_REACTORS
330
3011
102
}
330
3011
100
AcDbScale
 70
     0
300
1/4" = 1'-0"
140
0.25
141
12.0
290
     0
  0
SCALE
  5
302B
102
{ACAD_REACTORS
330
3011
102
}
330
3011
100
AcDbScale
 70
     0
300
3/8" = 1'-0"
140
0.375
141
12.0
290
     0
  0
SCALE
  5
302C
102
{ACAD_REACTORS
330
3011
102
}
330
3011
100
AcDbScale
 70
     0
300
1/2" = 1'-0"
140
0.5
141
12.0
290
     0
  0
SCALE
  5
302D
102
{ACAD_REACTORS
330
3011
102
}
330
3011
100
AcDbScale
 70
     0
300
3/4" = 1'-0"
140
0.75
141
12.0
290
     0
  0
SCALE
  5
302E
102
{ACAD_REACTORS
330
3011
102
}
330
3011
100
AcDbScale
 70
     0
300
1" = 1'-0"
140
1.0
141
12.0
290
     0
  0
SCALE
  5
302F
102
{ACAD_REACTORS
330
3011
102
}
330
3011
100
AcDbScale
 70
     0
300
1-1/2" = 1'-0"
140
1.5
141
12.0
290
     0
  0
SCALE
  5
3030
102
{ACAD_REACTORS
330
3011
102
}
330
3011
100
AcDbScale
 70
     0
300
3" = 1'-0"
140
3.0
141
12.0
290
     0
  0
SCALE
  5
3031
102
{ACAD_REACTORS
330
3011
102
}
330
3011
100
AcDbScale
 70
     0
300
6" = 1'-0"
140
6.0
141
12.0
290
     0
  0
SCALE
  5
3032
102
{ACAD_REACTORS
330
3011
102
}
330
3011
100
AcDbScale
 70
     0
300
1'-0" = 1'-0"
140
12.0
141
12.0
290
     0
  0
TABLESTYLE
  5
3043
102
{ACAD_XDICTIONARY
360
31D3
102
}
102
{ACAD_REACTORS
330
3042
102
}
330
3042
100
AcDbTableStyle
  3
Standard
 70
     0
 71
     0
 40
0.06
 41
0.06
280
     0
281
     0
  7
STANDARD
140
0.18
170
     2
 62
     0
 63
     7
283
     0
274
    -2
284
     1
 64
     0
275
    -2
285
     1
 65
     0
276
    -2
286
     1
 66
     0
277
    -2
287
     1
 67
     0
278
    -2
288
     1
 68
     0
279
    -2
289
     1
 69
     0
  7
STANDARD
140
0.25
170
     5
 62
     0
 63
     7
283
     0
274
    -2
284
     1
 64
     0
275
    -2
285
     1
 65
     0
276
    -2
286
     1
 66
     0
277
    -2
287
     1
 67
     0
278
    -2
288
     1
 68
     0
279
    -2
289
     1
 69
     0
  7
STANDARD
140
0.18
170
     5
 62
     0
 63
     7
283
     0
274
    -2
284
     1
 64
     0
275
    -2
285
     1
 65
     0
276
    -2
286
     1
 66
     0
277
    -2
287
     1
 67
     0
278
    -2
288
     1
 68
     0
279
    -2
289
     1
 69
     0
  0
VISUALSTYLE
  5
3006
102
{ACAD_REACTORS
330
3000
102
}
330
3000
100
AcDbVisualStyle
  2
2dWireframe
 70
     4
 71
     0
 72
     2
 73
     0
 90
        0
 40
-0.6
 41
-30.0
 62
     5
 63
     7
 74
     1
 91
        4
 64
     7
 65
   257
 75
     1
175
     1
 42
1.0
 92
        0
 66
   257
 43
1.0
 76
     1
 77
     6
 78
     2
 67
     7
 79
     5
170
     0
171
     0
290
     0
174
     0
 93
        1
 44
0.0
173
     0
291
     0
 45
0.0
1001
ACAD
1000
AcDbSavedByObjectVersion
1070
     0
  0
VISUALSTYLE
  5
3008
102
{ACAD_REACTORS
330
3000
102
}
330
3000
100
AcDbVisualStyle
  2
3D Hidden
 70
     6
 71
     1
 72
     2
 73
     2
 90
        0
 40
-0.6
 41
-30.0
 62
     5
 63
     7
 74
     2
 91
        2
 64
     7
 65
   257
 75
     2
175
     1
 42
40.0
 92
        0
 66
   257
 43
1.0
 76
     1
 77
     6
 78
     2
 67
     7
 79
     3
170
     0
171
     0
290
     0
174
     0
 93
        1
 44
0.0
173
     0
291
     0
 45
0.0
1001
ACAD
1000
AcDbSavedByObjectVersion
1070
     0
  0
VISUALSTYLE
  5
3007
102
{ACAD_REACTORS
330
3000
102
}
330
3000
100
AcDbVisualStyle
  2
3dWireframe
 70
     5
 71
     0
 72
     2
 73
     0
 90
        0
 40
-0.6
 41
-30.0
 62
     5
 63
     7
 74
     1
 91
        4
 64
     7
 65
   257
 75
     1
175
     1
 42
1.0
 92
        0
 66
   257
 43
1.0
 76
     1
 77
     6
 78
     2
 67
     7
 79
     5
170
     0
171
     0
290
     0
174
     0
 93
        1
 44
0.0
173
     0
291
     0
 45
0.0
1001
ACAD
1000
AcDbSavedByObjectVersion
1070
     0
  0
VISUALSTYLE
  5
3005
102
{ACAD_REACTORS
330
3000
102
}
330
3000
100
AcDbVisualStyle
  2
Basic
 70
     7
 71
     1
 72
     0
 73
     1
 90
        0
 40
-0.6
 41
-30.0
 62
     5
 63
     7
 74
     0
 91
        4
 64
     7
 65
   257
 75
     1
175
     1
 42
1.0
 92
        8
 66
     7
 43
1.0
 76
     1
 77
     6
 78
     2
 67
     7
 79
     5
170
     0
171
     0
290
     0
174
     0
 93
        1
 44
0.0
173
     0
291
     1
 45
0.0
1001
ACAD
1000
AcDbSavedByObjectVersion
1070
     0
  0
VISUALSTYLE
  5
300C
102
{ACAD_REACTORS
330
3000
102
}
330
3000
100
AcDbVisualStyle
  2
Brighten
 70
    12
 71
     2
 72
     2
 73
     0
 90
        0
 40
-0.6
 41
-30.0
 62
     5
 63
     7
 74
     1
 91
        4
 64
     7
 65
   257
 75
     1
175
     1
 42
1.0
 92
        8
 66
     7
 43
1.0
 76
     1
 77
     6
 78
     2
 67
     7
 79
     5
170
     0
171
     0
290
     0
174
     0
 93
        1
 44
50.0
173
     0
291
     1
 45
0.0
1001
ACAD
1000
AcDbSavedByObjectVersion
1070
     0
  0
VISUALSTYLE
  5
3010
102
{ACAD_REACTORS
330
3000
102
}
330
3000
100
AcDbVisualStyle
  2
ColorChange
 70
    16
 71
     2
 72
     2
 73
     3
 90
        0
 40
-0.6
 41
-30.0
 62
     5
 63
     8
 74
     1
 91
        4
 64
     7
 65
   257
 75
     1
175
     1
 42
1.0
 92
        8
 66
     8
 43
1.0
 76
     1
 77
     6
 78
     2
 67
     7
 79
     5
170
     0
171
     0
290
     0
174
     0
 93
        1
 44
0.0
173
     0
291
     1
 45
0.0
1001
ACAD
1000
AcDbSavedByObjectVersion
1070
     0
  0
VISUALSTYLE
  5
3009
102
{ACAD_REACTORS
330
3000
102
}
330
3000
100
AcDbVisualStyle
  2
Conceptual
 70
     9
 71
     3
 72
     2
 73
     0
 90
        0
 40
-0.6
 41
-30.0
 62
     5
 63
     7
 74
     2
 91
        2
 64
     7
 65
   257
 75
     1
175
     1
 42
40.0
 92
        8
 66
     7
 43
1.0
 76
     1
 77
     6
 78
     2
 67
     7
 79
     3
170
     0
171
     0
290
     0
174
     0
 93
        1
 44
0.0
173
     0
291
     0
 45
0.0
1001
ACAD
1000
AcDbSavedByObjectVersion
1070
     0
  0
VISUALSTYLE
  5
300B
102
{ACAD_REACTORS
330
3000
102
}
330
3000
100
AcDbVisualStyle
  2
Dim
 70
    11
 71
     2
 72
     2
 73
     0
 90
        0
 40
-0.6
 41
-30.0
 62
     5
 63
     7
 74
     1
 91
        4
 64
     7
 65
   257
 75
     1
175
     1
 42
1.0
 92
        8
 66
     7
 43
1.0
 76
     1
 77
     6
 78
     2
 67
     7
 79
     5
170
     0
171
     0
290
     0
174
     0
 93
        1
 44
-50.0
173
     0
291
     1
 45
0.0
1001
ACAD
1000
AcDbSavedByObjectVersion
1070
     0
  0
VISUALSTYLE
  5
300F
102
{ACAD_REACTORS
330
3000
102
}
330
3000
100
AcDbVisualStyle
  2
Facepattern
 70
    15
 71
     2
 72
     2
 73
     0
 90
        0
 40
-0.6
 41
-30.0
 62
     5
 63
     7
 74
     1
 91
        4
 64
     7
 65
   257
 75
     1
175
     1
 42
1.0
 92
        8
 66
     7
 43
1.0
 76
     1
 77
     6
 78
     2
 67
     7
 79
     5
170
     0
171
     0
290
     0
174
     0
 93
        1
 44
0.0
173
     0
291
     1
 45
0.0
1001
ACAD
1000
AcDbSavedByObjectVersion
1070
     0
  0
VISUALSTYLE
  5
3001
102
{ACAD_REACTORS
330
3000
102
}
330
3000
100
AcDbVisualStyle
  2
Flat
 70
     0
 71
     2
 72
     1
 73
     1
 90
        2
 40
-0.6
 41
30.0
 62
     5
 63
     7
 74
     0
 91
        4
 64
     7
 65
   257
 75
     1
175
     1
 42
1.0
 92
        8
 66
     7
 43
1.0
 76
     1
 77
     6
 78
     2
 67
     7
 79
     5
170
     0
171
     0
290
     0
174
     0
 93
       13
 44
0.0
173
     0
291
     1
 45
0.0
1001
ACAD
1000
AcDbSavedByObjectVersion
1070
     0
  0
VISUALSTYLE
  5
3002
102
{ACAD_REACTORS
330
3000
102
}
330
3000
100
AcDbVisualStyle
  2
FlatWithEdges
 70
     1
 71
     2
 72
     1
 73
     1
 90
        2
 40
-0.6
 41
30.0
 62
     5
 63
     7
 74
     1
 91
        4
 64
     7
 65
   257
 75
     1
175
     1
 42
1.0
 92
        0
 66
   257
 43
1.0
 76
     1
 77
     6
 78
     2
 67
     7
 79
     5
170
     0
171
     0
290
     0
174
     0
 93
       13
 44
0.0
173
     0
291
     1
 45
0.0
1001
ACAD
1000
AcDbSavedByObjectVersion
1070
     0
  0
VISUALSTYLE
  5
3003
102
{ACAD_REACTORS
330
3000
102
}
330
3000
100
AcDbVisualStyle
  2
Gouraud
 70
     2
 71
     2
 72
     2
 73
     1
 90
        2
 40
-0.6
 41
30.0
 62
     5
 63
     7
 74
     0
 91
        4
 64
     7
 65
   257
 75
     1
175
     1
 42
1.0
 92
        0
 66
     7
 43
1.0
 76
     1
 77
     6
 78
     2
 67
     7
 79
     5
170
     0
171
     0
290
     0
174
     0
 93
       13
 44
0.0
173
     0
291
     1
 45
0.0
1001
ACAD
1000
AcDbSavedByObjectVersion
1070
     0
  0
VISUALSTYLE
  5
3004
102
{ACAD_REACTORS
330
3000
102
}
330
3000
100
AcDbVisualStyle
  2
GouraudWithEdges
 70
     3
 71
     2
 72
     2
 73
     1
 90
        2
 40
-0.6
 41
30.0
 62
     5
 63
     7
 74
     1
 91
        4
 64
     7
 65
   257
 75
     1
175
     1
 42
1.0
 92
        0
 66
   257
 43
1.0
 76
     1
 77
     6
 78
     2
 67
     7
 79
     5
170
     0
171
     0
290
     0
174
     0
 93
       13
 44
0.0
173
     0
291
     1
 45
0.0
1001
ACAD
1000
AcDbSavedByObjectVersion
1070
     0
  0
VISUALSTYLE
  5
300E
102
{ACAD_REACTORS
330
3000
102
}
330
3000
100
AcDbVisualStyle
  2
Linepattern
 70
    14
 71
     2
 72
     2
 73
     0
 90
        0
 40
-0.6
 41
-30.0
 62
     5
 63
     7
 74
     1
 91
        4
 64
     7
 65
   257
 75
     7
175
     7
 42
1.0
 92
        8
 66
     7
 43
1.0
 76
     1
 77
     6
 78
     2
 67
     7
 79
     5
170
     0
171
     0
290
     0
174
     0
 93
        1
 44
0.0
173
     0
291
     1
 45
0.0
1001
ACAD
1000
AcDbSavedByObjectVersion
1070
     0
  0
VISUALSTYLE
  5
300A
102
{ACAD_REACTORS
330
3000
102
}
330
3000
100
AcDbVisualStyle
  2
Realistic
 70
     8
 71
     2
 72
     2
 73
     0
 90
        0
 40
-0.6
 41
-30.0
 62
     5
 63
     7
 74
     1
 91
        0
 64
     7
 65
   257
 75
     1
175
     1
 42
1.0
 92
        8
 66
     8
 43
1.0
 76
     1
 77
     6
 78
     2
 67
     7
 79
     5
170
     0
171
     0
290
     0
174
     0
 93
       13
 44
0.0
173
     0
291
     0
 45
0.0
1001
ACAD
1000
AcDbSavedByObjectVersion
1070
     0
  0
VISUALSTYLE
  5
300D
102
{ACAD_REACTORS
330
3000
102
}
330
3000
100
AcDbVisualStyle
  2
Thicken
 70
    13
 71
     2
 72
     2
 73
     0
 90
        0
 40
-0.6
 41
-30.0
 62
     5
 63
     7
 74
     1
 91
        4
 64
     7
 65
   257
 75
     1
175
     1
 42
1.0
 92
       12
 66
     7
 43
1.0
 76
     1
 77
     6
 78
     2
 67
     7
 79
     5
170
     0
171
     0
290
     0
174
     0
 93
        1
 44
0.0
173
     0
291
     1
 45
0.0
1001
ACAD
1000
AcDbSavedByObjectVersion
1070
     0
  0
DICTIONARYVAR
  5
31CF
102
{ACAD_REACTORS
330
31CC
102
}
330
31CC
100
DictionaryVariables
280
     0
  1
1:1
  0
DICTIONARYVAR
  5
31CE
102
{ACAD_REACTORS
330
31CC
102
}
330
31CC
100
DictionaryVariables
280
     0
  1
STANDARD
  0
DICTIONARYVAR
  5
31CD
102
{ACAD_REACTORS
330
31CC
102
}
330
31CC
100
DictionaryVariables
280
     0
  1
STANDARD
  0
DICTIONARYVAR
  5
31D2
102
{ACAD_REACTORS
330
31CC
102
}
330
31CC
100
DictionaryVariables
280
     0
  1
1
  0
DICTIONARYVAR
  5
31D1
102
{ACAD_REACTORS
330
31CC
102
}
330
31CC
100
DictionaryVariables
280
     0
  1
1
  0
DICTIONARYVAR
  5
31D0
102
{ACAD_REACTORS
330
31CC
102
}
330
31CC
100
DictionaryVariables
280
     0
  1
127
  0
DICTIONARY
  5
318D
102
{ACAD_REACTORS
330
317F
102
}
330
317F
100
AcDbDictionary
281
     1
  0
DICTIONARY
  5
30CD
102
{ACAD_REACTORS
330
30CC
102
}
330
30CC
100
AcDbDictionary
281
     1
  3
DWGSETTINGS
350
30CE
  3
TRANSSETTINGS
350
30CF
  0
LAYER_INDEX
  5
31BF
102
{ACAD_REACTORS
330
31BE
102
}
330
31BE
100
AcDbIndex
 40
2456213.400384641
100
AcDbLayerIndex
  8
0
360
31C0
 90
        0
  8
OUTLINE
360
31C1
 90
       46
  8
SIZE
360
31C2
 90
       65
  8
BASIS
360
31C3
 90
        1
  8
DETAIL
360
31C4
 90
       38
  8
ARRANGE
360
31C5
 90
        2
  8
DEFPOINTS
360
31C6
 90
        0
  8
ETC
360
31C7
 90
        3
  8
FIX
360
31C8
 90
        0
  8
NOTE
360
31C9
 90
        7
  8
SERVICESPACE
360
31CA
 90
        0
  8
SYMBOLLINE
360
31CB
 90
        0
  0
DICTIONARY
  5
31E2
330
304E
100
AcDbDictionary
280
     1
281
     1
  3
ACAD_XREC_ROUNDTRIP
360
31E3
  0
DICTIONARY
  5
31E0
330
304A
100
AcDbDictionary
280
     1
281
     1
  3
ACAD_XREC_ROUNDTRIP
360
31E1
  0
DICTIONARY
  5
2FF1
330
2FF0
100
AcDbDictionary
280
     1
281
     1
  3
ACAD_XREC_ROUNDTRIP
360
31DD
  3
BUMPTILE
360
2FF3
  3
DIFFUSETILE
360
2FF2
  3
OPACITYTILE
360
2FF6
  3
REFLECTIONTILE
360
2FF5
  3
REFRACTIONTILE
360
2FF7
  3
SPECULARTILE
360
2FF4
  0
DICTIONARY
  5
2FE9
330
2FE8
100
AcDbDictionary
280
     1
281
     1
  3
ACAD_XREC_ROUNDTRIP
360
31DC
  3
BUMPTILE
360
2FEB
  3
DIFFUSETILE
360
2FEA
  3
OPACITYTILE
360
2FEE
  3
REFLECTIONTILE
360
2FED
  3
REFRACTIONTILE
360
2FEF
  3
SPECULARTILE
360
2FEC
  0
DICTIONARY
  5
2FF9
330
2FF8
100
AcDbDictionary
280
     1
281
     1
  3
ACAD_XREC_ROUNDTRIP
360
31DE
  3
BUMPTILE
360
2FFB
  3
DIFFUSETILE
360
2FFA
  3
OPACITYTILE
360
2FFE
  3
REFLECTIONTILE
360
2FFD
  3
REFRACTIONTILE
360
2FFF
  3
SPECULARTILE
360
2FFC
  0
DICTIONARY
  5
31D3
330
3043
100
AcDbDictionary
280
     1
281
     1
  3
ACAD_ROUNDTRIP_2008_TABLESTYLE_CELLSTYLEMAP
360
31D4
  3
ACAD_XREC_ROUNDTRIP
360
31DF
  0
IDBUFFER
  5
31C0
330
0
100
AcDbIdBuffer
  0
IDBUFFER
  5
31C1
330
0
100
AcDbIdBuffer
330
2D65
330
2D66
330
2D67
330
2D68
330
2D69
330
2D6A
330
2D6B
330
2D6C
330
2D6D
330
2D6E
330
2D6F
330
2D70
330
2D71
330
2D72
330
2D73
330
2D74
330
2D75
330
2D76
330
2D77
330
2D78
330
2D79
330
2D7A
330
2D7B
330
2D7C
330
2D7D
330
2D7E
330
2D7F
330
2D80
330
2D81
330
2D82
330
953
330
954
330
955
330
956
330
957
330
958
330
2D2F
330
2D37
330
2D3A
330
2D5E
330
2D5F
330
2D60
330
2D61
330
2D62
330
2D63
330
2D64
  0
IDBUFFER
  5
31C2
330
0
100
AcDbIdBuffer
330
2D4D
330
2D4E
330
2D4F
330
2D50
330
2D51
330
2D52
330
2D53
330
2D54
330
2D55
330
2D56
330
2D57
330
2D58
330
2D59
330
2D5A
330
2D5B
330
2D5C
330
2D5D
330
2CEC
330
2CED
330
2CEE
330
2CEF
330
2CF0
330
2CF1
330
2CF3
330
2CF4
330
2CF5
330
2CF6
330
2CF7
330
2CF8
330
2CF9
330
2CFA
330
2CFB
330
2CFC
330
2CFD
330
2CFE
330
2D01
330
2D02
330
2D03
330
2D04
330
2D05
330
2D06
330
2D07
330
2D08
330
2D09
330
2D0A
330
2D0B
330
2D0C
330
2D0D
330
2D0E
330
2D0F
330
2D3E
330
2D3F
330
2D40
330
2D41
330
2D42
330
2D43
330
2D44
330
2D45
330
2D46
330
2D47
330
2D48
330
2D49
330
2D4A
330
2D4B
330
2D4C
  0
IDBUFFER
  5
31C3
330
0
100
AcDbIdBuffer
330
2CF2
  0
IDBUFFER
  5
31C4
330
0
100
AcDbIdBuffer
330
2D20
330
2D21
330
2D22
330
2D23
330
2D24
330
2D25
330
2D26
330
2D27
330
2D28
330
2D29
330
2D2A
330
2D2B
330
2D2C
330
2D2D
330
2D2E
330
2D30
330
2D31
330
2D32
330
2D33
330
2D34
330
2D35
330
2D36
330
2D10
330
2D11
330
2D12
330
2D13
330
2D14
330
2D15
330
2D16
330
2D17
330
2D18
330
2D19
330
2D1A
330
2D1B
330
2D1C
330
2D1D
330
2D1E
330
2D1F
  0
IDBUFFER
  5
31C5
330
0
100
AcDbIdBuffer
330
2CEA
330
2CEB
  0
IDBUFFER
  5
31C6
330
0
100
AcDbIdBuffer
  0
IDBUFFER
  5
31C7
330
0
100
AcDbIdBuffer
330
2CE7
330
2CE8
330
2CE9
  0
IDBUFFER
  5
31C8
330
0
100
AcDbIdBuffer
  0
IDBUFFER
  5
31C9
330
0
100
AcDbIdBuffer
330
2CFF
330
2D00
330
2D38
330
2D39
330
2D3B
330
2D3C
330
2D3D
  0
IDBUFFER
  5
31CA
330
0
100
AcDbIdBuffer
  0
IDBUFFER
  5
31CB
330
0
100
AcDbIdBuffer
  0
XRECORD
  5
31E3
102
{ACAD_REACTORS
330
31E2
102
}
330
31E2
100
AcDbXrecord
280
     1
102
SHADEPLOT
 70
     0
102
SHADEPLOTRESLEVEL
 70
     2
102
SHADEPLOTCUSTOMDPI
 70
   300
  0
XRECORD
  5
31E1
102
{ACAD_REACTORS
330
31E0
102
}
330
31E0
100
AcDbXrecord
280
     1
102
SHADEPLOT
 70
     0
102
SHADEPLOTRESLEVEL
 70
     2
102
SHADEPLOTCUSTOMDPI
 70
   300
  0
XRECORD
  5
31DD
102
{ACAD_REACTORS
330
2FF1
102
}
330
2FF1
100
AcDbXrecord
280
     1
102
MATERIAL
148
0.0
149
0.0
149
0.0
 93
        0
 94
      127
282
     0
 72
     0
 77
     0
171
     0
175
     0
179
     0
273
     0
  0
XRECORD
  5
2FF3
102
{ACAD_REACTORS
330
2FF1
102
}
330
2FF1
100
AcDbXrecord
280
     1
270
     1
271
     1
  0
XRECORD
  5
2FF2
102
{ACAD_REACTORS
330
2FF1
102
}
330
2FF1
100
AcDbXrecord
280
     1
270
     1
271
     1
  0
XRECORD
  5
2FF6
102
{ACAD_REACTORS
330
2FF1
102
}
330
2FF1
100
AcDbXrecord
280
     1
270
     1
271
     1
  0
XRECORD
  5
2FF5
102
{ACAD_REACTORS
330
2FF1
102
}
330
2FF1
100
AcDbXrecord
280
     1
270
     1
271
     1
  0
XRECORD
  5
2FF7
102
{ACAD_REACTORS
330
2FF1
102
}
330
2FF1
100
AcDbXrecord
280
     1
270
     1
271
     1
  0
XRECORD
  5
2FF4
102
{ACAD_REACTORS
330
2FF1
102
}
330
2FF1
100
AcDbXrecord
280
     1
270
     1
271
     1
  0
XRECORD
  5
31DC
102
{ACAD_REACTORS
330
2FE9
102
}
330
2FE9
100
AcDbXrecord
280
     1
102
MATERIAL
148
0.0
149
0.0
149
0.0
 93
        0
 94
      127
282
     0
 72
     0
 77
     0
171
     0
175
     0
179
     0
273
     0
  0
XRECORD
  5
2FEB
102
{ACAD_REACTORS
330
2FE9
102
}
330
2FE9
100
AcDbXrecord
280
     1
270
     1
271
     1
  0
XRECORD
  5
2FEA
102
{ACAD_REACTORS
330
2FE9
102
}
330
2FE9
100
AcDbXrecord
280
     1
270
     1
271
     1
  0
XRECORD
  5
2FEE
102
{ACAD_REACTORS
330
2FE9
102
}
330
2FE9
100
AcDbXrecord
280
     1
270
     1
271
     1
  0
XRECORD
  5
2FED
102
{ACAD_REACTORS
330
2FE9
102
}
330
2FE9
100
AcDbXrecord
280
     1
270
     1
271
     1
  0
XRECORD
  5
2FEF
102
{ACAD_REACTORS
330
2FE9
102
}
330
2FE9
100
AcDbXrecord
280
     1
270
     1
271
     1
  0
XRECORD
  5
2FEC
102
{ACAD_REACTORS
330
2FE9
102
}
330
2FE9
100
AcDbXrecord
280
     1
270
     1
271
     1
  0
XRECORD
  5
31DE
102
{ACAD_REACTORS
330
2FF9
102
}
330
2FF9
100
AcDbXrecord
280
     1
102
MATERIAL
148
0.0
149
0.0
149
0.0
 93
        0
 94
      127
282
     0
 72
     0
 77
     0
171
     0
175
     0
179
     0
273
     0
  0
XRECORD
  5
2FFB
102
{ACAD_REACTORS
330
2FF9
102
}
330
2FF9
100
AcDbXrecord
280
     1
270
     1
271
     1
  0
XRECORD
  5
2FFA
102
{ACAD_REACTORS
330
2FF9
102
}
330
2FF9
100
AcDbXrecord
280
     1
270
     1
271
     1
  0
XRECORD
  5
2FFE
102
{ACAD_REACTORS
330
2FF9
102
}
330
2FF9
100
AcDbXrecord
280
     1
270
     1
271
     1
  0
XRECORD
  5
2FFD
102
{ACAD_REACTORS
330
2FF9
102
}
330
2FF9
100
AcDbXrecord
280
     1
270
     1
271
     1
  0
XRECORD
  5
2FFF
102
{ACAD_REACTORS
330
2FF9
102
}
330
2FF9
100
AcDbXrecord
280
     1
270
     1
271
     1
  0
XRECORD
  5
2FFC
102
{ACAD_REACTORS
330
2FF9
102
}
330
2FF9
100
AcDbXrecord
280
     1
270
     1
271
     1
  0
CELLSTYLEMAP
  5
31D4
102
{ACAD_REACTORS
330
31D3
102
}
330
31D3
100
AcDbCellStyleMap
 90
        3
300
CELLSTYLE
  1
TABLEFORMAT_BEGIN
 90
        5
170
     1
 91
        0
 92
    32768
 62
   257
 93
        1
300
CONTENTFORMAT
  1
CONTENTFORMAT_BEGIN
 90
        0
 91
        0
 92
      512
 93
        0
300

 40
0.0
140
1.0
 94
        5
 62
     0
340
3034
144
0.25
309
CONTENTFORMAT_END
171
     0
 94
        0
309
TABLEFORMAT_END
  1
CELLSTYLE_BEGIN
 90
        1
 91
        1
300
_TITLE
309
CELLSTYLE_END
300
CELLSTYLE
  1
TABLEFORMAT_BEGIN
 90
        5
170
     1
 91
        0
 92
        0
 62
   257
 93
        1
300
CONTENTFORMAT
  1
CONTENTFORMAT_BEGIN
 90
        0
 91
        0
 92
      512
 93
        0
300

 40
0.0
140
1.0
 94
        5
 62
     0
340
3034
144
0.18
309
CONTENTFORMAT_END
171
     0
 94
        0
309
TABLEFORMAT_END
  1
CELLSTYLE_BEGIN
 90
        2
 91
        1
300
_HEADER
309
CELLSTYLE_END
300
CELLSTYLE
  1
TABLEFORMAT_BEGIN
 90
        5
170
     1
 91
        0
 92
        0
 62
   257
 93
        1
300
CONTENTFORMAT
  1
CONTENTFORMAT_BEGIN
 90
        0
 91
        0
 92
      512
 93
        0
300

 40
0.0
140
1.0
 94
        2
 62
     0
340
3034
144
0.18
309
CONTENTFORMAT_END
171
     0
 94
        0
309
TABLEFORMAT_END
  1
CELLSTYLE_BEGIN
 90
        3
 91
        2
300
_DATA
309
CELLSTYLE_END
  0
XRECORD
  5
31DF
102
{ACAD_REACTORS
330
31D3
102
}
330
31D3
100
AcDbXrecord
280
     1
102
ACAD_ROUNDTRIP_PRE2007_TABLESTYLE
 90
      512
 91
        0
  1

 92
      512
 93
        0
  2

 94
      512
 95
        0
  3

  0
ENDSEC
  0
EOF
