  0
SECTION
  2
HEADER
  9
$ACADVER
  1
AC1015
  9
$ACADMAINTVER
 70
    20
  9
$DWGCODEPAGE
  3
ANSI_932
  9
$INSBASE
 10
0.0
 20
0.0
 30
0.0
  9
$EXTMIN
 10
-866.452257135111
 20
-815.6932852539835
 30
0.0
  9
$EXTMAX
 10
1024.498554673364
 20
446.5425122420717
 30
50.0
  9
$LIMMIN
 10
-2970.0
 20
-2100.0
  9
$LIMMAX
 10
2970.0
 20
2100.0
  9
$ORTHOMODE
 70
     1
  9
$REGENMODE
 70
     0
  9
$FILLMODE
 70
     1
  9
$QTEXTMODE
 70
     0
  9
$MIRRTEXT
 70
     0
  9
$LTSCALE
 40
20.0
  9
$ATTMODE
 70
     1
  9
$TEXTSIZE
 40
64.0
  9
$TRACEWID
 40
0.05
  9
$TEXTSTYLE
  7
STANDARD
  9
$CLAYER
  8
0
  9
$CELTYPE
  6
ByLayer
  9
$CECOLOR
 62
   256
  9
$CELTSCALE
 40
1.0
  9
$DISPSILH
 70
     0
  9
$DIMSCALE
 40
1.0
  9
$DIMASZ
 40
0.12
  9
$DIMEXO
 40
0.05
  9
$DIMDLI
 40
0.5
  9
$DIMRND
 40
0.0
  9
$DIMDLE
 40
0.0
  9
$DIMEXE
 40
0.1
  9
$DIMTP
 40
0.1
  9
$DIMTM
 40
0.1
  9
$DIMTXT
 40
0.12
  9
$DIMCEN
 40
0.0
  9
$DIMTSZ
 40
0.0
  9
$DIMTOL
 70
     0
  9
$DIMLIM
 70
     0
  9
$DIMTIH
 70
     1
  9
$DIMTOH
 70
     1
  9
$DIMSE1
 70
     0
  9
$DIMSE2
 70
     0
  9
$DIMTAD
 70
     0
  9
$DIMZIN
 70
     7
  9
$DIMBLK
  1

  9
$DIMASO
 70
     1
  9
$DIMSHO
 70
     0
  9
$DIMPOST
  1

  9
$DIMAPOST
  1
mm
  9
$DIMALT
 70
     0
  9
$DIMALTD
 70
     2
  9
$DIMALTF
 40
25.4
  9
$DIMLFAC
 40
1.0
  9
$DIMTOFL
 70
     0
  9
$DIMTVP
 40
0.0
  9
$DIMTIX
 70
     0
  9
$DIMSOXD
 70
     0
  9
$DIMSAH
 70
     0
  9
$DIMBLK1
  1

  9
$DIMBLK2
  1

  9
$DIMSTYLE
  2
AM_ANSI
  9
$DIMCLRD
 70
   256
  9
$DIMCLRE
 70
   256
  9
$DIMCLRT
 70
     2
  9
$DIMTFAC
 40
0.71
  9
$DIMGAP
 40
0.06
  9
$DIMJUST
 70
     0
  9
$DIMSD1
 70
     0
  9
$DIMSD2
 70
     0
  9
$DIMTOLJ
 70
     1
  9
$DIMTZIN
 70
     7
  9
$DIMALTZ
 70
     0
  9
$DIMALTTZ
 70
     0
  9
$DIMUPT
 70
     0
  9
$DIMDEC
 70
     4
  9
$DIMTDEC
 70
     4
  9
$DIMALTU
 70
     2
  9
$DIMALTTD
 70
     4
  9
$DIMTXSTY
  7
STANDARD
  9
$DIMAUNIT
 70
     0
  9
$DIMADEC
 70
     0
  9
$DIMALTRND
 40
0.0
  9
$DIMAZIN
 70
     2
  9
$DIMDSEP
 70
    46
  9
$DIMATFIT
 70
     3
  9
$DIMFRAC
 70
     0
  9
$DIMLDRBLK
  1

  9
$DIMLUNIT
 70
     2
  9
$DIMLWD
 70
    -1
  9
$DIMLWE
 70
    -1
  9
$DIMTMOVE
 70
     0
  9
$LUNITS
 70
     2
  9
$LUPREC
 70
     4
  9
$SKETCHINC
 40
0.1
  9
$FILLETRAD
 40
4.0
  9
$AUNITS
 70
     1
  9
$AUPREC
 70
     3
  9
$MENU
  1
ACAD
  9
$ELEVATION
 40
0.0
  9
$PELEVATION
 40
0.0
  9
$THICKNESS
 40
50.0
  9
$LIMCHECK
 70
     0
  9
$CHAMFERA
 40
0.0
  9
$CHAMFERB
 40
0.0
  9
$CHAMFERC
 40
0.0
  9
$CHAMFERD
 40
0.0
  9
$SKPOLY
 70
     0
  9
$TDCREATE
 40
2452321.396199653
  9
$TDUCREATE
 40
2452321.021199653
  9
$TDUPDATE
 40
2456213.404483009
  9
$TDUUPDATE
 40
2456213.029483009
  9
$TDINDWG
 40
1.0445976620
  9
$TDUSRTIMER
 40
1.0445917245
  9
$USRTIMER
 70
     1
  9
$ANGBASE
 50
0.0
  9
$ANGDIR
 70
     0
  9
$PDMODE
 70
     3
  9
$PDSIZE
 40
-2.0
  9
$PLINEWID
 40
0.0
  9
$SPLFRAME
 70
     0
  9
$SPLINETYPE
 70
     6
  9
$SPLINESEGS
 70
     8
  9
$HANDSEED
  5
30D5
  9
$SURFTAB1
 70
     6
  9
$SURFTAB2
 70
     6
  9
$SURFTYPE
 70
     6
  9
$SURFU
 70
     6
  9
$SURFV
 70
     6
  9
$UCSBASE
  2

  9
$UCSNAME
  2

  9
$UCSORG
 10
0.0
 20
0.0
 30
0.0
  9
$UCSXDIR
 10
1.0
 20
0.0
 30
0.0
  9
$UCSYDIR
 10
0.0
 20
1.0
 30
0.0
  9
$UCSORTHOREF
  2

  9
$UCSORTHOVIEW
 70
     0
  9
$UCSORGTOP
 10
0.0
 20
0.0
 30
0.0
  9
$UCSORGBOTTOM
 10
0.0
 20
0.0
 30
0.0
  9
$UCSORGLEFT
 10
0.0
 20
0.0
 30
0.0
  9
$UCSORGRIGHT
 10
0.0
 20
0.0
 30
0.0
  9
$UCSORGFRONT
 10
0.0
 20
0.0
 30
0.0
  9
$UCSORGBACK
 10
0.0
 20
0.0
 30
0.0
  9
$PUCSBASE
  2

  9
$PUCSNAME
  2

  9
$PUCSORG
 10
0.0
 20
0.0
 30
0.0
  9
$PUCSXDIR
 10
1.0
 20
0.0
 30
0.0
  9
$PUCSYDIR
 10
0.0
 20
1.0
 30
0.0
  9
$PUCSORTHOREF
  2

  9
$PUCSORTHOVIEW
 70
     0
  9
$PUCSORGTOP
 10
0.0
 20
0.0
 30
0.0
  9
$PUCSORGBOTTOM
 10
0.0
 20
0.0
 30
0.0
  9
$PUCSORGLEFT
 10
0.0
 20
0.0
 30
0.0
  9
$PUCSORGRIGHT
 10
0.0
 20
0.0
 30
0.0
  9
$PUCSORGFRONT
 10
0.0
 20
0.0
 30
0.0
  9
$PUCSORGBACK
 10
0.0
 20
0.0
 30
0.0
  9
$USERI1
 70
     0
  9
$USERI2
 70
     0
  9
$USERI3
 70
     0
  9
$USERI4
 70
     0
  9
$USERI5
 70
     0
  9
$USERR1
 40
20.0
  9
$USERR2
 40
0.0
  9
$USERR3
 40
0.0
  9
$USERR4
 40
0.0
  9
$USERR5
 40
0.0
  9
$WORLDVIEW
 70
     1
  9
$SHADEDGE
 70
     3
  9
$SHADEDIF
 70
    70
  9
$TILEMODE
 70
     1
  9
$MAXACTVP
 70
    64
  9
$PINSBASE
 10
0.0
 20
0.0
 30
0.0
  9
$PLIMCHECK
 70
     0
  9
$PEXTMIN
 10
1.000000000000000E+20
 20
1.000000000000000E+20
 30
1.000000000000000E+20
  9
$PEXTMAX
 10
-1.000000000000000E+20
 20
-1.000000000000000E+20
 30
-1.000000000000000E+20
  9
$PLIMMIN
 10
0.0
 20
0.0
  9
$PLIMMAX
 10
12.0
 20
9.0
  9
$UNITMODE
 70
     0
  9
$VISRETAIN
 70
     1
  9
$PLINEGEN
 70
     0
  9
$PSLTSCALE
 70
     1
  9
$TREEDEPTH
 70
  3020
  9
$CMLSTYLE
  2
Standard
  9
$CMLJUST
 70
     0
  9
$CMLSCALE
 40
1.0
  9
$PROXYGRAPHICS
 70
     1
  9
$MEASUREMENT
 70
     0
  9
$CELWEIGHT
370
    -1
  9
$ENDCAPS
280
     0
  9
$JOINSTYLE
280
     0
  9
$LWDISPLAY
290
     0
  9
$INSUNITS
 70
     0
  9
$HYPERLINKBASE
  1

  9
$STYLESHEET
  1

  9
$XEDIT
290
     1
  9
$CEPSNTYPE
380
     0
  9
$PSTYLEMODE
290
     1
  9
$FINGERPRINTGUID
  2
{12E9B1D0-72DF-4F59-9990-B03269FB2240}
  9
$VERSIONGUID
  2
{6DCF40EB-81F8-4199-94DB-B12D8CD822D4}
  9
$EXTNAMES
290
     1
  9
$PSVPSCALE
 40
0.0
  9
$OLESTARTUP
290
     0
  0
ENDSEC
  0
SECTION
  2
CLASSES
  0
CLASS
  1
ACDBDICTIONARYWDFLT
  2
AcDbDictionaryWithDefault
  3
ObjectDBX Classes
 90
        0
280
     0
281
     0
  0
CLASS
  1
MATERIAL
  2
AcDbMaterial
  3
ObjectDBX Classes
 90
     1153
280
     0
281
     0
  0
CLASS
  1
VISUALSTYLE
  2
AcDbVisualStyle
  3
ObjectDBX Classes
 90
     4095
280
     0
281
     0
  0
CLASS
  1
SCALE
  2
AcDbScale
  3
ObjectDBX Classes
 90
     1153
280
     0
281
     0
  0
CLASS
  1
TABLESTYLE
  2
AcDbTableStyle
  3
ObjectDBX Classes
 90
     4095
280
     0
281
     0
  0
CLASS
  1
MLEADERSTYLE
  2
AcDbMLeaderStyle
  3
ACDB_MLEADERSTYLE_CLASS
 90
     4095
280
     0
281
     0
  0
CLASS
  1
AMGSETTINGSOBJ
  2
AmgSettingsObj
  3
"AcadM|Product Description: AutoCAD Mechanical|Company: Autodesk, Inc."
 90
     1024
280
     0
281
     0
  0
CLASS
  1
ACME_DOCUMENT
  2
AcMeDbDoc
  3
AcMeServices
 90
     1024
280
     0
281
     0
  0
CLASS
  1
ACMESCOPE
  2
AcMeScope
  3
AcMeServices
 90
     1024
280
     0
281
     0
  0
CLASS
  1
ACMECOMMANDHISTORY
  2
AcMeCommandHistory
  3
AcMeServices
 90
     1024
280
     0
281
     0
  0
CLASS
  1
ACIMSYSVARMAN
  2
AcImSysVarManager
  3
AcMeServices
 90
     1024
280
     0
281
     0
  0
CLASS
  1
ACIMREALSYSVAR
  2
AcImRealSysVar
  3
AcMeServices
 90
     1024
280
     0
281
     0
  0
CLASS
  1
ACIMINTSYSVAR
  2
AcImIntSysVar
  3
AcMeServices
 90
     1024
280
     0
281
     0
  0
CLASS
  1
ACMEDRAWINGMAN
  2
AcMeDrawingMan
  3
AcMeServices
 90
     1024
280
     0
281
     0
  0
CLASS
  1
ACMEVIEW
  2
AcMeView
  3
AcMeServices
 90
     1024
280
     0
281
     0
  0
CLASS
  1
ACDBENTITYCACHE
  2
AcMeEntityCache
  3
AcMeServices
 90
     1024
280
     0
281
     0
  0
CLASS
  1
GSMANAGER
  2
AcMeGSManager
  3
AcMeServices
 90
     1024
280
     0
281
     0
  0
CLASS
  1
AMDTINTERNALREACTOR
  2
AmdtInternalReactor
  3
AcMeServices
 90
     1024
280
     0
281
     0
  0
CLASS
  1
ACMESTATEMGR
  2
AcMeStateMgr
  3
AcMeServices
 90
     1024
280
     0
281
     0
  0
CLASS
  1
ACGREFMASTER
  2
AcGrefMaster
  3
AcAttribServices
 90
     1024
280
     0
281
     0
  0
CLASS
  1
AM_DRAWING_MGR
  2
AcDmDwgMgr
  3
AcMechDwgViewMgmt
 90
     1024
280
     0
281
     0
  0
CLASS
  1
AM_DWG_DOCUMENT
  2
AcDmDwgDocument
  3
AcMechDwgViewMgmt
 90
     1024
280
     0
281
     0
  0
CLASS
  1
AM_DWG_SHEET
  2
AcDmSheet
  3
AcMechDwgViewMgmt
 90
     1024
280
     0
281
     0
  0
CLASS
  1
AM_VIEWDIMPARMAP
  2
AcDmViewDimParMap
  3
AcMechDwgViewMgmt
 90
     1024
280
     0
281
     0
  0
CLASS
  1
AM_DWGMGR_NAME
  2
AcDmDwgMgrName
  3
AcMechDwgViewMgmt
 90
     1024
280
     0
281
     0
  0
CLASS
  1
ACME_DATABASE
  2
AcMeDbDatabase
  3
AcMeServices
 90
     1024
280
     0
281
     0
  0
CLASS
  1
ACRFINSADJUSTERMGR
  2
AcRfInsAdjusterMgr
  3
AcMeServices
 90
     1024
280
     0
281
     0
  0
CLASS
  1
ACGREFACADMASTER
  2
AcGrefacadMaster
  3
AcGrefServices
 90
     1024
280
     0
281
     0
  0
CLASS
  1
AMDTMENUSTATEMGR
  2
AmdtMenuStateMgr
  3
McadcomServices
 90
     1024
280
     0
281
     0
  0
CLASS
  1
AMDTMCOMMENUSTATE
  2
AmdtMcomMenuState
  3
McadcomServices
 90
     1024
280
     0
281
     0
  0
CLASS
  1
AMIMASTER
  2
AmiMaster
  3
AmiServices
 90
     1024
280
     0
281
     0
  0
CLASS
  1
ASAPP
  2
AcAsAppObject
  3
AutoSurfServices
 90
     1024
280
     0
281
     0
  0
CLASS
  1
IM_STATIC_MAN
  2
AcImStaticVarManager
  3
AcMeServices
 90
     1024
280
     0
281
     0
  0
CLASS
  1
ACIMSTRSYSVAR
  2
AcImStrSysVar
  3
AcMeServices
 90
     1024
280
     0
281
     0
  0
CLASS
  1
ACIMDBLSTATICVAR
  2
AcImDblStaticVar
  3
AcMeServices
 90
     1024
280
     0
281
     0
  0
CLASS
  1
ACIMSTRSTATICVAR
  2
AcImStrStaticVar
  3
AcMeServices
 90
     1024
280
     0
281
     0
  0
CLASS
  1
ACIMINTSTATICVAR
  2
AcImIntStaticVar
  3
AcMeServices
 90
     1024
280
     0
281
     0
  0
CLASS
  1
ACASGREFMASTER
  2
AcAsGrefMaster
  3
AutoSurfResolverServices
 90
     1024
280
     0
281
     0
  0
CLASS
  1
ACADGREFMODULE
  2
AcAdGrefModule
  3
AdGrefServices
 90
     1024
280
     0
281
     0
  0
CLASS
  1
AMDTMAPISURFMOUDULE
  2
AmdtMApiSurfModule
  3
MApiSurfServices
 90
     1024
280
     0
281
     0
  0
CLASS
  1
MAPIAMMOUDLE
  2
MApiAmModule
  3
MApiAmServices
 90
     1024
280
     0
281
     0
  0
CLASS
  1
AMDTADMENUSTATE
  2
AmdtAdMenuState
  3
DesignerServices
 90
     1024
280
     0
281
     0
  0
CLASS
  1
ADAPPL
  2
AcAdAppl
  3
DesignerServices
 90
     1024
280
     0
281
     0
  0
CLASS
  1
DEPMGR
  2
AcAdDepMgr
  3
DesignerServices
 90
     1024
280
     0
281
     0
  0
CLASS
  1
PARAMMGR
  2
AcAdParamMgr
  3
DesignerServices
 90
     1024
280
     0
281
     0
  0
CLASS
  1
PARAMSCOPE
  2
AcAdParamScope
  3
DesignerServices
 90
     1024
280
     0
281
     0
  0
CLASS
  1
NAMEDAPPL
  2
AcAdNamedAppl
  3
DesignerServices
 90
     1024
280
     0
281
     0
  0
CLASS
  1
AMDTDMMENUSTATE
  2
AmdtDmMenuState
  3
AcMechDwgViewMgmt
 90
     1024
280
     0
281
     0
  0
CLASS
  1
MAPIADMODULE
  2
MApiAdModule
  3
MApiAdServices
 90
     1024
280
     0
281
     0
  0
CLASS
  1
AMDTAMMENUSTATE
  2
AmdtAmMenuState
  3
DesignerAssemblies
 90
     1024
280
     0
281
     0
  0
CLASS
  1
ACAMPROJECT
  2
AcAmProject
  3
DesignerAssemblies
 90
     1024
280
     0
281
     0
  0
CLASS
  1
ACAMGRCOMPDEF
  2
AcAmGrCompDef
  3
DesignerAssemblies
 90
     1024
280
     0
281
     0
  0
CLASS
  1
ACCMCONTEXT
  2
AcCmContext
  3
DesignerAssemblies
 90
     1024
280
     0
281
     0
  0
CLASS
  1
ACAMCOMPDEF
  2
AcAmCompDef
  3
DesignerAssemblies
 90
     1024
280
     0
281
     0
  0
CLASS
  1
ACAMCOMPDEFMGR
  2
AcAmCompDefMgr
  3
DesignerAssemblies
 90
     1024
280
     0
281
     0
  0
CLASS
  1
AMCONTEXTMGR
  2
AcAmContextMgr
  3
DesignerAssemblies
 90
     1024
280
     0
281
     0
  0
CLASS
  1
ACAMCONTEXTMODELER
  2
AcAmContextModeler
  3
DesignerAssemblies
 90
     1024
280
     0
281
     0
  0
CLASS
  1
ACMDATADICTIONARY
  2
AcmDataDictionary
  3
"AcmSymBB|Product Description: AutoCAD Mechanical|Company: Autodesk, Inc."
 90
     1024
280
     0
281
     0
  0
CLASS
  1
ACMDATAENTRYBLOCK
  2
AcmDataEntryBlock
  3
AcmSymBB|Product Description: AutoCAD Mechanical|Company: Autodesk, Inc.
 90
     1024
280
     0
281
     0
  0
CLASS
  1
ACRFATTGENMGR
  2
AcRfAttGeneralMgr
  3
AcAttribServices
 90
     1024
280
     0
281
     0
  0
CLASS
  1
ACRFOBJATTMGR
  2
AcRfObjAttGroupMgr
  3
AcAttribServices
 90
     1024
280
     0
281
     0
  0
CLASS
  1
ACRFMCADAPIATTHOLDER
  2
AcRfMCADAPIAttHolder
  3
AcAttribServices
 90
     1024
280
     0
281
     0
  0
CLASS
  1
AMDTSYSATTR
  2
AmdtSystemAttribute
  3
AcAttribServices
 90
     1024
280
     0
281
     0
  0
CLASS
  1
CATALOGSTATE
  2
AcAmCatalogState
  3
DesignerAssemblies
 90
     1024
280
     0
281
     0
  0
CLASS
  1
ACAMGRCOMPDEFSET
  2
AcAmGrCompDefSet
  3
DesignerAssemblies
 90
     1024
280
     0
281
     0
  0
CLASS
  1
AMDTBROWSERDBTAB
  2
AmdtBrowserDbTab
  3
McadcomServices
 90
     1024
280
     0
281
     0
  0
CLASS
  1
CBROWSERAPPOBJECT
  2
CBrowserAppObject
  3
McadcomServices
 90
     1024
280
     0
281
     0
  0
CLASS
  1
DM_PLACEHOLDER
  2
AcDmSelsetPlaceholder
  3
AcMechDwgViewMgmt
 90
     1024
280
     0
281
     0
  0
CLASS
  1
ACMSTANDARDANSI
  2
AcmStandardANSI
  3
"Amdt_StdImp|Product Description: AutoCAD Mechanical|Company: Autodesk, Inc."
 90
     1024
280
     0
281
     0
  0
CLASS
  1
ACMSURFSTANDARDANSI
  2
AcmSurfTextStdANSI
  3
"Amdt_StdImp|Product Description: AutoCAD Mechanical|Company: Autodesk, Inc."
 90
     1024
280
     0
281
     0
  0
CLASS
  1
ACMFCFSTANDARDANSI
  2
AcmFCFStdANSI
  3
"Amdt_StdImp|Product Description: AutoCAD Mechanical|Company: Autodesk, Inc."
 90
     1024
280
     0
281
     0
  0
CLASS
  1
ACMWELDSTANDARDANSI
  2
AcmWeldingStdANSI
  3
"Amdt_StdImp|Product Description: AutoCAD Mechanical|Company: Autodesk, Inc."
 90
     1024
280
     0
281
     0
  0
CLASS
  1
ACMIDSTANDARDANSI
  2
AcmIdStdANSI
  3
"Amdt_StdImp|Product Description: AutoCAD Mechanical|Company: Autodesk, Inc."
 90
     1024
280
     0
281
     0
  0
CLASS
  1
ACMDATUMSTANDARDANSI
  2
AcmDatumStdANSI
  3
"Amdt_StdImp|Product Description: AutoCAD Mechanical|Company: Autodesk, Inc."
 90
     1024
280
     0
281
     0
  0
CLASS
  1
ACMBOMSTANDARDANSI
  2
AcmBOMStdANSI
  3
"Amdt_StdImp|Product Description: AutoCAD Mechanical|Company: Autodesk, Inc."
 90
     1024
280
     0
281
     0
  0
CLASS
  1
ACMDETAILSTANDARDANSI
  2
AmdtDetailSymStdANSI
  3
"Amdt_StdImp|Product Description: AutoCAD Mechanical|Company: Autodesk, Inc."
 90
     1024
280
     0
281
     0
  0
CLASS
  1
ACMSECTIONSTANDARDANSI
  2
AmdtSectionSymStdANSI
  3
"Amdt_StdImp|Product Description: AutoCAD Mechanical|Company: Autodesk, Inc."
 90
     1024
280
     0
281
     0
  0
CLASS
  1
ACMCENTERLINESTANDARDANSI
  2
AmdtCenterLineStdANSI
  3
"Amdt_StdImp|Product Description: AutoCAD Mechanical|Company: Autodesk, Inc."
 90
     1024
280
     0
281
     0
  0
CLASS
  1
ACMTHREADLINESTANDARDANSI
  2
AmdtThreadLineStdANSI
  3
"Amdt_StdImp|Product Description: AutoCAD Mechanical|Company: Autodesk, Inc."
 90
     1024
280
     0
281
     0
  0
CLASS
  1
ACMNOTESTANDARDANSI
  2
AmdtNoteStdANSI
  3
"Amdt_StdImp|Product Description: AutoCAD Mechanical|Company: Autodesk, Inc."
 90
     1024
280
     0
281
     0
  0
CLASS
  1
ACMTAPERSTANDARDANSI
  2
AcmTaperStdANSI
  3
"Amdt_StdImp|Product Description: AutoCAD Mechanical|Company: Autodesk, Inc."
 90
     1024
280
     0
281
     0
  0
CLASS
  1
ACMANOOTATIONVIEWSTANDARDANSI
  2
AmdtAnViewStdANSI
  3
"Amdt_StdImp|Product Description: AutoCAD Mechanical|Company: Autodesk, Inc."
 90
     1024
280
     0
281
     0
  0
CLASS
  1
ACAMGLAYSTD
  2
AcAmgLayStd
  3
"AmgLay|Product Description: AutoCAD Mechanical|Company: Autodesk, Inc."
 90
     1024
280
     0
281
     0
  0
CLASS
  1
ACAMGDIMSTD
  2
AcAmgDimStd
  3
"AmgDim|Product Description: AutoCAD Mechanical|Company: Autodesk, Inc."
 90
     1024
280
     0
281
     0
  0
CLASS
  1
ACAMGHOLECHARTSTDANSI
  2
AcAmgHoleChartStdANSI
  3
AmgDim|Product Description: AutoCAD Mechanical|Company: Autodesk, Inc.
 90
     1024
280
     0
281
     0
  0
CLASS
  1
AMGOBJPROPCFG
  2
AmgObjPropCfg
  3
"AmgLay|Product Description: AutoCAD Mechanical|Company: Autodesk, Inc."
 90
     1025
280
     0
281
     0
  0
CLASS
  1
ACAMGTITLESTD
  2
AcAmgTitleStd
  3
"AmgTitle|Product Description: AutoCAD Mechanical|Company: Autodesk, Inc."
 90
     4095
280
     0
281
     0
  0
CLASS
  1
AMDTNOTETEMPLATEDB
  2
AmdtNoteTemplateDB
  3
AcmSymBB|Product Description: AutoCAD Mechanical|Company: Autodesk, Inc.
 90
     1024
280
     0
281
     0
  0
CLASS
  1
LAYER_INDEX
  2
AcDbLayerIndex
  3
ObjectDBX Classes
 90
        0
280
     0
281
     0
  0
CLASS
  1
IDBUFFER
  2
AcDbIdBuffer
  3
ObjectDBX Classes
 90
        0
280
     0
281
     0
  0
CLASS
  1
DICTIONARYVAR
  2
AcDbDictionaryVar
  3
ObjectDBX Classes
 90
        0
280
     0
281
     0
  0
CLASS
  1
CELLSTYLEMAP
  2
AcDbCellStyleMap
  3
ObjectDBX Classes
 90
     1152
280
     0
281
     0
  0
CLASS
  1
ACDBPLACEHOLDER
  2
AcDbPlaceHolder
  3
ObjectDBX Classes
 90
        0
280
     0
281
     0
  0
CLASS
  1
LAYOUT
  2
AcDbLayout
  3
ObjectDBX Classes
 90
        0
280
     0
281
     0
  0
ENDSEC
  0
SECTION
  2
TABLES
  0
TABLE
  2
VPORT
  5
2ECC
330
0
100
AcDbSymbolTable
 70
     1
  0
VPORT
  5
2F3C
330
2ECC
100
AcDbSymbolTableRecord
100
AcDbViewportTableRecord
  2
*ACTIVE
 70
     0
 10
0.0
 20
0.0
 11
1.0
 21
1.0
 12
0.0
 22
0.0
 13
0.0
 23
0.0
 14
1.0
 24
1.0
 15
0.0
 25
0.0
 16
0.0
 26
0.0
 36
1.0
 17
79.08097705696781
 27
-184.570302935981
 37
0.0
 40
1270.845617496789
 41
1.712555066079295
 42
50.0
 43
0.0
 44
0.0
 50
0.0
 51
0.0
 71
     0
 72
   100
 73
     1
 74
     0
 75
     0
 76
     0
 77
     0
 78
     0
281
     0
 65
     0
110
0.0
120
0.0
130
0.0
111
1.0
121
0.0
131
0.0
112
0.0
122
1.0
132
0.0
 79
     0
146
0.0
  0
ENDTAB
  0
TABLE
  2
LTYPE
  5
2EC9
330
0
100
AcDbSymbolTable
 70
    19
  0
LTYPE
  5
2F26
330
2EC9
100
AcDbSymbolTableRecord
100
AcDbLinetypeTableRecord
  2
ByBlock
 70
     0
  3

 72
    65
 73
     0
 40
0.0
  0
LTYPE
  5
2F27
330
2EC9
100
AcDbSymbolTableRecord
100
AcDbLinetypeTableRecord
  2
ByLayer
 70
     0
  3

 72
    65
 73
     0
 40
0.0
  0
LTYPE
  5
2F28
330
2EC9
100
AcDbSymbolTableRecord
100
AcDbLinetypeTableRecord
  2
CONTINUOUS
 70
     0
  3
実線
 72
    65
 73
     0
 40
0.0
  0
LTYPE
  5
2F3D
330
2EC9
100
AcDbSymbolTableRecord
100
AcDbLinetypeTableRecord
  2
DASHDOT
 70
     0
  3
____ _ ____ _ ____ _ ____ _ ____ _ ____ _ ____
 72
    65
 73
     4
 40
5.5
 49
4.0
 74
     0
 49
-0.6
 74
     0
 49
0.3
 74
     0
 49
-0.6
 74
     0
  0
LTYPE
  5
2F3E
330
2EC9
100
AcDbSymbolTableRecord
100
AcDbLinetypeTableRecord
  2
HIDDEN
 70
     0
  3
Hidden __ __ __ __ __ __ __ __ __ __ __ __ __ _
 72
    65
 73
     2
 40
0.375
 49
0.25
 74
     0
 49
-0.125
 74
     0
  0
LTYPE
  5
2F3F
330
2EC9
100
AcDbSymbolTableRecord
100
AcDbLinetypeTableRecord
  2
PHANTOM2
 70
     0
  3
Phantom (.5x) ___ _ _ ___ _ _ ___ _ _ ___ _ _
 72
    65
 73
     6
 40
1.25
 49
0.625
 74
     0
 49
-0.125
 74
     0
 49
0.125
 74
     0
 49
-0.125
 74
     0
 49
0.125
 74
     0
 49
-0.125
 74
     0
  0
LTYPE
  5
2F40
330
2EC9
100
AcDbSymbolTableRecord
100
AcDbLinetypeTableRecord
  2
CENTER
 70
     0
  3
Center ____ _ ____ _ ____ _ ____ _ ____ _ ____
 72
    65
 73
     4
 40
2.0
 49
1.25
 74
     0
 49
-0.25
 74
     0
 49
0.25
 74
     0
 49
-0.25
 74
     0
  0
LTYPE
  5
2F41
330
2EC9
100
AcDbSymbolTableRecord
100
AcDbLinetypeTableRecord
  2
ASULTYPE
 70
     0
  3
実線
 72
    65
 73
     2
 40
3.0
 49
2.5
 74
     0
 49
0.5
 74
     0
  0
LTYPE
  5
2F42
330
2EC9
100
AcDbSymbolTableRecord
100
AcDbLinetypeTableRecord
  2
ASVLTYPE
 70
     0
  3
__ __ __ __ __ __ __ __ __ __ __ __ __ __ __ __ __ __ __ __ __
 72
    65
 73
     2
 40
0.75
 49
0.5
 74
     0
 49
-0.25
 74
     0
  0
LTYPE
  5
2F43
330
2EC9
100
AcDbSymbolTableRecord
100
AcDbLinetypeTableRecord
  2
AM_ISO02W050
 70
     0
  3
__ __ __ __ __ __ __ __ __ __ __ __ __ __ __
 72
    65
 73
     2
 40
7.5
 49
6.0
 74
     0
 49
-1.5
 74
     0
  0
LTYPE
  5
2F44
330
2EC9
100
AcDbSymbolTableRecord
100
AcDbLinetypeTableRecord
  2
AM_ISO08W050
 70
     0
  3
____ . ____ . ____ . ____ . ____ . ____ . ____
 72
    65
 73
     4
 40
18.0
 49
12.0
 74
     0
 49
-1.5
 74
     0
 49
3.0
 74
     0
 49
-1.5
 74
     0
  0
LTYPE
  5
2F45
330
2EC9
100
AcDbSymbolTableRecord
100
AcDbLinetypeTableRecord
  2
AM_ISO09W050
 70
     0
  3
_____ . . _____ . . _____ . . ____ .. ____
 72
    65
 73
     6
 40
22.5
 49
12.0
 74
     0
 49
-1.5
 74
     0
 49
3.0
 74
     0
 49
-1.5
 74
     0
 49
3.0
 74
     0
 49
-1.5
 74
     0
  0
LTYPE
  5
2F46
330
2EC9
100
AcDbSymbolTableRecord
100
AcDbLinetypeTableRecord
  2
AMCONSTR
 70
     0
  3
_______________________
 72
    65
 73
     2
 40
9999.0
 49
9999.0
 74
     0
 49
0.0
 74
     0
  0
LTYPE
  5
2F47
330
2EC9
100
AcDbSymbolTableRecord
100
AcDbLinetypeTableRecord
  2
AM_ISO08W050X2
 70
     0
  3
__ . __ . __ . __ . __ . __
 72
    65
 73
     4
 40
9.0
 49
6.0
 74
     0
 49
-0.75
 74
     0
 49
1.5
 74
     0
 49
-0.75
 74
     0
  0
LTYPE
  5
2F48
330
2EC9
100
AcDbSymbolTableRecord
100
AcDbLinetypeTableRecord
  2
AM_ISO02W050X2
 70
     0
  3
 _ _ _ _ _ _ _ _ _ _ _ _
 72
    65
 73
     2
 40
3.75
 49
3.0
 74
     0
 49
-0.75
 74
     0
  0
LTYPE
  5
2F49
330
2EC9
100
AcDbSymbolTableRecord
100
AcDbLinetypeTableRecord
  2
AMZIGZAG
 70
     0
  3
/\/-/\/-/\/-/\/-/\/-/\/
 72
    65
 73
     2
 40
11.0001
 49
0.0001
 74
     0
 49
-11.0
 74
     0
  0
LTYPE
  5
2F4A
330
2EC9
100
AcDbSymbolTableRecord
100
AcDbLinetypeTableRecord
  2
CENTER2
 70
     0
  3
Center (.5x) ___ _ ___ _ ___ _ ___ _ ___ _ ___
 72
    65
 73
     4
 40
1.125
 49
0.75
 74
     0
 49
-0.125
 74
     0
 49
0.125
 74
     0
 49
-0.125
 74
     0
  0
LTYPE
  5
2F4B
330
2EC9
100
AcDbSymbolTableRecord
100
AcDbLinetypeTableRecord
  2
HIDDEN2
 70
     0
  3
Hidden (.5x) _ _ _ _ _ _ _ _ _ _ _ _ _ _ _ _ _
 72
    65
 73
     2
 40
0.1875
 49
0.125
 74
     0
 49
-0.0625
 74
     0
  0
LTYPE
  5
2F4C
330
2EC9
100
AcDbSymbolTableRecord
100
AcDbLinetypeTableRecord
  2
AMZIGZAG2
 70
     0
  3
/\/-/\/-/\/-/\/-/\/-/\/
 72
    65
 73
     2
 40
0.4401
 49
0.0001
 74
     0
 49
-0.4400000000000003
 74
     0
  0
LTYPE
  5
2F4D
330
2EC9
100
AcDbSymbolTableRecord
100
AcDbLinetypeTableRecord
  2
ACANSTGB
 70
     0
  3
__ . . __ . .
 72
    65
 73
     6
 40
0.35433070866
 49
0.15748031496
 74
     0
 49
-0.03937007874
 74
     0
 49
0.03937007874
 74
     0
 49
-0.03937007874
 74
     0
 49
0.03937007874
 74
     0
 49
-0.03937007874
 74
     0
  0
LTYPE
  5
2F4E
330
2EC9
100
AcDbSymbolTableRecord
100
AcDbLinetypeTableRecord
  2
ACANSTGL
 70
     0
  3
_ _ _ _ _
 72
    65
 73
     2
 40
0.11811023622
 49
0.07874015748
 74
     0
 49
-0.03937007874
 74
     0
  0
ENDTAB
  0
TABLE
  2
LAYER
  5
2EC6
330
0
100
AcDbSymbolTable
 70
    13
  0
LAYER
  5
2F20
102
{ACAD_XDICTIONARY
360
3091
102
}
330
2EC6
100
AcDbSymbolTableRecord
100
AcDbLayerTableRecord
  2
0
 70
     0
 62
     7
  6
CONTINUOUS
370
    -3
390
2ED3
  0
LAYER
  5
2F4F
102
{ACAD_XDICTIONARY
360
3093
102
}
330
2EC6
100
AcDbSymbolTableRecord
100
AcDbLayerTableRecord
  2
OUTLINE
 70
     0
 62
     3
  6
CONTINUOUS
370
    -3
390
2ED3
  0
LAYER
  5
2F50
102
{ACAD_XDICTIONARY
360
3095
102
}
330
2EC6
100
AcDbSymbolTableRecord
100
AcDbLayerTableRecord
  2
SIZE
 70
     0
 62
    30
  6
CONTINUOUS
370
    -3
390
2ED3
  0
LAYER
  5
2F51
102
{ACAD_XDICTIONARY
360
3097
102
}
330
2EC6
100
AcDbSymbolTableRecord
100
AcDbLayerTableRecord
  2
BASIS
 70
     0
 62
     6
  6
DASHDOT
370
    -3
390
2ED3
  0
LAYER
  5
2F52
102
{ACAD_XDICTIONARY
360
3099
102
}
330
2EC6
100
AcDbSymbolTableRecord
100
AcDbLayerTableRecord
  2
DETAIL
 70
     0
 62
     5
  6
CONTINUOUS
370
    -3
390
2ED3
  0
LAYER
  5
2F53
102
{ACAD_XDICTIONARY
360
309B
102
}
330
2EC6
100
AcDbSymbolTableRecord
100
AcDbLayerTableRecord
  2
ARRANGE
 70
     0
 62
     1
  6
CONTINUOUS
370
    -3
390
2ED3
  0
LAYER
  5
2F54
330
2EC6
100
AcDbSymbolTableRecord
100
AcDbLayerTableRecord
  2
DEFPOINTS
 70
     0
 62
     7
  6
CONTINUOUS
290
     0
370
    -3
390
2ED3
  0
LAYER
  5
2F55
102
{ACAD_XDICTIONARY
360
309D
102
}
330
2EC6
100
AcDbSymbolTableRecord
100
AcDbLayerTableRecord
  2
ETC
 70
     0
 62
    61
  6
CONTINUOUS
370
    -3
390
2ED3
  0
LAYER
  5
2F56
102
{ACAD_XDICTIONARY
360
309F
102
}
330
2EC6
100
AcDbSymbolTableRecord
100
AcDbLayerTableRecord
  2
FIX
 70
     0
 62
    11
  6
CONTINUOUS
370
    -3
390
2ED3
  0
LAYER
  5
2F57
102
{ACAD_XDICTIONARY
360
30A1
102
}
330
2EC6
100
AcDbSymbolTableRecord
100
AcDbLayerTableRecord
  2
NOTE
 70
     0
 62
     4
  6
CONTINUOUS
370
    -3
390
2ED3
  0
LAYER
  5
2F58
102
{ACAD_XDICTIONARY
360
30A3
102
}
330
2EC6
100
AcDbSymbolTableRecord
100
AcDbLayerTableRecord
  2
SERVICESPACE
 70
     0
 62
     2
  6
DASHDOT
370
    -3
390
2ED3
  0
LAYER
  5
2F59
102
{ACAD_XDICTIONARY
360
30A5
102
}
330
2EC6
100
AcDbSymbolTableRecord
100
AcDbLayerTableRecord
  2
SYMBOLLINE
 70
     0
 62
    15
  6
CONTINUOUS
370
    -3
390
2ED3
  0
LAYER
  5
2F5A
102
{ACAD_XDICTIONARY
360
30A7
102
}
330
2EC6
100
AcDbSymbolTableRecord
100
AcDbLayerTableRecord
  2
DETAIL___1
 70
     0
 62
     5
  6
CONTINUOUS
370
    -3
390
2ED3
  0
ENDTAB
  0
TABLE
  2
STYLE
  5
2EC7
330
0
100
AcDbSymbolTable
 70
     5
  0
STYLE
  5
2F21
330
2EC7
100
AcDbSymbolTableRecord
100
AcDbTextStyleTableRecord
  2
STANDARD
 70
     0
 40
64.0
 41
0.9
 50
0.0
 71
     0
 42
64.0
  3
SIMPLEX.shx
  4
BIGFONT.shx
  0
STYLE
  5
2F25
330
2EC7
100
AcDbSymbolTableRecord
100
AcDbTextStyleTableRecord
  2
ANNOTATIVE
 70
     0
 40
0.0
 41
1.0
 50
0.0
 71
     0
 42
0.2
  3
txt
  4

1001
ACADANNOTATIVE
1000
AnnotativeData
1002
{
1070
     1
1070
     1
1002
}
  0
STYLE
  5
2F5B
330
2EC7
100
AcDbSymbolTableRecord
100
AcDbTextStyleTableRecord
  2

 70
     1
 40
0.0
 41
1.0
 50
0.0
 71
     0
 42
64.0
  3
genltshp.shx
  4

  0
STYLE
  5
2F5C
330
2EC7
100
AcDbSymbolTableRecord
100
AcDbTextStyleTableRecord
  2
ACANSTS
 70
     0
 40
1.0
 41
1.0
 50
0.0
 71
     0
 42
64.0
  3
romans.shx
  4
extfont.shx
  0
STYLE
  5
2F5D
330
2EC7
100
AcDbSymbolTableRecord
100
AcDbTextStyleTableRecord
  2
ACANSGDT
 70
     0
 40
0.0
 41
1.0
 50
0.0
 71
     0
 42
64.0
  3
amgdt.shx
  4

  0
ENDTAB
  0
TABLE
  2
VIEW
  5
2ECA
330
0
100
AcDbSymbolTable
 70
     1
  0
VIEW
  5
2F5E
330
2ECA
100
AcDbSymbolTableRecord
100
AcDbViewTableRecord
  2
ALL
 70
     0
 40
4282.619807999997
 10
0.0
 20
41.30990399999999
 41
5940.0
 11
0.0
 21
0.0
 31
1.0
 12
0.0
 22
0.0
 32
0.0
 42
50.0
 43
0.0
 44
0.0
 50
0.0
 71
     0
281
     0
 72
     1
110
0.0
120
0.0
130
0.0
111
1.0
121
0.0
131
0.0
112
0.0
122
1.0
132
0.0
 79
     0
146
0.0
  0
ENDTAB
  0
TABLE
  2
UCS
  5
2ECB
330
0
100
AcDbSymbolTable
 70
     0
  0
ENDTAB
  0
TABLE
  2
APPID
  5
2ECD
330
0
100
AcDbSymbolTable
 70
    30
  0
APPID
  5
2F22
330
2ECD
100
AcDbSymbolTableRecord
100
AcDbRegAppTableRecord
  2
ACAD
 70
     0
  0
APPID
  5
2F29
330
2ECD
100
AcDbSymbolTableRecord
100
AcDbRegAppTableRecord
  2
ACADANNOTATIVE
 70
     0
  0
APPID
  5
2F33
330
2ECD
100
AcDbSymbolTableRecord
100
AcDbRegAppTableRecord
  2
ACAD_MLEADERVER
 70
     0
  0
APPID
  5
2F5F
330
2ECD
100
AcDbSymbolTableRecord
100
AcDbRegAppTableRecord
  2
GENIUS_GENDIM_13
 70
     0
  0
APPID
  5
2F60
330
2ECD
100
AcDbSymbolTableRecord
100
AcDbRegAppTableRecord
  2
GENIUS_GENDTOL_13
 70
     0
  0
APPID
  5
2F61
330
2ECD
100
AcDbSymbolTableRecord
100
AcDbRegAppTableRecord
  2
GENIUS_GE3DTOL_13
 70
     0
  0
APPID
  5
2F62
330
2ECD
100
AcDbSymbolTableRecord
100
AcDbRegAppTableRecord
  2
MCAD_NO_VIS
 70
     0
  0
APPID
  5
2F63
330
2ECD
100
AcDbSymbolTableRecord
100
AcDbRegAppTableRecord
  2
ACAD_TEMP_GRAPHIC
 70
     0
  0
APPID
  5
2F64
330
2ECD
100
AcDbSymbolTableRecord
100
AcDbRegAppTableRecord
  2
AD_DRAW
 70
     0
  0
APPID
  5
2F65
330
2ECD
100
AcDbSymbolTableRecord
100
AcDbRegAppTableRecord
  2
ACATTRIBSERVICES
 70
     0
  0
APPID
  5
2F66
330
2ECD
100
AcDbSymbolTableRecord
100
AcDbRegAppTableRecord
  2
ASURF_PCURVE_APPNAME
 70
     0
  0
APPID
  5
2F67
330
2ECD
100
AcDbSymbolTableRecord
100
AcDbRegAppTableRecord
  2
AMG_3D2D_5_0
 70
     0
  0
APPID
  5
2F68
330
2ECD
100
AcDbSymbolTableRecord
100
AcDbRegAppTableRecord
  2
DESIGNERASSEMBLIES
 70
     0
  0
APPID
  5
2F69
330
2ECD
100
AcDbSymbolTableRecord
100
AcDbRegAppTableRecord
  2
ACADM_DIM_EDIT
 70
     0
  0
APPID
  5
2F6A
330
2ECD
100
AcDbSymbolTableRecord
100
AcDbRegAppTableRecord
  2
AMDT_DM_ADJ
 70
     0
  0
APPID
  5
2F6B
330
2ECD
100
AcDbSymbolTableRecord
100
AcDbRegAppTableRecord
  2
ACAD_DSTYLE_DIMARC_LENGTH_
 70
     0
  0
APPID
  5
2F6C
330
2ECD
100
AcDbSymbolTableRecord
100
AcDbRegAppTableRecord
  2
ACAD_DSTYLE_DIMJOGGED_JOGA
 70
     0
  0
APPID
  5
2F6D
330
2ECD
100
AcDbSymbolTableRecord
100
AcDbRegAppTableRecord
  2
ACAD_PSEXT
 70
     0
  0
APPID
  5
2F6E
330
2ECD
100
AcDbSymbolTableRecord
100
AcDbRegAppTableRecord
  2
ACAD_EXEMPT_FROM_CAD_STANDARDS
 70
     0
  0
APPID
  5
2F6F
330
2ECD
100
AcDbSymbolTableRecord
100
AcDbRegAppTableRecord
  2
ACAD_DSTYLE_DIMJAG
 70
     0
  0
APPID
  5
2F70
330
2ECD
100
AcDbSymbolTableRecord
100
AcDbRegAppTableRecord
  2
ACAD_DSTYLE_DIMTALN
 70
     0
  0
APPID
  5
2F71
330
2ECD
100
AcDbSymbolTableRecord
100
AcDbRegAppTableRecord
  2
AMG_3D2D_5_00
 70
     0
  0
APPID
  5
2F72
330
2ECD
100
AcDbSymbolTableRecord
100
AcDbRegAppTableRecord
  2
AMG_3D2D_5_01
 70
     0
  0
APPID
  5
2F73
330
2ECD
100
AcDbSymbolTableRecord
100
AcDbRegAppTableRecord
  2
AMG_3D2D_5_02
 70
     0
  0
APPID
  5
2F74
330
2ECD
100
AcDbSymbolTableRecord
100
AcDbRegAppTableRecord
  2
AMG_3D2D_5_03
 70
     0
  0
APPID
  5
3038
330
2ECD
100
AcDbSymbolTableRecord
100
AcDbRegAppTableRecord
  2
AMG_3D2D_5.0
 70
     0
  0
APPID
  5
30D1
330
2ECD
100
AcDbSymbolTableRecord
100
AcDbRegAppTableRecord
  2
ACAD_DSTYLE_DIMARC_LENGTH_SYMBOL
 70
     0
  0
APPID
  5
30D2
330
2ECD
100
AcDbSymbolTableRecord
100
AcDbRegAppTableRecord
  2
ACAD_DSTYLE_DIM_LINETYPE
 70
     0
  0
APPID
  5
30D3
330
2ECD
100
AcDbSymbolTableRecord
100
AcDbRegAppTableRecord
  2
ACAD_DSTYLE_DIM_EXT1_LINETYPE
 70
     0
  0
APPID
  5
30D4
330
2ECD
100
AcDbSymbolTableRecord
100
AcDbRegAppTableRecord
  2
ACAD_DSTYLE_DIM_EXT2_LINETYPE
 70
     0
  0
ENDTAB
  0
TABLE
  2
DIMSTYLE
  5
2ECE
330
0
100
AcDbSymbolTable
 70
    10
100
AcDbDimStyleTable
 71
     1
340
2F75
  0
DIMSTYLE
105
2F23
330
2ECE
100
AcDbSymbolTableRecord
100
AcDbDimStyleTableRecord
  2
STANDARD
 70
     0
 41
12.0
 42
20.0
 44
20.0
 77
     1
 78
     8
140
64.0
141
0.0
147
10.0
172
     1
275
     1
279
     2
284
     7
285
     7
286
     7
340
2F21
  0
DIMSTYLE
105
2F24
330
2ECE
100
AcDbSymbolTableRecord
100
AcDbDimStyleTableRecord
  2
ANNOTATIVE
 70
     0
275
     1
279
     2
284
     7
285
     7
286
     7
340
2F21
1001
ACADANNOTATIVE
1000
AnnotativeData
1002
{
1070
     1
1070
     1
1002
}
  0
DIMSTYLE
105
2F75
330
2ECE
100
AcDbSymbolTableRecord
100
AcDbDimStyleTableRecord
  2
AM_ANSI
 70
     0
  4
mm
 41
0.12
 42
0.05
 43
0.5
 44
0.1
 47
0.1
 48
0.1
 78
     7
 79
     2
140
0.12
141
0.0
146
0.71
147
0.06
176
   256
177
   256
178
     2
274
     4
284
     7
340
2F21
371
    -1
372
    -1
1001
ACAD_DSTYLE_DIMARC_LENGTH_SYMBOL
1070
   379
1070
     1
1001
ACAD_DSTYLE_DIM_LINETYPE
1070
   380
1005
2F26
1001
ACAD_DSTYLE_DIM_EXT1_LINETYPE
1070
   381
1005
2F26
1001
ACAD_DSTYLE_DIM_EXT2_LINETYPE
1070
   382
1005
2F26
  0
DIMSTYLE
105
2F76
330
2ECE
100
AcDbSymbolTableRecord
100
AcDbDimStyleTableRecord
  2
AM_ANSI$3
 70
     0
  4
mm
 41
0.12
 42
0.05
 43
0.5
 44
0.1
 47
0.1
 48
0.1
 78
     7
 79
     2
140
0.12
141
0.0
146
0.71
147
0.06
176
   256
177
   256
178
     2
274
     4
284
     7
288
     1
289
     0
340
2F21
371
    -1
372
    -1
1001
ACAD_DSTYLE_DIMARC_LENGTH_SYMBOL
1070
   379
1070
     1
1001
ACAD_DSTYLE_DIM_LINETYPE
1070
   380
1005
2F26
1001
ACAD_DSTYLE_DIM_EXT1_LINETYPE
1070
   381
1005
2F26
1001
ACAD_DSTYLE_DIM_EXT2_LINETYPE
1070
   382
1005
2F26
  0
DIMSTYLE
105
2F77
330
2ECE
100
AcDbSymbolTableRecord
100
AcDbDimStyleTableRecord
  2
AM_ANSI$4
 70
     0
  4
mm
 41
0.12
 42
0.05
 43
0.5
 44
0.1
 47
0.1
 48
0.1
 78
     7
 79
     2
140
0.12
141
0.0
146
0.71
147
0.06
176
   256
177
   256
178
     2
274
     4
284
     7
340
2F21
371
    -1
372
    -1
1001
ACAD_DSTYLE_DIMARC_LENGTH_SYMBOL
1070
   379
1070
     1
1001
ACAD_DSTYLE_DIM_LINETYPE
1070
   380
1005
2F26
1001
ACAD_DSTYLE_DIM_EXT1_LINETYPE
1070
   381
1005
2F26
1001
ACAD_DSTYLE_DIM_EXT2_LINETYPE
1070
   382
1005
2F26
  0
DIMSTYLE
105
2F78
330
2ECE
100
AcDbSymbolTableRecord
100
AcDbDimStyleTableRecord
  2
AM_ANSI$7
 70
     0
  4
mm
 41
0.12
 42
0.05
 43
0.5
 44
0.1
 47
0.1
 48
0.1
 78
     7
 79
     2
140
0.12
141
0.0
146
0.71
147
0.06
176
   256
177
   256
178
     2
274
     4
284
     7
340
2F21
371
    -1
372
    -1
1001
ACAD_DSTYLE_DIMARC_LENGTH_SYMBOL
1070
   379
1070
     1
1001
ACAD_DSTYLE_DIM_LINETYPE
1070
   380
1005
2F26
1001
ACAD_DSTYLE_DIM_EXT1_LINETYPE
1070
   381
1005
2F26
1001
ACAD_DSTYLE_DIM_EXT2_LINETYPE
1070
   382
1005
2F26
  0
DIMSTYLE
105
2F79
330
2ECE
100
AcDbSymbolTableRecord
100
AcDbDimStyleTableRecord
  2
AM_ANSI$SF
 70
     0
  4
mm
 41
0.12
 42
0.05
 43
0.5
 44
0.1
 47
0.1
 48
0.1
 75
     1
 76
     1
 78
     7
 79
     2
140
0.12
141
0.0
146
0.71
147
0.06
176
   256
177
   256
178
     2
274
     4
284
     7
340
2F21
371
    -1
372
    -1
1001
ACAD_DSTYLE_DIMARC_LENGTH_SYMBOL
1070
   379
1070
     1
1001
ACAD_DSTYLE_DIM_LINETYPE
1070
   380
1005
2F26
1001
ACAD_DSTYLE_DIM_EXT1_LINETYPE
1070
   381
1005
2F26
1001
ACAD_DSTYLE_DIM_EXT2_LINETYPE
1070
   382
1005
2F26
  0
DIMSTYLE
105
2F7A
330
2ECE
100
AcDbSymbolTableRecord
100
AcDbDimStyleTableRecord
  2
AM_ANSI$SH
 70
     0
  4
mm
 41
0.12
 42
0.05
 43
0.5
 44
0.1
 47
0.1
 48
0.1
 75
     1
 76
     1
 78
     7
 79
     2
140
0.12
141
0.0
146
0.71
147
0.06
173
     1
176
   256
177
   256
178
     2
274
     4
284
     7
340
2F21
343
2F8E
371
    -1
372
    -1
1001
ACAD_DSTYLE_DIMARC_LENGTH_SYMBOL
1070
   379
1070
     1
1001
ACAD_DSTYLE_DIM_LINETYPE
1070
   380
1005
2F26
1001
ACAD_DSTYLE_DIM_EXT1_LINETYPE
1070
   381
1005
2F26
1001
ACAD_DSTYLE_DIM_EXT2_LINETYPE
1070
   382
1005
2F26
  0
DIMSTYLE
105
2F7B
330
2ECE
100
AcDbSymbolTableRecord
100
AcDbDimStyleTableRecord
  2
STANDARD1
 70
     0
 40
6.0
 41
2.5
 42
0.625
 43
6.0
 44
1.25
 47
1.0
 48
0.5
 77
     1
 78
     8
140
2.5
141
0.0
146
0.6
147
1.0
173
     1
275
     1
279
     2
284
     7
285
     7
286
     7
340
2F21
  0
DIMSTYLE
105
2F7C
330
2ECE
100
AcDbSymbolTableRecord
100
AcDbDimStyleTableRecord
  2
STANDARD$0
 70
     0
 41
12.0
 42
20.0
 44
20.0
 73
     0
 74
     0
 77
     1
 78
     8
140
64.0
141
0.0
147
10.0
172
     1
275
     1
279
     2
284
     7
285
     7
286
     7
340
2F21
  0
ENDTAB
  0
TABLE
  2
BLOCK_RECORD
  5
2EC5
330
0
100
AcDbSymbolTable
 70
    26
  0
BLOCK_RECORD
  5
2F38
102
{ACAD_XDICTIONARY
360
30A9
102
}
330
2EC5
100
AcDbSymbolTableRecord
100
AcDbBlockTableRecord
  2
*Model_Space
340
2F3B
  0
BLOCK_RECORD
  5
2F34
330
2EC5
100
AcDbSymbolTableRecord
100
AcDbBlockTableRecord
  2
*Paper_Space
340
2F37
  0
BLOCK_RECORD
  5
2F84
330
2EC5
100
AcDbSymbolTableRecord
100
AcDbBlockTableRecord
  2
$MODEL_SPACE
340
0
  0
BLOCK_RECORD
  5
2F86
330
2EC5
100
AcDbSymbolTableRecord
100
AcDbBlockTableRecord
  2
$PAPER_SPACE
340
0
  0
BLOCK_RECORD
  5
2F88
330
2EC5
100
AcDbSymbolTableRecord
100
AcDbBlockTableRecord
  2
_ORIGIN
340
0
  0
BLOCK_RECORD
  5
2F8A
330
2EC5
100
AcDbSymbolTableRecord
100
AcDbBlockTableRecord
  2
_DOTBLANK
340
0
102
{BLKREFS
331
202C
331
202D
331
2035
331
2036
331
203E
331
203F
331
2047
331
2048
331
2052
331
2053
331
205D
331
205E
331
2E62
331
2E63
331
2E67
331
2E68
331
2E6C
331
2E6D
331
2E73
331
2E74
331
2E78
331
2E79
331
2E7D
331
2E7E
102
}
  0
BLOCK_RECORD
  5
2F8C
330
2EC5
100
AcDbSymbolTableRecord
100
AcDbBlockTableRecord
  2
_OPEN30
340
0
102
{BLKREFS
331
2199
331
2586
331
2D54
102
}
  0
BLOCK_RECORD
  5
2F8E
330
2EC5
100
AcDbSymbolTableRecord
100
AcDbBlockTableRecord
  2
GENAXEH
340
0
  0
BLOCK_RECORD
  5
2F90
330
2EC5
100
AcDbSymbolTableRecord
100
AcDbBlockTableRecord
  2
*U6
340
0
  0
BLOCK_RECORD
  5
2F92
330
2EC5
100
AcDbSymbolTableRecord
100
AcDbBlockTableRecord
  2
*D7
340
0
  0
BLOCK_RECORD
  5
2F94
330
2EC5
100
AcDbSymbolTableRecord
100
AcDbBlockTableRecord
  2
*U8
340
0
102
{BLKREFS
331
202E
102
}
  0
BLOCK_RECORD
  5
2F96
330
2EC5
100
AcDbSymbolTableRecord
100
AcDbBlockTableRecord
  2
*D9
340
0
  0
BLOCK_RECORD
  5
2F98
330
2EC5
100
AcDbSymbolTableRecord
100
AcDbBlockTableRecord
  2
*U10
340
0
102
{BLKREFS
331
2037
102
}
  0
BLOCK_RECORD
  5
2F9A
330
2EC5
100
AcDbSymbolTableRecord
100
AcDbBlockTableRecord
  2
*D11
340
0
  0
BLOCK_RECORD
  5
2F9C
330
2EC5
100
AcDbSymbolTableRecord
100
AcDbBlockTableRecord
  2
*U12
340
0
102
{BLKREFS
331
2040
102
}
  0
BLOCK_RECORD
  5
2F9E
330
2EC5
100
AcDbSymbolTableRecord
100
AcDbBlockTableRecord
  2
*D13
340
0
  0
BLOCK_RECORD
  5
2FA0
330
2EC5
100
AcDbSymbolTableRecord
100
AcDbBlockTableRecord
  2
*U14
340
0
102
{BLKREFS
331
2049
102
}
  0
BLOCK_RECORD
  5
2FA2
330
2EC5
100
AcDbSymbolTableRecord
100
AcDbBlockTableRecord
  2
*D15
340
0
  0
BLOCK_RECORD
  5
2FA4
330
2EC5
100
AcDbSymbolTableRecord
100
AcDbBlockTableRecord
  2
*U16
340
0
102
{BLKREFS
331
2054
102
}
  0
BLOCK_RECORD
  5
2FA6
330
2EC5
100
AcDbSymbolTableRecord
100
AcDbBlockTableRecord
  2
*D17
340
0
  0
BLOCK_RECORD
  5
2FA8
330
2EC5
100
AcDbSymbolTableRecord
100
AcDbBlockTableRecord
  2
*U18
340
0
102
{BLKREFS
331
205F
102
}
  0
BLOCK_RECORD
  5
2FAA
330
2EC5
100
AcDbSymbolTableRecord
100
AcDbBlockTableRecord
  2
*U19
340
0
  0
BLOCK_RECORD
  5
2FAC
330
2EC5
100
AcDbSymbolTableRecord
100
AcDbBlockTableRecord
  2
*U20
340
0
  0
BLOCK_RECORD
  5
2FAE
330
2EC5
100
AcDbSymbolTableRecord
100
AcDbBlockTableRecord
  2
*U21
340
0
  0
BLOCK_RECORD
  5
2FB0
330
2EC5
100
AcDbSymbolTableRecord
100
AcDbBlockTableRecord
  2
*X22
340
0
102
{BLKREFS
331
2DF7
102
}
  0
BLOCK_RECORD
  5
2FB2
330
2EC5
100
AcDbSymbolTableRecord
100
AcDbBlockTableRecord
  2
*X23
340
0
102
{BLKREFS
331
2DF8
102
}
  0
BLOCK_RECORD
  5
2FB4
330
2EC5
100
AcDbSymbolTableRecord
100
AcDbBlockTableRecord
  2
*U24
340
0
102
{BLKREFS
331
2E30
102
}
  0
ENDTAB
  0
ENDSEC
  0
SECTION
  2
BLOCKS
  0
BLOCK
  5
2F39
330
2F38
100
AcDbEntity
  8
0
100
AcDbBlockBegin
  2
*Model_Space
 70
     0
 10
0.0
 20
0.0
 30
0.0
  3
*Model_Space
  1

  0
ENDBLK
  5
2F3A
330
2F38
100
AcDbEntity
  8
0
100
AcDbBlockEnd
  0
BLOCK
  5
2F35
330
2F34
100
AcDbEntity
 67
     1
  8
0
100
AcDbBlockBegin
  2
*Paper_Space
 70
     0
 10
0.0
 20
0.0
 30
0.0
  3
*Paper_Space
  1

  0
ENDBLK
  5
2F36
330
2F34
100
AcDbEntity
 67
     1
  8
0
100
AcDbBlockEnd
  0
BLOCK
  5
2F85
330
2F84
100
AcDbEntity
  8
0
100
AcDbBlockBegin
  2
$MODEL_SPACE
 70
     0
 10
0.0
 20
0.0
 30
0.0
  3
$MODEL_SPACE
  1

  0
ENDBLK
  5
291F
330
2F84
100
AcDbEntity
  8
0
100
AcDbBlockEnd
  0
BLOCK
  5
2F87
330
2F86
100
AcDbEntity
  8
0
100
AcDbBlockBegin
  2
$PAPER_SPACE
 70
     0
 10
0.0
 20
0.0
 30
0.0
  3
$PAPER_SPACE
  1

  0
ENDBLK
  5
291B
330
2F86
100
AcDbEntity
  8
0
100
AcDbBlockEnd
  0
BLOCK
  5
2F89
330
2F88
100
AcDbEntity
  8
0
100
AcDbBlockBegin
  2
_ORIGIN
 70
     0
 10
0.0
 20
0.0
 30
0.0
  3
_ORIGIN
  1

  0
CIRCLE
  5
880
330
2F88
100
AcDbEntity
  8
0
  6
Continuous
 62
     7
100
AcDbCircle
 10
0.0
 20
0.0
 30
0.0
 40
0.5
  0
LINE
  5
881
330
2F88
100
AcDbEntity
  8
0
  6
Continuous
 62
     7
100
AcDbLine
 10
0.0
 20
0.0
 30
0.0
 11
-1.0
 21
0.0
 31
0.0
  0
ENDBLK
  5
882
330
2F88
100
AcDbEntity
  8
0
100
AcDbBlockEnd
  0
BLOCK
  5
2F8B
330
2F8A
100
AcDbEntity
  8
0
 62
     1
100
AcDbBlockBegin
  2
_DOTBLANK
 70
     0
 10
0.0
 20
0.0
 30
0.0
  3
_DOTBLANK
  1

  0
CIRCLE
  5
AB3
330
2F8A
100
AcDbEntity
  8
0
  6
ByBlock
 62
     0
100
AcDbCircle
 10
0.0
 20
0.0
 30
0.0
 40
0.5
  0
LINE
  5
AB4
330
2F8A
100
AcDbEntity
  8
0
  6
ByBlock
 62
     0
100
AcDbLine
 10
-0.5
 20
0.0
 30
0.0
 11
-1.0
 21
0.0
 31
0.0
  0
ENDBLK
  5
AB6
330
2F8A
100
AcDbEntity
  8
0
 62
     1
100
AcDbBlockEnd
  0
BLOCK
  5
2F8D
330
2F8C
100
AcDbEntity
  8
0
 62
     1
100
AcDbBlockBegin
  2
_OPEN30
 70
     0
 10
0.0
 20
0.0
 30
0.0
  3
_OPEN30
  1

  0
LINE
  5
AB8
330
2F8C
100
AcDbEntity
  8
0
  6
ByBlock
 62
     0
100
AcDbLine
 10
-1.0
 20
0.26794919
 30
0.0
 11
0.0
 21
0.0
 31
0.0
  0
LINE
  5
AB9
330
2F8C
100
AcDbEntity
  8
0
  6
ByBlock
 62
     0
100
AcDbLine
 10
0.0
 20
0.0
 30
0.0
 11
-1.0
 21
-0.26794919
 31
0.0
  0
LINE
  5
ABA
330
2F8C
100
AcDbEntity
  8
0
  6
ByBlock
 62
     0
100
AcDbLine
 10
0.0
 20
0.0
 30
0.0
 11
-1.0
 21
0.0
 31
0.0
  0
ENDBLK
  5
ABC
330
2F8C
100
AcDbEntity
  8
0
 62
     1
100
AcDbBlockEnd
  0
BLOCK
  5
2F8F
330
2F8E
100
AcDbEntity
  8
0
100
AcDbBlockBegin
  2
GENAXEH
 70
     0
 10
0.0
 20
0.0
 30
0.0
  3
GENAXEH
  1

  0
LINE
  5
FDB
330
2F8E
100
AcDbEntity
  8
0
100
AcDbLine
 10
-1.0
 20
0.0
 30
0.0
 11
1.0
 21
0.0
 31
0.0
  0
ENDBLK
  5
FDD
330
2F8E
100
AcDbEntity
  8
0
100
AcDbBlockEnd
  0
BLOCK
  5
2F91
330
2F90
100
AcDbEntity
  8
0
100
AcDbBlockBegin
  2
*U6
 70
     1
 10
0.0
 20
0.0
 30
0.0
  3
*U6
  1

  0
ENDBLK
  5
1ED4
330
2F90
100
AcDbEntity
  8
0
100
AcDbBlockEnd
  0
BLOCK
  5
2F93
330
2F92
100
AcDbEntity
  8
0
100
AcDbBlockBegin
  2
*D7
 70
     1
 10
0.0
 20
0.0
 30
0.0
  3
*D7
  1

  0
LINE
  5
2029
330
2F92
100
AcDbEntity
  8
SIZE
 62
     0
100
AcDbLine
 10
-135.5
 20
-449.4732256776551
 30
0.0
 11
-135.5
 21
-638.0173952306003
 31
0.0
  0
LINE
  5
202A
330
2F92
100
AcDbEntity
  8
SIZE
 62
     0
100
AcDbLine
 10
135.5
 20
-449.4732256776551
 30
0.0
 11
135.5
 21
-638.0173952306003
 31
0.0
  0
LINE
  5
202B
330
2F92
100
AcDbEntity
  8
SIZE
 62
     0
100
AcDbLine
 10
-123.5
 20
-618.0173952306001
 30
0.0
 11
123.5
 21
-618.0173952306001
 31
0.0
  0
INSERT
  5
202C
330
2F92
100
AcDbEntity
  8
SIZE
 62
     0
100
AcDbBlockReference
  2
_DOTBLANK
 10
-135.5
 20
-618.0173952306001
 30
0.0
 41
12.0
 42
12.0
 43
12.0
 50
180.0
  0
INSERT
  5
202D
330
2F92
100
AcDbEntity
  8
SIZE
 62
     0
100
AcDbBlockReference
  2
_DOTBLANK
 10
135.5
 20
-618.0173952306001
 30
0.0
 41
12.0
 42
12.0
 43
12.0
  0
INSERT
  5
202E
330
2F92
100
AcDbEntity
  8
0
100
AcDbBlockReference
  2
*U8
 10
0.0
 20
0.0
 30
0.0
  0
POINT
  5
202F
330
2F92
100
AcDbEntity
  8
DEFPOINTS
 62
     0
100
AcDbPoint
 10
-135.5
 20
-429.473225677655
 30
0.0
  0
POINT
  5
2030
330
2F92
100
AcDbEntity
  8
DEFPOINTS
 62
     0
100
AcDbPoint
 10
135.5
 20
-429.473225677655
 30
0.0
  0
POINT
  5
2031
330
2F92
100
AcDbEntity
  8
DEFPOINTS
 62
     0
100
AcDbPoint
 10
135.5
 20
-618.0173952306001
 30
0.0
  0
ENDBLK
  5
1FDF
330
2F92
100
AcDbEntity
  8
0
100
AcDbBlockEnd
  0
BLOCK
  5
2F95
330
2F94
100
AcDbEntity
  8
0
100
AcDbBlockBegin
  2
*U8
 70
     1
 10
0.0
 20
0.0
 30
0.0
  3
*U8
  1

  0
TEXT
  5
21A6
330
2F94
100
AcDbEntity
  8
SIZE
 62
     0
100
AcDbText
 10
-61.7142857142857
 20
-608.0173952306003
 30
0.0
 40
64.0
  1
271
 41
0.9
100
AcDbText
  0
ENDBLK
  5
21A8
330
2F94
100
AcDbEntity
  8
0
100
AcDbBlockEnd
  0
BLOCK
  5
2F97
330
2F96
100
AcDbEntity
  8
0
100
AcDbBlockBegin
  2
*D9
 70
     1
 10
0.0
 20
0.0
 30
0.0
  3
*D9
  1

  0
LINE
  5
2032
330
2F96
100
AcDbEntity
  8
SIZE
 62
     0
100
AcDbLine
 10
143.7000000000007
 20
-430.0
 30
0.0
 11
304.6432844803784
 21
-430.0
 31
0.0
  0
LINE
  5
2033
330
2F96
100
AcDbEntity
  8
SIZE
 62
     0
100
AcDbLine
 10
177.5
 20
-0.0000000000000057
 30
0.0
 11
304.6432844803785
 21
-0.0000000000000417
 31
0.0
  0
LINE
  5
2034
330
2F96
100
AcDbEntity
  8
SIZE
 62
     0
100
AcDbLine
 10
284.6432844803784
 20
-418.0
 30
0.0
 11
284.6432844803785
 21
-12.00000000000003
 31
0.0
  0
INSERT
  5
2035
330
2F96
100
AcDbEntity
  8
SIZE
 62
     0
100
AcDbBlockReference
  2
_DOTBLANK
 10
284.6432844803784
 20
-430.0
 30
0.0
 41
12.0
 42
12.0
 43
12.0
 50
270.0
  0
INSERT
  5
2036
330
2F96
100
AcDbEntity
  8
SIZE
 62
     0
100
AcDbBlockReference
  2
_DOTBLANK
 10
284.6432844803785
 20
-0.000000000000036
 30
0.0
 41
12.0
 42
12.0
 43
12.0
 50
90.0
  0
INSERT
  5
2037
330
2F96
100
AcDbEntity
  8
0
100
AcDbBlockReference
  2
*U10
 10
0.0
 20
0.0
 30
0.0
  0
POINT
  5
2038
330
2F96
100
AcDbEntity
  8
DEFPOINTS
 62
     0
100
AcDbPoint
 10
123.7000000000007
 20
-430.0
 30
0.0
  0
POINT
  5
2039
330
2F96
100
AcDbEntity
  8
DEFPOINTS
 62
     0
100
AcDbPoint
 10
157.5
 20
0.0
 30
0.0
  0
POINT
  5
203A
330
2F96
100
AcDbEntity
  8
DEFPOINTS
 62
     0
100
AcDbPoint
 10
284.6432844803785
 20
-0.000000000000036
 30
0.0
  0
ENDBLK
  5
1FEB
330
2F96
100
AcDbEntity
  8
0
100
AcDbBlockEnd
  0
BLOCK
  5
2F99
330
2F98
100
AcDbEntity
  8
0
100
AcDbBlockBegin
  2
*U10
 70
     1
 10
0.0
 20
0.0
 30
0.0
  3
*U10
  1

  0
TEXT
  5
21AA
330
2F98
100
AcDbEntity
  8
SIZE
 62
     0
100
AcDbText
 10
274.6432844803785
 20
-289.0571428571429
 30
0.0
 40
64.0
  1
430
 50
90.0
 41
0.9
100
AcDbText
  0
ENDBLK
  5
21AC
330
2F98
100
AcDbEntity
  8
0
100
AcDbBlockEnd
  0
BLOCK
  5
2F9B
330
2F9A
100
AcDbEntity
  8
0
100
AcDbBlockBegin
  2
*D11
 70
     1
 10
0.0
 20
0.0
 30
0.0
  3
*D11
  1

  0
LINE
  5
203B
330
2F9A
100
AcDbEntity
  8
SIZE
 62
     0
100
AcDbLine
 10
-140.0
 20
32.5
 30
0.0
 11
-140.0
 21
136.4516878685499
 31
0.0
  0
LINE
  5
203C
330
2F9A
100
AcDbEntity
  8
SIZE
 62
     0
100
AcDbLine
 10
140.0
 20
32.5
 30
0.0
 11
140.0
 21
136.4516878685499
 31
0.0
  0
LINE
  5
203D
330
2F9A
100
AcDbEntity
  8
SIZE
 62
     0
100
AcDbLine
 10
-128.0
 20
116.4516878685499
 30
0.0
 11
128.0
 21
116.4516878685499
 31
0.0
  0
INSERT
  5
203E
330
2F9A
100
AcDbEntity
  8
SIZE
 62
     0
100
AcDbBlockReference
  2
_DOTBLANK
 10
-140.0
 20
116.4516878685499
 30
0.0
 41
12.0
 42
12.0
 43
12.0
 50
180.0
  0
INSERT
  5
203F
330
2F9A
100
AcDbEntity
  8
SIZE
 62
     0
100
AcDbBlockReference
  2
_DOTBLANK
 10
140.0
 20
116.4516878685499
 30
0.0
 41
12.0
 42
12.0
 43
12.0
  0
INSERT
  5
2040
330
2F9A
100
AcDbEntity
  8
0
100
AcDbBlockReference
  2
*U12
 10
0.0
 20
0.0
 30
0.0
  0
POINT
  5
2041
330
2F9A
100
AcDbEntity
  8
DEFPOINTS
 62
     0
100
AcDbPoint
 10
-140.0
 20
12.5
 30
0.0
  0
POINT
  5
2042
330
2F9A
100
AcDbEntity
  8
DEFPOINTS
 62
     0
100
AcDbPoint
 10
140.0
 20
12.5
 30
0.0
  0
POINT
  5
2043
330
2F9A
100
AcDbEntity
  8
DEFPOINTS
 62
     0
100
AcDbPoint
 10
140.0
 20
116.4516878685499
 30
0.0
  0
ENDBLK
  5
1FF7
330
2F9A
100
AcDbEntity
  8
0
100
AcDbBlockEnd
  0
BLOCK
  5
2F9D
330
2F9C
100
AcDbEntity
  8
0
100
AcDbBlockBegin
  2
*U12
 70
     1
 10
0.0
 20
0.0
 30
0.0
  3
*U12
  1

  0
TEXT
  5
21AE
330
2F9C
100
AcDbEntity
  8
SIZE
 62
     0
100
AcDbText
 10
-74.05714285714283
 20
126.4516878685499
 30
0.0
 40
64.0
  1
280
 41
0.9
100
AcDbText
  0
ENDBLK
  5
21B0
330
2F9C
100
AcDbEntity
  8
0
100
AcDbBlockEnd
  0
BLOCK
  5
2F9F
330
2F9E
100
AcDbEntity
  8
0
100
AcDbBlockBegin
  2
*D13
 70
     1
 10
0.0
 20
0.0
 30
0.0
  3
*D13
  1

  0
LINE
  5
2044
330
2F9E
100
AcDbEntity
  8
SIZE
 62
     0
100
AcDbLine
 10
-157.5
 20
20.0
 30
0.0
 11
-157.5
 21
245.5794621189598
 31
0.0
  0
LINE
  5
2045
330
2F9E
100
AcDbEntity
  8
SIZE
 62
     0
100
AcDbLine
 10
157.5
 20
20.0
 30
0.0
 11
157.5
 21
245.5794621189598
 31
0.0
  0
LINE
  5
2046
330
2F9E
100
AcDbEntity
  8
SIZE
 62
     0
100
AcDbLine
 10
-145.5
 20
225.5794621189598
 30
0.0
 11
145.5
 21
225.5794621189598
 31
0.0
  0
INSERT
  5
2047
330
2F9E
100
AcDbEntity
  8
SIZE
 62
     0
100
AcDbBlockReference
  2
_DOTBLANK
 10
-157.5
 20
225.5794621189598
 30
0.0
 41
12.0
 42
12.0
 43
12.0
 50
180.0
  0
INSERT
  5
2048
330
2F9E
100
AcDbEntity
  8
SIZE
 62
     0
100
AcDbBlockReference
  2
_DOTBLANK
 10
157.5
 20
225.5794621189598
 30
0.0
 41
12.0
 42
12.0
 43
12.0
  0
INSERT
  5
2049
330
2F9E
100
AcDbEntity
  8
0
100
AcDbBlockReference
  2
*U14
 10
0.0
 20
0.0
 30
0.0
  0
POINT
  5
204A
330
2F9E
100
AcDbEntity
  8
DEFPOINTS
 62
     0
100
AcDbPoint
 10
-157.5
 20
0.0
 30
0.0
  0
POINT
  5
204B
330
2F9E
100
AcDbEntity
  8
DEFPOINTS
 62
     0
100
AcDbPoint
 10
157.5
 20
0.0
 30
0.0
  0
POINT
  5
204C
330
2F9E
100
AcDbEntity
  8
DEFPOINTS
 62
     0
100
AcDbPoint
 10
157.5
 20
225.5794621189598
 30
0.0
  0
ENDBLK
  5
2003
330
2F9E
100
AcDbEntity
  8
0
100
AcDbBlockEnd
  0
BLOCK
  5
2FA1
330
2FA0
100
AcDbEntity
  8
0
100
AcDbBlockBegin
  2
*U14
 70
     1
 10
0.0
 20
0.0
 30
0.0
  3
*U14
  1

  0
TEXT
  5
21B2
330
2FA0
100
AcDbEntity
  8
SIZE
 62
     0
100
AcDbText
 10
-68.57142857142857
 20
235.5794621189598
 30
0.0
 40
64.0
  1
315
 41
0.9
100
AcDbText
  0
ENDBLK
  5
21B4
330
2FA0
100
AcDbEntity
  8
0
100
AcDbBlockEnd
  0
BLOCK
  5
2FA3
330
2FA2
100
AcDbEntity
  8
0
100
AcDbBlockBegin
  2
*D15
 70
     1
 10
0.0
 20
0.0
 30
0.0
  3
*D15
  1

  0
LINE
  5
204D
330
2FA2
100
AcDbEntity
  8
SIZE
 62
     0
100
AcDbLine
 10
-177.5
 20
0.0000000000000057
 30
0.0
 11
-219.7694545525301
 21
0.0000000000000176
 31
0.0
  0
LINE
  5
204E
330
2FA2
100
AcDbEntity
  8
SIZE
 62
     0
100
AcDbLine
 10
-177.5
 20
-7.999999999999993
 30
0.0
 11
-219.7694545525301
 21
-7.999999999999982
 31
0.0
  0
LINE
  5
204F
330
2FA2
100
AcDbEntity
  8
SIZE
 62
     0
100
AcDbLine
 10
-199.76945455253
 20
12.00000000000001
 30
0.0
 11
-199.76945455253
 21
24.00000000000001
 31
0.0
  0
LINE
  5
2050
330
2FA2
100
AcDbEntity
  8
SIZE
 62
     0
100
AcDbLine
 10
-199.76945455253
 20
-19.99999999999999
 30
0.0
 11
-199.7694545525301
 21
-90.4
 31
0.0
  0
LINE
  5
2051
330
2FA2
100
AcDbEntity
  8
SIZE
 62
     0
100
AcDbLine
 10
-199.76945455253
 20
0.000000000000012
 30
0.0
 11
-199.76945455253
 21
-7.999999999999985
 31
0.0
  0
INSERT
  5
2052
330
2FA2
100
AcDbEntity
  8
SIZE
 62
     0
100
AcDbBlockReference
  2
_DOTBLANK
 10
-199.76945455253
 20
0.000000000000012
 30
0.0
 41
12.0
 42
12.0
 43
12.0
 50
270.0
  0
INSERT
  5
2053
330
2FA2
100
AcDbEntity
  8
SIZE
 62
     0
100
AcDbBlockReference
  2
_DOTBLANK
 10
-199.76945455253
 20
-7.999999999999985
 30
0.0
 41
12.0
 42
12.0
 43
12.0
 50
90.0
  0
INSERT
  5
2054
330
2FA2
100
AcDbEntity
  8
0
100
AcDbBlockReference
  2
*U16
 10
0.0
 20
0.0
 30
0.0
  0
POINT
  5
2055
330
2FA2
100
AcDbEntity
  8
DEFPOINTS
 62
     0
100
AcDbPoint
 10
-157.5
 20
0.0
 30
0.0
  0
POINT
  5
2056
330
2FA2
100
AcDbEntity
  8
DEFPOINTS
 62
     0
100
AcDbPoint
 10
-157.5
 20
-8.0
 30
0.0
  0
POINT
  5
2057
330
2FA2
100
AcDbEntity
  8
DEFPOINTS
 62
     0
100
AcDbPoint
 10
-199.76945455253
 20
-7.999999999999985
 30
0.0
  0
ENDBLK
  5
200F
330
2FA2
100
AcDbEntity
  8
0
100
AcDbBlockEnd
  0
BLOCK
  5
2FA5
330
2FA4
100
AcDbEntity
  8
0
100
AcDbBlockBegin
  2
*U16
 70
     1
 10
0.0
 20
0.0
 30
0.0
  3
*U16
  1

  0
TEXT
  5
21B6
330
2FA4
100
AcDbEntity
  8
SIZE
 62
     0
100
AcDbText
 10
-209.7694545525301
 20
-80.4
 30
0.0
 40
64.0
  1
8
 50
90.0
 41
0.9
100
AcDbText
  0
ENDBLK
  5
21B8
330
2FA4
100
AcDbEntity
  8
0
100
AcDbBlockEnd
  0
BLOCK
  5
2FA7
330
2FA6
100
AcDbEntity
  8
0
100
AcDbBlockBegin
  2
*D17
 70
     1
 10
0.0
 20
0.0
 30
0.0
  3
*D17
  1

  0
LINE
  5
2058
330
2FA6
100
AcDbEntity
  8
SIZE
 62
     0
100
AcDbLine
 10
143.7000000000007
 20
-430.0
 30
0.0
 11
304.626441221626
 21
-430.0
 31
0.0
  0
LINE
  5
2059
330
2FA6
100
AcDbEntity
  8
SIZE
 62
     0
100
AcDbLine
 10
143.1000000000022
 20
-441.0000000000001
 30
0.0
 11
304.626441221626
 21
-441.0000000000001
 31
0.0
  0
LINE
  5
205A
330
2FA6
100
AcDbEntity
  8
SIZE
 62
     0
100
AcDbLine
 10
284.626441221626
 20
-418.0
 30
0.0
 11
284.626441221626
 21
-406.0
 31
0.0
  0
LINE
  5
205B
330
2FA6
100
AcDbEntity
  8
SIZE
 62
     0
100
AcDbLine
 10
284.626441221626
 20
-453.0
 30
0.0
 11
284.626441221626
 21
-542.6000000000001
 31
0.0
  0
LINE
  5
205C
330
2FA6
100
AcDbEntity
  8
SIZE
 62
     0
100
AcDbLine
 10
284.626441221626
 20
-430.0
 30
0.0
 11
284.626441221626
 21
-441.0000000000001
 31
0.0
  0
INSERT
  5
205D
330
2FA6
100
AcDbEntity
  8
SIZE
 62
     0
100
AcDbBlockReference
  2
_DOTBLANK
 10
284.626441221626
 20
-430.0
 30
0.0
 41
12.0
 42
12.0
 43
12.0
 50
270.0
  0
INSERT
  5
205E
330
2FA6
100
AcDbEntity
  8
SIZE
 62
     0
100
AcDbBlockReference
  2
_DOTBLANK
 10
284.626441221626
 20
-441.0000000000001
 30
0.0
 41
12.0
 42
12.0
 43
12.0
 50
90.0
  0
INSERT
  5
205F
330
2FA6
100
AcDbEntity
  8
0
100
AcDbBlockReference
  2
*U18
 10
0.0
 20
0.0
 30
0.0
  0
POINT
  5
2060
330
2FA6
100
AcDbEntity
  8
DEFPOINTS
 62
     0
100
AcDbPoint
 10
123.7000000000007
 20
-430.0
 30
0.0
  0
POINT
  5
2061
330
2FA6
100
AcDbEntity
  8
DEFPOINTS
 62
     0
100
AcDbPoint
 10
123.1000000000022
 20
-441.0
 30
0.0
  0
POINT
  5
2062
330
2FA6
100
AcDbEntity
  8
DEFPOINTS
 62
     0
100
AcDbPoint
 10
284.626441221626
 20
-441.0000000000001
 30
0.0
  0
ENDBLK
  5
201D
330
2FA6
100
AcDbEntity
  8
0
100
AcDbBlockEnd
  0
BLOCK
  5
2FA9
330
2FA8
100
AcDbEntity
  8
0
100
AcDbBlockBegin
  2
*U18
 70
     1
 10
0.0
 20
0.0
 30
0.0
  3
*U18
  1

  0
TEXT
  5
21BA
330
2FA8
100
AcDbEntity
  8
SIZE
 62
     0
100
AcDbText
 10
274.6264412216261
 20
-532.6
 30
0.0
 40
64.0
  1
11
 50
90.0
 41
0.9
100
AcDbText
  0
ENDBLK
  5
21BC
330
2FA8
100
AcDbEntity
  8
0
100
AcDbBlockEnd
  0
BLOCK
  5
2FAB
330
2FAA
100
AcDbEntity
  8
0
100
AcDbBlockBegin
  2
*U19
 70
     1
 10
0.0
 20
0.0
 30
0.0
  3
*U19
  1

  0
INSERT
  5
2199
330
2FAA
100
AcDbEntity
  8
NOTE
100
AcDbBlockReference
  2
_OPEN30
 10
-140.0
 20
0.0
 30
0.0
 41
12.0
 42
12.0
 43
12.0
 50
312.6090116116894
  0
POLYLINE
  5
219A
330
2FAA
100
AcDbEntity
  8
NOTE
100
AcDb2dPolyline
 66
     1
 10
0.0
 20
0.0
 30
0.0
  0
VERTEX
  5
219B
330
219A
100
AcDbEntity
  8
NOTE
100
AcDbVertex
100
AcDb2dVertex
 10
-148.1239008361894
 20
8.831887408915472
 30
0.0
  0
VERTEX
  5
219C
330
219A
100
AcDbEntity
  8
NOTE
100
AcDbVertex
100
AcDb2dVertex
 10
-227.8693999922543
 20
95.5270950580134
 30
0.0
  0
VERTEX
  5
219D
330
219A
100
AcDbEntity
  8
NOTE
100
AcDbVertex
100
AcDb2dVertex
 10
-776.4522571351115
 20
95.5270950580134
 30
0.0
  0
SEQEND
  5
219E
330
219A
100
AcDbEntity
  8
NOTE
  0
ENDBLK
  5
21A0
330
2FAA
100
AcDbEntity
  8
0
100
AcDbBlockEnd
  0
BLOCK
  5
2FAD
330
2FAC
100
AcDbEntity
  8
0
100
AcDbBlockBegin
  2
*U20
 70
     1
 10
0.0
 20
0.0
 30
0.0
  3
*U20
  1

  0
TEXT
  5
21A2
330
2FAC
100
AcDbEntity
  8
NOTE
100
AcDbText
 10
-773.7093999922541
 20
113.5270950580134
 30
0.0
 40
64.0
  1
4×φ10取付穴
 41
0.9
100
AcDbText
  0
ENDBLK
  5
21A4
330
2FAC
100
AcDbEntity
  8
0
100
AcDbBlockEnd
  0
BLOCK
  5
2FAF
330
2FAE
100
AcDbEntity
  8
0
100
AcDbBlockBegin
  2
*U21
 70
     1
 10
0.0
 20
0.0
 30
0.0
  3
*U21
  1

  0
INSERT
  5
2586
330
2FAE
100
AcDbEntity
  8
NOTE
100
AcDbBlockReference
  2
_OPEN30
 10
-229.9999999999998
 20
0.0
 30
0.0
 41
12.0
 42
12.0
 43
12.0
 50
312.6090116116894
  0
POLYLINE
  5
2587
330
2FAE
100
AcDbEntity
  8
NOTE
100
AcDb2dPolyline
 66
     1
 10
0.0
 20
0.0
 30
0.0
  0
VERTEX
  5
2588
330
2587
100
AcDbEntity
  8
NOTE
100
AcDbVertex
100
AcDb2dVertex
 10
-238.1239008361893
 20
8.831887408915472
 30
0.0
  0
VERTEX
  5
2589
330
2587
100
AcDbEntity
  8
NOTE
100
AcDbVertex
100
AcDb2dVertex
 10
-317.8693999922543
 20
95.5270950580134
 30
0.0
  0
VERTEX
  5
258A
330
2587
100
AcDbEntity
  8
NOTE
100
AcDbVertex
100
AcDb2dVertex
 10
-866.452257135111
 20
95.5270950580134
 30
0.0
  0
SEQEND
  5
258B
330
2587
100
AcDbEntity
  8
NOTE
  0
ENDBLK
  5
258C
330
2FAE
100
AcDbEntity
  8
0
100
AcDbBlockEnd
  0
BLOCK
  5
2FB1
330
2FB0
100
AcDbEntity
  8
0
100
AcDbBlockBegin
  2
*X22
 70
     1
 10
0.0
 20
0.0
 30
0.0
  3
*X22
  1

  0
LINE
  5
2A71
330
2FB0
100
AcDbEntity
  8
0
 62
     0
100
AcDbLine
 10
200.7968307853825
 20
-645.0080808012004
 30
0.0
 11
203.7999999999829
 21
-643.0059731039109
 31
0.0
  0
LINE
  5
2A72
330
2FB0
100
AcDbEntity
  8
0
 62
     0
100
AcDbLine
 10
196.296869491498
 20
-645.0080808012004
 30
0.0
 11
203.7999999999829
 21
-640.0060065684956
 31
0.0
  0
LINE
  5
2A73
330
2FB0
100
AcDbEntity
  8
0
 62
     0
100
AcDbLine
 10
191.7969081976098
 20
-645.0080808012025
 30
0.0
 11
203.7999999999829
 21
-637.0060400330803
 31
0.0
  0
LINE
  5
2A74
330
2FB0
100
AcDbEntity
  8
0
 62
     0
100
AcDbLine
 10
187.2969469037288
 20
-645.0080808012025
 30
0.0
 11
203.7999999999847
 21
-634.0060734976632
 31
0.0
  0
LINE
  5
2A75
330
2FB0
100
AcDbEntity
  8
0
 62
     0
100
AcDbLine
 10
182.7969856098407
 20
-645.0080808012004
 30
0.0
 11
203.7999999999829
 21
-631.0061069622482
 31
0.0
  0
LINE
  5
2A76
330
2FB0
100
AcDbEntity
  8
0
 62
     0
100
AcDbLine
 10
178.2970243159543
 20
-645.0080808012004
 30
0.0
 11
203.7999999999829
 21
-628.0061404268288
 31
0.0
  0
LINE
  5
2A77
330
2FB0
100
AcDbEntity
  8
0
 62
     0
100
AcDbLine
 10
173.7970630220679
 20
-645.0080808012025
 30
0.0
 11
203.7999999999829
 21
-625.0061738914155
 31
0.0
  0
LINE
  5
2A78
330
2FB0
100
AcDbEntity
  8
0
 62
     0
100
AcDbLine
 10
169.2971017281816
 20
-645.0080808012025
 30
0.0
 11
203.7999999999829
 21
-622.0062073559984
 31
0.0
  0
LINE
  5
2A79
330
2FB0
100
AcDbEntity
  8
0
 62
     0
100
AcDbLine
 10
164.797140434297
 20
-645.0080808012025
 30
0.0
 11
203.7999999999811
 21
-619.0062408205831
 31
0.0
  0
LINE
  5
2A7A
330
2FB0
100
AcDbEntity
  8
0
 62
     0
100
AcDbLine
 10
160.2971791404143
 20
-645.0080808011988
 30
0.0
 11
203.7999999999829
 21
-616.006274285166
 31
0.0
  0
LINE
  5
2A7B
330
2FB0
100
AcDbEntity
  8
0
 62
     0
100
AcDbLine
 10
155.7972178465243
 20
-645.0080808012025
 30
0.0
 11
203.7999999999811
 21
-613.0063077497505
 31
0.0
  0
LINE
  5
2A7C
330
2FB0
100
AcDbEntity
  8
0
 62
     0
100
AcDbLine
 10
151.2972565526434
 20
-645.0080808012004
 30
0.0
 11
203.7999999999829
 21
-610.0063412143335
 31
0.0
  0
LINE
  5
2A7D
330
2FB0
100
AcDbEntity
  8
0
 62
     0
100
AcDbLine
 10
146.7972952587552
 20
-645.0080808012025
 30
0.0
 11
203.7999999999829
 21
-607.0063746789181
 31
0.0
  0
LINE
  5
2A7E
330
2FB0
100
AcDbEntity
  8
0
 62
     0
100
AcDbLine
 10
142.2973339648706
 20
-645.0080808012025
 30
0.0
 11
203.7999999999829
 21
-604.0064081435009
 31
0.0
  0
LINE
  5
2A7F
330
2FB0
100
AcDbEntity
  8
0
 62
     0
100
AcDbLine
 10
137.7973726709824
 20
-645.0080808012025
 30
0.0
 11
203.7999999999829
 21
-601.0064416080856
 31
0.0
  0
LINE
  5
2A80
330
2FB0
100
AcDbEntity
  8
0
 62
     0
100
AcDbLine
 10
133.2974113770997
 20
-645.0080808012004
 30
0.0
 11
203.7999999999847
 21
-598.0064750726668
 31
0.0
  0
LINE
  5
2A81
330
2FB0
100
AcDbEntity
  8
0
 62
     0
100
AcDbLine
 10
128.7974500832169
 20
-645.0080808012004
 30
0.0
 11
203.7999999999829
 21
-595.0065085372535
 31
0.0
  0
LINE
  5
2A82
330
2FB0
100
AcDbEntity
  8
0
 62
     0
100
AcDbLine
 10
124.2974887893269
 20
-645.0080808012025
 30
0.0
 11
203.7999999999811
 21
-592.0065420018381
 31
0.0
  0
LINE
  5
2A83
330
2FB0
100
AcDbEntity
  8
0
 62
     0
100
AcDbLine
 10
119.7975274954424
 20
-645.0080808012025
 30
0.0
 11
203.7999999999811
 21
-589.0065754664209
 31
0.0
  0
LINE
  5
2A84
330
2FB0
100
AcDbEntity
  8
0
 62
     0
100
AcDbLine
 10
115.2975662015577
 20
-645.0080808012004
 30
0.0
 11
203.7999999999847
 21
-586.006608931004
 31
0.0
  0
LINE
  5
2A85
330
2FB0
100
AcDbEntity
  8
0
 62
     0
100
AcDbLine
 10
110.7976049076714
 20
-645.0080808012004
 30
0.0
 11
203.7999999999829
 21
-583.0066423955868
 31
0.0
  0
LINE
  5
2A86
330
2FB0
100
AcDbEntity
  8
0
 62
     0
100
AcDbLine
 10
106.2976436137851
 20
-645.0080808012025
 30
0.0
 11
203.7999999999847
 21
-580.0066758601714
 31
0.0
  0
LINE
  5
2A87
330
2FB0
100
AcDbEntity
  8
0
 62
     0
100
AcDbLine
 10
101.7976823198987
 20
-645.0080808012025
 30
0.0
 11
203.7999999999811
 21
-577.0067093247559
 31
0.0
  0
LINE
  5
2A88
330
2FB0
100
AcDbEntity
  8
0
 62
     0
100
AcDbLine
 10
97.297721026016
 20
-645.0080808012025
 30
0.0
 11
203.7999999999847
 21
-574.0067427893391
 31
0.0
  0
LINE
  5
2A89
330
2FB0
100
AcDbEntity
  8
0
 62
     0
100
AcDbLine
 10
92.7977597321278
 20
-645.0080808012004
 30
0.0
 11
203.7999999999811
 21
-571.0067762539238
 31
0.0
  0
LINE
  5
2A8A
330
2FB0
100
AcDbEntity
  8
0
 62
     0
100
AcDbLine
 10
88.29779843824509
 20
-645.0080808012004
 30
0.0
 11
203.7999999999829
 21
-568.0068097185068
 31
0.0
  0
LINE
  5
2A8B
330
2FB0
100
AcDbEntity
  8
0
 62
     0
100
AcDbLine
 10
83.79783714435871
 20
-645.0080808012004
 30
0.0
 11
203.7999999999811
 21
-565.0068431830914
 31
0.0
  0
LINE
  5
2A8C
330
2FB0
100
AcDbEntity
  8
0
 62
     0
100
AcDbLine
 10
79.29787585047233
 20
-645.0080808012025
 30
0.0
 11
203.7999999999829
 21
-562.0068766476761
 31
0.0
  0
LINE
  5
2A8D
330
2FB0
100
AcDbEntity
  8
0
 62
     0
100
AcDbLine
 10
74.79791455658595
 20
-645.0080808012025
 30
0.0
 11
203.7999999999811
 21
-559.0069101122589
 31
0.0
  0
LINE
  5
2A8E
330
2FB0
100
AcDbEntity
  8
0
 62
     0
100
AcDbLine
 10
70.29795326269959
 20
-645.0080808012025
 30
0.0
 11
203.7999999999829
 21
-556.0069435768436
 31
0.0
  0
LINE
  5
2A8F
330
2FB0
100
AcDbEntity
  8
0
 62
     0
100
AcDbLine
 10
65.79799196881686
 20
-645.0080808012004
 30
0.0
 11
203.7999999999847
 21
-553.0069770414248
 31
0.0
  0
LINE
  5
2A90
330
2FB0
100
AcDbEntity
  8
0
 62
     0
100
AcDbLine
 10
61.29803067493412
 20
-645.0080808012004
 30
0.0
 11
203.7999999999829
 21
-550.0070105060111
 31
0.0
  0
LINE
  5
2A91
330
2FB0
100
AcDbEntity
  8
0
 62
     0
100
AcDbLine
 10
56.79806938104229
 20
-645.0080808012025
 30
0.0
 11
203.7999999999829
 21
-547.0070439705923
 31
0.0
  0
LINE
  5
2A92
330
2FB0
100
AcDbEntity
  8
0
 62
     0
100
AcDbLine
 10
52.29810808716138
 20
-645.0080808012004
 30
0.0
 11
203.7999999999847
 21
-544.0070774351751
 31
0.0
  0
LINE
  5
2A93
330
2FB0
100
AcDbEntity
  8
0
 62
     0
100
AcDbLine
 10
47.79814679327318
 20
-645.0080808012004
 30
0.0
 11
203.7999999999829
 21
-541.0071108997617
 31
0.0
  0
LINE
  5
2A94
330
2FB0
100
AcDbEntity
  8
0
 62
     0
100
AcDbLine
 10
43.29818549938863
 20
-645.0080808012004
 30
0.0
 11
203.7999999999847
 21
-538.0071443643428
 31
0.0
  0
LINE
  5
2A95
330
2FB0
100
AcDbEntity
  8
0
 62
     0
100
AcDbLine
 10
38.79822420550226
 20
-645.0080808012025
 30
0.0
 11
203.7999999999829
 21
-535.0071778289292
 31
0.0
  0
LINE
  5
2A96
330
2FB0
100
AcDbEntity
  8
0
 62
     0
100
AcDbLine
 10
34.29826291161589
 20
-645.0080808012025
 30
0.0
 11
203.7999999999847
 21
-532.0072112935104
 31
0.0
  0
LINE
  5
2A97
330
2FB0
100
AcDbEntity
  8
0
 62
     0
100
AcDbLine
 10
29.79830161773134
 20
-645.0080808012025
 30
0.0
 11
203.7999999999829
 21
-529.0072447580968
 31
0.0
  0
LINE
  5
2A98
330
2FB0
100
AcDbEntity
  8
0
 62
     0
100
AcDbLine
 10
25.29834032384497
 20
-645.0080808012004
 30
0.0
 11
203.7999999999829
 21
-526.0072782226798
 31
0.0
  0
LINE
  5
2A99
330
2FB0
100
AcDbEntity
  8
0
 62
     0
100
AcDbLine
 10
20.79837902996223
 20
-645.0080808012004
 30
0.0
 11
203.7999999999829
 21
-523.0073116872643
 31
0.0
  0
LINE
  5
2A9A
330
2FB0
100
AcDbEntity
  8
0
 62
     0
100
AcDbLine
 10
16.29841773607586
 20
-645.0080808012004
 30
0.0
 11
203.7999999999829
 21
-520.0073451518472
 31
0.0
  0
LINE
  5
2A9B
330
2FB0
100
AcDbEntity
  8
0
 62
     0
100
AcDbLine
 10
11.79845644218767
 20
-645.0080808012025
 30
0.0
 11
203.7999999999811
 21
-517.0073786164319
 31
0.0
  0
LINE
  5
2A9C
330
2FB0
100
AcDbEntity
  8
0
 62
     0
100
AcDbLine
 10
7.298495148303118
 20
-645.0080808012025
 30
0.0
 11
203.7999999999829
 21
-514.0074120810147
 31
0.0
  0
LINE
  5
2A9D
330
2FB0
100
AcDbEntity
  8
0
 62
     0
100
AcDbLine
 10
2.798533854418563
 20
-645.0080808012044
 30
0.0
 11
203.7999999999864
 21
-511.0074455455997
 31
0.0
  0
LINE
  5
2A9E
330
2FB0
100
AcDbEntity
  8
0
 62
     0
100
AcDbLine
 10
-1.701427439465986
 20
-645.0080808012004
 30
0.0
 11
203.7999999999829
 21
-508.0074790101825
 31
0.0
  0
LINE
  5
2A9F
330
2FB0
100
AcDbEntity
  8
0
 62
     0
100
AcDbLine
 10
-6.201388733355996
 20
-645.0080808012025
 30
0.0
 11
203.7999999999847
 21
-505.0075124747654
 31
0.0
  0
LINE
  5
2AA0
330
2FB0
100
AcDbEntity
  8
0
 62
     0
100
AcDbLine
 10
-10.70135002723873
 20
-645.0080808012025
 30
0.0
 11
203.7999999999829
 21
-502.0075459393503
 31
0.0
  0
LINE
  5
2AA1
330
2FB0
100
AcDbEntity
  8
0
 62
     0
100
AcDbLine
 10
-15.20131132112328
 20
-645.0080808012004
 30
0.0
 11
203.7999999999829
 21
-499.0075794039328
 31
0.0
  0
LINE
  5
2AA2
330
2FB0
100
AcDbEntity
  8
0
 62
     0
100
AcDbLine
 10
-19.70127261500966
 20
-645.0080808012004
 30
0.0
 11
203.7999999999811
 21
-496.0076128685193
 31
0.0
  0
LINE
  5
2AA3
330
2FB0
100
AcDbEntity
  8
0
 62
     0
100
AcDbLine
 10
-24.20123390889421
 20
-645.0080808012004
 30
0.0
 11
203.7999999999829
 21
-493.0076463331006
 31
0.0
  0
LINE
  5
2AA4
330
2FB0
100
AcDbEntity
  8
0
 62
     0
100
AcDbLine
 10
-28.7011952027824
 20
-645.0080808012025
 30
0.0
 11
203.7999999999847
 21
-490.0076797976852
 31
0.0
  0
LINE
  5
2AA5
330
2FB0
100
AcDbEntity
  8
0
 62
     0
100
AcDbLine
 10
-33.20115649666514
 20
-645.0080808012004
 30
0.0
 11
203.7999999999829
 21
-487.0077132622681
 31
0.0
  0
LINE
  5
2AA6
330
2FB0
100
AcDbEntity
  8
0
 62
     0
100
AcDbLine
 10
-37.70111779055151
 20
-645.0080808012025
 30
0.0
 11
203.7999999999847
 21
-484.0077467268527
 31
0.0
  0
LINE
  5
2AA7
330
2FB0
100
AcDbEntity
  8
0
 62
     0
100
AcDbLine
 10
-42.20107908443607
 20
-645.0080808012004
 30
0.0
 11
203.7999999999829
 21
-481.0077801914376
 31
0.0
  0
LINE
  5
2AA8
330
2FB0
100
AcDbEntity
  8
0
 62
     0
100
AcDbLine
 10
-46.7010403783206
 20
-645.0080808012004
 30
0.0
 11
203.7999999999847
 21
-478.0078136560205
 31
0.0
  0
LINE
  5
2AA9
330
2FB0
100
AcDbEntity
  8
0
 62
     0
100
AcDbLine
 10
-51.20100167220878
 20
-645.0080808012004
 30
0.0
 11
203.7999999999811
 21
-475.0078471206051
 31
0.0
  0
LINE
  5
2AAA
330
2FB0
100
AcDbEntity
  8
0
 62
     0
100
AcDbLine
 10
-55.70096296609335
 20
-645.0080808012025
 30
0.0
 11
203.7999999999847
 21
-472.0078805851882
 31
0.0
  0
LINE
  5
2AAB
330
2FB0
100
AcDbEntity
  8
0
 62
     0
100
AcDbLine
 10
-60.20092425997972
 20
-645.0080808012025
 30
0.0
 11
203.7999999999811
 21
-469.0079140497728
 31
0.0
  0
LINE
  5
2AAC
330
2FB0
100
AcDbEntity
  8
0
 62
     0
100
AcDbLine
 10
-64.70088555386428
 20
-645.0080808011988
 30
0.0
 11
203.7999999999829
 21
-466.0079475143557
 31
0.0
  0
LINE
  5
2AAD
330
2FB0
100
AcDbEntity
  8
0
 62
     0
100
AcDbLine
 10
-69.20084684775066
 20
-645.0080808012004
 30
0.0
 11
203.7999999999811
 21
-463.0079809789402
 31
0.0
  0
LINE
  5
2AAE
330
2FB0
100
AcDbEntity
  8
0
 62
     0
100
AcDbLine
 10
-73.70080814163519
 20
-645.0080808012004
 30
0.0
 11
203.7999999999847
 21
-460.0080144435231
 31
0.0
  0
LINE
  5
2AAF
330
2FB0
100
AcDbEntity
  8
0
 62
     0
100
AcDbLine
 10
-78.20076943552158
 20
-645.0080808012025
 30
0.0
 11
203.7999999999847
 21
-457.008047908106
 31
0.0
  0
LINE
  5
2AB0
330
2FB0
100
AcDbEntity
  8
0
 62
     0
100
AcDbLine
 10
-82.70073072940613
 20
-645.0080808012004
 30
0.0
 11
203.7999999999829
 21
-454.0080813726908
 31
0.0
  0
LINE
  5
2AB1
330
2FB0
100
AcDbEntity
  8
0
 62
     0
100
AcDbLine
 10
-87.20069202329069
 20
-645.0080808012004
 30
0.0
 11
203.7999999999847
 21
-451.0081148372736
 31
0.0
  0
LINE
  5
2AB2
330
2FB0
100
AcDbEntity
  8
0
 62
     0
100
AcDbLine
 10
-91.70065331717887
 20
-645.0080808012004
 30
0.0
 11
203.7999999999829
 21
-448.0081483018582
 31
0.0
  0
LINE
  5
2AB3
330
2FB0
100
AcDbEntity
  8
0
 62
     0
100
AcDbLine
 10
-96.20061461106345
 20
-645.0080808012004
 30
0.0
 11
203.7999999999829
 21
-445.0081817664432
 31
0.0
  0
LINE
  5
2AB4
330
2FB0
100
AcDbEntity
  8
0
 62
     0
100
AcDbLine
 10
-100.700575904948
 20
-645.0080808012004
 30
0.0
 11
203.7999999999829
 21
-442.008215231026
 31
0.0
  0
LINE
  5
2AB5
330
2FB0
100
AcDbEntity
  8
0
 62
     0
100
AcDbLine
 10
-105.2005371988343
 20
-645.0080808012025
 30
0.0
 11
203.7999999999829
 21
-439.0082486956106
 31
0.0
  0
LINE
  5
2AB6
330
2FB0
100
AcDbEntity
  8
0
 62
     0
100
AcDbLine
 10
-109.7004984927207
 20
-645.0080808012025
 30
0.0
 11
203.7999999999829
 21
-436.0082821601952
 31
0.0
  0
LINE
  5
2AB7
330
2FB0
100
AcDbEntity
  8
0
 62
     0
100
AcDbLine
 10
-114.2004597866053
 20
-645.0080808012004
 30
0.0
 11
203.7999999999829
 21
-433.0083156247781
 31
0.0
  0
LINE
  5
2AB8
330
2FB0
100
AcDbEntity
  8
0
 62
     0
100
AcDbLine
 10
-118.7004210804898
 20
-645.0080808012004
 30
0.0
 11
203.7999999999829
 21
-430.0083490893628
 31
0.0
  0
LINE
  5
2AB9
330
2FB0
100
AcDbEntity
  8
0
 62
     0
100
AcDbLine
 10
-123.2003823743762
 20
-645.0080808012004
 30
0.0
 11
203.7999999999829
 21
-427.0083825539439
 31
0.0
  0
LINE
  5
2ABA
330
2FB0
100
AcDbEntity
  8
0
 62
     0
100
AcDbLine
 10
-127.7003436682644
 20
-645.0080808012025
 30
0.0
 11
203.7999999999829
 21
-424.0084160185288
 31
0.0
  0
LINE
  5
2ABB
330
2FB0
100
AcDbEntity
  8
0
 62
     0
100
AcDbLine
 10
-132.2003049621471
 20
-645.0080808011988
 30
0.0
 11
203.7999999999829
 21
-421.0084494831116
 31
0.0
  0
LINE
  5
2ABC
330
2FB0
100
AcDbEntity
  8
0
 62
     0
100
AcDbLine
 10
-136.7002662560335
 20
-645.0080808012004
 30
0.0
 11
203.7999999999829
 21
-418.0084829476964
 31
0.0
  0
LINE
  5
2ABD
330
2FB0
100
AcDbEntity
  8
0
 62
     0
100
AcDbLine
 10
-141.200227549918
 20
-645.0080808012004
 30
0.0
 11
203.7999999999829
 21
-415.0085164122811
 31
0.0
  0
LINE
  5
2ABE
330
2FB0
100
AcDbEntity
  8
0
 62
     0
100
AcDbLine
 10
-145.7001888438062
 20
-645.0080808012025
 30
0.0
 11
203.7999999999829
 21
-412.008549876864
 31
0.0
  0
LINE
  5
2ABF
330
2FB0
100
AcDbEntity
  8
0
 62
     0
100
AcDbLine
 10
-150.2001501376871
 20
-645.0080808012004
 30
0.0
 11
203.7999999999829
 21
-409.0085833414486
 31
0.0
  0
LINE
  5
2AC0
330
2FB0
100
AcDbEntity
  8
0
 62
     0
100
AcDbLine
 10
-154.7001114315752
 20
-645.0080808012025
 30
0.0
 11
203.7999999999829
 21
-406.0086168060315
 31
0.0
  0
LINE
  5
2AC1
330
2FB0
100
AcDbEntity
  8
0
 62
     0
100
AcDbLine
 10
-159.2000727254617
 20
-645.0080808012004
 30
0.0
 11
203.7999999999847
 21
-403.0086502706144
 31
0.0
  0
LINE
  5
2AC2
330
2FB0
100
AcDbEntity
  8
0
 62
     0
100
AcDbLine
 10
-163.7000340193444
 20
-645.0080808012004
 30
0.0
 11
203.7999999999829
 21
-400.0086837352007
 31
0.0
  0
LINE
  5
2AC3
330
2FB0
100
AcDbEntity
  8
0
 62
     0
100
AcDbLine
 10
-168.1999953132308
 20
-645.0080808012004
 30
0.0
 11
203.7999999999847
 21
-397.008717199782
 31
0.0
  0
LINE
  5
2AC4
330
2FB0
100
AcDbEntity
  8
0
 62
     0
100
AcDbLine
 10
-172.699956607119
 20
-645.0080808012025
 30
0.0
 11
203.7999999999811
 21
-394.0087506643686
 31
0.0
  0
LINE
  5
2AC5
330
2FB0
100
AcDbEntity
  8
0
 62
     0
100
AcDbLine
 10
-177.1999179010036
 20
-645.0080808012025
 30
0.0
 11
203.7999999999847
 21
-391.0087841289497
 31
0.0
  0
LINE
  5
2AC6
330
2FB0
100
AcDbEntity
  8
0
 62
     0
100
AcDbLine
 10
-181.6998791948863
 20
-645.0080808011988
 30
0.0
 11
203.7999999999829
 21
-388.0088175935343
 31
0.0
  0
LINE
  5
2AC7
330
2FB0
100
AcDbEntity
  8
0
 62
     0
100
AcDbLine
 10
-186.1998404887763
 20
-645.0080808012025
 30
0.0
 11
203.7999999999829
 21
-385.0088510581191
 31
0.0
  0
LINE
  5
2AC8
330
2FB0
100
AcDbEntity
  8
0
 62
     0
100
AcDbLine
 10
-190.6998017826609
 20
-645.0080808012004
 30
0.0
 11
203.7999999999847
 21
-382.0088845227001
 31
0.0
  0
LINE
  5
2AC9
330
2FB0
100
AcDbEntity
  8
0
 62
     0
100
AcDbLine
 10
-195.1997630765453
 20
-645.0080808012025
 30
0.0
 11
203.7999999999829
 21
-379.0089179872865
 31
0.0
  0
LINE
  5
2ACA
330
2FB0
100
AcDbEntity
  8
0
 62
     0
100
AcDbLine
 10
-199.6997243704299
 20
-645.0080808011988
 30
0.0
 11
203.7999999999811
 21
-376.0089514518695
 31
0.0
  0
LINE
  5
2ACB
330
2FB0
100
AcDbEntity
  8
0
 62
     0
100
AcDbLine
 10
-203.8000000000138
 20
-644.7416243720708
 30
0.0
 11
203.7999999999811
 21
-373.0089849164543
 31
0.0
  0
LINE
  5
2ACC
330
2FB0
100
AcDbEntity
  8
0
 62
     0
100
AcDbLine
 10
-203.8000000000101
 20
-641.7416578366519
 30
0.0
 11
203.7999999999847
 21
-370.0090183810369
 31
0.0
  0
LINE
  5
2ACD
330
2FB0
100
AcDbEntity
  8
0
 62
     0
100
AcDbLine
 10
-203.8000000000138
 20
-638.7416913012383
 30
0.0
 11
203.7999999999811
 21
-367.0090518456218
 31
0.0
  0
LINE
  5
2ACE
330
2FB0
100
AcDbEntity
  8
0
 62
     0
100
AcDbLine
 10
-203.8000000000101
 20
-635.7417247658195
 30
0.0
 11
203.7999999999847
 21
-364.0090853102048
 31
0.0
  0
LINE
  5
2ACF
330
2FB0
100
AcDbEntity
  8
0
 62
     0
100
AcDbLine
 10
-203.8000000000138
 20
-632.7417582304061
 30
0.0
 11
203.7999999999811
 21
-361.0091187747893
 31
0.0
  0
LINE
  5
2AD0
330
2FB0
100
AcDbEntity
  8
0
 62
     0
100
AcDbLine
 10
-203.8000000000101
 20
-629.7417916949888
 30
0.0
 11
203.7999999999847
 21
-358.0091522393724
 31
0.0
  0
LINE
  5
2AD1
330
2FB0
100
AcDbEntity
  8
0
 62
     0
100
AcDbLine
 10
-203.8000000000138
 20
-626.7418251595736
 30
0.0
 11
203.7999999999811
 21
-355.0091857039588
 31
0.0
  0
LINE
  5
2AD2
330
2FB0
100
AcDbEntity
  8
0
 62
     0
100
AcDbLine
 10
-203.8000000000138
 20
-623.7418586241565
 30
0.0
 11
203.7999999999829
 21
-352.00921916854
 31
0.0
  0
LINE
  5
2AD3
330
2FB0
100
AcDbEntity
  8
0
 62
     0
100
AcDbLine
 10
-203.8000000000101
 20
-620.7418920887394
 30
0.0
 11
203.7999999999847
 21
-349.0092526331246
 31
0.0
  0
LINE
  5
2AD4
330
2FB0
100
AcDbEntity
  8
0
 62
     0
100
AcDbLine
 10
202.6238708786441
 20
-346.7933701764177
 30
0.0
 11
203.7999999999829
 21
-346.0092860977074
 31
0.0
  0
LINE
  5
2AD5
330
2FB0
100
AcDbEntity
  8
0
 62
     0
100
AcDbLine
 10
-203.8000000000138
 20
-617.7419255533241
 30
0.0
 11
202.6238708786441
 21
-346.7933701764177
 31
0.0
  0
LINE
  5
2AD6
330
2FB0
100
AcDbEntity
  8
0
 62
     0
100
AcDbLine
 10
198.1239095847558
 20
-346.7933701764177
 30
0.0
 11
203.7999999999829
 21
-343.0093195622903
 31
0.0
  0
LINE
  5
2AD7
330
2FB0
100
AcDbEntity
  8
0
 62
     0
100
AcDbLine
 10
-203.800000000012
 20
-614.741959017907
 30
0.0
 11
198.1239095847558
 21
-346.7933701764177
 31
0.0
  0
LINE
  5
2AD8
330
2FB0
100
AcDbEntity
  8
0
 62
     0
100
AcDbLine
 10
193.6239482908712
 20
-346.7933701764196
 30
0.0
 11
203.7999999999829
 21
-340.0093530268768
 31
0.0
  0
LINE
  5
2AD9
330
2FB0
100
AcDbEntity
  8
0
 62
     0
100
AcDbLine
 10
-203.8000000000138
 20
-611.7419924824917
 30
0.0
 11
193.6239482908712
 21
-346.7933701764196
 31
0.0
  0
LINE
  5
2ADA
330
2FB0
100
AcDbEntity
  8
0
 62
     0
100
AcDbLine
 10
189.1239869969848
 20
-346.7933701764196
 30
0.0
 11
203.7999999999847
 21
-337.0093864914579
 31
0.0
  0
LINE
  5
2ADB
330
2FB0
100
AcDbEntity
  8
0
 62
     0
100
AcDbLine
 10
-203.8000000000101
 20
-608.7420259470745
 30
0.0
 11
189.1239869969848
 21
-346.7933701764196
 31
0.0
  0
LINE
  5
2ADC
330
2FB0
100
AcDbEntity
  8
0
 62
     0
100
AcDbLine
 10
184.6240257031022
 20
-346.7933701764177
 30
0.0
 11
203.7999999999829
 21
-334.0094199560444
 31
0.0
  0
LINE
  5
2ADD
330
2FB0
100
AcDbEntity
  8
0
 62
     0
100
AcDbLine
 10
-203.8000000000138
 20
-605.7420594116611
 30
0.0
 11
184.6240257030986
 21
-346.7933701764196
 31
0.0
  0
LINE
  5
2ADE
330
2FB0
100
AcDbEntity
  8
0
 62
     0
100
AcDbLine
 10
180.1240644092139
 20
-346.7933701764177
 30
0.0
 11
203.7999999999829
 21
-331.0094534206255
 31
0.0
  0
LINE
  5
2ADF
330
2FB0
100
AcDbEntity
  8
0
 62
     0
100
AcDbLine
 10
-203.800000000012
 20
-602.7420928762421
 30
0.0
 11
180.1240644092139
 21
-346.7933701764177
 31
0.0
  0
LINE
  5
2AE0
330
2FB0
100
AcDbEntity
  8
0
 62
     0
100
AcDbLine
 10
175.6241031153294
 20
-346.7933701764196
 30
0.0
 11
203.7999999999829
 21
-328.0094868852121
 31
0.0
  0
LINE
  5
2AE1
330
2FB0
100
AcDbEntity
  8
0
 62
     0
100
AcDbLine
 10
-203.8000000000101
 20
-599.7421263408265
 30
0.0
 11
175.6241031153258
 21
-346.7933701764214
 31
0.0
  0
LINE
  5
2AE2
330
2FB0
100
AcDbEntity
  8
0
 62
     0
100
AcDbLine
 10
171.1241418214413
 20
-346.7933701764196
 30
0.0
 11
203.7999999999829
 21
-325.0095203497929
 31
0.0
  0
LINE
  5
2AE3
330
2FB0
100
AcDbEntity
  8
0
 62
     0
100
AcDbLine
 10
-203.800000000012
 20
-596.7421598054097
 30
0.0
 11
171.1241418214413
 21
-346.7933701764196
 31
0.0
  0
LINE
  5
2AE4
330
2FB0
100
AcDbEntity
  8
0
 62
     0
100
AcDbLine
 10
166.6241805275585
 20
-346.7933701764177
 30
0.0
 11
203.7999999999829
 21
-322.0095538143778
 31
0.0
  0
LINE
  5
2AE5
330
2FB0
100
AcDbEntity
  8
0
 62
     0
100
AcDbLine
 10
-203.800000000012
 20
-593.7421932699943
 30
0.0
 11
166.6241805275585
 21
-346.7933701764177
 31
0.0
  0
LINE
  5
2AE6
330
2FB0
100
AcDbEntity
  8
0
 62
     0
100
AcDbLine
 10
162.1242192336722
 20
-346.7933701764177
 30
0.0
 11
203.7999999999829
 21
-319.0095872789625
 31
0.0
  0
LINE
  5
2AE7
330
2FB0
100
AcDbEntity
  8
0
 62
     0
100
AcDbLine
 10
-203.800000000012
 20
-590.7422267345772
 30
0.0
 11
162.1242192336722
 21
-346.7933701764177
 31
0.0
  0
LINE
  5
2AE8
330
2FB0
100
AcDbEntity
  8
0
 62
     0
100
AcDbLine
 10
157.6242579397858
 20
-346.7933701764196
 30
0.0
 11
203.7999999999829
 21
-316.0096207435454
 31
0.0
  0
LINE
  5
2AE9
330
2FB0
100
AcDbEntity
  8
0
 62
     0
100
AcDbLine
 10
-203.800000000012
 20
-587.7422601991622
 30
0.0
 11
157.6242579397858
 21
-346.7933701764196
 31
0.0
  0
LINE
  5
2AEA
330
2FB0
100
AcDbEntity
  8
0
 62
     0
100
AcDbLine
 10
153.124296645903
 20
-346.7933701764177
 30
0.0
 11
203.7999999999829
 21
-313.0096542081301
 31
0.0
  0
LINE
  5
2AEB
330
2FB0
100
AcDbEntity
  8
0
 62
     0
100
AcDbLine
 10
-203.800000000012
 20
-584.7422936637467
 30
0.0
 11
153.1242966458994
 21
-346.7933701764196
 31
0.0
  0
LINE
  5
2AEC
330
2FB0
100
AcDbEntity
  8
0
 62
     0
100
AcDbLine
 10
148.6243353520167
 20
-346.7933701764196
 30
0.0
 11
203.7999999999829
 21
-310.009687672713
 31
0.0
  0
LINE
  5
2AED
330
2FB0
100
AcDbEntity
  8
0
 62
     0
100
AcDbLine
 10
-203.800000000012
 20
-581.7423271283296
 30
0.0
 11
148.6243353520167
 21
-346.7933701764196
 31
0.0
  0
LINE
  5
2AEE
330
2FB0
100
AcDbEntity
  8
0
 62
     0
100
AcDbLine
 10
144.1243740581303
 20
-346.7933701764196
 30
0.0
 11
203.7999999999829
 21
-307.0097211372977
 31
0.0
  0
LINE
  5
2AEF
330
2FB0
100
AcDbEntity
  8
0
 62
     0
100
AcDbLine
 10
-203.8000000000101
 20
-578.7423605929125
 30
0.0
 11
144.1243740581285
 21
-346.7933701764214
 31
0.0
  0
LINE
  5
2AF0
330
2FB0
100
AcDbEntity
  8
0
 62
     0
100
AcDbLine
 10
139.6244127642439
 20
-346.7933701764177
 30
0.0
 11
203.7999999999829
 21
-304.0097546018805
 31
0.0
  0
LINE
  5
2AF1
330
2FB0
100
AcDbEntity
  8
0
 62
     0
100
AcDbLine
 10
-203.800000000012
 20
-575.7423940574953
 30
0.0
 11
139.6244127642439
 21
-346.7933701764177
 31
0.0
  0
LINE
  5
2AF2
330
2FB0
100
AcDbEntity
  8
0
 62
     0
100
AcDbLine
 10
135.1244514703594
 20
-346.7933701764177
 30
0.0
 11
203.7999999999811
 21
-301.0097880664653
 31
0.0
  0
LINE
  5
2AF3
330
2FB0
100
AcDbEntity
  8
0
 62
     0
100
AcDbLine
 10
-203.8000000000138
 20
-572.7424275220819
 30
0.0
 11
135.1244514703594
 21
-346.7933701764177
 31
0.0
  0
LINE
  5
2AF4
330
2FB0
100
AcDbEntity
  8
0
 62
     0
100
AcDbLine
 10
130.6244901764748
 20
-346.7933701764177
 30
0.0
 11
203.7999999999829
 21
-298.009821531048
 31
0.0
  0
LINE
  5
2AF5
330
2FB0
100
AcDbEntity
  8
0
 62
     0
100
AcDbLine
 10
-203.800000000012
 20
-569.7424609866645
 30
0.0
 11
130.6244901764748
 21
-346.7933701764177
 31
0.0
  0
LINE
  5
2AF6
330
2FB0
100
AcDbEntity
  8
0
 62
     0
100
AcDbLine
 10
126.1245288825866
 20
-346.7933701764196
 30
0.0
 11
203.7999999999847
 21
-295.009854995631
 31
0.0
  0
LINE
  5
2AF7
330
2FB0
100
AcDbEntity
  8
0
 62
     0
100
AcDbLine
 10
-203.800000000012
 20
-566.7424944512474
 30
0.0
 11
126.1245288825866
 21
-346.7933701764196
 31
0.0
  0
LINE
  5
2AF8
330
2FB0
100
AcDbEntity
  8
0
 62
     0
100
AcDbLine
 10
121.6245675887021
 20
-346.7933701764196
 30
0.0
 11
203.7999999999829
 21
-292.0098884602158
 31
0.0
  0
LINE
  5
2AF9
330
2FB0
100
AcDbEntity
  8
0
 62
     0
100
AcDbLine
 10
-203.800000000012
 20
-563.7425279158324
 30
0.0
 11
121.6245675887021
 21
-346.7933701764196
 31
0.0
  0
LINE
  5
2AFA
330
2FB0
100
AcDbEntity
  8
0
 62
     0
100
AcDbLine
 10
117.1246062948176
 20
-346.7933701764177
 30
0.0
 11
203.7999999999847
 21
-289.0099219248004
 31
0.0
  0
LINE
  5
2AFB
330
2FB0
100
AcDbEntity
  8
0
 62
     0
100
AcDbLine
 10
-203.800000000012
 20
-560.7425613804151
 30
0.0
 11
117.1246062948157
 21
-346.7933701764196
 31
0.0
  0
LINE
  5
2AFC
330
2FB0
100
AcDbEntity
  8
0
 62
     0
100
AcDbLine
 10
112.624645000933
 20
-346.7933701764177
 30
0.0
 11
203.7999999999829
 21
-286.0099553893832
 31
0.0
  0
LINE
  5
2AFD
330
2FB0
100
AcDbEntity
  8
0
 62
     0
100
AcDbLine
 10
-203.800000000012
 20
-557.742594845
 30
0.0
 11
112.624645000933
 21
-346.7933701764177
 31
0.0
  0
LINE
  5
2AFE
330
2FB0
100
AcDbEntity
  8
0
 62
     0
100
AcDbLine
 10
108.1246837070448
 20
-346.7933701764196
 30
0.0
 11
203.7999999999847
 21
-283.009988853968
 31
0.0
  0
LINE
  5
2AFF
330
2FB0
100
AcDbEntity
  8
0
 62
     0
100
AcDbLine
 10
-203.800000000012
 20
-554.7426283095846
 30
0.0
 11
108.1246837070448
 21
-346.7933701764196
 31
0.0
  0
LINE
  5
2B00
330
2FB0
100
AcDbEntity
  8
0
 62
     0
100
AcDbLine
 10
103.6247224131621
 20
-346.7933701764177
 30
0.0
 11
203.7999999999811
 21
-280.0100223185509
 31
0.0
  0
LINE
  5
2B01
330
2FB0
100
AcDbEntity
  8
0
 62
     0
100
AcDbLine
 10
-203.8000000000138
 20
-551.7426617741675
 30
0.0
 11
103.6247224131621
 21
-346.7933701764177
 31
0.0
  0
LINE
  5
2B02
330
2FB0
100
AcDbEntity
  8
0
 62
     0
100
AcDbLine
 10
99.12476111927572
 20
-346.7933701764196
 30
0.0
 11
203.7999999999847
 21
-277.0100557831356
 31
0.0
  0
LINE
  5
2B03
330
2FB0
100
AcDbEntity
  8
0
 62
     0
100
AcDbLine
 10
-203.800000000012
 20
-548.742695238752
 30
0.0
 11
99.12476111927572
 21
-346.7933701764196
 31
0.0
  0
LINE
  5
2B04
330
2FB0
100
AcDbEntity
  8
0
 62
     0
100
AcDbLine
 10
94.62479982539116
 20
-346.7933701764159
 30
0.0
 11
203.7999999999847
 21
-274.0100892477185
 31
0.0
  0
LINE
  5
2B05
330
2FB0
100
AcDbEntity
  8
0
 62
     0
100
AcDbLine
 10
-203.8000000000101
 20
-545.7427287033332
 30
0.0
 11
94.62479982538935
 21
-346.7933701764177
 31
0.0
  0
LINE
  5
2B06
330
2FB0
100
AcDbEntity
  8
0
 62
     0
100
AcDbLine
 10
90.12483853150115
 20
-346.7933701764196
 30
0.0
 11
203.7999999999829
 21
-271.0101227123032
 31
0.0
  0
LINE
  5
2B07
330
2FB0
100
AcDbEntity
  8
0
 62
     0
100
AcDbLine
 10
-203.8000000000138
 20
-542.7427621679197
 30
0.0
 11
90.12483853150115
 21
-346.7933701764196
 31
0.0
  0
LINE
  5
2B08
330
2FB0
100
AcDbEntity
  8
0
 62
     0
100
AcDbLine
 10
85.62487723762023
 20
-346.7933701764177
 30
0.0
 11
203.7999999999847
 21
-268.0101561768861
 31
0.0
  0
LINE
  5
2B09
330
2FB0
100
AcDbEntity
  8
0
 62
     0
100
AcDbLine
 10
-203.8000000000101
 20
-539.7427956325028
 30
0.0
 11
85.62487723761661
 21
-346.7933701764196
 31
0.0
  0
LINE
  5
2B0A
330
2FB0
100
AcDbEntity
  8
0
 62
     0
100
AcDbLine
 10
81.12491594373386
 20
-346.7933701764177
 30
0.0
 11
203.7999999999829
 21
-265.010189641469
 31
0.0
  0
LINE
  5
2B0B
330
2FB0
100
AcDbEntity
  8
0
 62
     0
100
AcDbLine
 10
-203.800000000012
 20
-536.7428290970856
 30
0.0
 11
81.12491594373386
 21
-346.7933701764177
 31
0.0
  0
LINE
  5
2B0C
330
2FB0
100
AcDbEntity
  8
0
 62
     0
100
AcDbLine
 10
76.62495464985115
 20
-346.7933701764159
 30
0.0
 11
203.7999999999847
 21
-262.0102231060537
 31
0.0
  0
LINE
  5
2B0D
330
2FB0
100
AcDbEntity
  8
0
 62
     0
100
AcDbLine
 10
-203.8000000000101
 20
-533.7428625616703
 30
0.0
 11
76.62495464984385
 21
-346.7933701764214
 31
0.0
  0
LINE
  5
2B0E
330
2FB0
100
AcDbEntity
  8
0
 62
     0
100
AcDbLine
 10
72.1249933559593
 20
-346.7933701764177
 30
0.0
 11
203.7999999999811
 21
-259.0102565706384
 31
0.0
  0
LINE
  5
2B0F
330
2FB0
100
AcDbEntity
  8
0
 62
     0
100
AcDbLine
 10
-203.8000000000138
 20
-530.7428960262532
 30
0.0
 11
72.1249933559593
 21
-346.7933701764177
 31
0.0
  0
LINE
  5
2B10
330
2FB0
100
AcDbEntity
  8
0
 62
     0
100
AcDbLine
 10
67.62503206207838
 20
-346.7933701764177
 30
0.0
 11
203.7999999999847
 21
-256.0102900352212
 31
0.0
  0
LINE
  5
2B11
330
2FB0
100
AcDbEntity
  8
0
 62
     0
100
AcDbLine
 10
-203.8000000000101
 20
-527.7429294908379
 30
0.0
 11
67.62503206207838
 21
-346.7933701764177
 31
0.0
  0
LINE
  5
2B12
330
2FB0
100
AcDbEntity
  8
0
 62
     0
100
AcDbLine
 10
63.1250707681902
 20
-346.7933701764177
 30
0.0
 11
203.7999999999847
 21
-253.0103234998041
 31
0.0
  0
LINE
  5
2B13
330
2FB0
100
AcDbEntity
  8
0
 62
     0
100
AcDbLine
 10
-203.8000000000101
 20
-524.7429629554187
 30
0.0
 11
63.1250707681902
 21
-346.7933701764177
 31
0.0
  0
LINE
  5
2B14
330
2FB0
100
AcDbEntity
  8
0
 62
     0
100
AcDbLine
 10
58.62510947430383
 20
-346.7933701764196
 30
0.0
 11
203.7999999999829
 21
-250.010356964389
 31
0.0
  0
LINE
  5
2B15
330
2FB0
100
AcDbEntity
  8
0
 62
     0
100
AcDbLine
 10
-203.800000000012
 20
-521.7429964200055
 30
0.0
 11
58.62510947430383
 21
-346.7933701764196
 31
0.0
  0
LINE
  5
2B16
330
2FB0
100
AcDbEntity
  8
0
 62
     0
100
AcDbLine
 10
54.12514818041927
 20
-346.7933701764196
 30
0.0
 11
203.7999999999847
 21
-247.0103904289717
 31
0.0
  0
LINE
  5
2B17
330
2FB0
100
AcDbEntity
  8
0
 62
     0
100
AcDbLine
 10
-203.8000000000101
 20
-518.7430298845884
 30
0.0
 11
54.12514818041927
 21
-346.7933701764196
 31
0.0
  0
LINE
  5
2B18
330
2FB0
100
AcDbEntity
  8
0
 62
     0
100
AcDbLine
 10
49.62518688653472
 20
-346.7933701764177
 30
0.0
 11
203.7999999999847
 21
-244.0104238935546
 31
0.0
  0
LINE
  5
2B19
330
2FB0
100
AcDbEntity
  8
0
 62
     0
100
AcDbLine
 10
-203.800000000012
 20
-515.7430633491729
 30
0.0
 11
49.62518688653108
 21
-346.7933701764196
 31
0.0
  0
LINE
  5
2B1A
330
2FB0
100
AcDbEntity
  8
0
 62
     0
100
AcDbLine
 10
45.12522559264834
 20
-346.7933701764177
 30
0.0
 11
203.7999999999847
 21
-241.0104573581393
 31
0.0
  0
LINE
  5
2B1B
330
2FB0
100
AcDbEntity
  8
0
 62
     0
100
AcDbLine
 10
-203.8000000000101
 20
-512.7430968137559
 30
0.0
 11
45.12522559264652
 21
-346.7933701764196
 31
0.0
  0
LINE
  5
2B1C
330
2FB0
100
AcDbEntity
  8
0
 62
     0
100
AcDbLine
 10
40.62526429876196
 20
-346.7933701764196
 30
0.0
 11
203.7999999999847
 21
-238.010490822724
 31
0.0
  0
LINE
  5
2B1D
330
2FB0
100
AcDbEntity
  8
0
 62
     0
100
AcDbLine
 10
-203.800000000012
 20
-509.7431302783425
 30
0.0
 11
40.62526429876196
 21
-346.7933701764196
 31
0.0
  0
LINE
  5
2B1E
330
2FB0
100
AcDbEntity
  8
0
 62
     0
100
AcDbLine
 10
36.12530300487924
 20
-346.7933701764177
 30
0.0
 11
203.7999999999847
 21
-235.0105242873068
 31
0.0
  0
LINE
  5
2B1F
330
2FB0
100
AcDbEntity
  8
0
 62
     0
100
AcDbLine
 10
-203.8000000000101
 20
-506.7431637429235
 30
0.0
 11
36.12530300487924
 21
-346.7933701764177
 31
0.0
  0
LINE
  5
2B20
330
2FB0
100
AcDbEntity
  8
0
 62
     0
100
AcDbLine
 10
31.62534171099287
 20
-346.7933701764196
 30
0.0
 11
203.7999999999847
 21
-232.0105577518916
 31
0.0
  0
LINE
  5
2B21
330
2FB0
100
AcDbEntity
  8
0
 62
     0
100
AcDbLine
 10
-203.8000000000138
 20
-503.7431972075101
 30
0.0
 11
31.62534171099287
 21
-346.7933701764196
 31
0.0
  0
LINE
  5
2B22
330
2FB0
100
AcDbEntity
  8
0
 62
     0
100
AcDbLine
 10
27.12538041710832
 20
-346.7933701764159
 30
0.0
 11
203.7999999999829
 21
-229.0105912164763
 31
0.0
  0
LINE
  5
2B23
330
2FB0
100
AcDbEntity
  8
0
 62
     0
100
AcDbLine
 10
-203.800000000012
 20
-500.7432306720911
 30
0.0
 11
27.12538041710468
 21
-346.7933701764177
 31
0.0
  0
LINE
  5
2B24
330
2FB0
100
AcDbEntity
  8
0
 62
     0
100
AcDbLine
 10
22.62541912322013
 20
-346.7933701764177
 30
0.0
 11
203.7999999999847
 21
-226.0106246810574
 31
0.0
  0
LINE
  5
2B25
330
2FB0
100
AcDbEntity
  8
0
 62
     0
100
AcDbLine
 10
-203.8000000000138
 20
-497.743264136676
 30
0.0
 11
22.62541912322013
 21
-346.7933701764177
 31
0.0
  0
LINE
  5
2B26
330
2FB0
100
AcDbEntity
  8
0
 62
     0
100
AcDbLine
 10
18.12545782933557
 20
-346.7933701764177
 30
0.0
 11
203.7999999999864
 21
-223.0106581456421
 31
0.0
  0
LINE
  5
2B27
330
2FB0
100
AcDbEntity
  8
0
 62
     0
100
AcDbLine
 10
-203.800000000012
 20
-494.7432976012585
 30
0.0
 11
18.12545782933557
 21
-346.7933701764177
 31
0.0
  0
LINE
  5
2B28
330
2FB0
100
AcDbEntity
  8
0
 62
     0
100
AcDbLine
 10
13.6254965354492
 20
-346.7933701764177
 30
0.0
 11
203.7999999999829
 21
-220.0106916102249
 31
0.0
  0
LINE
  5
2B29
330
2FB0
100
AcDbEntity
  8
0
 62
     0
100
AcDbLine
 10
-203.800000000012
 20
-491.7433310658416
 30
0.0
 11
13.6254965354492
 21
-346.7933701764177
 31
0.0
  0
LINE
  5
2B2A
330
2FB0
100
AcDbEntity
  8
0
 62
     0
100
AcDbLine
 10
9.125535241566467
 20
-346.7933701764159
 30
0.0
 11
203.7999999999864
 21
-217.0107250748097
 31
0.0
  0
LINE
  5
2B2B
330
2FB0
100
AcDbEntity
  8
0
 62
     0
100
AcDbLine
 10
-203.800000000012
 20
-488.7433645304281
 30
0.0
 11
9.125535241562829
 21
-346.7933701764196
 31
0.0
  0
LINE
  5
2B2C
330
2FB0
100
AcDbEntity
  8
0
 62
     0
100
AcDbLine
 10
4.625573947678274
 20
-346.7933701764177
 30
0.0
 11
203.7999999999847
 21
-214.0107585393926
 31
0.0
  0
LINE
  5
2B2D
330
2FB0
100
AcDbEntity
  8
0
 62
     0
100
AcDbLine
 10
-203.8000000000101
 20
-485.7433979950092
 30
0.0
 11
4.625573947678274
 21
-346.7933701764177
 31
0.0
  0
LINE
  5
2B2E
330
2FB0
100
AcDbEntity
  8
0
 62
     0
100
AcDbLine
 10
0.1256126537937234
 20
-346.7933701764177
 30
0.0
 11
203.7999999999864
 21
-211.0107920039772
 31
0.0
  0
LINE
  5
2B2F
330
2FB0
100
AcDbEntity
  8
0
 62
     0
100
AcDbLine
 10
-203.800000000012
 20
-482.7434314595957
 30
0.0
 11
0.1256126537937234
 21
-346.7933701764177
 31
0.0
  0
LINE
  5
2B30
330
2FB0
100
AcDbEntity
  8
0
 62
     0
100
AcDbLine
 10
-4.374348640092646
 20
-346.7933701764177
 30
0.0
 11
203.7999999999829
 21
-208.010825468562
 31
0.0
  0
LINE
  5
2B31
330
2FB0
100
AcDbEntity
  8
0
 62
     0
100
AcDbLine
 10
-203.800000000012
 20
-479.7434649241766
 30
0.0
 11
-4.374348640092646
 21
-346.7933701764177
 31
0.0
  0
LINE
  5
2B32
330
2FB0
100
AcDbEntity
  8
0
 62
     0
100
AcDbLine
 10
-8.874309933975382
 20
-346.7933701764177
 30
0.0
 11
203.7999999999864
 21
-205.0108589331448
 31
0.0
  0
LINE
  5
2B33
330
2FB0
100
AcDbEntity
  8
0
 62
     0
100
AcDbLine
 10
-203.800000000012
 20
-476.7434983887632
 30
0.0
 11
-8.874309933977201
 21
-346.7933701764196
 31
0.0
  0
LINE
  5
2B34
330
2FB0
100
AcDbEntity
  8
0
 62
     0
100
AcDbLine
 10
-12.00000000001091
 20
-345.8771916973383
 30
0.0
 11
203.7999999999864
 21
-202.0108923977277
 31
0.0
  0
LINE
  5
2B35
330
2FB0
100
AcDbEntity
  8
0
 62
     0
100
AcDbLine
 10
-203.800000000012
 20
-473.7435318533463
 30
0.0
 11
-12.00000000001637
 21
-345.8771916973437
 31
0.0
  0
LINE
  5
2B36
330
2FB0
100
AcDbEntity
  8
0
 62
     0
100
AcDbLine
 10
-12.00000000000909
 20
-342.8772251619229
 30
0.0
 11
203.7999999999847
 21
-199.0109258623124
 31
0.0
  0
LINE
  5
2B37
330
2FB0
100
AcDbEntity
  8
0
 62
     0
100
AcDbLine
 10
-203.800000000012
 20
-470.7435653179291
 30
0.0
 11
-12.00000000001637
 21
-342.8772251619266
 31
0.0
  0
LINE
  5
2B38
330
2FB0
100
AcDbEntity
  8
0
 62
     0
100
AcDbLine
 10
-12.00000000001091
 20
-339.8772586265077
 30
0.0
 11
203.7999999999864
 21
-196.0109593268953
 31
0.0
  0
LINE
  5
2B39
330
2FB0
100
AcDbEntity
  8
0
 62
     0
100
AcDbLine
 10
-203.800000000012
 20
-467.7435987825138
 30
0.0
 11
-12.00000000001637
 21
-339.8772586265113
 31
0.0
  0
LINE
  5
2B3A
330
2FB0
100
AcDbEntity
  8
0
 62
     0
100
AcDbLine
 10
-12.00000000000727
 20
-336.8772920910906
 30
0.0
 11
203.7999999999864
 21
-193.0109927914818
 31
0.0
  0
LINE
  5
2B3B
330
2FB0
100
AcDbEntity
  8
0
 62
     0
100
AcDbLine
 10
-203.8000000000101
 20
-464.7436322470968
 30
0.0
 11
-12.00000000001455
 21
-336.8772920910942
 31
0.0
  0
LINE
  5
2B3C
330
2FB0
100
AcDbEntity
  8
0
 62
     0
100
AcDbLine
 10
-12.00000000000727
 20
-333.8773255556735
 30
0.0
 11
203.7999999999864
 21
-190.0110262560628
 31
0.0
  0
LINE
  5
2B3D
330
2FB0
100
AcDbEntity
  8
0
 62
     0
100
AcDbLine
 10
-203.800000000012
 20
-461.7436657116812
 30
0.0
 11
-12.00000000001637
 21
-333.8773255556788
 31
0.0
  0
LINE
  5
2B3E
330
2FB0
100
AcDbEntity
  8
0
 62
     0
100
AcDbLine
 10
-12.00000000000909
 20
-330.8773590202562
 30
0.0
 11
203.7999999999847
 21
-187.0110597206474
 31
0.0
  0
LINE
  5
2B3F
330
2FB0
100
AcDbEntity
  8
0
 62
     0
100
AcDbLine
 10
-203.800000000012
 20
-458.7436991762642
 30
0.0
 11
-12.00000000001637
 21
-330.8773590202618
 31
0.0
  0
LINE
  5
2B40
330
2FB0
100
AcDbEntity
  8
0
 62
     0
100
AcDbLine
 10
-12.00000000000727
 20
-327.8773924848409
 30
0.0
 11
203.7999999999864
 21
-184.0110931852305
 31
0.0
  0
LINE
  5
2B41
330
2FB0
100
AcDbEntity
  8
0
 62
     0
100
AcDbLine
 10
-203.800000000012
 20
-455.7437326408488
 30
0.0
 11
-12.00000000001637
 21
-327.8773924848465
 31
0.0
  0
LINE
  5
2B42
330
2FB0
100
AcDbEntity
  8
0
 62
     0
100
AcDbLine
 10
-12.00000000000909
 20
-324.8774259494258
 30
0.0
 11
203.7999999999864
 21
-181.0111266498132
 31
0.0
  0
LINE
  5
2B43
330
2FB0
100
AcDbEntity
  8
0
 62
     0
100
AcDbLine
 10
-203.800000000012
 20
-452.7437661054316
 30
0.0
 11
-12.00000000001637
 21
-324.8774259494294
 31
0.0
  0
LINE
  5
2B44
330
2FB0
100
AcDbEntity
  8
0
 62
     0
100
AcDbLine
 10
-12.00000000000909
 20
-321.8774594140086
 30
0.0
 11
203.7999999999847
 21
-178.0111601143999
 31
0.0
  0
LINE
  5
2B45
330
2FB0
100
AcDbEntity
  8
0
 62
     0
100
AcDbLine
 10
-203.8000000000138
 20
-449.7437995700165
 30
0.0
 11
-12.00000000001819
 21
-321.877459414014
 31
0.0
  0
LINE
  5
2B46
330
2FB0
100
AcDbEntity
  8
0
 62
     0
100
AcDbLine
 10
-12.00000000000909
 20
-318.8774928785933
 30
0.0
 11
203.7999999999864
 21
-175.0111935789809
 31
0.0
  0
LINE
  5
2B47
330
2FB0
100
AcDbEntity
  8
0
 62
     0
100
AcDbLine
 10
-203.800000000012
 20
-446.7438330345991
 30
0.0
 11
-12.00000000001637
 21
-318.8774928785971
 31
0.0
  0
LINE
  5
2B48
330
2FB0
100
AcDbEntity
  8
0
 62
     0
100
AcDbLine
 10
-12.00000000000727
 20
-315.8775263431762
 30
0.0
 11
203.7999999999864
 21
-172.0112270435674
 31
0.0
  0
LINE
  5
2B49
330
2FB0
100
AcDbEntity
  8
0
 62
     0
100
AcDbLine
 10
-203.800000000012
 20
-443.743866499186
 30
0.0
 11
-12.00000000001637
 21
-315.8775263431835
 31
0.0
  0
LINE
  5
2B4A
330
2FB0
100
AcDbEntity
  8
0
 62
     0
100
AcDbLine
 10
-12.00000000001091
 20
-312.8775598077609
 30
0.0
 11
203.7999999999847
 21
-169.0112605081485
 31
0.0
  0
LINE
  5
2B4B
330
2FB0
100
AcDbEntity
  8
0
 62
     0
100
AcDbLine
 10
-203.8000000000138
 20
-440.7438999637668
 30
0.0
 11
-12.00000000001819
 21
-312.8775598077646
 31
0.0
  0
LINE
  5
2B4C
330
2FB0
100
AcDbEntity
  8
0
 62
     0
100
AcDbLine
 10
-12.00000000000909
 20
-309.8775932723438
 30
0.0
 11
203.7999999999847
 21
-166.0112939727351
 31
0.0
  0
LINE
  5
2B4D
330
2FB0
100
AcDbEntity
  8
0
 62
     0
100
AcDbLine
 10
-203.8000000000101
 20
-437.7439334283517
 30
0.0
 11
-12.00000000001455
 21
-309.8775932723492
 31
0.0
  0
LINE
  5
2B4E
330
2FB0
100
AcDbEntity
  8
0
 62
     0
100
AcDbLine
 10
-12.00000000000909
 20
-306.8776267369285
 30
0.0
 11
203.7999999999864
 21
-163.0113274373179
 31
0.0
  0
LINE
  5
2B4F
330
2FB0
100
AcDbEntity
  8
0
 62
     0
100
AcDbLine
 10
-203.800000000012
 20
-434.7439668929346
 30
0.0
 11
-12.00000000001637
 21
-306.8776267369321
 31
0.0
  0
LINE
  5
2B50
330
2FB0
100
AcDbEntity
  8
0
 62
     0
100
AcDbLine
 10
-12.00000000000909
 20
-303.8776602015131
 30
0.0
 11
203.7999999999883
 21
-160.0113609019008
 31
0.0
  0
LINE
  5
2B51
330
2FB0
100
AcDbEntity
  8
0
 62
     0
100
AcDbLine
 10
-203.8000000000084
 20
-431.7440003575174
 30
0.0
 11
-12.00000000001455
 21
-303.8776602015169
 31
0.0
  0
LINE
  5
2B52
330
2FB0
100
AcDbEntity
  8
0
 62
     0
100
AcDbLine
 10
-12.00000000000909
 20
-300.8776936660943
 30
0.0
 11
203.7999999999847
 21
-157.0113943664854
 31
0.0
  0
LINE
  5
2B53
330
2FB0
100
AcDbEntity
  8
0
 62
     0
100
AcDbLine
 10
-203.8000000000101
 20
-428.7440338221004
 30
0.0
 11
-12.00000000001819
 21
-300.8776936661015
 31
0.0
  0
LINE
  5
2B54
330
2FB0
100
AcDbEntity
  8
0
 62
     0
100
AcDbLine
 10
-12.00000000000909
 20
-297.8777271306808
 30
0.0
 11
203.7999999999883
 21
-154.0114278310684
 31
0.0
  0
LINE
  5
2B55
330
2FB0
100
AcDbEntity
  8
0
 62
     0
100
AcDbLine
 10
-203.8000000000084
 20
-425.7440672866849
 30
0.0
 11
-12.00000000001455
 21
-297.8777271306844
 31
0.0
  0
LINE
  5
2B56
330
2FB0
100
AcDbEntity
  8
0
 62
     0
100
AcDbLine
 10
-12.00000000000909
 20
-294.877760595262
 30
0.0
 11
200.8271290875364
 21
-152.9933701764203
 31
0.0
  0
LINE
  5
2B57
330
2FB0
100
AcDbEntity
  8
0
 62
     0
100
AcDbLine
 10
-203.8000000000101
 20
-422.7441007512696
 30
0.0
 11
-12.00000000001819
 21
-294.877760595269
 31
0.0
  0
LINE
  5
2B58
330
2FB0
100
AcDbEntity
  8
0
 62
     0
100
AcDbLine
 10
-12.00000000001091
 20
-291.8777940598466
 30
0.0
 11
196.3271677936518
 21
-152.9933701764185
 31
0.0
  0
LINE
  5
2B59
330
2FB0
100
AcDbEntity
  8
0
 62
     0
100
AcDbLine
 10
-203.8000000000101
 20
-419.7441342158509
 30
0.0
 11
-12.00000000001637
 21
-291.8777940598502
 31
0.0
  0
LINE
  5
2B5A
330
2FB0
100
AcDbEntity
  8
0
 62
     0
100
AcDbLine
 10
-12.00000000000909
 20
-288.8778275244312
 30
0.0
 11
191.8272064997654
 21
-152.9933701764203
 31
0.0
  0
LINE
  5
2B5B
330
2FB0
100
AcDbEntity
  8
0
 62
     0
100
AcDbLine
 10
-203.8000000000101
 20
-416.744167680437
 30
0.0
 11
-12.00000000001455
 21
-288.8778275244349
 31
0.0
  0
LINE
  5
2B5C
330
2FB0
100
AcDbEntity
  8
0
 62
     0
100
AcDbLine
 10
-12.00000000000909
 20
-285.8778609890141
 30
0.0
 11
187.3272452058845
 21
-152.9933701764166
 31
0.0
  0
LINE
  5
2B5D
330
2FB0
100
AcDbEntity
  8
0
 62
     0
100
AcDbLine
 10
-203.8000000000084
 20
-413.7442011450183
 30
0.0
 11
-12.00000000001455
 21
-285.8778609890196
 31
0.0
  0
LINE
  5
2B5E
330
2FB0
100
AcDbEntity
  8
0
 62
     0
100
AcDbLine
 10
-12.00000000000909
 20
-282.8778944535989
 30
0.0
 11
182.8272839119945
 21
-152.9933701764203
 31
0.0
  0
LINE
  5
2B5F
330
2FB0
100
AcDbEntity
  8
0
 62
     0
100
AcDbLine
 10
-203.8000000000065
 20
-410.7442346096029
 30
0.0
 11
-12.00000000001455
 21
-282.8778944536025
 31
0.0
  0
LINE
  5
2B60
330
2FB0
100
AcDbEntity
  8
0
 62
     0
100
AcDbLine
 10
-12.00000000000727
 20
-279.8779279181799
 30
0.0
 11
178.3273226181099
 21
-152.9933701764185
 31
0.0
  0
LINE
  5
2B61
330
2FB0
100
AcDbEntity
  8
0
 62
     0
100
AcDbLine
 10
-203.8000000000101
 20
-407.7442680741878
 30
0.0
 11
-12.00000000001637
 21
-279.8779279181872
 31
0.0
  0
LINE
  5
2B62
330
2FB0
100
AcDbEntity
  8
0
 62
     0
100
AcDbLine
 10
-12.00000000000909
 20
-276.8779613827665
 30
0.0
 11
173.8273613242236
 21
-152.9933701764203
 31
0.0
  0
LINE
  5
2B63
330
2FB0
100
AcDbEntity
  8
0
 62
     0
100
AcDbLine
 10
-203.8000000000065
 20
-404.7443015387704
 30
0.0
 11
-12.00000000001455
 21
-276.8779613827701
 31
0.0
  0
LINE
  5
2B64
330
2FB0
100
AcDbEntity
  8
0
 62
     0
100
AcDbLine
 10
-12.00000000000727
 20
-273.8779948473493
 30
0.0
 11
169.3274000303409
 21
-152.9933701764166
 31
0.0
  0
LINE
  5
2B65
330
2FB0
100
AcDbEntity
  8
0
 62
     0
100
AcDbLine
 10
-203.8000000000101
 20
-401.7443350033554
 30
0.0
 11
-12.00000000001637
 21
-273.8779948473548
 31
0.0
  0
LINE
  5
2B66
330
2FB0
100
AcDbEntity
  8
0
 62
     0
100
AcDbLine
 10
-12.00000000001091
 20
-270.878028311934
 30
0.0
 11
164.8274387364527
 21
-152.9933701764185
 31
0.0
  0
LINE
  5
2B67
330
2FB0
100
AcDbEntity
  8
0
 62
     0
100
AcDbLine
 10
-203.8000000000084
 20
-398.7443684679383
 30
0.0
 11
-12.00000000001637
 21
-270.8780283119377
 31
0.0
  0
LINE
  5
2B68
330
2FB0
100
AcDbEntity
  8
0
 62
     0
100
AcDbLine
 10
-12.00000000000727
 20
-267.8780617765168
 30
0.0
 11
160.3274774425681
 21
-152.9933701764185
 31
0.0
  0
LINE
  5
2B69
330
2FB0
100
AcDbEntity
  8
0
 62
     0
100
AcDbLine
 10
-203.8000000000101
 20
-395.744401932523
 30
0.0
 11
-12.00000000001637
 21
-267.8780617765224
 31
0.0
  0
LINE
  5
2B6A
330
2FB0
100
AcDbEntity
  8
0
 62
     0
100
AcDbLine
 10
-12.00000000000909
 20
-264.8780952411016
 30
0.0
 11
155.8275161486854
 21
-152.9933701764185
 31
0.0
  0
LINE
  5
2B6B
330
2FB0
100
AcDbEntity
  8
0
 62
     0
100
AcDbLine
 10
-203.8000000000065
 20
-392.7444353971077
 30
0.0
 11
-12.00000000001455
 21
-264.8780952411071
 31
0.0
  0
LINE
  5
2B6C
330
2FB0
100
AcDbEntity
  8
0
 62
     0
100
AcDbLine
 10
-12.00000000000909
 20
-261.8781287056845
 30
0.0
 11
151.3275548547972
 21
-152.9933701764185
 31
0.0
  0
LINE
  5
2B6D
330
2FB0
100
AcDbEntity
  8
0
 62
     0
100
AcDbLine
 10
-203.8000000000084
 20
-389.7444688616888
 30
0.0
 11
-12.00000000001819
 21
-261.87812870569
 31
0.0
  0
LINE
  5
2B6E
330
2FB0
100
AcDbEntity
  8
0
 62
     0
100
AcDbLine
 10
-12.00000000001091
 20
-258.878162170271
 30
0.0
 11
146.8275935609108
 21
-152.9933701764203
 31
0.0
  0
LINE
  5
2B6F
330
2FB0
100
AcDbEntity
  8
0
 62
     0
100
AcDbLine
 10
-203.8000000000101
 20
-386.7445023262753
 30
0.0
 11
-12.00000000001637
 21
-258.8781621702747
 31
0.0
  0
LINE
  5
2B70
330
2FB0
100
AcDbEntity
  8
0
 62
     0
100
AcDbLine
 10
-12.00000000000727
 20
-255.8781956348521
 30
0.0
 11
142.3276322670262
 21
-152.9933701764185
 31
0.0
  0
LINE
  5
2B71
330
2FB0
100
AcDbEntity
  8
0
 62
     0
100
AcDbLine
 10
-203.8000000000065
 20
-383.7445357908564
 30
0.0
 11
-12.00000000001455
 21
-255.8781956348557
 31
0.0
  0
LINE
  5
2B72
330
2FB0
100
AcDbEntity
  8
0
 62
     0
100
AcDbLine
 10
-12.00000000001091
 20
-252.8782290994368
 30
0.0
 11
137.8276709731417
 21
-152.9933701764166
 31
0.0
  0
LINE
  5
2B73
330
2FB0
100
AcDbEntity
  8
0
 62
     0
100
AcDbLine
 10
-203.8000000000101
 20
-380.7445692554409
 30
0.0
 11
-12.00000000001637
 21
-252.8782290994404
 31
0.0
  0
LINE
  5
2B74
330
2FB0
100
AcDbEntity
  8
0
 62
     0
100
AcDbLine
 10
-12.00000000000909
 20
-249.8782625640197
 30
0.0
 11
133.3277096792517
 21
-152.9933701764203
 31
0.0
  0
LINE
  5
2B75
330
2FB0
100
AcDbEntity
  8
0
 62
     0
100
AcDbLine
 10
-203.8000000000084
 20
-377.7446027200258
 30
0.0
 11
-12.00000000001637
 21
-249.8782625640251
 31
0.0
  0
LINE
  5
2B76
330
2FB0
100
AcDbEntity
  8
0
 62
     0
100
AcDbLine
 10
-12.00000000000727
 20
-246.8782960286026
 30
0.0
 11
128.827748385369
 21
-152.9933701764185
 31
0.0
  0
LINE
  5
2B77
330
2FB0
100
AcDbEntity
  8
0
 62
     0
100
AcDbLine
 10
-203.8000000000101
 20
-374.7446361846087
 30
0.0
 11
-12.00000000001637
 21
-246.878296028608
 31
0.0
  0
LINE
  5
2B78
330
2FB0
100
AcDbEntity
  8
0
 62
     0
100
AcDbLine
 10
-12.00000000001091
 20
-243.8783294931891
 30
0.0
 11
124.3277870914826
 21
-152.9933701764203
 31
0.0
  0
LINE
  5
2B79
330
2FB0
100
AcDbEntity
  8
0
 62
     0
100
AcDbLine
 10
-203.8000000000084
 20
-371.7446696491933
 30
0.0
 11
-12.00000000001637
 21
-243.8783294931927
 31
0.0
  0
LINE
  5
2B7A
330
2FB0
100
AcDbEntity
  8
0
 62
     0
100
AcDbLine
 10
-12.00000000000909
 20
-240.8783629577702
 30
0.0
 11
119.827825797598
 21
-152.9933701764166
 31
0.0
  0
LINE
  5
2B7B
330
2FB0
100
AcDbEntity
  8
0
 62
     0
100
AcDbLine
 10
-203.8000000000084
 20
-368.7447031137744
 30
0.0
 11
-12.00000000001819
 21
-240.8783629577756
 31
0.0
  0
LINE
  5
2B7C
330
2FB0
100
AcDbEntity
  8
0
 62
     0
100
AcDbLine
 10
-12.00000000001091
 20
-237.8783964223567
 30
0.0
 11
115.3278645037098
 21
-152.9933701764203
 31
0.0
  0
LINE
  5
2B7D
330
2FB0
100
AcDbEntity
  8
0
 62
     0
100
AcDbLine
 10
-203.8000000000084
 20
-365.7447365783609
 30
0.0
 11
-12.00000000001637
 21
-237.8783964223603
 31
0.0
  0
LINE
  5
2B7E
330
2FB0
100
AcDbEntity
  8
0
 62
     0
100
AcDbLine
 10
-12.00000000000727
 20
-234.8784298869377
 30
0.0
 11
110.8279032098271
 21
-152.9933701764185
 31
0.0
  0
LINE
  5
2B7F
330
2FB0
100
AcDbEntity
  8
0
 62
     0
100
AcDbLine
 10
-203.8000000000065
 20
-362.744770042942
 30
0.0
 11
-12.00000000001455
 21
-234.8784298869432
 31
0.0
  0
LINE
  5
2B80
330
2FB0
100
AcDbEntity
  8
0
 62
     0
100
AcDbLine
 10
-12.00000000001091
 20
-231.8784633515242
 30
0.0
 11
106.3279419159407
 21
-152.9933701764203
 31
0.0
  0
LINE
  5
2B81
330
2FB0
100
AcDbEntity
  8
0
 62
     0
100
AcDbLine
 10
-203.8000000000084
 20
-359.7448035075286
 30
0.0
 11
-12.00000000001637
 21
-231.8784633515279
 31
0.0
  0
LINE
  5
2B82
330
2FB0
100
AcDbEntity
  8
0
 62
     0
100
AcDbLine
 10
-12.00000000000909
 20
-228.8784968161071
 30
0.0
 11
101.8279806220562
 21
-152.9933701764185
 31
0.0
  0
LINE
  5
2B83
330
2FB0
100
AcDbEntity
  8
0
 62
     0
100
AcDbLine
 10
-203.8000000000084
 20
-356.7448369721114
 30
0.0
 11
-12.00000000001637
 21
-228.8784968161108
 31
0.0
  0
LINE
  5
2B84
330
2FB0
100
AcDbEntity
  8
0
 62
     0
100
AcDbLine
 10
-12.00000000000727
 20
-225.87853028069
 30
0.0
 11
97.32801932817165
 21
-152.9933701764185
 31
0.0
  0
LINE
  5
2B85
330
2FB0
100
AcDbEntity
  8
0
 62
     0
100
AcDbLine
 10
-203.8000000000084
 20
-353.7448704366962
 30
0.0
 11
-12.00000000001637
 21
-225.8785302806955
 31
0.0
  0
LINE
  5
2B86
330
2FB0
100
AcDbEntity
  8
0
 62
     0
100
AcDbLine
 10
-12.00000000000909
 20
-222.8785637452747
 30
0.0
 11
92.82805803428344
 21
-152.9933701764185
 31
0.0
  0
LINE
  5
2B87
330
2FB0
100
AcDbEntity
  8
0
 62
     0
100
AcDbLine
 10
-203.8000000000084
 20
-350.7449039012791
 30
0.0
 11
-12.00000000001637
 21
-222.8785637452784
 31
0.0
  0
LINE
  5
2B88
330
2FB0
100
AcDbEntity
  8
0
 62
     0
100
AcDbLine
 10
-12.00000000000909
 20
-219.8785972098576
 30
0.0
 11
88.32809674040069
 21
-152.9933701764185
 31
0.0
  0
LINE
  5
2B89
330
2FB0
100
AcDbEntity
  8
0
 62
     0
100
AcDbLine
 10
-203.8000000000101
 20
-347.7449373658656
 30
0.0
 11
-12.00000000001819
 21
-219.8785972098649
 31
0.0
  0
LINE
  5
2B8A
330
2FB0
100
AcDbEntity
  8
0
 62
     0
100
AcDbLine
 10
-12.00000000000909
 20
-216.8786306744423
 30
0.0
 11
83.82813544651432
 21
-152.9933701764185
 31
0.0
  0
LINE
  5
2B8B
330
2FB0
100
AcDbEntity
  8
0
 62
     0
100
AcDbLine
 10
-203.8000000000084
 20
-344.7449708304466
 30
0.0
 11
-12.00000000001637
 21
-216.8786306744459
 31
0.0
  0
LINE
  5
2B8C
330
2FB0
100
AcDbEntity
  8
0
 62
     0
100
AcDbLine
 10
-12.00000000000727
 20
-213.878664139027
 30
0.0
 11
79.32817415262981
 21
-152.9933701764203
 31
0.0
  0
LINE
  5
2B8D
330
2FB0
100
AcDbEntity
  8
0
 62
     0
100
AcDbLine
 10
-203.8000000000084
 20
-341.7450042950331
 30
0.0
 11
-12.00000000001637
 21
-213.8786641390325
 31
0.0
  0
LINE
  5
2B8E
330
2FB0
100
AcDbEntity
  8
0
 62
     0
100
AcDbLine
 10
-12.00000000000909
 20
-210.8786976036099
 30
0.0
 11
74.82821285874341
 21
-152.9933701764185
 31
0.0
  0
LINE
  5
2B8F
330
2FB0
100
AcDbEntity
  8
0
 62
     0
100
AcDbLine
 10
-203.8000000000084
 20
-338.7450377596142
 30
0.0
 11
-12.00000000001637
 21
-210.8786976036135
 31
0.0
  0
LINE
  5
2B90
330
2FB0
100
AcDbEntity
  8
0
 62
     0
100
AcDbLine
 10
-12.00000000000909
 20
-207.8787310681928
 30
0.0
 11
70.32825156485889
 21
-152.9933701764166
 31
0.0
  0
LINE
  5
2B91
330
2FB0
100
AcDbEntity
  8
0
 62
     0
100
AcDbLine
 10
-203.8000000000084
 20
-335.7450712241969
 30
0.0
 11
-12.00000000001819
 21
-207.8787310681982
 31
0.0
  0
LINE
  5
2B92
330
2FB0
100
AcDbEntity
  8
0
 62
     0
100
AcDbLine
 10
-12.00000000000909
 20
-204.8787645327775
 30
0.0
 11
65.82829027097068
 21
-152.9933701764203
 31
0.0
  0
LINE
  5
2B93
330
2FB0
100
AcDbEntity
  8
0
 62
     0
100
AcDbLine
 10
-203.8000000000084
 20
-332.7451046887818
 30
0.0
 11
-12.00000000001637
 21
-204.878764532783
 31
0.0
  0
LINE
  5
2B94
330
2FB0
100
AcDbEntity
  8
0
 62
     0
100
AcDbLine
 10
-12.00000000000909
 20
-201.8787979973604
 30
0.0
 11
61.32832897708613
 21
-152.9933701764185
 31
0.0
  0
LINE
  5
2B95
330
2FB0
100
AcDbEntity
  8
0
 62
     0
100
AcDbLine
 10
-203.8000000000084
 20
-329.7451381533647
 30
0.0
 11
-12.00000000001455
 21
-201.878797997364
 31
0.0
  0
LINE
  5
2B96
330
2FB0
100
AcDbEntity
  8
0
 62
     0
100
AcDbLine
 10
-12.00000000001091
 20
-198.8788314619469
 30
0.0
 11
56.82836768319976
 21
-152.9933701764203
 31
0.0
  0
LINE
  5
2B97
330
2FB0
100
AcDbEntity
  8
0
 62
     0
100
AcDbLine
 10
-203.8000000000101
 20
-326.7451716179512
 30
0.0
 11
-12.00000000001819
 21
-198.8788314619504
 31
0.0
  0
LINE
  5
2B98
330
2FB0
100
AcDbEntity
  8
0
 62
     0
100
AcDbLine
 10
-12.00000000000909
 20
-195.8788649265279
 30
0.0
 11
52.32840638931702
 21
-152.9933701764166
 31
0.0
  0
LINE
  5
2B99
330
2FB0
100
AcDbEntity
  8
0
 62
     0
100
AcDbLine
 10
-203.8000000000084
 20
-323.7452050825323
 30
0.0
 11
-12.00000000001455
 21
-195.8788649265316
 31
0.0
  0
LINE
  5
2B9A
330
2FB0
100
AcDbEntity
  8
0
 62
     0
100
AcDbLine
 10
-12.00000000000727
 20
-192.8788983911126
 30
0.0
 11
47.82844509543065
 21
-152.9933701764185
 31
0.0
  0
LINE
  5
2B9B
330
2FB0
100
AcDbEntity
  8
0
 62
     0
100
AcDbLine
 10
-203.8000000000084
 20
-320.7452385471188
 30
0.0
 11
-12.00000000001637
 21
-192.8788983911181
 31
0.0
  0
LINE
  5
2B9C
330
2FB0
100
AcDbEntity
  8
0
 62
     0
100
AcDbLine
 10
-12.00000000001091
 20
-189.8789318556955
 30
0.0
 11
43.32848380154247
 21
-152.9933701764185
 31
0.0
  0
LINE
  5
2B9D
330
2FB0
100
AcDbEntity
  8
0
 62
     0
100
AcDbLine
 10
-203.8000000000101
 20
-317.7452720116999
 30
0.0
 11
-12.00000000001637
 21
-189.878931855701
 31
0.0
  0
LINE
  5
2B9E
330
2FB0
100
AcDbEntity
  8
0
 62
     0
100
AcDbLine
 10
-12.00000000000909
 20
-186.8789653202802
 30
0.0
 11
38.82852250765973
 21
-152.9933701764185
 31
0.0
  0
LINE
  5
2B9F
330
2FB0
100
AcDbEntity
  8
0
 62
     0
100
AcDbLine
 10
-203.8000000000065
 20
-314.7453054762845
 30
0.0
 11
-12.00000000001819
 21
-186.8789653202857
 31
0.0
  0
LINE
  5
2BA0
330
2FB0
100
AcDbEntity
  8
0
 62
     0
100
AcDbLine
 10
-12.00000000000909
 20
-183.8789987848649
 30
0.0
 11
34.32856121377517
 21
-152.9933701764185
 31
0.0
  0
LINE
  5
2BA1
330
2FB0
100
AcDbEntity
  8
0
 62
     0
100
AcDbLine
 10
-203.8000000000084
 20
-311.7453389408693
 30
0.0
 11
-12.00000000001455
 21
-183.8789987848684
 31
0.0
  0
LINE
  5
2BA2
330
2FB0
100
AcDbEntity
  8
0
 62
     0
100
AcDbLine
 10
-12.00000000000909
 20
-180.8790322494477
 30
0.0
 11
29.82859991988699
 21
-152.9933701764185
 31
0.0
  0
LINE
  5
2BA3
330
2FB0
100
AcDbEntity
  8
0
 62
     0
100
AcDbLine
 10
-203.8000000000065
 20
-308.7453724054522
 30
0.0
 11
-12.00000000001455
 21
-180.8790322494514
 31
0.0
  0
LINE
  5
2BA4
330
2FB0
100
AcDbEntity
  8
0
 62
     0
100
AcDbLine
 10
-12.00000000001091
 20
-177.8790657140325
 30
0.0
 11
25.32863862600061
 21
-152.9933701764185
 31
0.0
  0
LINE
  5
2BA5
330
2FB0
100
AcDbEntity
  8
0
 62
     0
100
AcDbLine
 10
-203.8000000000101
 20
-305.7454058700368
 30
0.0
 11
-12.00000000001637
 21
-177.8790657140362
 31
0.0
  0
LINE
  5
2BA6
330
2FB0
100
AcDbEntity
  8
0
 62
     0
100
AcDbLine
 10
-12.00000000000909
 20
-174.8790991786154
 30
0.0
 11
20.82867733211788
 21
-152.9933701764185
 31
0.0
  0
LINE
  5
2BA7
330
2FB0
100
AcDbEntity
  8
0
 62
     0
100
AcDbLine
 10
-203.8000000000065
 20
-302.7454393346197
 30
0.0
 11
-12.00000000001455
 21
-174.8790991786191
 31
0.0
  0
LINE
  5
2BA8
330
2FB0
100
AcDbEntity
  8
0
 62
     0
100
AcDbLine
 10
-12.00000000000727
 20
-171.8791326431983
 30
0.0
 11
16.3287160382315
 21
-152.9933701764185
 31
0.0
  0
LINE
  5
2BA9
330
2FB0
100
AcDbEntity
  8
0
 62
     0
100
AcDbLine
 10
-203.8000000000101
 20
-299.7454727992044
 30
0.0
 11
-12.00000000001637
 21
-171.8791326432038
 31
0.0
  0
LINE
  5
2BAA
330
2FB0
100
AcDbEntity
  8
0
 62
     0
100
AcDbLine
 10
-12.00000000001091
 20
-168.8791661077812
 30
0.0
 11
11.82875474434513
 21
-152.9933701764185
 31
0.0
  0
LINE
  5
2BAB
330
2FB0
100
AcDbEntity
  8
0
 62
     0
100
AcDbLine
 10
-203.8000000000084
 20
-296.7455062637872
 30
0.0
 11
-12.00000000001637
 21
-168.8791661077866
 31
0.0
  0
LINE
  5
2BAC
330
2FB0
100
AcDbEntity
  8
0
 62
     0
100
AcDbLine
 10
-12.00000000000727
 20
-165.8791995723659
 30
0.0
 11
7.328793450458761
 21
-152.9933701764185
 31
0.0
  0
LINE
  5
2BAD
330
2FB0
100
AcDbEntity
  8
0
 62
     0
100
AcDbLine
 10
-203.8000000000101
 20
-293.745539728372
 30
0.0
 11
-12.00000000001637
 21
-165.8791995723713
 31
0.0
  0
LINE
  5
2BAE
330
2FB0
100
AcDbEntity
  8
0
 62
     0
100
AcDbLine
 10
-12.00000000000909
 20
-162.8792330369505
 30
0.0
 11
2.828832156576026
 21
-152.9933701764166
 31
0.0
  0
LINE
  5
2BAF
330
2FB0
100
AcDbEntity
  8
0
 62
     0
100
AcDbLine
 10
-203.8000000000065
 20
-290.7455731929549
 30
0.0
 11
-12.00000000001455
 21
-162.8792330369542
 31
0.0
  0
LINE
  5
2BB0
330
2FB0
100
AcDbEntity
  8
0
 62
     0
100
AcDbLine
 10
-12.00000000000727
 20
-159.8792665015334
 30
0.0
 11
-1.671129137313982
 21
-152.9933701764203
 31
0.0
  0
LINE
  5
2BB1
330
2FB0
100
AcDbEntity
  8
0
 62
     0
100
AcDbLine
 10
-203.8000000000101
 20
-287.7456066575396
 30
0.0
 11
-12.00000000001637
 21
-159.8792665015407
 31
0.0
  0
LINE
  5
2BB2
330
2FB0
100
AcDbEntity
  8
0
 62
     0
100
AcDbLine
 10
-12.00000000001091
 20
-156.8792999661182
 30
0.0
 11
-6.171090431196716
 21
-152.9933701764185
 31
0.0
  0
LINE
  5
2BB3
330
2FB0
100
AcDbEntity
  8
0
 62
     0
100
AcDbLine
 10
-203.8000000000084
 20
-284.7456401221225
 30
0.0
 11
-12.00000000001637
 21
-156.8792999661218
 31
0.0
  0
LINE
  5
2BB4
330
2FB0
100
AcDbEntity
  8
0
 62
     0
100
AcDbLine
 10
-12.00000000000727
 20
-153.8793334307011
 30
0.0
 11
-10.67105172508309
 21
-152.9933701764203
 31
0.0
  0
LINE
  5
2BB5
330
2FB0
100
AcDbEntity
  8
0
 62
     0
100
AcDbLine
 10
-203.8000000000065
 20
-281.7456735867072
 30
0.0
 11
-12.00000000001637
 21
-153.8793334307083
 31
0.0
  0
LINE
  5
2BB6
330
2FB0
100
AcDbEntity
  8
0
 62
     0
100
AcDbLine
 10
-203.8000000000084
 20
-278.7457070512901
 30
0.0
 11
-15.17101301896946
 21
-152.9933701764185
 31
0.0
  0
LINE
  5
2BB7
330
2FB0
100
AcDbEntity
  8
0
 62
     0
100
AcDbLine
 10
-203.8000000000084
 20
-275.7457405158748
 30
0.0
 11
-19.67097431285401
 21
-152.9933701764185
 31
0.0
  0
LINE
  5
2BB8
330
2FB0
100
AcDbEntity
  8
0
 62
     0
100
AcDbLine
 10
-203.8000000000084
 20
-272.7457739804577
 30
0.0
 11
-24.17093560673857
 21
-152.9933701764185
 31
0.0
  0
LINE
  5
2BB9
330
2FB0
100
AcDbEntity
  8
0
 62
     0
100
AcDbLine
 10
-203.8000000000065
 20
-269.7458074450424
 30
0.0
 11
-28.6708969006213
 21
-152.9933701764185
 31
0.0
  0
LINE
  5
2BBA
330
2FB0
100
AcDbEntity
  8
0
 62
     0
100
AcDbLine
 10
-203.800000000012
 20
-266.7458409096271
 30
0.0
 11
-33.17085819451313
 21
-152.9933701764203
 31
0.0
  0
LINE
  5
2BBB
330
2FB0
100
AcDbEntity
  8
0
 62
     0
100
AcDbLine
 10
-203.8000000000084
 20
-263.7458743742099
 30
0.0
 11
-37.67081948839587
 21
-152.9933701764185
 31
0.0
  0
LINE
  5
2BBC
330
2FB0
100
AcDbEntity
  8
0
 62
     0
100
AcDbLine
 10
-203.8000000000065
 20
-260.7459078387929
 30
0.0
 11
-42.17078078228039
 21
-152.9933701764185
 31
0.0
  0
LINE
  5
2BBD
330
2FB0
100
AcDbEntity
  8
0
 62
     0
100
AcDbLine
 10
-203.8000000000084
 20
-257.7459413033757
 30
0.0
 11
-46.6707420761686
 21
-152.9933701764185
 31
0.0
  0
LINE
  5
2BBE
330
2FB0
100
AcDbEntity
  8
0
 62
     0
100
AcDbLine
 10
-203.8000000000084
 20
-254.7459747679604
 30
0.0
 11
-51.17070337005498
 21
-152.9933701764203
 31
0.0
  0
LINE
  5
2BBF
330
2FB0
100
AcDbEntity
  8
0
 62
     0
100
AcDbLine
 10
-203.8000000000084
 20
-251.7460082325452
 30
0.0
 11
-55.67066466393772
 21
-152.9933701764185
 31
0.0
  0
LINE
  5
2BC0
330
2FB0
100
AcDbEntity
  8
0
 62
     0
100
AcDbLine
 10
-203.8000000000084
 20
-248.746041697128
 30
0.0
 11
-60.17062595782409
 21
-152.9933701764185
 31
0.0
  0
LINE
  5
2BC1
330
2FB0
100
AcDbEntity
  8
0
 62
     0
100
AcDbLine
 10
-203.8000000000101
 20
-245.7460751617127
 30
0.0
 11
-64.67058725171227
 21
-152.9933701764185
 31
0.0
  0
LINE
  5
2BC2
330
2FB0
100
AcDbEntity
  8
0
 62
     0
100
AcDbLine
 10
-203.8000000000084
 20
-242.7461086262956
 30
0.0
 11
-69.17054854559319
 21
-152.9933701764185
 31
0.0
  0
LINE
  5
2BC3
330
2FB0
100
AcDbEntity
  8
0
 62
     0
100
AcDbLine
 10
-203.8000000000065
 20
-239.7461420908785
 30
0.0
 11
-73.67050983947954
 21
-152.9933701764185
 31
0.0
  0
LINE
  5
2BC4
330
2FB0
100
AcDbEntity
  8
0
 62
     0
100
AcDbLine
 10
-203.8000000000084
 20
-236.7461755554632
 30
0.0
 11
-78.17047113336409
 21
-152.9933701764185
 31
0.0
  0
LINE
  5
2BC5
330
2FB0
100
AcDbEntity
  8
0
 62
     0
100
AcDbLine
 10
-203.8000000000084
 20
-233.7462090200461
 30
0.0
 11
-82.6704324272541
 21
-152.9933701764185
 31
0.0
  0
LINE
  5
2BC6
330
2FB0
100
AcDbEntity
  8
0
 62
     0
100
AcDbLine
 10
-203.8000000000084
 20
-230.7462424846326
 30
0.0
 11
-87.17039372113504
 21
-152.9933701764185
 31
0.0
  0
LINE
  5
2BC7
330
2FB0
100
AcDbEntity
  8
0
 62
     0
100
AcDbLine
 10
-203.8000000000084
 20
-227.7462759492137
 30
0.0
 11
-91.67035501502324
 21
-152.9933701764185
 31
0.0
  0
LINE
  5
2BC8
330
2FB0
100
AcDbEntity
  8
0
 62
     0
100
AcDbLine
 10
-203.8000000000101
 20
-224.7463094138002
 30
0.0
 11
-96.17031630890959
 21
-152.9933701764203
 31
0.0
  0
LINE
  5
2BC9
330
2FB0
100
AcDbEntity
  8
0
 62
     0
100
AcDbLine
 10
-203.8000000000084
 20
-221.7463428783812
 30
0.0
 11
-100.670277602796
 21
-152.9933701764203
 31
0.0
  0
LINE
  5
2BCA
330
2FB0
100
AcDbEntity
  8
0
 62
     0
100
AcDbLine
 10
-203.8000000000084
 20
-218.746376342966
 30
0.0
 11
-105.1702388966769
 21
-152.9933701764166
 31
0.0
  0
LINE
  5
2BCB
330
2FB0
100
AcDbEntity
  8
0
 62
     0
100
AcDbLine
 10
-203.8000000000084
 20
-215.7464098075507
 30
0.0
 11
-109.6702001905651
 21
-152.9933701764185
 31
0.0
  0
LINE
  5
2BCC
330
2FB0
100
AcDbEntity
  8
0
 62
     0
100
AcDbLine
 10
-203.8000000000101
 20
-212.7464432721335
 30
0.0
 11
-114.1701614844514
 21
-152.9933701764185
 31
0.0
  0
LINE
  5
2BCD
330
2FB0
100
AcDbEntity
  8
0
 62
     0
100
AcDbLine
 10
-203.8000000000084
 20
-209.7464767367184
 30
0.0
 11
-118.6701227783378
 21
-152.9933701764203
 31
0.0
  0
LINE
  5
2BCE
330
2FB0
100
AcDbEntity
  8
0
 62
     0
100
AcDbLine
 10
-203.8000000000065
 20
-206.7465102012993
 30
0.0
 11
-123.1700840722205
 21
-152.9933701764185
 31
0.0
  0
LINE
  5
2BCF
330
2FB0
100
AcDbEntity
  8
0
 62
     0
100
AcDbLine
 10
-203.8000000000101
 20
-203.7465436658858
 30
0.0
 11
-127.6700453661087
 21
-152.9933701764185
 31
0.0
  0
LINE
  5
2BD0
330
2FB0
100
AcDbEntity
  8
0
 62
     0
100
AcDbLine
 10
-203.8000000000065
 20
-200.7465771304687
 30
0.0
 11
-132.1700066599933
 21
-152.9933701764185
 31
0.0
  0
LINE
  5
2BD1
330
2FB0
100
AcDbEntity
  8
0
 62
     0
100
AcDbLine
 10
-203.8000000000084
 20
-197.7466105950534
 30
0.0
 11
-136.669967953876
 21
-152.9933701764185
 31
0.0
  0
LINE
  5
2BD2
330
2FB0
100
AcDbEntity
  8
0
 62
     0
100
AcDbLine
 10
-203.8000000000084
 20
-194.7466440596363
 30
0.0
 11
-141.169929247764
 21
-152.9933701764185
 31
0.0
  0
LINE
  5
2BD3
330
2FB0
100
AcDbEntity
  8
0
 62
     0
100
AcDbLine
 10
-203.8000000000101
 20
-191.746677524221
 30
0.0
 11
-145.6698905416506
 21
-152.9933701764203
 31
0.0
  0
LINE
  5
2BD4
330
2FB0
100
AcDbEntity
  8
0
 62
     0
100
AcDbLine
 10
-203.8000000000065
 20
-188.7467109888039
 30
0.0
 11
-150.1698518355351
 21
-152.9933701764203
 31
0.0
  0
LINE
  5
2BD5
330
2FB0
100
AcDbEntity
  8
0
 62
     0
100
AcDbLine
 10
-203.8000000000065
 20
-185.7467444533886
 30
0.0
 11
-154.6698131294197
 21
-152.9933701764185
 31
0.0
  0
LINE
  5
2BD6
330
2FB0
100
AcDbEntity
  8
0
 62
     0
100
AcDbLine
 10
-203.8000000000084
 20
-182.7467779179715
 30
0.0
 11
-159.1697744233061
 21
-152.9933701764185
 31
0.0
  0
LINE
  5
2BD7
330
2FB0
100
AcDbEntity
  8
0
 62
     0
100
AcDbLine
 10
-203.8000000000065
 20
-179.7468113825543
 30
0.0
 11
-163.6697357171924
 21
-152.9933701764185
 31
0.0
  0
LINE
  5
2BD8
330
2FB0
100
AcDbEntity
  8
0
 62
     0
100
AcDbLine
 10
-203.8000000000084
 20
-176.746844847139
 30
0.0
 11
-168.1696970110788
 21
-152.9933701764203
 31
0.0
  0
LINE
  5
2BD9
330
2FB0
100
AcDbEntity
  8
0
 62
     0
100
AcDbLine
 10
-203.8000000000084
 20
-173.7468783117219
 30
0.0
 11
-172.6696583049634
 21
-152.9933701764166
 31
0.0
  0
LINE
  5
2BDA
330
2FB0
100
AcDbEntity
  8
0
 62
     0
100
AcDbLine
 10
-203.8000000000084
 20
-170.7469117763085
 30
0.0
 11
-177.1696195988479
 21
-152.9933701764185
 31
0.0
  0
LINE
  5
2BDB
330
2FB0
100
AcDbEntity
  8
0
 62
     0
100
AcDbLine
 10
-203.8000000000065
 20
-167.7469452408894
 30
0.0
 11
-181.6695808927343
 21
-152.9933701764185
 31
0.0
  0
LINE
  5
2BDC
330
2FB0
100
AcDbEntity
  8
0
 62
     0
100
AcDbLine
 10
-203.8000000000084
 20
-164.746978705476
 30
0.0
 11
-186.169542186617
 21
-152.9933701764185
 31
0.0
  0
LINE
  5
2BDD
330
2FB0
100
AcDbEntity
  8
0
 62
     0
100
AcDbLine
 10
-203.8000000000084
 20
-161.747012170057
 30
0.0
 11
-190.6695034805052
 21
-152.9933701764185
 31
0.0
  0
LINE
  5
2BDE
330
2FB0
100
AcDbEntity
  8
0
 62
     0
100
AcDbLine
 10
-203.8000000000084
 20
-158.7470456346436
 30
0.0
 11
-195.1694647743898
 21
-152.9933701764203
 31
0.0
  0
LINE
  5
2BDF
330
2FB0
100
AcDbEntity
  8
0
 62
     0
100
AcDbLine
 10
-203.8000000000084
 20
-155.7470790992265
 30
0.0
 11
-199.6694260682779
 21
-152.9933701764185
 31
0.0
  0
ENDBLK
  5
2BE0
330
2FB0
100
AcDbEntity
  8
0
100
AcDbBlockEnd
  0
BLOCK
  5
2FB3
330
2FB2
100
AcDbEntity
  8
0
100
AcDbBlockBegin
  2
*X23
 70
     1
 10
0.0
 20
0.0
 30
0.0
  3
*X23
  1

  0
LINE
  5
2BE3
330
2FB2
100
AcDbEntity
  8
0
 62
     0
100
AcDbLine
 10
-203.8000000000011
 20
-642.2779200041267
 30
0.0
 11
-199.7047483470614
 21
-645.0080808012025
 31
0.0
  0
LINE
  5
2BE4
330
2FB2
100
AcDbEntity
  8
0
 62
     0
100
AcDbLine
 10
-203.8000000000029
 20
-639.2779534687096
 30
0.0
 11
-195.2047870531769
 21
-645.0080808012025
 31
0.0
  0
LINE
  5
2BE5
330
2FB2
100
AcDbEntity
  8
0
 62
     0
100
AcDbLine
 10
-203.8000000000011
 20
-636.2779869332944
 30
0.0
 11
-190.7048257592924
 21
-645.0080808012017
 31
0.0
  0
LINE
  5
2BE6
330
2FB2
100
AcDbEntity
  8
0
 62
     0
100
AcDbLine
 10
-203.8000000000011
 20
-633.2780203978764
 30
0.0
 11
-186.2048644654059
 21
-645.0080808012017
 31
0.0
  0
LINE
  5
2BE7
330
2FB2
100
AcDbEntity
  8
0
 62
     0
100
AcDbLine
 10
-203.8000000000029
 20
-630.278053862461
 30
0.0
 11
-181.7049031715196
 21
-645.0080808012025
 31
0.0
  0
LINE
  5
2BE8
330
2FB2
100
AcDbEntity
  8
0
 62
     0
100
AcDbLine
 10
-203.8000000000011
 20
-627.2780873270439
 30
0.0
 11
-177.2049418776369
 21
-645.0080808012004
 31
0.0
  0
LINE
  5
2BE9
330
2FB2
100
AcDbEntity
  8
0
 62
     0
100
AcDbLine
 10
-203.8000000000011
 20
-624.2781207916293
 30
0.0
 11
-172.7049805837487
 21
-645.0080808012017
 31
0.0
  0
LINE
  5
2BEA
330
2FB2
100
AcDbEntity
  8
0
 62
     0
100
AcDbLine
 10
-203.8000000000011
 20
-621.2781542562122
 30
0.0
 11
-168.2050192898641
 21
-645.0080808012017
 31
0.0
  0
LINE
  5
2BEB
330
2FB2
100
AcDbEntity
  8
0
 62
     0
100
AcDbLine
 10
-203.8000000000029
 20
-618.2781877207952
 30
0.0
 11
-163.7050579959777
 21
-645.0080808012017
 31
0.0
  0
LINE
  5
2BEC
330
2FB2
100
AcDbEntity
  8
0
 62
     0
100
AcDbLine
 10
-203.8000000000011
 20
-615.27822118538
 30
0.0
 11
-159.205096702095
 21
-645.0080808012004
 31
0.0
  0
LINE
  5
2BED
330
2FB2
100
AcDbEntity
  8
0
 62
     0
100
AcDbLine
 10
-203.8000000000029
 20
-612.2782546499621
 30
0.0
 11
-154.7051354082068
 21
-645.0080808012004
 31
0.0
  0
LINE
  5
2BEE
330
2FB2
100
AcDbEntity
  8
0
 62
     0
100
AcDbLine
 10
-203.8000000000011
 20
-609.2782881145484
 30
0.0
 11
-150.2051741143223
 21
-645.0080808012025
 31
0.0
  0
LINE
  5
2BEF
330
2FB2
100
AcDbEntity
  8
0
 62
     0
100
AcDbLine
 10
-203.8000000000029
 20
-606.2783215791305
 30
0.0
 11
-145.7052128204341
 21
-645.0080808012017
 31
0.0
  0
LINE
  5
2BF0
330
2FB2
100
AcDbEntity
  8
0
 62
     0
100
AcDbLine
 10
-203.8000000000011
 20
-603.2783550437152
 30
0.0
 11
-141.2052515265513
 21
-645.0080808012017
 31
0.0
  0
LINE
  5
2BF1
330
2FB2
100
AcDbEntity
  8
0
 62
     0
100
AcDbLine
 10
-203.8000000000029
 20
-600.2783885082981
 30
0.0
 11
-136.705290232665
 21
-645.0080808012004
 31
0.0
  0
LINE
  5
2BF2
330
2FB2
100
AcDbEntity
  8
0
 62
     0
100
AcDbLine
 10
-203.8000000000029
 20
-597.2784219728827
 30
0.0
 11
-132.2053289387804
 21
-645.0080808012025
 31
0.0
  0
LINE
  5
2BF3
330
2FB2
100
AcDbEntity
  8
0
 62
     0
100
AcDbLine
 10
-203.8000000000029
 20
-594.2784554374664
 30
0.0
 11
-127.7053676448959
 21
-645.0080808011997
 31
0.0
  0
LINE
  5
2BF4
330
2FB2
100
AcDbEntity
  8
0
 62
     0
100
AcDbLine
 10
-203.8000000000029
 20
-591.2784889020504
 30
0.0
 11
-123.2054063510095
 21
-645.0080808012017
 31
0.0
  0
LINE
  5
2BF5
330
2FB2
100
AcDbEntity
  8
0
 62
     0
100
AcDbLine
 10
-203.8000000000029
 20
-588.2785223666342
 30
0.0
 11
-118.7054450571231
 21
-645.0080808012017
 31
0.0
  0
LINE
  5
2BF6
330
2FB2
100
AcDbEntity
  8
0
 62
     0
100
AcDbLine
 10
-203.8000000000029
 20
-585.278555831218
 30
0.0
 11
-114.2054837632368
 21
-645.0080808012025
 31
0.0
  0
LINE
  5
2BF7
330
2FB2
100
AcDbEntity
  8
0
 62
     0
100
AcDbLine
 10
-203.8000000000011
 20
-582.2785892958007
 30
0.0
 11
-109.7055224693522
 21
-645.0080808012004
 31
0.0
  0
LINE
  5
2BF8
330
2FB2
100
AcDbEntity
  8
0
 62
     0
100
AcDbLine
 10
-203.8000000000029
 20
-579.2786227603836
 30
0.0
 11
-105.2055611754675
 21
-645.0080808012004
 31
0.0
  0
LINE
  5
2BF9
330
2FB2
100
AcDbEntity
  8
0
 62
     0
100
AcDbLine
 10
-203.8000000000029
 20
-576.2786562249694
 30
0.0
 11
-100.7055998815813
 21
-645.0080808012017
 31
0.0
  0
LINE
  5
2BFA
330
2FB2
100
AcDbEntity
  8
0
 62
     0
100
AcDbLine
 10
-203.8000000000011
 20
-573.2786896895523
 30
0.0
 11
-96.2056385876931
 21
-645.0080808012017
 31
0.0
  0
LINE
  5
2BFB
330
2FB2
100
AcDbEntity
  8
0
 62
     0
100
AcDbLine
 10
-203.8000000000011
 20
-570.2787231541369
 30
0.0
 11
-91.70567729381037
 21
-645.0080808012004
 31
0.0
  0
LINE
  5
2BFC
330
2FB2
100
AcDbEntity
  8
0
 62
     0
100
AcDbLine
 10
-203.8000000000029
 20
-567.2787566187198
 30
0.0
 11
-87.20571599992217
 21
-645.0080808012025
 31
0.0
  0
LINE
  5
2BFD
330
2FB2
100
AcDbEntity
  8
0
 62
     0
100
AcDbLine
 10
-203.8000000000029
 20
-564.2787900833036
 30
0.0
 11
-82.70575470603763
 21
-645.0080808012025
 31
0.0
  0
LINE
  5
2BFE
330
2FB2
100
AcDbEntity
  8
0
 62
     0
100
AcDbLine
 10
-203.8000000000011
 20
-561.2788235478884
 30
0.0
 11
-78.20579341215125
 21
-645.0080808012017
 31
0.0
  0
LINE
  5
2BFF
330
2FB2
100
AcDbEntity
  8
0
 62
     0
100
AcDbLine
 10
-203.8000000000029
 20
-558.2788570124721
 30
0.0
 11
-73.70583211826851
 21
-645.0080808012017
 31
0.0
  0
LINE
  5
2C00
330
2FB2
100
AcDbEntity
  8
0
 62
     0
100
AcDbLine
 10
-203.8000000000029
 20
-555.278890477055
 30
0.0
 11
-69.20587082438214
 21
-645.0080808012004
 31
0.0
  0
LINE
  5
2C01
330
2FB2
100
AcDbEntity
  8
0
 62
     0
100
AcDbLine
 10
-203.8000000000011
 20
-552.2789239416397
 30
0.0
 11
-64.70590953049397
 21
-645.0080808012025
 31
0.0
  0
LINE
  5
2C02
330
2FB2
100
AcDbEntity
  8
0
 62
     0
100
AcDbLine
 10
-203.8000000000029
 20
-549.2789574062225
 30
0.0
 11
-60.20594823661303
 21
-645.0080808011997
 31
0.0
  0
LINE
  5
2C03
330
2FB2
100
AcDbEntity
  8
0
 62
     0
100
AcDbLine
 10
-203.8000000000029
 20
-546.2789908708082
 30
0.0
 11
-55.70598694272485
 21
-645.0080808012033
 31
0.0
  0
LINE
  5
2C04
330
2FB2
100
AcDbEntity
  8
0
 62
     0
100
AcDbLine
 10
-203.8000000000029
 20
-543.2790243353911
 30
0.0
 11
-51.2060256488403
 21
-645.0080808012017
 31
0.0
  0
LINE
  5
2C05
330
2FB2
100
AcDbEntity
  8
0
 62
     0
100
AcDbLine
 10
-203.8000000000011
 20
-540.279057799974
 30
0.0
 11
-46.70606435495209
 21
-645.0080808012004
 31
0.0
  0
LINE
  5
2C06
330
2FB2
100
AcDbEntity
  8
0
 62
     0
100
AcDbLine
 10
-203.8000000000029
 20
-537.2790912645577
 30
0.0
 11
-42.20610306107118
 21
-645.0080808012004
 31
0.0
  0
LINE
  5
2C07
330
2FB2
100
AcDbEntity
  8
0
 62
     0
100
AcDbLine
 10
-203.8000000000011
 20
-534.2791247291414
 30
0.0
 11
-37.70614176718118
 21
-645.0080808012025
 31
0.0
  0
LINE
  5
2C08
330
2FB2
100
AcDbEntity
  8
0
 62
     0
100
AcDbLine
 10
-203.8000000000011
 20
-531.279158193726
 30
0.0
 11
-33.20618047329663
 21
-645.0080808012017
 31
0.0
  0
LINE
  5
2C09
330
2FB2
100
AcDbEntity
  8
0
 62
     0
100
AcDbLine
 10
-203.8000000000029
 20
-528.2791916583089
 30
0.0
 11
-28.70621917941207
 21
-645.0080808012017
 31
0.0
  0
LINE
  5
2C0A
330
2FB2
100
AcDbEntity
  8
0
 62
     0
100
AcDbLine
 10
-203.8000000000029
 20
-525.2792251228936
 30
0.0
 11
-24.20625788552571
 21
-645.0080808012033
 31
0.0
  0
LINE
  5
2C0B
330
2FB2
100
AcDbEntity
  8
0
 62
     0
100
AcDbLine
 10
-203.8000000000011
 20
-522.2792585874767
 30
0.0
 11
-19.70629659163933
 21
-645.0080808012017
 31
0.0
  0
LINE
  5
2C0C
330
2FB2
100
AcDbEntity
  8
0
 62
     0
100
AcDbLine
 10
-203.8000000000011
 20
-519.2792920520615
 30
0.0
 11
-15.20633529775478
 21
-645.0080808012025
 31
0.0
  0
LINE
  5
2C0D
330
2FB2
100
AcDbEntity
  8
0
 62
     0
100
AcDbLine
 10
-203.8000000000029
 20
-516.2793255166453
 30
0.0
 11
-10.70637400387022
 21
-645.0080808012004
 31
0.0
  0
LINE
  5
2C0E
330
2FB2
100
AcDbEntity
  8
0
 62
     0
100
AcDbLine
 10
-203.8000000000011
 20
-513.2793589812297
 30
0.0
 11
-6.20641270998203
 21
-645.0080808012033
 31
0.0
  0
LINE
  5
2C0F
330
2FB2
100
AcDbEntity
  8
0
 62
     0
100
AcDbLine
 10
-203.8000000000029
 20
-510.2793924458119
 30
0.0
 11
-1.706451416097479
 21
-645.0080808012025
 31
0.0
  0
LINE
  5
2C10
330
2FB2
100
AcDbEntity
  8
0
 62
     0
100
AcDbLine
 10
-203.8000000000011
 20
-507.2794259103972
 30
0.0
 11
2.793509877787073
 21
-645.0080808012025
 31
0.0
  0
LINE
  5
2C11
330
2FB2
100
AcDbEntity
  8
0
 62
     0
100
AcDbLine
 10
-203.8000000000029
 20
-504.2794593749793
 30
0.0
 11
7.29347117167526
 21
-645.0080808012033
 31
0.0
  0
LINE
  5
2C12
330
2FB2
100
AcDbEntity
  8
0
 62
     0
100
AcDbLine
 10
-203.8000000000011
 20
-501.2794928395623
 30
0.0
 11
11.79343246556162
 21
-645.0080808012017
 31
0.0
  0
LINE
  5
2C13
330
2FB2
100
AcDbEntity
  8
0
 62
     0
100
AcDbLine
 10
-203.8000000000029
 20
-498.279526304148
 30
0.0
 11
16.29339375944437
 21
-645.0080808012025
 31
0.0
  0
LINE
  5
2C14
330
2FB2
100
AcDbEntity
  8
0
 62
     0
100
AcDbLine
 10
-203.8000000000029
 20
-495.2795597687308
 30
0.0
 11
20.79335505332892
 21
-645.0080808012017
 31
0.0
  0
LINE
  5
2C15
330
2FB2
100
AcDbEntity
  8
0
 62
     0
100
AcDbLine
 10
-203.8000000000029
 20
-492.2795932333157
 30
0.0
 11
25.29331634721712
 21
-645.0080808012033
 31
0.0
  0
LINE
  5
2C16
330
2FB2
100
AcDbEntity
  8
0
 62
     0
100
AcDbLine
 10
-203.8000000000011
 20
-489.2796266978985
 30
0.0
 11
29.79327764110349
 21
-645.0080808012025
 31
0.0
  0
LINE
  5
2C17
330
2FB2
100
AcDbEntity
  8
0
 62
     0
100
AcDbLine
 10
-203.8000000000029
 20
-486.2796601624832
 30
0.0
 11
34.29323893498622
 21
-645.0080808012025
 31
0.0
  0
LINE
  5
2C18
330
2FB2
100
AcDbEntity
  8
0
 62
     0
100
AcDbLine
 10
-203.8000000000029
 20
-483.279693627066
 30
0.0
 11
38.79320022887441
 21
-645.0080808012025
 31
0.0
  0
LINE
  5
2C19
330
2FB2
100
AcDbEntity
  8
0
 62
     0
100
AcDbLine
 10
-203.8000000000011
 20
-480.2797270916516
 30
0.0
 11
43.29316152275896
 21
-645.0080808012033
 31
0.0
  0
LINE
  5
2C1A
330
2FB2
100
AcDbEntity
  8
0
 62
     0
100
AcDbLine
 10
-203.8000000000029
 20
-477.2797605562336
 30
0.0
 11
47.79312281664352
 21
-645.0080808012017
 31
0.0
  0
LINE
  5
2C1B
330
2FB2
100
AcDbEntity
  8
0
 62
     0
100
AcDbLine
 10
-203.8000000000029
 20
-474.2797940208183
 30
0.0
 11
52.29308411052624
 21
-645.0080808012025
 31
0.0
  0
LINE
  5
2C1C
330
2FB2
100
AcDbEntity
  8
0
 62
     0
100
AcDbLine
 10
-203.8000000000029
 20
-471.279827485401
 30
0.0
 11
56.79304540441624
 21
-645.0080808012033
 31
0.0
  0
LINE
  5
2C1D
330
2FB2
100
AcDbEntity
  8
0
 62
     0
100
AcDbLine
 10
-203.8000000000011
 20
-468.2798609499868
 30
0.0
 11
61.2930066983008
 21
-645.0080808012033
 31
0.0
  0
LINE
  5
2C1E
330
2FB2
100
AcDbEntity
  8
0
 62
     0
100
AcDbLine
 10
-203.8000000000029
 20
-465.2798944145697
 30
0.0
 11
65.79296799218536
 21
-645.0080808012025
 31
0.0
  0
LINE
  5
2C1F
330
2FB2
100
AcDbEntity
  8
0
 62
     0
100
AcDbLine
 10
-203.8000000000011
 20
-462.2799278791545
 30
0.0
 11
70.29292928607356
 21
-645.0080808012044
 31
0.0
  0
LINE
  5
2C20
330
2FB2
100
AcDbEntity
  8
0
 62
     0
100
AcDbLine
 10
-203.8000000000011
 20
-459.2799613437373
 30
0.0
 11
74.79289057995993
 21
-645.0080808012033
 31
0.0
  0
LINE
  5
2C21
330
2FB2
100
AcDbEntity
  8
0
 62
     0
100
AcDbLine
 10
-203.8000000000029
 20
-456.2799948083191
 30
0.0
 11
79.29285187384266
 21
-645.0080808012017
 31
0.0
  0
LINE
  5
2C22
330
2FB2
100
AcDbEntity
  8
0
 62
     0
100
AcDbLine
 10
-203.8000000000029
 20
-453.2800282729056
 30
0.0
 11
83.79281316772724
 21
-645.0080808012025
 31
0.0
  0
LINE
  5
2C23
330
2FB2
100
AcDbEntity
  8
0
 62
     0
100
AcDbLine
 10
-203.8000000000011
 20
-450.2800617374878
 30
0.0
 11
88.29277446161539
 21
-645.0080808012025
 31
0.0
  0
LINE
  5
2C24
330
2FB2
100
AcDbEntity
  8
0
 62
     0
100
AcDbLine
 10
-203.8000000000029
 20
-447.2800952020725
 30
0.0
 11
92.79273575549993
 21
-645.0080808012025
 31
0.0
  0
LINE
  5
2C25
330
2FB2
100
AcDbEntity
  8
0
 62
     0
100
AcDbLine
 10
-203.8000000000029
 20
-444.2801286666552
 30
0.0
 11
97.29269704938268
 21
-645.0080808012017
 31
0.0
  0
LINE
  5
2C26
330
2FB2
100
AcDbEntity
  8
0
 62
     0
100
AcDbLine
 10
-203.8000000000029
 20
-441.2801621312401
 30
0.0
 11
101.7926583432727
 21
-645.0080808012044
 31
0.0
  0
LINE
  5
2C27
330
2FB2
100
AcDbEntity
  8
0
 62
     0
100
AcDbLine
 10
-203.8000000000011
 20
-438.2801955958229
 30
0.0
 11
106.2926196371572
 21
-645.0080808012025
 31
0.0
  0
LINE
  5
2C28
330
2FB2
100
AcDbEntity
  8
0
 62
     0
100
AcDbLine
 10
-203.8000000000029
 20
-435.2802290604087
 30
0.0
 11
110.7925809310418
 21
-645.0080808012033
 31
0.0
  0
LINE
  5
2C29
330
2FB2
100
AcDbEntity
  8
0
 62
     0
100
AcDbLine
 10
-203.8000000000011
 20
-432.2802625249913
 30
0.0
 11
115.2925422249263
 21
-645.0080808012017
 31
0.0
  0
LINE
  5
2C2A
330
2FB2
100
AcDbEntity
  8
0
 62
     0
100
AcDbLine
 10
-203.8000000000011
 20
-429.2802959895753
 30
0.0
 11
119.7925035188164
 21
-645.0080808012044
 31
0.0
  0
LINE
  5
2C2B
330
2FB2
100
AcDbEntity
  8
0
 62
     0
100
AcDbLine
 10
-203.8000000000011
 20
-426.2803294541591
 30
0.0
 11
124.292464812699
 21
-645.0080808012033
 31
0.0
  0
LINE
  5
2C2C
330
2FB2
100
AcDbEntity
  8
0
 62
     0
100
AcDbLine
 10
-203.8000000000029
 20
-423.2803629187428
 30
0.0
 11
128.7924261065836
 21
-645.0080808012033
 31
0.0
  0
LINE
  5
2C2D
330
2FB2
100
AcDbEntity
  8
0
 62
     0
100
AcDbLine
 10
-203.8000000000029
 20
-420.2803963833266
 30
0.0
 11
133.2923874004718
 21
-645.0080808012044
 31
0.0
  0
LINE
  5
2C2E
330
2FB2
100
AcDbEntity
  8
0
 62
     0
100
AcDbLine
 10
-203.8000000000011
 20
-417.2804298479094
 30
0.0
 11
137.7923486943564
 21
-645.0080808012025
 31
0.0
  0
LINE
  5
2C2F
330
2FB2
100
AcDbEntity
  8
0
 62
     0
100
AcDbLine
 10
-203.8000000000029
 20
-414.2804633124939
 30
0.0
 11
142.2923099882409
 21
-645.0080808012033
 31
0.0
  0
LINE
  5
2C30
330
2FB2
100
AcDbEntity
  8
0
 62
     0
100
AcDbLine
 10
-203.8000000000011
 20
-411.2804967770768
 30
0.0
 11
146.7922712821273
 21
-645.0080808012025
 31
0.0
  0
LINE
  5
2C31
330
2FB2
100
AcDbEntity
  8
0
 62
     0
100
AcDbLine
 10
-203.8000000000011
 20
-408.2805302416616
 30
0.0
 11
151.2922325760136
 21
-645.0080808012033
 31
0.0
  0
LINE
  5
2C32
330
2FB2
100
AcDbEntity
  8
0
 62
     0
100
AcDbLine
 10
-203.8000000000011
 20
-405.2805637062456
 30
0.0
 11
155.7921938698982
 21
-645.0080808012025
 31
0.0
  0
LINE
  5
2C33
330
2FB2
100
AcDbEntity
  8
0
 62
     0
100
AcDbLine
 10
-203.8000000000047
 20
-402.2805971708295
 30
0.0
 11
160.292155163781
 21
-645.0080808012025
 31
0.0
  0
LINE
  5
2C34
330
2FB2
100
AcDbEntity
  8
0
 62
     0
100
AcDbLine
 10
-203.8000000000011
 20
-399.2806306354123
 30
0.0
 11
164.792116457671
 21
-645.0080808012033
 31
0.0
  0
LINE
  5
2C35
330
2FB2
100
AcDbEntity
  8
0
 62
     0
100
AcDbLine
 10
-203.8000000000029
 20
-396.280664099997
 30
0.0
 11
169.2920777515555
 21
-645.0080808012044
 31
0.0
  0
LINE
  5
2C36
330
2FB2
100
AcDbEntity
  8
0
 62
     0
100
AcDbLine
 10
-203.8000000000029
 20
-393.2806975645799
 30
0.0
 11
173.7920390454401
 21
-645.0080808012025
 31
0.0
  0
LINE
  5
2C37
330
2FB2
100
AcDbEntity
  8
0
 62
     0
100
AcDbLine
 10
-203.8000000000029
 20
-390.2807310291647
 30
0.0
 11
178.2920003393246
 21
-645.0080808012033
 31
0.0
  0
LINE
  5
2C38
330
2FB2
100
AcDbEntity
  8
0
 62
     0
100
AcDbLine
 10
-203.8000000000011
 20
-387.2807644937484
 30
0.0
 11
182.7919616332128
 21
-645.0080808012044
 31
0.0
  0
LINE
  5
2C39
330
2FB2
100
AcDbEntity
  8
0
 62
     0
100
AcDbLine
 10
-203.8000000000029
 20
-384.2807979583331
 30
0.0
 11
187.2919229270974
 21
-645.0080808012044
 31
0.0
  0
LINE
  5
2C3A
330
2FB2
100
AcDbEntity
  8
0
 62
     0
100
AcDbLine
 10
-203.8000000000011
 20
-381.280831422916
 30
0.0
 11
191.7918842209819
 21
-645.0080808012033
 31
0.0
  0
LINE
  5
2C3B
330
2FB2
100
AcDbEntity
  8
0
 62
     0
100
AcDbLine
 10
-203.8000000000011
 20
-378.2808648874989
 30
0.0
 11
196.2918455148701
 21
-645.0080808012025
 31
0.0
  0
LINE
  5
2C3C
330
2FB2
100
AcDbEntity
  8
0
 62
     0
100
AcDbLine
 10
-203.8000000000029
 20
-375.2808983520826
 30
0.0
 11
200.7918068087529
 21
-645.0080808012033
 31
0.0
  0
LINE
  5
2C3D
330
2FB2
100
AcDbEntity
  8
0
 62
     0
100
AcDbLine
 10
-203.8000000000029
 20
-372.2809318166664
 30
0.0
 11
203.7999999999883
 21
-644.0135712722804
 31
0.0
  0
LINE
  5
2C3E
330
2FB2
100
AcDbEntity
  8
0
 62
     0
100
AcDbLine
 10
-203.8000000000029
 20
-369.2809652812512
 30
0.0
 11
203.7999999999902
 21
-641.0136047368649
 31
0.0
  0
LINE
  5
2C3F
330
2FB2
100
AcDbEntity
  8
0
 62
     0
100
AcDbLine
 10
-203.8000000000011
 20
-366.2809987458341
 30
0.0
 11
203.7999999999902
 21
-638.0136382014477
 31
0.0
  0
LINE
  5
2C40
330
2FB2
100
AcDbEntity
  8
0
 62
     0
100
AcDbLine
 10
-203.8000000000047
 20
-363.2810322104178
 30
0.0
 11
203.7999999999902
 21
-635.0136716660324
 31
0.0
  0
LINE
  5
2C41
330
2FB2
100
AcDbEntity
  8
0
 62
     0
100
AcDbLine
 10
-203.8000000000029
 20
-360.2810656750008
 30
0.0
 11
203.7999999999902
 21
-632.0137051306161
 31
0.0
  0
LINE
  5
2C42
330
2FB2
100
AcDbEntity
  8
0
 62
     0
100
AcDbLine
 10
-203.8000000000029
 20
-357.2810991395854
 30
0.0
 11
203.799999999992
 21
-629.0137385952013
 31
0.0
  0
LINE
  5
2C43
330
2FB2
100
AcDbEntity
  8
0
 62
     0
100
AcDbLine
 10
-203.8000000000029
 20
-354.2811326041692
 30
0.0
 11
203.7999999999902
 21
-626.013772059784
 31
0.0
  0
LINE
  5
2C44
330
2FB2
100
AcDbEntity
  8
0
 62
     0
100
AcDbLine
 10
-203.8000000000065
 20
-351.281166068753
 30
0.0
 11
203.7999999999902
 21
-623.0138055243688
 31
0.0
  0
LINE
  5
2C45
330
2FB2
100
AcDbEntity
  8
0
 62
     0
100
AcDbLine
 10
-203.8000000000047
 20
-348.2811995333359
 30
0.0
 11
203.7999999999883
 21
-620.0138389889507
 31
0.0
  0
LINE
  5
2C46
330
2FB2
100
AcDbEntity
  8
0
 62
     0
100
AcDbLine
 10
-203.8000000000047
 20
-345.2812329979206
 30
0.0
 11
203.7999999999902
 21
-617.0138724535363
 31
0.0
  0
LINE
  5
2C47
330
2FB2
100
AcDbEntity
  8
0
 62
     0
100
AcDbLine
 10
-203.8000000000047
 20
-342.2812664625035
 30
0.0
 11
203.7999999999883
 21
-614.0139059181192
 31
0.0
  0
LINE
  5
2C48
330
2FB2
100
AcDbEntity
  8
0
 62
     0
100
AcDbLine
 10
-203.8000000000047
 20
-339.2812999270873
 30
0.0
 11
203.7999999999902
 21
-611.013939382702
 31
0.0
  0
LINE
  5
2C49
330
2FB2
100
AcDbEntity
  8
0
 62
     0
100
AcDbLine
 10
-203.8000000000029
 20
-336.281333391672
 30
0.0
 11
203.7999999999902
 21
-608.0139728472865
 31
0.0
  0
LINE
  5
2C4A
330
2FB2
100
AcDbEntity
  8
0
 62
     0
100
AcDbLine
 10
-203.8000000000047
 20
-333.2813668562549
 30
0.0
 11
203.7999999999902
 21
-605.0140063118696
 31
0.0
  0
LINE
  5
2C4B
330
2FB2
100
AcDbEntity
  8
0
 62
     0
100
AcDbLine
 10
-203.8000000000065
 20
-330.2814003208387
 30
0.0
 11
203.7999999999883
 21
-602.0140397764552
 31
0.0
  0
LINE
  5
2C4C
330
2FB2
100
AcDbEntity
  8
0
 62
     0
100
AcDbLine
 10
-203.8000000000029
 20
-327.2814337854224
 30
0.0
 11
203.799999999992
 21
-599.0140732410383
 31
0.0
  0
LINE
  5
2C4D
330
2FB2
100
AcDbEntity
  8
0
 62
     0
100
AcDbLine
 10
-203.8000000000047
 20
-324.2814672500062
 30
0.0
 11
203.7999999999902
 21
-596.0141067056229
 31
0.0
  0
LINE
  5
2C4E
330
2FB2
100
AcDbEntity
  8
0
 62
     0
100
AcDbLine
 10
-203.8000000000047
 20
-321.28150071459
 30
0.0
 11
203.7999999999902
 21
-593.0141401702058
 31
0.0
  0
LINE
  5
2C4F
330
2FB2
100
AcDbEntity
  8
0
 62
     0
100
AcDbLine
 10
-203.8000000000047
 20
-318.2815341791747
 30
0.0
 11
203.7999999999902
 21
-590.0141736347904
 31
0.0
  0
LINE
  5
2C50
330
2FB2
100
AcDbEntity
  8
0
 62
     0
100
AcDbLine
 10
-203.8000000000029
 20
-315.2815676437576
 30
0.0
 11
203.7999999999902
 21
-587.0142070993725
 31
0.0
  0
LINE
  5
2C51
330
2FB2
100
AcDbEntity
  8
0
 62
     0
100
AcDbLine
 10
-203.8000000000047
 20
-312.2816011083423
 30
0.0
 11
203.7999999999902
 21
-584.0142405639578
 31
0.0
  0
LINE
  5
2C52
330
2FB2
100
AcDbEntity
  8
0
 62
     0
100
AcDbLine
 10
-203.8000000000029
 20
-309.2816345729252
 30
0.0
 11
203.7999999999902
 21
-581.0142740285408
 31
0.0
  0
LINE
  5
2C53
330
2FB2
100
AcDbEntity
  8
0
 62
     0
100
AcDbLine
 10
-203.8000000000029
 20
-306.2816680375108
 30
0.0
 11
203.799999999992
 21
-578.0143074931255
 31
0.0
  0
LINE
  5
2C54
330
2FB2
100
AcDbEntity
  8
0
 62
     0
100
AcDbLine
 10
-203.8000000000047
 20
-303.2817015020928
 30
0.0
 11
203.7999999999902
 21
-575.0143409577085
 31
0.0
  0
LINE
  5
2C55
330
2FB2
100
AcDbEntity
  8
0
 62
     0
100
AcDbLine
 10
-203.8000000000047
 20
-300.2817349666766
 30
0.0
 11
203.7999999999902
 21
-572.0143744222914
 31
0.0
  0
LINE
  5
2C56
330
2FB2
100
AcDbEntity
  8
0
 62
     0
100
AcDbLine
 10
-203.8000000000047
 20
-297.2817684312604
 30
0.0
 11
203.7999999999937
 21
-569.0144078868788
 31
0.0
  0
LINE
  5
2C57
330
2FB2
100
AcDbEntity
  8
0
 62
     0
100
AcDbLine
 10
-203.8000000000047
 20
-294.2818018958432
 30
0.0
 11
203.7999999999937
 21
-566.0144413514617
 31
0.0
  0
LINE
  5
2C58
330
2FB2
100
AcDbEntity
  8
0
 62
     0
100
AcDbLine
 10
-203.8000000000047
 20
-291.2818353604289
 30
0.0
 11
203.7999999999937
 21
-563.0144748160463
 31
0.0
  0
LINE
  5
2C59
330
2FB2
100
AcDbEntity
  8
0
 62
     0
100
AcDbLine
 10
-203.8000000000047
 20
-288.2818688250118
 30
0.0
 11
203.799999999992
 21
-560.0145082806283
 31
0.0
  0
LINE
  5
2C5A
330
2FB2
100
AcDbEntity
  8
0
 62
     0
100
AcDbLine
 10
-203.8000000000029
 20
-285.2819022895965
 30
0.0
 11
203.7999999999937
 21
-557.014541745214
 31
0.0
  0
LINE
  5
2C5B
330
2FB2
100
AcDbEntity
  8
0
 62
     0
100
AcDbLine
 10
-203.8000000000047
 20
-282.2819357541794
 30
0.0
 11
203.799999999992
 21
-554.0145752097969
 31
0.0
  0
LINE
  5
2C5C
330
2FB2
100
AcDbEntity
  8
0
 62
     0
100
AcDbLine
 10
-203.8000000000047
 20
-279.2819692187641
 30
0.0
 11
203.799999999992
 21
-551.0146086743816
 31
0.0
  0
LINE
  5
2C5D
330
2FB2
100
AcDbEntity
  8
0
 62
     0
100
AcDbLine
 10
-203.8000000000029
 20
-276.282002683346
 30
0.0
 11
203.7999999999937
 21
-548.0146421389645
 31
0.0
  0
LINE
  5
2C5E
330
2FB2
100
AcDbEntity
  8
0
 62
     0
100
AcDbLine
 10
-203.8000000000029
 20
-273.2820361479326
 30
0.0
 11
203.7999999999937
 21
-545.0146756035492
 31
0.0
  0
LINE
  5
2C5F
330
2FB2
100
AcDbEntity
  8
0
 62
     0
100
AcDbLine
 10
-203.8000000000047
 20
-270.2820696125145
 30
0.0
 11
203.799999999992
 21
-542.0147090681329
 31
0.0
  0
LINE
  5
2C60
330
2FB2
100
AcDbEntity
  8
0
 62
     0
100
AcDbLine
 10
-203.8000000000047
 20
-267.2821030770992
 30
0.0
 11
203.7999999999937
 21
-539.0147425327177
 31
0.0
  0
LINE
  5
2C61
330
2FB2
100
AcDbEntity
  8
0
 62
     0
100
AcDbLine
 10
-203.8000000000029
 20
-264.2821365416821
 30
0.0
 11
203.7999999999956
 21
-536.0147759973004
 31
0.0
  0
LINE
  5
2C62
330
2FB2
100
AcDbEntity
  8
0
 62
     0
100
AcDbLine
 10
-203.8000000000047
 20
-261.2821700062668
 30
0.0
 11
203.7999999999937
 21
-533.014809461885
 31
0.0
  0
LINE
  5
2C63
330
2FB2
100
AcDbEntity
  8
0
 62
     0
100
AcDbLine
 10
-203.8000000000029
 20
-258.2822034708506
 30
0.0
 11
203.7999999999956
 21
-530.0148429264679
 31
0.0
  0
LINE
  5
2C64
330
2FB2
100
AcDbEntity
  8
0
 62
     0
100
AcDbLine
 10
-203.8000000000029
 20
-255.2822369354335
 30
0.0
 11
203.7999999999937
 21
-527.0148763910508
 31
0.0
  0
LINE
  5
2C65
330
2FB2
100
AcDbEntity
  8
0
 62
     0
100
AcDbLine
 10
-203.8000000000029
 20
-252.2822704000182
 30
0.0
 11
203.7999999999937
 21
-524.0149098556355
 31
0.0
  0
LINE
  5
2C66
330
2FB2
100
AcDbEntity
  8
0
 62
     0
100
AcDbLine
 10
-203.8000000000065
 20
-249.2823038646002
 30
0.0
 11
203.799999999992
 21
-521.0149433202185
 31
0.0
  0
LINE
  5
2C67
330
2FB2
100
AcDbEntity
  8
0
 62
     0
100
AcDbLine
 10
-203.8000000000047
 20
-246.2823373291849
 30
0.0
 11
203.7999999999937
 21
-518.0149767848034
 31
0.0
  0
LINE
  5
2C68
330
2FB2
100
AcDbEntity
  8
0
 62
     0
100
AcDbLine
 10
-203.8000000000047
 20
-243.2823707937687
 30
0.0
 11
203.7999999999937
 21
-515.0150102493862
 31
0.0
  0
LINE
  5
2C69
330
2FB2
100
AcDbEntity
  8
0
 62
     0
100
AcDbLine
 10
-203.8000000000047
 20
-240.2824042583534
 30
0.0
 11
203.7999999999937
 21
-512.0150437139717
 31
0.0
  0
LINE
  5
2C6A
330
2FB2
100
AcDbEntity
  8
0
 62
     0
100
AcDbLine
 10
-203.8000000000047
 20
-237.2824377229363
 30
0.0
 11
203.7999999999937
 21
-509.0150771785545
 31
0.0
  0
LINE
  5
2C6B
330
2FB2
100
AcDbEntity
  8
0
 62
     0
100
AcDbLine
 10
-203.8000000000029
 20
-234.282471187521
 30
0.0
 11
203.7999999999956
 21
-506.0151106431392
 31
0.0
  0
LINE
  5
2C6C
330
2FB2
100
AcDbEntity
  8
0
 62
     0
100
AcDbLine
 10
-203.8000000000047
 20
-231.2825046521039
 30
0.0
 11
203.7999999999937
 21
-503.0151441077223
 31
0.0
  0
LINE
  5
2C6D
330
2FB2
100
AcDbEntity
  8
0
 62
     0
100
AcDbLine
 10
-203.8000000000047
 20
-228.2825381166895
 30
0.0
 11
203.7999999999937
 21
-500.0151775723069
 31
0.0
  0
LINE
  5
2C6E
330
2FB2
100
AcDbEntity
  8
0
 62
     0
100
AcDbLine
 10
-203.8000000000047
 20
-225.2825715812722
 30
0.0
 11
203.7999999999937
 21
-497.0152110368907
 31
0.0
  0
LINE
  5
2C6F
330
2FB2
100
AcDbEntity
  8
0
 62
     0
100
AcDbLine
 10
-203.8000000000047
 20
-222.2826050458561
 30
0.0
 11
203.7999999999937
 21
-494.0152445014745
 31
0.0
  0
LINE
  5
2C70
330
2FB2
100
AcDbEntity
  8
0
 62
     0
100
AcDbLine
 10
-203.8000000000047
 20
-219.282638510439
 30
0.0
 11
203.7999999999937
 21
-491.0152779660584
 31
0.0
  0
LINE
  5
2C71
330
2FB2
100
AcDbEntity
  8
0
 62
     0
100
AcDbLine
 10
-12.00000000000545
 20
-344.1490121310271
 30
0.0
 11
-8.033452803241743
 21
-346.7933701764196
 31
0.0
  0
LINE
  5
2C72
330
2FB2
100
AcDbEntity
  8
0
 62
     0
100
AcDbLine
 10
-8.033452803241743
 20
-346.7933701764196
 30
0.0
 11
203.7999999999937
 21
-488.0153114306404
 31
0.0
  0
LINE
  5
2C73
330
2FB2
100
AcDbEntity
  8
0
 62
     0
100
AcDbLine
 10
-203.8000000000047
 20
-216.2826719750219
 30
0.0
 11
-12.00000000000545
 21
-344.1490121310271
 31
0.0
  0
LINE
  5
2C74
330
2FB2
100
AcDbEntity
  8
0
 62
     0
100
AcDbLine
 10
-12.00000000000364
 20
-341.1490455956127
 30
0.0
 11
-3.53349150935537
 21
-346.7933701764205
 31
0.0
  0
LINE
  5
2C75
330
2FB2
100
AcDbEntity
  8
0
 62
     0
100
AcDbLine
 10
-3.53349150935537
 20
-346.7933701764205
 30
0.0
 11
203.7999999999937
 21
-485.0153448952251
 31
0.0
  0
LINE
  5
2C76
330
2FB2
100
AcDbEntity
  8
0
 62
     0
100
AcDbLine
 10
-203.8000000000029
 20
-213.2827054396066
 30
0.0
 11
-12.00000000000364
 21
-341.1490455956127
 31
0.0
  0
LINE
  5
2C77
330
2FB2
100
AcDbEntity
  8
0
 62
     0
100
AcDbLine
 10
-12.00000000000545
 20
-338.1490790601948
 30
0.0
 11
0.9664697845291811
 21
-346.7933701764196
 31
0.0
  0
LINE
  5
2C78
330
2FB2
100
AcDbEntity
  8
0
 62
     0
100
AcDbLine
 10
0.9664697845291811
 20
-346.7933701764196
 30
0.0
 11
203.7999999999937
 21
-482.015378359808
 31
0.0
  0
LINE
  5
2C79
330
2FB2
100
AcDbEntity
  8
0
 62
     0
100
AcDbLine
 10
-203.8000000000047
 20
-210.2827389041904
 30
0.0
 11
-12.00000000000545
 21
-338.1490790601948
 31
0.0
  0
LINE
  5
2C7A
330
2FB2
100
AcDbEntity
  8
0
 62
     0
100
AcDbLine
 10
-12.00000000000727
 20
-335.1491125247794
 30
0.0
 11
5.466431078413734
 21
-346.7933701764205
 31
0.0
  0
LINE
  5
2C7B
330
2FB2
100
AcDbEntity
  8
0
 62
     0
100
AcDbLine
 10
5.466431078413734
 20
-346.7933701764205
 30
0.0
 11
203.7999999999937
 21
-479.0154118243934
 31
0.0
  0
LINE
  5
2C7C
330
2FB2
100
AcDbEntity
  8
0
 62
     0
100
AcDbLine
 10
-203.8000000000047
 20
-207.2827723687751
 30
0.0
 11
-12.00000000000727
 21
-335.1491125247794
 31
0.0
  0
LINE
  5
2C7D
330
2FB2
100
AcDbEntity
  8
0
 62
     0
100
AcDbLine
 10
-12.00000000000364
 20
-332.1491459893623
 30
0.0
 11
9.966392372300106
 21
-346.7933701764187
 31
0.0
  0
LINE
  5
2C7E
330
2FB2
100
AcDbEntity
  8
0
 62
     0
100
AcDbLine
 10
9.966392372300106
 20
-346.7933701764187
 30
0.0
 11
203.7999999999956
 21
-476.0154452889763
 31
0.0
  0
LINE
  5
2C7F
330
2FB2
100
AcDbEntity
  8
0
 62
     0
100
AcDbLine
 10
-203.8000000000029
 20
-204.282805833358
 30
0.0
 11
-12.00000000000364
 21
-332.1491459893623
 31
0.0
  0
LINE
  5
2C80
330
2FB2
100
AcDbEntity
  8
0
 62
     0
100
AcDbLine
 10
-12.00000000000545
 20
-329.149179453948
 30
0.0
 11
14.46635366618648
 21
-346.7933701764205
 31
0.0
  0
LINE
  5
2C81
330
2FB2
100
AcDbEntity
  8
0
 62
     0
100
AcDbLine
 10
14.46635366618648
 20
-346.7933701764205
 30
0.0
 11
203.7999999999956
 21
-473.0154787535609
 31
0.0
  0
LINE
  5
2C82
330
2FB2
100
AcDbEntity
  8
0
 62
     0
100
AcDbLine
 10
-203.8000000000047
 20
-201.2828392979417
 30
0.0
 11
-12.00000000000545
 21
-329.149179453948
 31
0.0
  0
LINE
  5
2C83
330
2FB2
100
AcDbEntity
  8
0
 62
     0
100
AcDbLine
 10
-12.00000000000545
 20
-326.1492129185308
 30
0.0
 11
18.96631496007103
 21
-346.7933701764205
 31
0.0
  0
LINE
  5
2C84
330
2FB2
100
AcDbEntity
  8
0
 62
     0
100
AcDbLine
 10
18.96631496007103
 20
-346.7933701764205
 30
0.0
 11
203.7999999999937
 21
-470.015512218144
 31
0.0
  0
LINE
  5
2C85
330
2FB2
100
AcDbEntity
  8
0
 62
     0
100
AcDbLine
 10
-203.8000000000065
 20
-198.2828727625244
 30
0.0
 11
-12.00000000000545
 21
-326.1492129185308
 31
0.0
  0
LINE
  5
2C86
330
2FB2
100
AcDbEntity
  8
0
 62
     0
100
AcDbLine
 10
-12.00000000000545
 20
-323.1492463831155
 30
0.0
 11
23.4662762539574
 21
-346.7933701764205
 31
0.0
  0
LINE
  5
2C87
330
2FB2
100
AcDbEntity
  8
0
 62
     0
100
AcDbLine
 10
23.4662762539574
 20
-346.7933701764205
 30
0.0
 11
203.7999999999937
 21
-467.0155456827278
 31
0.0
  0
LINE
  5
2C88
330
2FB2
100
AcDbEntity
  8
0
 62
     0
100
AcDbLine
 10
-203.8000000000047
 20
-195.2829062271103
 30
0.0
 11
-12.00000000000545
 21
-323.1492463831155
 31
0.0
  0
LINE
  5
2C89
330
2FB2
100
AcDbEntity
  8
0
 62
     0
100
AcDbLine
 10
-12.00000000000364
 20
-320.1492798476984
 30
0.0
 11
27.96623754784196
 21
-346.7933701764196
 31
0.0
  0
LINE
  5
2C8A
330
2FB2
100
AcDbEntity
  8
0
 62
     0
100
AcDbLine
 10
27.96623754784196
 20
-346.7933701764196
 30
0.0
 11
203.7999999999937
 21
-464.0155791473116
 31
0.0
  0
LINE
  5
2C8B
330
2FB2
100
AcDbEntity
  8
0
 62
     0
100
AcDbLine
 10
-203.8000000000047
 20
-192.2829396916931
 30
0.0
 11
-12.00000000000364
 21
-320.1492798476984
 31
0.0
  0
LINE
  5
2C8C
330
2FB2
100
AcDbEntity
  8
0
 62
     0
100
AcDbLine
 10
-12.00000000000545
 20
-317.1493133122831
 30
0.0
 11
32.46619884173015
 21
-346.7933701764214
 31
0.0
  0
LINE
  5
2C8D
330
2FB2
100
AcDbEntity
  8
0
 62
     0
100
AcDbLine
 10
32.46619884173015
 20
-346.7933701764214
 30
0.0
 11
203.7999999999937
 21
-461.0156126118964
 31
0.0
  0
LINE
  5
2C8E
330
2FB2
100
AcDbEntity
  8
0
 62
     0
100
AcDbLine
 10
-203.8000000000047
 20
-189.2829731562779
 30
0.0
 11
-12.00000000000545
 21
-317.1493133122822
 31
0.0
  0
LINE
  5
2C8F
330
2FB2
100
AcDbEntity
  8
0
 62
     0
100
AcDbLine
 10
-12.00000000000364
 20
-314.1493467768669
 30
0.0
 11
36.96616013561471
 21
-346.7933701764205
 31
0.0
  0
LINE
  5
2C90
330
2FB2
100
AcDbEntity
  8
0
 62
     0
100
AcDbLine
 10
36.96616013561471
 20
-346.7933701764205
 30
0.0
 11
203.7999999999937
 21
-458.0156460764792
 31
0.0
  0
LINE
  5
2C91
330
2FB2
100
AcDbEntity
  8
0
 62
     0
100
AcDbLine
 10
-203.8000000000047
 20
-186.2830066208607
 30
0.0
 11
-12.00000000000364
 21
-314.1493467768669
 31
0.0
  0
LINE
  5
2C92
330
2FB2
100
AcDbEntity
  8
0
 62
     0
100
AcDbLine
 10
-12.00000000000364
 20
-311.1493802414507
 30
0.0
 11
41.46612142950107
 21
-346.7933701764214
 31
0.0
  0
LINE
  5
2C93
330
2FB2
100
AcDbEntity
  8
0
 62
     0
100
AcDbLine
 10
41.46612142950107
 20
-346.7933701764214
 30
0.0
 11
203.7999999999956
 21
-455.0156795410639
 31
0.0
  0
LINE
  5
2C94
330
2FB2
100
AcDbEntity
  8
0
 62
     0
100
AcDbLine
 10
-203.8000000000029
 20
-183.2830400854454
 30
0.0
 11
-12.00000000000364
 21
-311.1493802414507
 31
0.0
  0
LINE
  5
2C95
330
2FB2
100
AcDbEntity
  8
0
 62
     0
100
AcDbLine
 10
-12.00000000000545
 20
-308.1494137060336
 30
0.0
 11
45.9660827233838
 21
-346.7933701764196
 31
0.0
  0
LINE
  5
2C96
330
2FB2
100
AcDbEntity
  8
0
 62
     0
100
AcDbLine
 10
45.9660827233838
 20
-346.7933701764196
 30
0.0
 11
203.7999999999937
 21
-452.0157130056468
 31
0.0
  0
LINE
  5
2C97
330
2FB2
100
AcDbEntity
  8
0
 62
     0
100
AcDbLine
 10
-203.8000000000047
 20
-180.2830735500291
 30
0.0
 11
-12.00000000000545
 21
-308.1494137060336
 31
0.0
  0
LINE
  5
2C98
330
2FB2
100
AcDbEntity
  8
0
 62
     0
100
AcDbLine
 10
-12.00000000000545
 20
-305.1494471706164
 30
0.0
 11
50.466044017272
 21
-346.7933701764205
 31
0.0
  0
LINE
  5
2C99
330
2FB2
100
AcDbEntity
  8
0
 62
     0
100
AcDbLine
 10
50.466044017272
 20
-346.7933701764205
 30
0.0
 11
203.7999999999937
 21
-449.0157464702305
 31
0.0
  0
LINE
  5
2C9A
330
2FB2
100
AcDbEntity
  8
0
 62
     0
100
AcDbLine
 10
-203.8000000000047
 20
-177.2831070146121
 30
0.0
 11
-12.00000000000545
 21
-305.1494471706164
 31
0.0
  0
LINE
  5
2C9B
330
2FB2
100
AcDbEntity
  8
0
 62
     0
100
AcDbLine
 10
-12.00000000000545
 20
-302.1494806352011
 30
0.0
 11
54.96600531115655
 21
-346.7933701764205
 31
0.0
  0
LINE
  5
2C9C
330
2FB2
100
AcDbEntity
  8
0
 62
     0
100
AcDbLine
 10
54.96600531115655
 20
-346.7933701764205
 30
0.0
 11
203.7999999999937
 21
-446.0157799348151
 31
0.0
  0
LINE
  5
2C9D
330
2FB2
100
AcDbEntity
  8
0
 62
     0
100
AcDbLine
 10
-203.8000000000047
 20
-174.2831404791959
 30
0.0
 11
-12.00000000000545
 21
-302.1494806352011
 31
0.0
  0
LINE
  5
2C9E
330
2FB2
100
AcDbEntity
  8
0
 62
     0
100
AcDbLine
 10
-12.00000000000364
 20
-299.1495140997841
 30
0.0
 11
59.46596660504292
 21
-346.7933701764196
 31
0.0
  0
LINE
  5
2C9F
330
2FB2
100
AcDbEntity
  8
0
 62
     0
100
AcDbLine
 10
59.46596660504292
 20
-346.7933701764196
 30
0.0
 11
203.7999999999956
 21
-443.0158133993982
 31
0.0
  0
LINE
  5
2CA0
330
2FB2
100
AcDbEntity
  8
0
 62
     0
100
AcDbLine
 10
-203.8000000000047
 20
-171.2831739437788
 30
0.0
 11
-12.00000000000364
 21
-299.1495140997841
 31
0.0
  0
LINE
  5
2CA1
330
2FB2
100
AcDbEntity
  8
0
 62
     0
100
AcDbLine
 10
-12.00000000000545
 20
-296.1495475643697
 30
0.0
 11
63.96592789892565
 21
-346.7933701764205
 31
0.0
  0
LINE
  5
2CA2
330
2FB2
100
AcDbEntity
  8
0
 62
     0
100
AcDbLine
 10
63.96592789892746
 20
-346.7933701764214
 30
0.0
 11
203.799999999992
 21
-440.015846863982
 31
0.0
  0
LINE
  5
2CA3
330
2FB2
100
AcDbEntity
  8
0
 62
     0
100
AcDbLine
 10
-203.8000000000047
 20
-168.2832074083635
 30
0.0
 11
-12.00000000000545
 21
-296.1495475643697
 31
0.0
  0
LINE
  5
2CA4
330
2FB2
100
AcDbEntity
  8
0
 62
     0
100
AcDbLine
 10
-12.00000000000364
 20
-293.1495810289525
 30
0.0
 11
68.46588919281382
 21
-346.7933701764196
 31
0.0
  0
LINE
  5
2CA5
330
2FB2
100
AcDbEntity
  8
0
 62
     0
100
AcDbLine
 10
68.46588919281382
 20
-346.7933701764196
 30
0.0
 11
203.7999999999956
 21
-437.0158803285658
 31
0.0
  0
LINE
  5
2CA6
330
2FB2
100
AcDbEntity
  8
0
 62
     0
100
AcDbLine
 10
-203.8000000000047
 20
-165.2832408729472
 30
0.0
 11
-12.00000000000364
 21
-293.1495810289525
 31
0.0
  0
LINE
  5
2CA7
330
2FB2
100
AcDbEntity
  8
0
 62
     0
100
AcDbLine
 10
-12.00000000000364
 20
-290.1496144935372
 30
0.0
 11
72.96585048669841
 21
-346.7933701764205
 31
0.0
  0
LINE
  5
2CA8
330
2FB2
100
AcDbEntity
  8
0
 62
     0
100
AcDbLine
 10
72.96585048669841
 20
-346.7933701764205
 30
0.0
 11
203.7999999999937
 21
-434.0159137931496
 31
0.0
  0
LINE
  5
2CA9
330
2FB2
100
AcDbEntity
  8
0
 62
     0
100
AcDbLine
 10
-203.8000000000029
 20
-162.283274337532
 30
0.0
 11
-12.00000000000364
 21
-290.1496144935372
 31
0.0
  0
LINE
  5
2CAA
330
2FB2
100
AcDbEntity
  8
0
 62
     0
100
AcDbLine
 10
-12.00000000000364
 20
-287.1496479581201
 30
0.0
 11
77.46581178058294
 21
-346.7933701764187
 31
0.0
  0
LINE
  5
2CAB
330
2FB2
100
AcDbEntity
  8
0
 62
     0
100
AcDbLine
 10
77.46581178058294
 20
-346.7933701764187
 30
0.0
 11
203.7999999999937
 21
-431.0159472577334
 31
0.0
  0
LINE
  5
2CAC
330
2FB2
100
AcDbEntity
  8
0
 62
     0
100
AcDbLine
 10
-203.8000000000047
 20
-159.2833078021149
 30
0.0
 11
-12.00000000000364
 21
-287.1496479581201
 31
0.0
  0
LINE
  5
2CAD
330
2FB2
100
AcDbEntity
  8
0
 62
     0
100
AcDbLine
 10
-12.00000000000727
 20
-284.1496814227039
 30
0.0
 11
81.96577307446931
 21
-346.7933701764214
 31
0.0
  0
LINE
  5
2CAE
330
2FB2
100
AcDbEntity
  8
0
 62
     0
100
AcDbLine
 10
81.96577307446931
 20
-346.7933701764214
 30
0.0
 11
203.799999999992
 21
-428.015980722318
 31
0.0
  0
LINE
  5
2CAF
330
2FB2
100
AcDbEntity
  8
0
 62
     0
100
AcDbLine
 10
-203.8000000000047
 20
-156.2833412666996
 30
0.0
 11
-12.00000000000727
 21
-284.1496814227039
 31
0.0
  0
LINE
  5
2CB0
330
2FB2
100
AcDbEntity
  8
0
 62
     0
100
AcDbLine
 10
-12.00000000000545
 20
-281.1497148872877
 30
0.0
 11
86.4657343683557
 21
-346.7933701764205
 31
0.0
  0
LINE
  5
2CB1
330
2FB2
100
AcDbEntity
  8
0
 62
     0
100
AcDbLine
 10
86.4657343683557
 20
-346.7933701764205
 30
0.0
 11
203.7999999999937
 21
-425.0160141869008
 31
0.0
  0
LINE
  5
2CB2
330
2FB2
100
AcDbEntity
  8
0
 62
     0
100
AcDbLine
 10
-203.8000000000047
 20
-153.2833747312824
 30
0.0
 11
-12.00000000000545
 21
-281.1497148872877
 31
0.0
  0
LINE
  5
2CB3
330
2FB2
100
AcDbEntity
  8
0
 62
     0
100
AcDbLine
 10
-12.00000000000545
 20
-278.1497483518724
 30
0.0
 11
90.96569566224024
 21
-346.7933701764205
 31
0.0
  0
LINE
  5
2CB4
330
2FB2
100
AcDbEntity
  8
0
 62
     0
100
AcDbLine
 10
90.96569566224024
 20
-346.7933701764205
 30
0.0
 11
203.7999999999956
 21
-422.0160476514865
 31
0.0
  0
LINE
  5
2CB5
330
2FB2
100
AcDbEntity
  8
0
 62
     0
100
AcDbLine
 10
-199.7350466492153
 20
-152.9933701764212
 30
0.0
 11
-12.00000000000545
 21
-278.1497483518724
 31
0.0
  0
LINE
  5
2CB6
330
2FB2
100
AcDbEntity
  8
0
 62
     0
100
AcDbLine
 10
-12.00000000000545
 20
-275.1497818164553
 30
0.0
 11
95.4656569561248
 21
-346.7933701764196
 31
0.0
  0
LINE
  5
2CB7
330
2FB2
100
AcDbEntity
  8
0
 62
     0
100
AcDbLine
 10
95.4656569561248
 20
-346.7933701764196
 30
0.0
 11
203.7999999999956
 21
-419.0160811160703
 31
0.0
  0
LINE
  5
2CB8
330
2FB2
100
AcDbEntity
  8
0
 62
     0
100
AcDbLine
 10
-195.2350853553325
 20
-152.9933701764194
 30
0.0
 11
-12.00000000000545
 21
-275.1497818164553
 31
0.0
  0
LINE
  5
2CB9
330
2FB2
100
AcDbEntity
  8
0
 62
     0
100
AcDbLine
 10
-12.00000000000545
 20
-272.14981528104
 30
0.0
 11
99.965618250013
 21
-346.7933701764223
 31
0.0
  0
LINE
  5
2CBA
330
2FB2
100
AcDbEntity
  8
0
 62
     0
100
AcDbLine
 10
99.965618250013
 20
-346.7933701764223
 30
0.0
 11
203.7999999999956
 21
-416.0161145806551
 31
0.0
  0
LINE
  5
2CBB
330
2FB2
100
AcDbEntity
  8
0
 62
     0
100
AcDbLine
 10
-190.7351240614461
 20
-152.9933701764203
 30
0.0
 11
-12.00000000000545
 21
-272.14981528104
 31
0.0
  0
LINE
  5
2CBC
330
2FB2
100
AcDbEntity
  8
0
 62
     0
100
AcDbLine
 10
-12.00000000000364
 20
-269.1498487456229
 30
0.0
 11
104.4655795438993
 21
-346.7933701764205
 31
0.0
  0
LINE
  5
2CBD
330
2FB2
100
AcDbEntity
  8
0
 62
     0
100
AcDbLine
 10
104.4655795438993
 20
-346.7933701764205
 30
0.0
 11
203.7999999999974
 21
-413.0161480452379
 31
0.0
  0
LINE
  5
2CBE
330
2FB2
100
AcDbEntity
  8
0
 62
     0
100
AcDbLine
 10
-186.2351627675616
 20
-152.9933701764185
 30
0.0
 11
-12.00000000000364
 21
-269.1498487456229
 31
0.0
  0
LINE
  5
2CBF
330
2FB2
100
AcDbEntity
  8
0
 62
     0
100
AcDbLine
 10
-12.00000000000545
 20
-266.1498822102068
 30
0.0
 11
108.9655408377821
 21
-346.7933701764196
 31
0.0
  0
LINE
  5
2CC0
330
2FB2
100
AcDbEntity
  8
0
 62
     0
100
AcDbLine
 10
108.9655408377821
 20
-346.7933701764196
 30
0.0
 11
203.7999999999956
 21
-410.0161815098199
 31
0.0
  0
LINE
  5
2CC1
330
2FB2
100
AcDbEntity
  8
0
 62
     0
100
AcDbLine
 10
-181.7352014736734
 20
-152.9933701764194
 30
0.0
 11
-12.00000000000545
 21
-266.1498822102068
 31
0.0
  0
LINE
  5
2CC2
330
2FB2
100
AcDbEntity
  8
0
 62
     0
100
AcDbLine
 10
-12.00000000000364
 20
-263.1499156747914
 30
0.0
 11
113.4655021316685
 21
-346.7933701764196
 31
0.0
  0
LINE
  5
2CC3
330
2FB2
100
AcDbEntity
  8
0
 62
     0
100
AcDbLine
 10
113.4655021316703
 20
-346.7933701764205
 30
0.0
 11
203.7999999999974
 21
-407.0162149744055
 31
0.0
  0
LINE
  5
2CC4
330
2FB2
100
AcDbEntity
  8
0
 62
     0
100
AcDbLine
 10
-177.2352401797888
 20
-152.9933701764194
 30
0.0
 11
-12.00000000000364
 21
-263.1499156747914
 31
0.0
  0
LINE
  5
2CC5
330
2FB2
100
AcDbEntity
  8
0
 62
     0
100
AcDbLine
 10
-12.00000000000364
 20
-260.1499491393743
 30
0.0
 11
117.9654634255548
 21
-346.7933701764196
 31
0.0
  0
LINE
  5
2CC6
330
2FB2
100
AcDbEntity
  8
0
 62
     0
100
AcDbLine
 10
117.9654634255548
 20
-346.7933701764196
 30
0.0
 11
203.7999999999974
 21
-404.0162484389873
 31
0.0
  0
LINE
  5
2CC7
330
2FB2
100
AcDbEntity
  8
0
 62
     0
100
AcDbLine
 10
-172.7352788859025
 20
-152.9933701764185
 30
0.0
 11
-12.00000000000364
 21
-260.1499491393743
 31
0.0
  0
LINE
  5
2CC8
330
2FB2
100
AcDbEntity
  8
0
 62
     0
100
AcDbLine
 10
-12.00000000000545
 20
-257.149982603958
 30
0.0
 11
122.4654247194394
 21
-346.7933701764196
 31
0.0
  0
LINE
  5
2CC9
330
2FB2
100
AcDbEntity
  8
0
 62
     0
100
AcDbLine
 10
122.4654247194394
 20
-346.7933701764196
 30
0.0
 11
203.7999999999956
 21
-401.0162819035731
 31
0.0
  0
LINE
  5
2CCA
330
2FB2
100
AcDbEntity
  8
0
 62
     0
100
AcDbLine
 10
-168.2353175920179
 20
-152.9933701764203
 30
0.0
 11
-12.00000000000545
 21
-257.149982603958
 31
0.0
  0
LINE
  5
2CCB
330
2FB2
100
AcDbEntity
  8
0
 62
     0
100
AcDbLine
 10
-12.00000000000545
 20
-254.1500160685409
 30
0.0
 11
126.9653860133238
 21
-346.7933701764196
 31
0.0
  0
LINE
  5
2CCC
330
2FB2
100
AcDbEntity
  8
0
 62
     0
100
AcDbLine
 10
126.9653860133238
 20
-346.7933701764196
 30
0.0
 11
203.7999999999956
 21
-398.016315368156
 31
0.0
  0
LINE
  5
2CCD
330
2FB2
100
AcDbEntity
  8
0
 62
     0
100
AcDbLine
 10
-163.7353562981334
 20
-152.9933701764185
 30
0.0
 11
-12.00000000000545
 21
-254.1500160685409
 31
0.0
  0
LINE
  5
2CCE
330
2FB2
100
AcDbEntity
  8
0
 62
     0
100
AcDbLine
 10
-12.00000000000545
 20
-251.1500495331256
 30
0.0
 11
131.4653473072102
 21
-346.7933701764205
 31
0.0
  0
LINE
  5
2CCF
330
2FB2
100
AcDbEntity
  8
0
 62
     0
100
AcDbLine
 10
131.4653473072102
 20
-346.7933701764214
 30
0.0
 11
203.7999999999956
 21
-395.0163488327408
 31
0.0
  0
LINE
  5
2CD0
330
2FB2
100
AcDbEntity
  8
0
 62
     0
100
AcDbLine
 10
-159.2353950042488
 20
-152.9933701764194
 30
0.0
 11
-12.00000000000545
 21
-251.1500495331256
 31
0.0
  0
LINE
  5
2CD1
330
2FB2
100
AcDbEntity
  8
0
 62
     0
100
AcDbLine
 10
-12.00000000000364
 20
-248.1500829977094
 30
0.0
 11
135.9653086010967
 21
-346.7933701764196
 31
0.0
  0
LINE
  5
2CD2
330
2FB2
100
AcDbEntity
  8
0
 62
     0
100
AcDbLine
 10
135.9653086010967
 20
-346.7933701764196
 30
0.0
 11
203.7999999999974
 21
-392.0163822973236
 31
0.0
  0
LINE
  5
2CD3
330
2FB2
100
AcDbEntity
  8
0
 62
     0
100
AcDbLine
 10
-154.7354337103625
 20
-152.9933701764175
 30
0.0
 11
-12.00000000000364
 21
-248.1500829977094
 31
0.0
  0
LINE
  5
2CD4
330
2FB2
100
AcDbEntity
  8
0
 62
     0
100
AcDbLine
 10
-12.00000000000545
 20
-245.1501164622941
 30
0.0
 11
140.4652698949812
 21
-346.7933701764205
 31
0.0
  0
LINE
  5
2CD5
330
2FB2
100
AcDbEntity
  8
0
 62
     0
100
AcDbLine
 10
140.4652698949812
 20
-346.7933701764205
 30
0.0
 11
203.7999999999956
 21
-389.0164157619083
 31
0.0
  0
LINE
  5
2CD6
330
2FB2
100
AcDbEntity
  8
0
 62
     0
100
AcDbLine
 10
-150.2354724164761
 20
-152.9933701764203
 30
0.0
 11
-12.00000000000545
 21
-245.1501164622941
 31
0.0
  0
LINE
  5
2CD7
330
2FB2
100
AcDbEntity
  8
0
 62
     0
100
AcDbLine
 10
-12.00000000000364
 20
-242.150149926877
 30
0.0
 11
144.9652311888658
 21
-346.7933701764187
 31
0.0
  0
LINE
  5
2CD8
330
2FB2
100
AcDbEntity
  8
0
 62
     0
100
AcDbLine
 10
144.9652311888658
 20
-346.7933701764187
 30
0.0
 11
203.7999999999974
 21
-386.0164492264921
 31
0.0
  0
LINE
  5
2CD9
330
2FB2
100
AcDbEntity
  8
0
 62
     0
100
AcDbLine
 10
-145.7355111225897
 20
-152.9933701764194
 30
0.0
 11
-12.00000000000364
 21
-242.150149926877
 31
0.0
  0
LINE
  5
2CDA
330
2FB2
100
AcDbEntity
  8
0
 62
     0
100
AcDbLine
 10
-12.00000000000364
 20
-239.1501833914617
 30
0.0
 11
149.465192482754
 21
-346.7933701764214
 31
0.0
  0
LINE
  5
2CDB
330
2FB2
100
AcDbEntity
  8
0
 62
     0
100
AcDbLine
 10
149.465192482754
 20
-346.7933701764214
 30
0.0
 11
203.7999999999974
 21
-383.0164826910768
 31
0.0
  0
LINE
  5
2CDC
330
2FB2
100
AcDbEntity
  8
0
 62
     0
100
AcDbLine
 10
-141.2355498287052
 20
-152.9933701764194
 30
0.0
 11
-12.00000000000364
 21
-239.1501833914617
 31
0.0
  0
LINE
  5
2CDD
330
2FB2
100
AcDbEntity
  8
0
 62
     0
100
AcDbLine
 10
-12.00000000000364
 20
-236.1502168560446
 30
0.0
 11
153.9651537766384
 21
-346.7933701764205
 31
0.0
  0
LINE
  5
2CDE
330
2FB2
100
AcDbEntity
  8
0
 62
     0
100
AcDbLine
 10
153.9651537766384
 20
-346.7933701764205
 30
0.0
 11
203.7999999999974
 21
-380.0165161556597
 31
0.0
  0
LINE
  5
2CDF
330
2FB2
100
AcDbEntity
  8
0
 62
     0
100
AcDbLine
 10
-136.7355885348206
 20
-152.9933701764185
 30
0.0
 11
-12.00000000000364
 21
-236.1502168560446
 31
0.0
  0
LINE
  5
2CE0
330
2FB2
100
AcDbEntity
  8
0
 62
     0
100
AcDbLine
 10
-12.00000000000545
 20
-233.1502503206301
 30
0.0
 11
158.4651150705231
 21
-346.7933701764205
 31
0.0
  0
LINE
  5
2CE1
330
2FB2
100
AcDbEntity
  8
0
 62
     0
100
AcDbLine
 10
158.4651150705231
 20
-346.7933701764205
 30
0.0
 11
203.7999999999937
 21
-377.0165496202436
 31
0.0
  0
LINE
  5
2CE2
330
2FB2
100
AcDbEntity
  8
0
 62
     0
100
AcDbLine
 10
-132.2356272409342
 20
-152.9933701764212
 30
0.0
 11
-12.00000000000545
 21
-233.1502503206301
 31
0.0
  0
LINE
  5
2CE3
330
2FB2
100
AcDbEntity
  8
0
 62
     0
100
AcDbLine
 10
-12.00000000000545
 20
-230.1502837852122
 30
0.0
 11
162.9650763644076
 21
-346.7933701764196
 31
0.0
  0
LINE
  5
2CE4
330
2FB2
100
AcDbEntity
  8
0
 62
     0
100
AcDbLine
 10
162.9650763644113
 20
-346.7933701764214
 30
0.0
 11
203.7999999999974
 21
-374.0165830848273
 31
0.0
  0
LINE
  5
2CE5
330
2FB2
100
AcDbEntity
  8
0
 62
     0
100
AcDbLine
 10
-127.7356659470479
 20
-152.9933701764194
 30
0.0
 11
-12.00000000000545
 21
-230.1502837852122
 31
0.0
  0
LINE
  5
2CE6
330
2FB2
100
AcDbEntity
  8
0
 62
     0
100
AcDbLine
 10
-12.00000000000364
 20
-227.150317249796
 30
0.0
 11
167.4650376582958
 21
-346.7933701764205
 31
0.0
  0
LINE
  5
2CE7
330
2FB2
100
AcDbEntity
  8
0
 62
     0
100
AcDbLine
 10
167.4650376582958
 20
-346.7933701764205
 30
0.0
 11
203.7999999999956
 21
-371.0166165494102
 31
0.0
  0
LINE
  5
2CE8
330
2FB2
100
AcDbEntity
  8
0
 62
     0
100
AcDbLine
 10
-123.2357046531633
 20
-152.9933701764185
 30
0.0
 11
-12.00000000000545
 21
-227.1503172497951
 31
0.0
  0
LINE
  5
2CE9
330
2FB2
100
AcDbEntity
  8
0
 62
     0
100
AcDbLine
 10
-12.00000000000545
 20
-224.1503507143798
 30
0.0
 11
171.9649989521804
 21
-346.7933701764205
 31
0.0
  0
LINE
  5
2CEA
330
2FB2
100
AcDbEntity
  8
0
 62
     0
100
AcDbLine
 10
171.9649989521804
 20
-346.7933701764205
 30
0.0
 11
203.7999999999956
 21
-368.0166500139949
 31
0.0
  0
LINE
  5
2CEB
330
2FB2
100
AcDbEntity
  8
0
 62
     0
100
AcDbLine
 10
-118.7357433592788
 20
-152.9933701764185
 30
0.0
 11
-12.00000000000545
 21
-224.1503507143798
 31
0.0
  0
LINE
  5
2CEC
330
2FB2
100
AcDbEntity
  8
0
 62
     0
100
AcDbLine
 10
-12.00000000000545
 20
-221.1503841789627
 30
0.0
 11
176.4649602460667
 21
-346.7933701764196
 31
0.0
  0
LINE
  5
2CED
330
2FB2
100
AcDbEntity
  8
0
 62
     0
100
AcDbLine
 10
176.4649602460667
 20
-346.7933701764196
 30
0.0
 11
203.7999999999956
 21
-365.0166834785776
 31
0.0
  0
LINE
  5
2CEE
330
2FB2
100
AcDbEntity
  8
0
 62
     0
100
AcDbLine
 10
-114.2357820653906
 20
-152.9933701764194
 30
0.0
 11
-12.00000000000545
 21
-221.1503841789627
 31
0.0
  0
LINE
  5
2CEF
330
2FB2
100
AcDbEntity
  8
0
 62
     0
100
AcDbLine
 10
-12.00000000000364
 20
-218.1504176435483
 30
0.0
 11
180.9649215399513
 21
-346.7933701764196
 31
0.0
  0
LINE
  5
2CF0
330
2FB2
100
AcDbEntity
  8
0
 62
     0
100
AcDbLine
 10
180.9649215399531
 20
-346.7933701764205
 30
0.0
 11
203.7999999999974
 21
-362.0167169431625
 31
0.0
  0
LINE
  5
2CF1
330
2FB2
100
AcDbEntity
  8
0
 62
     0
100
AcDbLine
 10
-109.735820771506
 20
-152.9933701764203
 30
0.0
 11
-12.00000000000364
 21
-218.1504176435483
 31
0.0
  0
LINE
  5
2CF2
330
2FB2
100
AcDbEntity
  8
0
 62
     0
100
AcDbLine
 10
-12.00000000000545
 20
-215.1504511081312
 30
0.0
 11
185.4648828338359
 21
-346.7933701764196
 31
0.0
  0
LINE
  5
2CF3
330
2FB2
100
AcDbEntity
  8
0
 62
     0
100
AcDbLine
 10
185.4648828338359
 20
-346.7933701764196
 30
0.0
 11
203.7999999999956
 21
-359.0167504077454
 31
0.0
  0
LINE
  5
2CF4
330
2FB2
100
AcDbEntity
  8
0
 62
     0
100
AcDbLine
 10
-105.2358594776215
 20
-152.9933701764185
 30
0.0
 11
-12.00000000000545
 21
-215.1504511081312
 31
0.0
  0
LINE
  5
2CF5
330
2FB2
100
AcDbEntity
  8
0
 62
     0
100
AcDbLine
 10
-12.00000000000545
 20
-212.1504845727159
 30
0.0
 11
189.9648441277204
 21
-346.7933701764196
 31
0.0
  0
LINE
  5
2CF6
330
2FB2
100
AcDbEntity
  8
0
 62
     0
100
AcDbLine
 10
189.9648441277204
 20
-346.7933701764196
 30
0.0
 11
203.7999999999956
 21
-356.0167838723311
 31
0.0
  0
LINE
  5
2CF7
330
2FB2
100
AcDbEntity
  8
0
 62
     0
100
AcDbLine
 10
-100.7358981837368
 20
-152.9933701764194
 30
0.0
 11
-12.00000000000545
 21
-212.1504845727159
 31
0.0
  0
LINE
  5
2CF8
330
2FB2
100
AcDbEntity
  8
0
 62
     0
100
AcDbLine
 10
-12.00000000000364
 20
-209.1505180372987
 30
0.0
 11
194.4648054216086
 21
-346.7933701764187
 31
0.0
  0
LINE
  5
2CF9
330
2FB2
100
AcDbEntity
  8
0
 62
     0
100
AcDbLine
 10
194.4648054216086
 20
-346.7933701764187
 30
0.0
 11
203.7999999999974
 21
-353.0168173369137
 31
0.0
  0
LINE
  5
2CFA
330
2FB2
100
AcDbEntity
  8
0
 62
     0
100
AcDbLine
 10
-96.23593688984874
 20
-152.9933701764185
 30
0.0
 11
-12.00000000000364
 21
-209.1505180372987
 31
0.0
  0
LINE
  5
2CFB
330
2FB2
100
AcDbEntity
  8
0
 62
     0
100
AcDbLine
 10
-12.00000000000364
 20
-206.1505515018835
 30
0.0
 11
198.9647667154949
 21
-346.7933701764214
 31
0.0
  0
LINE
  5
2CFC
330
2FB2
100
AcDbEntity
  8
0
 62
     0
100
AcDbLine
 10
198.9647667154949
 20
-346.7933701764214
 30
0.0
 11
203.7999999999956
 21
-350.0168508014976
 31
0.0
  0
LINE
  5
2CFD
330
2FB2
100
AcDbEntity
  8
0
 62
     0
100
AcDbLine
 10
-91.73597559596421
 20
-152.9933701764194
 30
0.0
 11
-12.00000000000364
 21
-206.1505515018835
 31
0.0
  0
LINE
  5
2CFE
330
2FB2
100
AcDbEntity
  8
0
 62
     0
100
AcDbLine
 10
-12.00000000000545
 20
-203.1505849664672
 30
0.0
 11
203.4647280093777
 21
-346.7933701764196
 31
0.0
  0
LINE
  5
2CFF
330
2FB2
100
AcDbEntity
  8
0
 62
     0
100
AcDbLine
 10
203.4647280093777
 20
-346.7933701764196
 30
0.0
 11
203.7999999999956
 21
-347.0168842660815
 31
0.0
  0
LINE
  5
2D00
330
2FB2
100
AcDbEntity
  8
0
 62
     0
100
AcDbLine
 10
-87.23601430208146
 20
-152.9933701764175
 30
0.0
 11
-12.00000000000545
 21
-203.1505849664654
 31
0.0
  0
LINE
  5
2D01
330
2FB2
100
AcDbEntity
  8
0
 62
     0
100
AcDbLine
 10
-12.00000000000364
 20
-200.150618431052
 30
0.0
 11
203.7999999999902
 21
-344.0169177306616
 31
0.0
  0
LINE
  5
2D02
330
2FB2
100
AcDbEntity
  8
0
 62
     0
100
AcDbLine
 10
-82.73605300819507
 20
-152.9933701764185
 30
0.0
 11
-12.00000000000364
 21
-200.150618431052
 31
0.0
  0
LINE
  5
2D03
330
2FB2
100
AcDbEntity
  8
0
 62
     0
100
AcDbLine
 10
-12.00000000000364
 20
-197.1506518956339
 30
0.0
 11
203.7999999999902
 21
-341.0169511952445
 31
0.0
  0
LINE
  5
2D04
330
2FB2
100
AcDbEntity
  8
0
 62
     0
100
AcDbLine
 10
-78.23609171430691
 20
-152.9933701764194
 30
0.0
 11
-12.00000000000364
 21
-197.1506518956339
 31
0.0
  0
LINE
  5
2D05
330
2FB2
100
AcDbEntity
  8
0
 62
     0
100
AcDbLine
 10
-12.00000000000545
 20
-194.1506853602184
 30
0.0
 11
203.7999999999902
 21
-338.0169846598292
 31
0.0
  0
LINE
  5
2D06
330
2FB2
100
AcDbEntity
  8
0
 62
     0
100
AcDbLine
 10
-73.73613042042234
 20
-152.9933701764194
 30
0.0
 11
-12.00000000000545
 21
-194.1506853602184
 31
0.0
  0
LINE
  5
2D07
330
2FB2
100
AcDbEntity
  8
0
 62
     0
100
AcDbLine
 10
-12.00000000000364
 20
-191.1507188248014
 30
0.0
 11
203.7999999999902
 21
-335.017018124412
 31
0.0
  0
LINE
  5
2D08
330
2FB2
100
AcDbEntity
  8
0
 62
     0
100
AcDbLine
 10
-69.23616912653777
 20
-152.9933701764185
 30
0.0
 11
-12.00000000000364
 21
-191.1507188248014
 31
0.0
  0
LINE
  5
2D09
330
2FB2
100
AcDbEntity
  8
0
 62
     0
100
AcDbLine
 10
-12.00000000000364
 20
-188.1507522893861
 30
0.0
 11
203.799999999992
 21
-332.0170515889977
 31
0.0
  0
LINE
  5
2D0A
330
2FB2
100
AcDbEntity
  8
0
 62
     0
100
AcDbLine
 10
-64.73620783265143
 20
-152.9933701764185
 30
0.0
 11
-12.00000000000364
 21
-188.1507522893861
 31
0.0
  0
LINE
  5
2D0B
330
2FB2
100
AcDbEntity
  8
0
 62
     0
100
AcDbLine
 10
-12.00000000000364
 20
-185.15078575397
 30
0.0
 11
203.7999999999883
 21
-329.0170850535797
 31
0.0
  0
LINE
  5
2D0C
330
2FB2
100
AcDbEntity
  8
0
 62
     0
100
AcDbLine
 10
-60.23624653876503
 20
-152.9933701764194
 30
0.0
 11
-12.00000000000364
 21
-185.15078575397
 31
0.0
  0
LINE
  5
2D0D
330
2FB2
100
AcDbEntity
  8
0
 62
     0
100
AcDbLine
 10
-12.00000000000545
 20
-182.1508192185529
 30
0.0
 11
203.7999999999883
 21
-326.0171185181625
 31
0.0
  0
LINE
  5
2D0E
330
2FB2
100
AcDbEntity
  8
0
 62
     0
100
AcDbLine
 10
-55.7362852448805
 20
-152.9933701764185
 30
0.0
 11
-12.00000000000545
 21
-182.1508192185529
 31
0.0
  0
LINE
  5
2D0F
330
2FB2
100
AcDbEntity
  8
0
 62
     0
100
AcDbLine
 10
-12.00000000000364
 20
-179.1508526831376
 30
0.0
 11
203.7999999999883
 21
-323.0171519827472
 31
0.0
  0
LINE
  5
2D10
330
2FB2
100
AcDbEntity
  8
0
 62
     0
100
AcDbLine
 10
-51.23632395099594
 20
-152.9933701764185
 30
0.0
 11
-12.00000000000364
 21
-179.1508526831376
 31
0.0
  0
LINE
  5
2D11
330
2FB2
100
AcDbEntity
  8
0
 62
     0
100
AcDbLine
 10
-12.00000000000364
 20
-176.1508861477205
 30
0.0
 11
203.7999999999902
 21
-320.0171854473301
 31
0.0
  0
LINE
  5
2D12
330
2FB2
100
AcDbEntity
  8
0
 62
     0
100
AcDbLine
 10
-46.73636265710956
 20
-152.9933701764185
 30
0.0
 11
-12.00000000000545
 21
-176.1508861477196
 31
0.0
  0
LINE
  5
2D13
330
2FB2
100
AcDbEntity
  8
0
 62
     0
100
AcDbLine
 10
-12.00000000000364
 20
-173.1509196123061
 30
0.0
 11
203.7999999999883
 21
-317.0172189119157
 31
0.0
  0
LINE
  5
2D14
330
2FB2
100
AcDbEntity
  8
0
 62
     0
100
AcDbLine
 10
-42.236401363225
 20
-152.9933701764194
 30
0.0
 11
-12.00000000000364
 21
-173.1509196123061
 31
0.0
  0
LINE
  5
2D15
330
2FB2
100
AcDbEntity
  8
0
 62
     0
100
AcDbLine
 10
-12.00000000000545
 20
-170.1509530768881
 30
0.0
 11
203.7999999999902
 21
-314.0172523764986
 31
0.0
  0
LINE
  5
2D16
330
2FB2
100
AcDbEntity
  8
0
 62
     0
100
AcDbLine
 10
-37.73644006933864
 20
-152.9933701764185
 30
0.0
 11
-12.00000000000545
 21
-170.1509530768881
 31
0.0
  0
LINE
  5
2D17
330
2FB2
100
AcDbEntity
  8
0
 62
     0
100
AcDbLine
 10
-12.00000000000182
 20
-167.1509865414737
 30
0.0
 11
203.7999999999902
 21
-311.0172858410833
 31
0.0
  0
LINE
  5
2D18
330
2FB2
100
AcDbEntity
  8
0
 62
     0
100
AcDbLine
 10
-33.23647877545227
 20
-152.9933701764194
 30
0.0
 11
-12.00000000000364
 21
-167.1509865414727
 31
0.0
  0
LINE
  5
2D19
330
2FB2
100
AcDbEntity
  8
0
 62
     0
100
AcDbLine
 10
-12.00000000000545
 20
-164.1510200060556
 30
0.0
 11
203.7999999999902
 21
-308.0173193056662
 31
0.0
  0
LINE
  5
2D1A
330
2FB2
100
AcDbEntity
  8
0
 62
     0
100
AcDbLine
 10
-28.73651748156772
 20
-152.9933701764185
 30
0.0
 11
-12.00000000000545
 21
-164.1510200060556
 31
0.0
  0
LINE
  5
2D1B
330
2FB2
100
AcDbEntity
  8
0
 62
     0
100
AcDbLine
 10
-12.00000000000545
 20
-161.1510534706403
 30
0.0
 11
203.7999999999902
 21
-305.0173527702509
 31
0.0
  0
LINE
  5
2D1C
330
2FB2
100
AcDbEntity
  8
0
 62
     0
100
AcDbLine
 10
-24.23655618768317
 20
-152.9933701764194
 30
0.0
 11
-12.00000000000545
 21
-161.1510534706403
 31
0.0
  0
LINE
  5
2D1D
330
2FB2
100
AcDbEntity
  8
0
 62
     0
100
AcDbLine
 10
-12.00000000000545
 20
-158.1510869352232
 30
0.0
 11
203.7999999999902
 21
-302.0173862348347
 31
0.0
  0
LINE
  5
2D1E
330
2FB2
100
AcDbEntity
  8
0
 62
     0
100
AcDbLine
 10
-19.73659489379679
 20
-152.9933701764175
 30
0.0
 11
-12.00000000000545
 21
-158.1510869352232
 31
0.0
  0
LINE
  5
2D1F
330
2FB2
100
AcDbEntity
  8
0
 62
     0
100
AcDbLine
 10
-12.00000000000364
 20
-155.1511203998088
 30
0.0
 11
203.799999999992
 21
-299.0174196994193
 31
0.0
  0
LINE
  5
2D20
330
2FB2
100
AcDbEntity
  8
0
 62
     0
100
AcDbLine
 10
-15.23663359991224
 20
-152.9933701764185
 30
0.0
 11
-12.00000000000364
 21
-155.1511203998088
 31
0.0
  0
LINE
  5
2D21
330
2FB2
100
AcDbEntity
  8
0
 62
     0
100
AcDbLine
 10
-10.73667230602586
 20
-152.9933701764194
 30
0.0
 11
203.7999999999883
 21
-296.0174531640014
 31
0.0
  0
LINE
  5
2D22
330
2FB2
100
AcDbEntity
  8
0
 62
     0
100
AcDbLine
 10
-6.236711012137675
 20
-152.9933701764203
 30
0.0
 11
203.7999999999902
 21
-293.017486628586
 31
0.0
  0
LINE
  5
2D23
330
2FB2
100
AcDbEntity
  8
0
 62
     0
100
AcDbLine
 10
-1.736749718253121
 20
-152.9933701764185
 30
0.0
 11
203.7999999999902
 21
-290.0175200931691
 31
0.0
  0
LINE
  5
2D24
330
2FB2
100
AcDbEntity
  8
0
 62
     0
100
AcDbLine
 10
2.76321157563143
 20
-152.9933701764185
 30
0.0
 11
203.7999999999902
 21
-287.0175535577518
 31
0.0
  0
LINE
  5
2D25
330
2FB2
100
AcDbEntity
  8
0
 62
     0
100
AcDbLine
 10
7.26317286951598
 20
-152.9933701764194
 30
0.0
 11
203.7999999999883
 21
-284.0175870223374
 31
0.0
  0
LINE
  5
2D26
330
2FB2
100
AcDbEntity
  8
0
 62
     0
100
AcDbLine
 10
11.76313416340599
 20
-152.9933701764194
 30
0.0
 11
203.799999999992
 21
-281.0176204869204
 31
0.0
  0
LINE
  5
2D27
330
2FB2
100
AcDbEntity
  8
0
 62
     0
100
AcDbLine
 10
16.26309545728691
 20
-152.9933701764185
 30
0.0
 11
203.7999999999902
 21
-278.017653951505
 31
0.0
  0
LINE
  5
2D28
330
2FB2
100
AcDbEntity
  8
0
 62
     0
100
AcDbLine
 10
20.76305675117328
 20
-152.9933701764185
 30
0.0
 11
203.7999999999902
 21
-275.0176874160879
 31
0.0
  0
LINE
  5
2D29
330
2FB2
100
AcDbEntity
  8
0
 62
     0
100
AcDbLine
 10
25.26301804505965
 20
-152.9933701764203
 30
0.0
 11
203.7999999999902
 21
-272.0177208806727
 31
0.0
  0
LINE
  5
2D2A
330
2FB2
100
AcDbEntity
  8
0
 62
     0
100
AcDbLine
 10
29.76297933894421
 20
-152.9933701764175
 30
0.0
 11
203.7999999999902
 21
-269.0177543452555
 31
0.0
  0
LINE
  5
2D2B
330
2FB2
100
AcDbEntity
  8
0
 62
     0
100
AcDbLine
 10
34.26294063282876
 20
-152.9933701764194
 30
0.0
 11
203.7999999999902
 21
-266.0177878098411
 31
0.0
  0
LINE
  5
2D2C
330
2FB2
100
AcDbEntity
  8
0
 62
     0
100
AcDbLine
 10
38.76290192671695
 20
-152.9933701764185
 30
0.0
 11
203.7999999999902
 21
-263.0178212744231
 31
0.0
  0
LINE
  5
2D2D
330
2FB2
100
AcDbEntity
  8
0
 62
     0
100
AcDbLine
 10
43.26286322060332
 20
-152.9933701764203
 30
0.0
 11
203.799999999992
 21
-260.0178547390087
 31
0.0
  0
LINE
  5
2D2E
330
2FB2
100
AcDbEntity
  8
0
 62
     0
100
AcDbLine
 10
47.76282451448603
 20
-152.9933701764185
 30
0.0
 11
203.7999999999902
 21
-257.0178882035907
 31
0.0
  0
LINE
  5
2D2F
330
2FB2
100
AcDbEntity
  8
0
 62
     0
100
AcDbLine
 10
52.2627858083706
 20
-152.9933701764194
 30
0.0
 11
203.7999999999883
 21
-254.0179216681763
 31
0.0
  0
LINE
  5
2D30
330
2FB2
100
AcDbEntity
  8
0
 62
     0
100
AcDbLine
 10
56.7627471022588
 20
-152.9933701764194
 30
0.0
 11
203.7999999999902
 21
-251.0179551327592
 31
0.0
  0
LINE
  5
2D31
330
2FB2
100
AcDbEntity
  8
0
 62
     0
100
AcDbLine
 10
61.26270839614517
 20
-152.9933701764194
 30
0.0
 11
203.799999999992
 21
-248.0179885973421
 31
0.0
  0
LINE
  5
2D32
330
2FB2
100
AcDbEntity
  8
0
 62
     0
100
AcDbLine
 10
65.76266969002791
 20
-152.9933701764185
 30
0.0
 11
203.7999999999937
 21
-245.0180220619286
 31
0.0
  0
LINE
  5
2D33
330
2FB2
100
AcDbEntity
  8
0
 62
     0
100
AcDbLine
 10
70.26263098391428
 20
-152.9933701764185
 30
0.0
 11
203.7999999999937
 21
-242.0180555265124
 31
0.0
  0
LINE
  5
2D34
330
2FB2
100
AcDbEntity
  8
0
 62
     0
100
AcDbLine
 10
74.76259227780245
 20
-152.9933701764194
 30
0.0
 11
203.7999999999956
 21
-239.0180889910971
 31
0.0
  0
LINE
  5
2D35
330
2FB2
100
AcDbEntity
  8
0
 62
     0
100
AcDbLine
 10
79.26255357168701
 20
-152.9933701764194
 30
0.0
 11
203.7999999999937
 21
-236.01812245568
 31
0.0
  0
LINE
  5
2D36
330
2FB2
100
AcDbEntity
  8
0
 62
     0
100
AcDbLine
 10
83.76251486556974
 20
-152.9933701764185
 30
0.0
 11
203.7999999999937
 21
-233.0181559202647
 31
0.0
  0
LINE
  5
2D37
330
2FB2
100
AcDbEntity
  8
0
 62
     0
100
AcDbLine
 10
88.26247615945794
 20
-152.9933701764185
 30
0.0
 11
203.7999999999937
 21
-230.0181893848467
 31
0.0
  0
LINE
  5
2D38
330
2FB2
100
AcDbEntity
  8
0
 62
     0
100
AcDbLine
 10
92.76243745334429
 20
-152.9933701764203
 30
0.0
 11
203.7999999999937
 21
-227.0182228494323
 31
0.0
  0
LINE
  5
2D39
330
2FB2
100
AcDbEntity
  8
0
 62
     0
100
AcDbLine
 10
97.26239874722523
 20
-152.9933701764175
 30
0.0
 11
203.799999999992
 21
-224.0182563140152
 31
0.0
  0
LINE
  5
2D3A
330
2FB2
100
AcDbEntity
  8
0
 62
     0
100
AcDbLine
 10
101.7623600411134
 20
-152.9933701764194
 30
0.0
 11
203.7999999999937
 21
-221.0182897785998
 31
0.0
  0
LINE
  5
2D3B
330
2FB2
100
AcDbEntity
  8
0
 62
     0
100
AcDbLine
 10
106.2623213349998
 20
-152.9933701764194
 30
0.0
 11
203.7999999999937
 21
-218.0183232431827
 31
0.0
  0
LINE
  5
2D3C
330
2FB2
100
AcDbEntity
  8
0
 62
     0
100
AcDbLine
 10
110.762282628886
 20
-152.9933701764203
 30
0.0
 11
203.7999999999937
 21
-215.0183567077675
 31
0.0
  0
LINE
  5
2D3D
330
2FB2
100
AcDbEntity
  8
0
 62
     0
100
AcDbLine
 10
115.2622439227689
 20
-152.9933701764185
 30
0.0
 11
203.7999999999937
 21
-212.0183901723513
 31
0.0
  0
LINE
  5
2D3E
330
2FB2
100
AcDbEntity
  8
0
 62
     0
100
AcDbLine
 10
119.7622052166571
 20
-152.9933701764175
 30
0.0
 11
203.7999999999956
 21
-209.0184236369341
 31
0.0
  0
LINE
  5
2D3F
330
2FB2
100
AcDbEntity
  8
0
 62
     0
100
AcDbLine
 10
124.2621665105416
 20
-152.9933701764194
 30
0.0
 11
203.7999999999937
 21
-206.0184571015188
 31
0.0
  0
LINE
  5
2D40
330
2FB2
100
AcDbEntity
  8
0
 62
     0
100
AcDbLine
 10
128.762127804428
 20
-152.9933701764194
 30
0.0
 11
203.799999999992
 21
-203.0184905661008
 31
0.0
  0
LINE
  5
2D41
330
2FB2
100
AcDbEntity
  8
0
 62
     0
100
AcDbLine
 10
133.2620890983107
 20
-152.9933701764185
 30
0.0
 11
203.7999999999937
 21
-200.0185240306864
 31
0.0
  0
LINE
  5
2D42
330
2FB2
100
AcDbEntity
  8
0
 62
     0
100
AcDbLine
 10
137.7620503921988
 20
-152.9933701764185
 30
0.0
 11
203.7999999999937
 21
-197.0185574952684
 31
0.0
  0
LINE
  5
2D43
330
2FB2
100
AcDbEntity
  8
0
 62
     0
100
AcDbLine
 10
142.2620116860835
 20
-152.9933701764194
 30
0.0
 11
203.7999999999937
 21
-194.018590959854
 31
0.0
  0
LINE
  5
2D44
330
2FB2
100
AcDbEntity
  8
0
 62
     0
100
AcDbLine
 10
146.761972979968
 20
-152.9933701764175
 30
0.0
 11
203.7999999999937
 21
-191.0186244244368
 31
0.0
  0
LINE
  5
2D45
330
2FB2
100
AcDbEntity
  8
0
 62
     0
100
AcDbLine
 10
151.2619342738544
 20
-152.9933701764185
 30
0.0
 11
203.7999999999956
 21
-188.0186578890216
 31
0.0
  0
LINE
  5
2D46
330
2FB2
100
AcDbEntity
  8
0
 62
     0
100
AcDbLine
 10
155.7618955677408
 20
-152.9933701764185
 30
0.0
 11
203.7999999999937
 21
-185.0186913536045
 31
0.0
  0
LINE
  5
2D47
330
2FB2
100
AcDbEntity
  8
0
 62
     0
100
AcDbLine
 10
160.2618568616253
 20
-152.9933701764203
 30
0.0
 11
203.7999999999937
 21
-182.0187248181892
 31
0.0
  0
LINE
  5
2D48
330
2FB2
100
AcDbEntity
  8
0
 62
     0
100
AcDbLine
 10
164.7618181555099
 20
-152.9933701764175
 30
0.0
 11
203.7999999999937
 21
-179.018758282773
 31
0.0
  0
LINE
  5
2D49
330
2FB2
100
AcDbEntity
  8
0
 62
     0
100
AcDbLine
 10
169.2617794493962
 20
-152.9933701764194
 30
0.0
 11
203.7999999999956
 21
-176.0187917473577
 31
0.0
  0
LINE
  5
2D4A
330
2FB2
100
AcDbEntity
  8
0
 62
     0
100
AcDbLine
 10
173.7617407432826
 20
-152.9933701764194
 30
0.0
 11
203.7999999999937
 21
-173.0188252119405
 31
0.0
  0
LINE
  5
2D4B
330
2FB2
100
AcDbEntity
  8
0
 62
     0
100
AcDbLine
 10
178.2617020371672
 20
-152.9933701764175
 30
0.0
 11
203.7999999999937
 21
-170.0188586765225
 31
0.0
  0
LINE
  5
2D4C
330
2FB2
100
AcDbEntity
  8
0
 62
     0
100
AcDbLine
 10
182.7616633310535
 20
-152.9933701764185
 30
0.0
 11
203.7999999999956
 21
-167.0188921411081
 31
0.0
  0
LINE
  5
2D4D
330
2FB2
100
AcDbEntity
  8
0
 62
     0
100
AcDbLine
 10
187.2616246249399
 20
-152.9933701764185
 30
0.0
 11
203.7999999999937
 21
-164.018925605691
 31
0.0
  0
LINE
  5
2D4E
330
2FB2
100
AcDbEntity
  8
0
 62
     0
100
AcDbLine
 10
191.7615859188244
 20
-152.9933701764194
 30
0.0
 11
203.799999999992
 21
-161.0189590702757
 31
0.0
  0
LINE
  5
2D4F
330
2FB2
100
AcDbEntity
  8
0
 62
     0
100
AcDbLine
 10
196.2615472127108
 20
-152.9933701764185
 30
0.0
 11
203.7999999999956
 21
-158.0189925348586
 31
0.0
  0
LINE
  5
2D50
330
2FB2
100
AcDbEntity
  8
0
 62
     0
100
AcDbLine
 10
200.7615085065954
 20
-152.9933701764185
 30
0.0
 11
203.7999999999937
 21
-155.0190259994433
 31
0.0
  0
ENDBLK
  5
2D51
330
2FB2
100
AcDbEntity
  8
0
100
AcDbBlockEnd
  0
BLOCK
  5
2FB5
330
2FB4
100
AcDbEntity
  8
0
100
AcDbBlockBegin
  2
*U24
 70
     1
 10
0.0
 20
0.0
 30
0.0
  3
*U24
  1

  0
INSERT
  5
2D54
330
2FB4
100
AcDbEntity
  8
NOTE
100
AcDbBlockReference
  2
_OPEN30
 10
-229.9999999999998
 20
-0.0000000000002274
 30
0.0
 41
12.0
 42
12.0
 43
12.0
 50
312.6090116116894
  0
POLYLINE
  5
2D55
330
2FB4
100
AcDbEntity
  8
NOTE
100
AcDb2dPolyline
 66
     1
 10
0.0
 20
0.0
 30
0.0
  0
VERTEX
  5
2D56
330
2D55
100
AcDbEntity
  8
NOTE
100
AcDbVertex
100
AcDb2dVertex
 10
-238.1239008361893
 20
8.831887408915241
 30
0.0
  0
VERTEX
  5
2D57
330
2D55
100
AcDbEntity
  8
NOTE
100
AcDbVertex
100
AcDb2dVertex
 10
-317.8693999922543
 20
95.52709505801313
 30
0.0
  0
VERTEX
  5
2D58
330
2D55
100
AcDbEntity
  8
NOTE
100
AcDbVertex
100
AcDb2dVertex
 10
-866.452257135111
 20
95.52709505801313
 30
0.0
  0
SEQEND
  5
2D59
330
2D55
100
AcDbEntity
  8
NOTE
  0
ENDBLK
  5
2D5A
330
2FB4
100
AcDbEntity
  8
0
100
AcDbBlockEnd
  0
ENDSEC
  0
SECTION
  2
ENTITIES
  0
TEXT
  5
953
330
2F38
100
AcDbEntity
  8
OUTLINE
  6
Continuous
 62
     3
100
AcDbText
 10
-418.231467
 20
13.715189
 30
0.0
 40
64.0
  1
 
 41
0.9
100
AcDbText
  0
TEXT
  5
954
330
2F38
100
AcDbEntity
  8
OUTLINE
  6
Continuous
 62
     3
100
AcDbText
 10
-418.231467
 20
13.715189
 30
0.0
 40
64.0
  1
 
 41
0.9
100
AcDbText
  0
TEXT
  5
955
330
2F38
100
AcDbEntity
  8
OUTLINE
  6
Continuous
 62
     3
100
AcDbText
 10
1341.41903
 20
-706.0588199999997
 30
0.0
 40
64.0
  1
 
 41
0.9
100
AcDbText
  0
TEXT
  5
956
330
2F38
100
AcDbEntity
  8
OUTLINE
  6
Continuous
 62
     3
100
AcDbText
 10
1341.41903
 20
-706.0588199999997
 30
0.0
 40
64.0
  1
 
 41
0.9
100
AcDbText
  0
TEXT
  5
957
330
2F38
100
AcDbEntity
  8
OUTLINE
  6
Continuous
 62
     3
100
AcDbText
 10
1341.41903
 20
-706.0588199999997
 30
0.0
 40
64.0
  1
 
 41
0.9
100
AcDbText
  0
TEXT
  5
958
330
2F38
100
AcDbEntity
  8
OUTLINE
  6
Continuous
 62
     3
100
AcDbText
 10
1341.41903
 20
-706.0588199999997
 30
0.0
 40
64.0
  1
 
 41
0.9
100
AcDbText
  0
INSERT
  5
2DF7
330
2F38
100
AcDbEntity
  8
DETAIL___1
  6
Continuous
100
AcDbBlockReference
  2
*X22
 10
0.0
 20
0.0
 30
0.0
1001
ACADANNOTATIVE
1000
AnnotativeData
1002
{
1070
     1
1070
     0
1002
}
1001
ACAD
1000
HATCH
1002
{
1070
    19
1000
LINE
1040
19.969
1040
0.5880014249968896
1000
R14_HATCH_DATA
1000
3A38
1011
1.0
1021
0.0
1031
0.0
1011
0.0
1021
1.0
1031
0.0
1011
0.0
1021
0.0
1031
1.0
1040
0.0
1010
0.0
1020
0.0
1030
1.0
1000
LINE
1070
     0
1070
     0
1071
        2
1071
        7
1070
     0
1070
     1
1071
        6
1040
-12.0
1040
-152.9933701764182
1040
-203.799999999999
1040
-152.9933701764178
1040
-203.8000000000027
1040
-645.0080808012004
1040
203.799999999992
1040
-645.0080808012012
1040
203.799999999992
1040
-346.793370176418
1040
-12.0
1040
-346.7933701764175
1071
        0
1071
        7
1070
     0
1070
     1
1071
        4
1040
203.7999999999956
1040
-152.9933701764182
1040
-12.00000000000727
1040
-152.9933701764182
1040
-12.00000000000727
1040
-346.7933701764184
1040
203.799999999992
1040
-346.7933701764188
1071
        0
1070
     0
1070
     1
1040
0.5880014249968896
1040
19.969
1070
     0
1070
     1
1040
0.5880014249968896
1040
19343.6296629862
1040
3653.942289795617
1040
-1.384598579568018
1040
2.076903172775084
1070
     0
1040
0.7337336502878851
1071
        2
1040
-64.52478058304041
1040
-338.7849793615285
1040
0.0
1040
134.3833088850442
1040
-271.7147916606411
1040
0.0
1002
}
  0
INSERT
  5
2DF8
330
2F38
100
AcDbEntity
  8
DETAIL___1
  6
Continuous
100
AcDbBlockReference
  2
*X23
 10
0.0
 20
0.0
 30
0.0
1001
ACADANNOTATIVE
1000
AnnotativeData
1002
{
1070
     1
1070
     0
1002
}
1001
ACAD
1000
HATCH
1002
{
1070
    19
1000
LINE
1040
19.969
1040
5.695183882182695
1000
R14_HATCH_DATA
1000
3A3E
1011
1.0
1021
0.0
1031
0.0
1011
0.0
1021
1.0
1031
0.0
1011
0.0
1021
0.0
1031
1.0
1040
0.0
1010
0.0
1020
0.0
1030
1.0
1000
LINE
1070
     0
1070
     0
1071
        2
1071
        7
1070
     0
1070
     1
1071
        6
1040
203.7999999999993
1040
-346.793370176418
1040
-12.00000000000364
1040
-346.7933701764188
1040
-12.00000000000364
1040
-152.9933701764178
1040
-203.8000000000027
1040
-152.9933701764178
1040
-203.799999999999
1040
-645.0080808012004
1040
203.799999999992
1040
-645.0080808012012
1071
        0
1071
       23
1070
     0
1070
     1
1071
        4
1040
-12.00000000000364
1040
-152.9933701764187
1040
-12.00000000000364
1040
-346.7933701764184
1040
203.799999999992
1040
-346.7933701764184
1040
203.7999999999956
1040
-152.9933701764182
1071
        0
1070
     0
1070
     1
1040
5.695183882182695
1040
19.969
1070
     0
1070
     1
1040
5.695183882182695
1040
19343.6296629862
1040
3653.942289795617
1040
1.384598579568018
1040
2.076903172775084
1070
     0
1040
2.284039252855924
1071
        2
1040
-106.4029827546146
1040
-391.9491536699687
1040
0.0
1040
99.37801823268094
1040
-198.3626932046611
1040
0.0
1002
}
  0
LINE
  5
2DF9
330
2F38
100
AcDbEntity
  8
DETAIL
100
AcDbLine
 10
203.7999999999956
 20
-152.9933701764181
 30
0.0
 11
203.7999999999956
 21
-346.793370176418
 31
0.0
  0
LINE
  5
2DFA
330
2F38
100
AcDbEntity
  8
DETAIL
100
AcDbLine
 10
203.7999999999956
 20
-152.9933701764181
 30
0.0
 11
-12.00000000000364
 21
-152.9933701764181
 31
0.0
  0
TEXT
  5
2DFB
330
2F38
100
AcDbEntity
  8
ETC
100
AcDbText
 10
368.2334138162186
 20
281.6591862420723
 30
0.0
 40
64.0
  1
システム部材
 41
0.9
100
AcDbText
  0
TEXT
  5
2DFC
330
2F38
100
AcDbEntity
  8
ETC
100
AcDbText
 10
374.4414118162203
 20
382.5425122420717
 30
0.0
 40
64.0
  1
QWH-40SAM_6
 41
0.9
100
AcDbText
  0
TEXT
  5
2DFD
330
2F38
100
AcDbEntity
  8
ETC
100
AcDbText
 10
374.4414118162203
 20
182.5425122420718
 30
0.0
 40
64.0
  1
QWH-40SAM
 41
0.9
100
AcDbText
  0
POINT
  5
2DFE
330
2F38
100
AcDbEntity
  8
ARRANGE
100
AcDbPoint
 10
0.0
 20
0.0000000000002274
 30
0.0
 39
50.0
  0
LINE
  5
2DFF
330
2F38
100
AcDbEntity
  8
DETAIL
100
AcDbLine
 10
203.7999999999956
 20
-645.0080808012004
 30
0.0
 11
203.7999999999956
 21
-152.9933701764181
 31
0.0
  0
LINE
  5
2E00
330
2F38
100
AcDbEntity
  8
DETAIL
100
AcDbLine
 10
-203.8000000000029
 20
-645.0080808012004
 30
0.0
 11
-203.8000000000029
 21
-152.9933701764181
 31
0.0
  0
LINE
  5
2E01
330
2F38
100
AcDbEntity
  8
BASIS
100
AcDbLine
 10
0.0
 20
25.00000000000023
 30
0.0
 11
0.0
 21
-695.9999999999996
 31
0.0
  0
LINE
  5
2E02
330
2F38
100
AcDbEntity
  8
DETAIL
100
AcDbLine
 10
-203.8000000000029
 20
-152.9933701764181
 30
0.0
 11
203.7999999999956
 21
-152.9933701764181
 31
0.0
  0
LINE
  5
2E03
330
2F38
100
AcDbEntity
  8
NOTE
100
AcDbLine
 10
-230.0
 20
12.49999999999977
 30
0.0
 11
-230.0
 21
-12.50000000000023
 31
0.0
  0
CIRCLE
  5
2E04
330
2F38
100
AcDbEntity
  8
ARRANGE
100
AcDbCircle
 10
0.0
 20
0.0000000000002274
 30
0.0
 40
40.0
  0
LINE
  5
2E05
330
2F38
100
AcDbEntity
  8
NOTE
100
AcDbLine
 10
230.0
 20
-12.49999999999977
 30
0.0
 11
230.0
 21
12.50000000000023
 31
0.0
  0
LINE
  5
2E06
330
2F38
100
AcDbEntity
  8
DETAIL
100
AcDbLine
 10
-203.8000000000029
 20
-645.0080808012004
 30
0.0
 11
203.7999999999956
 21
-645.0080808012004
 31
0.0
  0
LINE
  5
2E07
330
2F38
100
AcDbEntity
  8
DETAIL
100
AcDbLine
 10
-215.6000000000022
 20
-670.9999999999998
 30
0.0
 11
-215.6000000000022
 21
-659.9999999999987
 31
0.0
  0
LINE
  5
2E08
330
2F38
100
AcDbEntity
  8
DETAIL
100
AcDbLine
 10
215.5999999999985
 20
-670.9999999999998
 30
0.0
 11
-215.6000000000022
 21
-670.9999999999998
 31
0.0
  0
LINE
  5
2E09
330
2F38
100
AcDbEntity
  8
DETAIL
100
AcDbLine
 10
215.5999999999985
 20
-659.9999999999987
 30
0.0
 11
215.5999999999985
 21
-670.9999999999998
 31
0.0
  0
LINE
  5
2E0A
330
2F38
100
AcDbEntity
  8
DETAIL
100
AcDbLine
 10
215.5999999999985
 20
-99.75147186257643
 30
0.0
 11
-215.6000000000022
 21
-99.75147186257643
 31
0.0
  0
LINE
  5
2E0B
330
2F38
100
AcDbEntity
  8
DETAIL
100
AcDbLine
 10
216.1999999999971
 20
-99.75147186257643
 30
0.0
 11
216.1999999999971
 21
-126.9019089103386
 31
0.0
  0
LINE
  5
2E0C
330
2F38
100
AcDbEntity
  8
DETAIL
100
AcDbLine
 10
-216.2000000000041
 20
-99.75147186257643
 30
0.0
 11
-216.2000000000041
 21
-8.000000000000227
 31
0.0
  0
LINE
  5
2E0D
330
2F38
100
AcDbEntity
  8
DETAIL
100
AcDbLine
 10
-216.2000000000041
 20
-126.9019089103377
 30
0.0
 11
-216.2000000000041
 21
-99.75147186257551
 31
0.0
  0
LINE
  5
2E0E
330
2F38
100
AcDbEntity
  8
DETAIL
100
AcDbLine
 10
-215.6000000000022
 20
-99.75147186257643
 30
0.0
 11
-216.2000000000041
 21
-99.75147186257643
 31
0.0
  0
LINE
  5
2E0F
330
2F38
100
AcDbEntity
  8
DETAIL
100
AcDbLine
 10
216.1999999999971
 20
-8.000000000000227
 30
0.0
 11
216.1999999999971
 21
-99.75147186257643
 31
0.0
  0
LINE
  5
2E10
330
2F38
100
AcDbEntity
  8
DETAIL
100
AcDbLine
 10
215.5999999999985
 20
-99.75147186257643
 30
0.0
 11
216.1999999999971
 21
-99.75147186257643
 31
0.0
  0
LINE
  5
2E11
330
2F38
100
AcDbEntity
  8
DETAIL
100
AcDbLine
 10
255.0
 20
0.0000000000002274
 30
0.0
 11
-255.0
 21
-0.0000000000002274
 31
0.0
  0
LINE
  5
2E12
330
2F38
100
AcDbEntity
  8
DETAIL
100
AcDbLine
 10
255.0
 20
-7.99999999999977
 30
0.0
 11
-255.0
 21
-8.000000000000227
 31
0.0
  0
LINE
  5
2E13
330
2F38
100
AcDbEntity
  8
DETAIL
100
AcDbLine
 10
-255.0
 20
-0.0000000000002274
 30
0.0
 11
-255.0
 21
-8.000000000000227
 31
0.0
  0
LINE
  5
2E14
330
2F38
100
AcDbEntity
  8
DETAIL
100
AcDbLine
 10
255.0
 20
-0.0000000000002274
 30
0.0
 11
255.0
 21
-8.000000000000227
 31
0.0
  0
LINE
  5
2E15
330
2F38
100
AcDbEntity
  8
DETAIL
100
AcDbLine
 10
204.5999999999986
 20
-126.9019089103377
 30
0.0
 11
228.0
 21
-126.9019089103377
 31
0.0
  0
LINE
  5
2E16
330
2F38
100
AcDbEntity
  8
DETAIL
100
AcDbLine
 10
-204.6000000000022
 20
-126.9019089103377
 30
0.0
 11
-228.0
 21
-126.9019089103374
 31
0.0
  0
LINE
  5
2E17
330
2F38
100
AcDbEntity
  8
DETAIL
100
AcDbLine
 10
218.5999999999985
 20
-138.2062410677602
 30
0.0
 11
218.5999999999985
 21
-152.8958358562705
 31
0.0
  0
LINE
  5
2E18
330
2F38
100
AcDbEntity
  8
DETAIL
100
AcDbLine
 10
-218.6000000000019
 20
-138.2062410677602
 30
0.0
 11
-218.6000000000019
 21
-152.8958358562705
 31
0.0
  0
LINE
  5
2E19
330
2F38
100
AcDbEntity
  8
DETAIL
100
AcDbLine
 10
-218.6000000000019
 20
-126.9019089103377
 30
0.0
 11
-218.6000000000019
 21
-138.206241067759
 31
0.0
  0
LINE
  5
2E1A
330
2F38
100
AcDbEntity
  8
DETAIL
100
AcDbLine
 10
218.5999999999985
 20
-126.9019089103377
 30
0.0
 11
218.5999999999985
 21
-138.206241067759
 31
0.0
  0
LINE
  5
2E1B
330
2F38
100
AcDbEntity
  8
DETAIL
100
AcDbLine
 10
-218.6000000000019
 20
-126.9019089103377
 30
0.0
 11
218.5999999999985
 21
-126.9019089103377
 31
0.0
  0
LINE
  5
2E1C
330
2F38
100
AcDbEntity
  8
DETAIL
100
AcDbLine
 10
-218.6000000000019
 20
-152.8958358562705
 30
0.0
 11
-218.6000000000019
 21
-152.9933701764178
 31
0.0
  0
LINE
  5
2E1D
330
2F38
100
AcDbEntity
  8
DETAIL
100
AcDbLine
 10
-218.6000000000019
 20
-152.9933701764178
 30
0.0
 11
218.5999999999985
 21
-152.9933701764181
 31
0.0
  0
LINE
  5
2E1E
330
2F38
100
AcDbEntity
  8
DETAIL
100
AcDbLine
 10
218.5999999999985
 20
-152.8958358562705
 30
0.0
 11
218.5999999999985
 21
-152.9933701764178
 31
0.0
  0
LINE
  5
2E1F
330
2F38
100
AcDbEntity
  8
DETAIL
100
AcDbLine
 10
-228.0
 20
-659.9999999999987
 30
0.0
 11
-228.0
 21
-126.9019089103377
 31
0.0
  0
LINE
  5
2E20
330
2F38
100
AcDbEntity
  8
DETAIL
100
AcDbLine
 10
-203.8000000000029
 20
-658.690876474089
 30
0.0
 11
-218.6000000000019
 21
-658.690876474089
 31
0.0
  0
LINE
  5
2E21
330
2F38
100
AcDbEntity
  8
DETAIL
100
AcDbLine
 10
-203.8000000000029
 20
-658.5933421539427
 30
0.0
 11
-203.8000000000029
 21
-658.6908764740907
 31
0.0
  0
LINE
  5
2E22
330
2F38
100
AcDbEntity
  8
DETAIL
100
AcDbLine
 10
-218.6000000000019
 20
-658.6908764740899
 30
0.0
 11
-218.6000000000019
 21
-152.9933701764178
 31
0.0
  0
LINE
  5
2E23
330
2F38
100
AcDbEntity
  8
DETAIL
100
AcDbLine
 10
-218.6000000000019
 20
-658.5933421539427
 30
0.0
 11
-203.8000000000029
 21
-658.5933421539427
 31
0.0
  0
LINE
  5
2E24
330
2F38
100
AcDbEntity
  8
DETAIL
100
AcDbLine
 10
-203.8000000000029
 20
-658.5933421539427
 30
0.0
 11
-203.8000000000029
 21
-152.9933701764181
 31
0.0
  0
LINE
  5
2E25
330
2F38
100
AcDbEntity
  8
DETAIL
100
AcDbLine
 10
228.0
 20
-126.9019089103374
 30
0.0
 11
228.0
 21
-659.9999999999987
 31
0.0
  0
LINE
  5
2E26
330
2F38
100
AcDbEntity
  8
DETAIL
100
AcDbLine
 10
203.7999999999956
 20
-658.690876474089
 30
0.0
 11
218.5999999999985
 21
-658.690876474089
 31
0.0
  0
LINE
  5
2E27
330
2F38
100
AcDbEntity
  8
DETAIL
100
AcDbLine
 10
203.7999999999956
 20
-658.5933421539427
 30
0.0
 11
203.7999999999956
 21
-658.6908764740907
 31
0.0
  0
LINE
  5
2E28
330
2F38
100
AcDbEntity
  8
DETAIL
100
AcDbLine
 10
203.7999999999956
 20
-152.9933701764181
 30
0.0
 11
203.7999999999956
 21
-658.5933421539408
 31
0.0
  0
LINE
  5
2E29
330
2F38
100
AcDbEntity
  8
DETAIL
100
AcDbLine
 10
218.5999999999985
 20
-658.5933421539427
 30
0.0
 11
203.7999999999956
 21
-658.5933421539427
 31
0.0
  0
LINE
  5
2E2A
330
2F38
100
AcDbEntity
  8
DETAIL
100
AcDbLine
 10
218.5999999999985
 20
-152.9933701764178
 30
0.0
 11
218.5999999999985
 21
-658.690876474089
 31
0.0
  0
LINE
  5
2E2B
330
2F38
100
AcDbEntity
  8
DETAIL
100
AcDbLine
 10
203.7999999999956
 20
-658.3079257865972
 30
0.0
 11
-203.8000000000029
 21
-658.3079257865972
 31
0.0
  0
LINE
  5
2E2C
330
2F38
100
AcDbEntity
  8
DETAIL
100
AcDbLine
 10
203.7999999999956
 20
-658.0640899862299
 30
0.0
 11
-203.8000000000029
 21
-658.0640899862299
 31
0.0
  0
LINE
  5
2E2D
330
2F38
100
AcDbEntity
  8
DETAIL
100
AcDbLine
 10
-203.8000000000029
 20
-645.0080808012004
 30
0.0
 11
203.7999999999956
 21
-645.0080808012004
 31
0.0
  0
LINE
  5
2E2E
330
2F38
100
AcDbEntity
  8
DETAIL
100
AcDbLine
 10
-228.0
 20
-659.9999999999987
 30
0.0
 11
228.0
 21
-659.9999999999987
 31
0.0
  0
LINE
  5
2E2F
330
2F38
100
AcDbEntity
  8
DETAIL
100
AcDbLine
 10
218.5999999999985
 20
-139.9999999999996
 30
0.0
 11
-218.6000000000019
 21
-140.0000000000002
 31
0.0
  0
INSERT
  5
2E30
330
2F38
100
AcDbEntity
  8
0
100
AcDbBlockReference
  2
*U24
 10
0.0
 20
0.0
 30
0.0
1001
ACAD
1000
DSTYLE
1002
{
1070
    41
1040
12.0
1070
    42
1040
20.0
1070
    43
1040
200.0
1070
    44
1040
20.0
1070
    73
1070
     0
1070
    74
1070
     0
1070
    77
1070
     1
1070
    78
1070
     8
1070
   140
1040
64.0
1070
   147
1040
50.0
1070
   172
1070
     1
1070
   174
1070
     1
1070
   275
1070
     0
1070
   284
1070
     0
1070
   285
1070
     0
1070
   286
1070
     0
1070
   341
1005
0
1070
   342
1005
0
1002
}
  0
LINE
  5
2E31
330
2F38
100
AcDbEntity
  8
NOTE
100
AcDbLine
 39
50.0
 10
-242.5
 20
-0.0000000000002274
 30
0.0
 11
-217.5
 21
-0.0000000000002274
 31
0.0
  0
LINE
  5
2E32
330
2F38
100
AcDbEntity
  8
NOTE
100
AcDbLine
 39
50.0
 10
217.5
 20
0.0000000000002274
 30
0.0
 11
242.5
 21
0.0000000000002274
 31
0.0
  0
LINE
  5
2E33
330
2F38
100
AcDbEntity
  8
OUTLINE
100
AcDbLine
 39
50.0
 10
-255.0
 20
-0.0000000000002274
 30
0.0
 11
255.0
 21
0.0000000000002274
 31
0.0
  0
LINE
  5
2E34
330
2F38
100
AcDbEntity
  8
OUTLINE
100
AcDbLine
 10
-203.8000000000029
 20
-645.0080808012004
 30
0.0
 11
203.7999999999956
 21
-645.0080808012004
 31
0.0
  0
LINE
  5
2E35
330
2F38
100
AcDbEntity
  8
OUTLINE
100
AcDbLine
 10
-215.6000000000022
 20
-670.9999999999998
 30
0.0
 11
-215.6000000000022
 21
-659.9999999999987
 31
0.0
  0
LINE
  5
2E36
330
2F38
100
AcDbEntity
  8
OUTLINE
100
AcDbLine
 10
215.5999999999985
 20
-670.9999999999998
 30
0.0
 11
-215.6000000000022
 21
-670.9999999999998
 31
0.0
  0
LINE
  5
2E37
330
2F38
100
AcDbEntity
  8
OUTLINE
100
AcDbLine
 10
215.5999999999985
 20
-659.9999999999987
 30
0.0
 11
215.5999999999985
 21
-670.9999999999998
 31
0.0
  0
LINE
  5
2E38
330
2F38
100
AcDbEntity
  8
OUTLINE
100
AcDbLine
 10
215.5999999999985
 20
-99.75147186257643
 30
0.0
 11
-215.6000000000022
 21
-99.75147186257643
 31
0.0
  0
LINE
  5
2E39
330
2F38
100
AcDbEntity
  8
OUTLINE
100
AcDbLine
 10
216.1999999999971
 20
-99.75147186257643
 30
0.0
 11
216.1999999999971
 21
-126.9019089103386
 31
0.0
  0
LINE
  5
2E3A
330
2F38
100
AcDbEntity
  8
OUTLINE
100
AcDbLine
 10
-216.2000000000041
 20
-99.75147186257643
 30
0.0
 11
-216.2000000000041
 21
-8.000000000000227
 31
0.0
  0
LINE
  5
2E3B
330
2F38
100
AcDbEntity
  8
OUTLINE
100
AcDbLine
 10
-216.2000000000041
 20
-126.9019089103377
 30
0.0
 11
-216.2000000000041
 21
-99.75147186257551
 31
0.0
  0
LINE
  5
2E3C
330
2F38
100
AcDbEntity
  8
OUTLINE
100
AcDbLine
 10
-215.6000000000022
 20
-99.75147186257643
 30
0.0
 11
-216.2000000000041
 21
-99.75147186257643
 31
0.0
  0
LINE
  5
2E3D
330
2F38
100
AcDbEntity
  8
OUTLINE
100
AcDbLine
 10
216.1999999999971
 20
-8.000000000000227
 30
0.0
 11
216.1999999999971
 21
-99.75147186257643
 31
0.0
  0
LINE
  5
2E3E
330
2F38
100
AcDbEntity
  8
OUTLINE
100
AcDbLine
 10
215.5999999999985
 20
-99.75147186257643
 30
0.0
 11
216.1999999999971
 21
-99.75147186257643
 31
0.0
  0
LINE
  5
2E3F
330
2F38
100
AcDbEntity
  8
OUTLINE
100
AcDbLine
 10
255.0
 20
-7.99999999999977
 30
0.0
 11
-255.0
 21
-8.000000000000227
 31
0.0
  0
LINE
  5
2E40
330
2F38
100
AcDbEntity
  8
OUTLINE
100
AcDbLine
 10
-255.0
 20
-0.0000000000002274
 30
0.0
 11
-255.0
 21
-8.000000000000227
 31
0.0
  0
LINE
  5
2E41
330
2F38
100
AcDbEntity
  8
OUTLINE
100
AcDbLine
 10
255.0
 20
-0.0000000000002274
 30
0.0
 11
255.0
 21
-8.000000000000227
 31
0.0
  0
LINE
  5
2E42
330
2F38
100
AcDbEntity
  8
OUTLINE
100
AcDbLine
 10
204.5999999999986
 20
-126.9019089103377
 30
0.0
 11
228.0
 21
-126.9019089103377
 31
0.0
  0
LINE
  5
2E43
330
2F38
100
AcDbEntity
  8
OUTLINE
100
AcDbLine
 10
-204.6000000000022
 20
-126.9019089103377
 30
0.0
 11
-228.0
 21
-126.9019089103374
 31
0.0
  0
LINE
  5
2E44
330
2F38
100
AcDbEntity
  8
OUTLINE
100
AcDbLine
 10
218.5999999999985
 20
-138.2062410677602
 30
0.0
 11
218.5999999999985
 21
-152.8958358562705
 31
0.0
  0
LINE
  5
2E45
330
2F38
100
AcDbEntity
  8
OUTLINE
100
AcDbLine
 10
-218.6000000000019
 20
-138.2062410677602
 30
0.0
 11
-218.6000000000019
 21
-152.8958358562705
 31
0.0
  0
LINE
  5
2E46
330
2F38
100
AcDbEntity
  8
OUTLINE
100
AcDbLine
 10
-218.6000000000019
 20
-126.9019089103377
 30
0.0
 11
-218.6000000000019
 21
-138.206241067759
 31
0.0
  0
LINE
  5
2E47
330
2F38
100
AcDbEntity
  8
OUTLINE
100
AcDbLine
 10
218.5999999999985
 20
-126.9019089103377
 30
0.0
 11
218.5999999999985
 21
-138.206241067759
 31
0.0
  0
LINE
  5
2E48
330
2F38
100
AcDbEntity
  8
OUTLINE
100
AcDbLine
 10
-218.6000000000019
 20
-126.9019089103377
 30
0.0
 11
218.5999999999985
 21
-126.9019089103377
 31
0.0
  0
LINE
  5
2E49
330
2F38
100
AcDbEntity
  8
OUTLINE
100
AcDbLine
 10
-218.6000000000019
 20
-152.8958358562705
 30
0.0
 11
-218.6000000000019
 21
-152.9933701764178
 31
0.0
  0
LINE
  5
2E4A
330
2F38
100
AcDbEntity
  8
OUTLINE
100
AcDbLine
 10
-218.6000000000019
 20
-152.9933701764178
 30
0.0
 11
218.5999999999985
 21
-152.9933701764181
 31
0.0
  0
LINE
  5
2E4B
330
2F38
100
AcDbEntity
  8
OUTLINE
100
AcDbLine
 10
218.5999999999985
 20
-152.8958358562705
 30
0.0
 11
218.5999999999985
 21
-152.9933701764178
 31
0.0
  0
LINE
  5
2E4C
330
2F38
100
AcDbEntity
  8
OUTLINE
100
AcDbLine
 10
-228.0
 20
-659.9999999999987
 30
0.0
 11
-228.0
 21
-126.9019089103377
 31
0.0
  0
LINE
  5
2E4D
330
2F38
100
AcDbEntity
  8
OUTLINE
100
AcDbLine
 10
-203.8000000000029
 20
-658.690876474089
 30
0.0
 11
-218.6000000000019
 21
-658.690876474089
 31
0.0
  0
LINE
  5
2E4E
330
2F38
100
AcDbEntity
  8
OUTLINE
100
AcDbLine
 10
-203.8000000000029
 20
-658.5933421539427
 30
0.0
 11
-203.8000000000029
 21
-658.6908764740907
 31
0.0
  0
LINE
  5
2E4F
330
2F38
100
AcDbEntity
  8
OUTLINE
100
AcDbLine
 10
-218.6000000000019
 20
-658.6908764740899
 30
0.0
 11
-218.6000000000019
 21
-152.9933701764178
 31
0.0
  0
LINE
  5
2E50
330
2F38
100
AcDbEntity
  8
OUTLINE
100
AcDbLine
 10
-218.6000000000019
 20
-658.5933421539427
 30
0.0
 11
-203.8000000000029
 21
-658.5933421539427
 31
0.0
  0
LINE
  5
2E51
330
2F38
100
AcDbEntity
  8
OUTLINE
100
AcDbLine
 10
-203.8000000000029
 20
-658.5933421539427
 30
0.0
 11
-203.8000000000029
 21
-152.9933701764181
 31
0.0
  0
LINE
  5
2E52
330
2F38
100
AcDbEntity
  8
OUTLINE
100
AcDbLine
 10
228.0
 20
-126.9019089103374
 30
0.0
 11
228.0
 21
-659.9999999999987
 31
0.0
  0
LINE
  5
2E53
330
2F38
100
AcDbEntity
  8
OUTLINE
100
AcDbLine
 10
203.7999999999956
 20
-658.690876474089
 30
0.0
 11
218.5999999999985
 21
-658.690876474089
 31
0.0
  0
LINE
  5
2E54
330
2F38
100
AcDbEntity
  8
OUTLINE
100
AcDbLine
 10
203.7999999999956
 20
-658.5933421539427
 30
0.0
 11
203.7999999999956
 21
-658.6908764740907
 31
0.0
  0
LINE
  5
2E55
330
2F38
100
AcDbEntity
  8
OUTLINE
100
AcDbLine
 10
203.7999999999956
 20
-152.9933701764181
 30
0.0
 11
203.7999999999956
 21
-658.5933421539408
 31
0.0
  0
LINE
  5
2E56
330
2F38
100
AcDbEntity
  8
OUTLINE
100
AcDbLine
 10
218.5999999999985
 20
-658.5933421539427
 30
0.0
 11
203.7999999999956
 21
-658.5933421539427
 31
0.0
  0
LINE
  5
2E57
330
2F38
100
AcDbEntity
  8
OUTLINE
100
AcDbLine
 10
218.5999999999985
 20
-152.9933701764178
 30
0.0
 11
218.5999999999985
 21
-658.690876474089
 31
0.0
  0
LINE
  5
2E58
330
2F38
100
AcDbEntity
  8
OUTLINE
100
AcDbLine
 10
203.7999999999956
 20
-658.3079257865972
 30
0.0
 11
-203.8000000000029
 21
-658.3079257865972
 31
0.0
  0
LINE
  5
2E59
330
2F38
100
AcDbEntity
  8
OUTLINE
100
AcDbLine
 10
203.7999999999956
 20
-658.0640899862299
 30
0.0
 11
-203.8000000000029
 21
-658.0640899862299
 31
0.0
  0
LINE
  5
2E5A
330
2F38
100
AcDbEntity
  8
OUTLINE
100
AcDbLine
 10
-203.8000000000029
 20
-645.0080808012004
 30
0.0
 11
203.7999999999956
 21
-645.0080808012004
 31
0.0
  0
LINE
  5
2E5B
330
2F38
100
AcDbEntity
  8
OUTLINE
100
AcDbLine
 10
-228.0
 20
-659.9999999999987
 30
0.0
 11
228.0
 21
-659.9999999999987
 31
0.0
  0
LINE
  5
2E5C
330
2F38
100
AcDbEntity
  8
OUTLINE
100
AcDbLine
 10
218.5999999999985
 20
-139.9999999999996
 30
0.0
 11
-218.6000000000019
 21
-140.0000000000002
 31
0.0
  0
LINE
  5
2E5D
330
2F38
100
AcDbEntity
  8
SIZE
100
AcDbLine
 10
275.0
 20
-0.0000000000002274
 30
0.0
 11
379.7927476565856
 21
-0.0000000000002274
 31
0.0
  0
LINE
  5
2E5E
330
2F38
100
AcDbEntity
  8
SIZE
100
AcDbLine
 10
275.0
 20
-7.99999999999977
 30
0.0
 11
379.7927476565856
 21
-7.99999999999977
 31
0.0
  0
LINE
  5
2E5F
330
2F38
100
AcDbEntity
  8
SIZE
100
AcDbLine
 10
359.7927476565855
 20
11.99999999999977
 30
0.0
 11
359.7927476565855
 21
23.99999999999977
 31
0.0
  0
LINE
  5
2E60
330
2F38
100
AcDbEntity
  8
SIZE
100
AcDbLine
 10
359.7927476565855
 20
-19.99999999999976
 30
0.0
 11
359.7927476565855
 21
-90.39999999999976
 31
0.0
  0
LINE
  5
2E61
330
2F38
100
AcDbEntity
  8
SIZE
100
AcDbLine
 10
359.7927476565855
 20
-0.0000000000002274
 30
0.0
 11
359.7927476565855
 21
-7.99999999999977
 31
0.0
  0
INSERT
  5
2E62
330
2F38
100
AcDbEntity
  8
SIZE
100
AcDbBlockReference
  2
_DOTBLANK
 10
359.7927476565855
 20
-0.0000000000002274
 30
0.0
 41
12.0
 42
12.0
 43
12.0
 50
270.0
  0
INSERT
  5
2E63
330
2F38
100
AcDbEntity
  8
SIZE
100
AcDbBlockReference
  2
_DOTBLANK
 10
359.7927476565855
 20
-7.99999999999977
 30
0.0
 41
12.0
 42
12.0
 43
12.0
 50
90.0
  0
LINE
  5
2E64
330
2F38
100
AcDbEntity
  8
SIZE
100
AcDbLine
 10
255.0
 20
20.00000000000023
 30
0.0
 11
255.0
 21
298.8865929365172
 31
0.0
  0
LINE
  5
2E65
330
2F38
100
AcDbEntity
  8
SIZE
100
AcDbLine
 10
-255.0
 20
20.00000000000023
 30
0.0
 11
-255.0
 21
298.8865929365172
 31
0.0
  0
LINE
  5
2E66
330
2F38
100
AcDbEntity
  8
SIZE
100
AcDbLine
 10
243.0
 20
278.8865929365171
 30
0.0
 11
-242.9999999999998
 21
278.8865929365171
 31
0.0
  0
INSERT
  5
2E67
330
2F38
100
AcDbEntity
  8
SIZE
100
AcDbBlockReference
  2
_DOTBLANK
 10
255.0
 20
278.8865929365171
 30
0.0
 41
12.0
 42
12.0
 43
12.0
  0
INSERT
  5
2E68
330
2F38
100
AcDbEntity
  8
SIZE
100
AcDbBlockReference
  2
_DOTBLANK
 10
-255.0
 20
278.8865929365171
 30
0.0
 41
12.0
 42
12.0
 43
12.0
 50
180.0
  0
LINE
  5
2E69
330
2F38
100
AcDbEntity
  8
SIZE
100
AcDbLine
 10
230.0
 20
32.50000000000023
 30
0.0
 11
230.0
 21
180.9320910096173
 31
0.0
  0
LINE
  5
2E6A
330
2F38
100
AcDbEntity
  8
SIZE
100
AcDbLine
 10
-230.0
 20
32.49999999999977
 30
0.0
 11
-230.0
 21
180.9320910096173
 31
0.0
  0
LINE
  5
2E6B
330
2F38
100
AcDbEntity
  8
SIZE
100
AcDbLine
 10
218.0
 20
160.9320910096173
 30
0.0
 11
-218.0
 21
160.9320910096173
 31
0.0
  0
INSERT
  5
2E6C
330
2F38
100
AcDbEntity
  8
SIZE
100
AcDbBlockReference
  2
_DOTBLANK
 10
230.0
 20
160.9320910096173
 30
0.0
 41
12.0
 42
12.0
 43
12.0
  0
INSERT
  5
2E6D
330
2F38
100
AcDbEntity
  8
SIZE
100
AcDbBlockReference
  2
_DOTBLANK
 10
-230.0
 20
160.9320910096173
 30
0.0
 41
12.0
 42
12.0
 43
12.0
 50
180.0
  0
LINE
  5
2E6E
330
2F38
100
AcDbEntity
  8
SIZE
100
AcDbLine
 10
-248.0
 20
-659.9999999999987
 30
0.0
 11
-456.9212747256532
 21
-659.9999999999987
 31
0.0
  0
LINE
  5
2E6F
330
2F38
100
AcDbEntity
  8
SIZE
100
AcDbLine
 10
-235.6000000000019
 20
-670.9999999999998
 30
0.0
 11
-456.9212747256532
 21
-670.9999999999996
 31
0.0
  0
LINE
  5
2E70
330
2F38
100
AcDbEntity
  8
SIZE
100
AcDbLine
 10
-436.9212747256532
 20
-647.9999999999987
 30
0.0
 11
-436.9212747256532
 21
-635.9999999999987
 31
0.0
  0
LINE
  5
2E71
330
2F38
100
AcDbEntity
  8
SIZE
100
AcDbLine
 10
-436.9212747256532
 20
-682.9999999999996
 30
0.0
 11
-436.9212747256532
 21
-772.5999999999997
 31
0.0
  0
LINE
  5
2E72
330
2F38
100
AcDbEntity
  8
SIZE
100
AcDbLine
 10
-436.9212747256532
 20
-659.9999999999987
 30
0.0
 11
-436.9212747256532
 21
-670.9999999999996
 31
0.0
  0
INSERT
  5
2E73
330
2F38
100
AcDbEntity
  8
SIZE
100
AcDbBlockReference
  2
_DOTBLANK
 10
-436.9212747256532
 20
-659.9999999999987
 30
0.0
 41
12.0
 42
12.0
 43
12.0
 50
270.0
  0
INSERT
  5
2E74
330
2F38
100
AcDbEntity
  8
SIZE
100
AcDbBlockReference
  2
_DOTBLANK
 10
-436.9212747256532
 20
-670.9999999999996
 30
0.0
 41
12.0
 42
12.0
 43
12.0
 50
90.0
  0
LINE
  5
2E75
330
2F38
100
AcDbEntity
  8
SIZE
100
AcDbLine
 10
-274.9999999999997
 20
0.0000000000002274
 30
0.0
 11
-456.9212747256528
 21
0.0000000000003411
 31
0.0
  0
LINE
  5
2E76
330
2F38
100
AcDbEntity
  8
SIZE
100
AcDbLine
 10
-247.9754322111039
 20
-659.9999999999987
 30
0.0
 11
-456.9212747256532
 21
-659.9999999999987
 31
0.0
  0
LINE
  5
2E77
330
2F38
100
AcDbEntity
  8
SIZE
100
AcDbLine
 10
-436.9212747256528
 20
-11.99999999999977
 30
0.0
 11
-436.9212747256532
 21
-647.9999999999987
 31
0.0
  0
INSERT
  5
2E78
330
2F38
100
AcDbEntity
  8
SIZE
100
AcDbBlockReference
  2
_DOTBLANK
 10
-436.9212747256528
 20
0.0000000000002274
 30
0.0
 41
12.0
 42
12.0
 43
12.0
 50
90.0
  0
INSERT
  5
2E79
330
2F38
100
AcDbEntity
  8
SIZE
100
AcDbBlockReference
  2
_DOTBLANK
 10
-436.9212747256532
 20
-659.9999999999987
 30
0.0
 41
12.0
 42
12.0
 43
12.0
 50
270.0
  0
LINE
  5
2E7A
330
2F38
100
AcDbEntity
  8
SIZE
100
AcDbLine
 10
228.0
 20
-679.9999999999989
 30
0.0
 11
228.0
 21
-815.6932852539835
 31
0.0
  0
LINE
  5
2E7B
330
2F38
100
AcDbEntity
  8
SIZE
100
AcDbLine
 10
-228.0
 20
-679.9999999999989
 30
0.0
 11
-228.0
 21
-815.6932852539835
 31
0.0
  0
LINE
  5
2E7C
330
2F38
100
AcDbEntity
  8
SIZE
100
AcDbLine
 10
216.0
 20
-795.6932852539836
 30
0.0
 11
-216.0
 21
-795.6932852539836
 31
0.0
  0
INSERT
  5
2E7D
330
2F38
100
AcDbEntity
  8
SIZE
100
AcDbBlockReference
  2
_DOTBLANK
 10
228.0
 20
-795.6932852539836
 30
0.0
 41
12.0
 42
12.0
 43
12.0
  0
INSERT
  5
2E7E
330
2F38
100
AcDbEntity
  8
SIZE
100
AcDbBlockReference
  2
_DOTBLANK
 10
-228.0
 20
-795.6932852539836
 30
0.0
 41
12.0
 42
12.0
 43
12.0
 50
180.0
  0
TEXT
  5
2E7F
330
2F38
100
AcDbEntity
  8
SIZE
100
AcDbText
 10
-72.6857142857143
 20
-785.6932852539836
 30
0.0
 40
64.0
  1
456
 41
0.9
100
AcDbText
  0
TEXT
  5
2E80
330
2F38
100
AcDbEntity
  8
SIZE
100
AcDbText
 10
-446.9212747256531
 20
-762.5999999999993
 30
0.0
 40
64.0
  1
11
 50
90.0
 41
0.9
100
AcDbText
  0
TEXT
  5
2E81
330
2F38
100
AcDbEntity
  8
SIZE
100
AcDbText
 10
-446.9212747256528
 20
-404.057142857142
 30
0.0
 40
64.0
  1
660
 50
90.0
 41
0.9
100
AcDbText
  0
TEXT
  5
2E82
330
2F38
100
AcDbEntity
  8
SIZE
100
AcDbText
 10
-74.61302049113966
 20
170.9320910096174
 30
0.0
 40
64.0
  1
460
 41
0.9
100
AcDbText
  0
TEXT
  5
2E83
330
2F38
100
AcDbEntity
  8
SIZE
100
AcDbText
 10
-68.57142857142844
 20
288.8865929365172
 30
0.0
 40
64.0
  1
510
 41
0.9
100
AcDbText
  0
TEXT
  5
2E84
330
2F38
100
AcDbEntity
  8
SIZE
100
AcDbText
 10
349.7927476565856
 20
-80.39999999999976
 30
0.0
 40
64.0
  1
8
 50
90.0
 41
0.9
100
AcDbText
  0
TEXT
  5
2E85
330
2F38
100
AcDbEntity
  8
NOTE
100
AcDbText
 10
-863.7093999922541
 20
113.527095058013
 30
0.0
 40
64.0
  1
4×φ15取付穴
 41
0.9
100
AcDbText
  0
ENDSEC
  0
SECTION
  2
OBJECTS
  0
DICTIONARY
  5
2ED0
330
0
100
AcDbDictionary
281
     1
  3
ACAD_2007HEADERVARS_RT
350
30C4
  3
ACAD_COLOR
350
2F2E
  3
ACAD_GROUP
350
2ED1
  3
ACAD_LAYOUT
350
2F2D
  3
ACAD_MATERIAL
350
2ED4
  3
ACAD_MLEADERSTYLE
350
2F31
  3
ACAD_MLINESTYLE
350
2F2A
  3
ACAD_PLOTSETTINGS
350
2F2C
  3
ACAD_PLOTSTYLENAME
350
2ED2
  3
ACAD_SCALELIST
350
2EFE
  3
ACAD_TABLESTYLE
350
2F2F
  3
ACAD_VISUALSTYLE
350
2EED
  3
ACDB_RECOMPOSE_DATA
350
30C2
  3
AcDbVariableDictionary
350
30B9
  3
AcmDictionary
350
3069
  3
AMG
350
2FB6
  3
DWGPROPS
350
30C3
  3
MAPISURF_MODULE
350
3036
  0
DICTIONARY
  5
3091
330
2F20
100
AcDbDictionary
280
     1
281
     1
  3
ADSK_XREC_LAYER_RECONCILED
360
3092
  0
DICTIONARY
  5
3093
330
2F4F
100
AcDbDictionary
280
     1
281
     1
  3
ADSK_XREC_LAYER_RECONCILED
360
3094
  0
DICTIONARY
  5
3095
330
2F50
100
AcDbDictionary
280
     1
281
     1
  3
ADSK_XREC_LAYER_RECONCILED
360
3096
  0
DICTIONARY
  5
3097
330
2F51
100
AcDbDictionary
280
     1
281
     1
  3
ADSK_XREC_LAYER_RECONCILED
360
3098
  0
DICTIONARY
  5
3099
330
2F52
100
AcDbDictionary
280
     1
281
     1
  3
ADSK_XREC_LAYER_RECONCILED
360
309A
  0
DICTIONARY
  5
309B
330
2F53
100
AcDbDictionary
280
     1
281
     1
  3
ADSK_XREC_LAYER_RECONCILED
360
309C
  0
DICTIONARY
  5
309D
330
2F55
100
AcDbDictionary
280
     1
281
     1
  3
ADSK_XREC_LAYER_RECONCILED
360
309E
  0
DICTIONARY
  5
309F
330
2F56
100
AcDbDictionary
280
     1
281
     1
  3
ADSK_XREC_LAYER_RECONCILED
360
30A0
  0
DICTIONARY
  5
30A1
330
2F57
100
AcDbDictionary
280
     1
281
     1
  3
ADSK_XREC_LAYER_RECONCILED
360
30A2
  0
DICTIONARY
  5
30A3
330
2F58
100
AcDbDictionary
280
     1
281
     1
  3
ADSK_XREC_LAYER_RECONCILED
360
30A4
  0
DICTIONARY
  5
30A5
330
2F59
100
AcDbDictionary
280
     1
281
     1
  3
ADSK_XREC_LAYER_RECONCILED
360
30A6
  0
DICTIONARY
  5
30A7
330
2F5A
100
AcDbDictionary
280
     1
281
     1
  3
ADSK_XREC_LAYER_RECONCILED
360
30A8
  0
DICTIONARY
  5
30A9
330
2F38
100
AcDbDictionary
280
     1
281
     1
  3
ACAD_INDEX
360
30AA
  0
DICTIONARY
  5
30C4
102
{ACAD_REACTORS
330
2ED0
102
}
330
2ED0
100
AcDbDictionary
281
     1
  3
DIMARCSYM
350
30C5
  3
DIMLTEX1
350
30C7
  3
DIMLTEX2
350
30C8
  3
DIMLTYPE
350
30C6
  0
DICTIONARY
  5
2F2E
102
{ACAD_REACTORS
330
2ED0
102
}
330
2ED0
100
AcDbDictionary
281
     1
  0
DICTIONARY
  5
2ED1
102
{ACAD_REACTORS
330
2ED0
102
}
330
2ED0
100
AcDbDictionary
281
     1
  0
DICTIONARY
  5
2F2D
102
{ACAD_REACTORS
330
2ED0
102
}
330
2ED0
100
AcDbDictionary
281
     1
  3
Model
350
2F3B
  3
レイアウト1
350
2F37
  0
DICTIONARY
  5
2ED4
102
{ACAD_REACTORS
330
2ED0
102
}
330
2ED0
100
AcDbDictionary
281
     1
  3
ByBlock
350
2EDD
  3
ByLayer
350
2ED5
  3
Global
350
2EE5
  0
DICTIONARY
  5
2F31
102
{ACAD_REACTORS
330
2ED0
102
}
330
2ED0
100
AcDbDictionary
281
     1
  3
Standard
350
2F32
  0
DICTIONARY
  5
2F2A
102
{ACAD_REACTORS
330
2ED0
102
}
330
2ED0
100
AcDbDictionary
281
     1
  3
Standard
350
2F2B
  0
DICTIONARY
  5
2F2C
102
{ACAD_REACTORS
330
2ED0
102
}
330
2ED0
100
AcDbDictionary
281
     1
  0
ACDBDICTIONARYWDFLT
  5
2ED2
102
{ACAD_REACTORS
330
2ED0
102
}
330
2ED0
100
AcDbDictionary
281
     1
  3
Normal
350
2ED3
100
AcDbDictionaryWithDefault
340
2ED3
  0
DICTIONARY
  5
2EFE
102
{ACAD_REACTORS
330
2ED0
102
}
330
2ED0
100
AcDbDictionary
281
     1
  3
A0
350
2EFF
  3
A1
350
2F00
  3
A2
350
2F01
  3
A3
350
2F02
  3
A4
350
2F03
  3
A5
350
2F04
  3
A6
350
2F05
  3
A7
350
2F06
  3
A8
350
2F07
  3
A9
350
2F08
  3
B0
350
2F09
  3
B1
350
2F0A
  3
B2
350
2F0B
  3
B3
350
2F0C
  3
B4
350
2F0D
  3
B5
350
2F0E
  3
B6
350
2F0F
  3
B7
350
2F10
  3
B8
350
2F11
  3
B9
350
2F12
  3
C0
350
2F13
  3
C1
350
2F14
  3
C2
350
2F15
  3
C3
350
2F16
  3
C4
350
2F17
  3
C5
350
2F18
  3
C6
350
2F19
  3
C7
350
2F1A
  3
C8
350
2F1B
  3
C9
350
2F1C
  3
D0
350
2F1D
  3
D1
350
2F1E
  3
D2
350
2F1F
  0
DICTIONARY
  5
2F2F
102
{ACAD_REACTORS
330
2ED0
102
}
330
2ED0
100
AcDbDictionary
281
     1
  3
Standard
350
2F30
  0
DICTIONARY
  5
2EED
102
{ACAD_REACTORS
330
2ED0
102
}
330
2ED0
100
AcDbDictionary
281
     1
  3
2dWireframe
350
2EF3
  3
3D Hidden
350
2EF5
  3
3dWireframe
350
2EF4
  3
Basic
350
2EF2
  3
Brighten
350
2EF9
  3
ColorChange
350
2EFD
  3
Conceptual
350
2EF6
  3
Dim
350
2EF8
  3
Facepattern
350
2EFC
  3
Flat
350
2EEE
  3
FlatWithEdges
350
2EEF
  3
Gouraud
350
2EF0
  3
GouraudWithEdges
350
2EF1
  3
Linepattern
350
2EFB
  3
Realistic
350
2EF7
  3
Thicken
350
2EFA
  0
XRECORD
  5
30C2
102
{ACAD_REACTORS
330
2ED0
102
}
330
2ED0
100
AcDbXrecord
280
     1
 90
        1
330
2F30
  0
DICTIONARY
  5
30B9
102
{ACAD_REACTORS
330
2ED0
102
}
330
2ED0
100
AcDbDictionary
281
     1
  3
CANNOSCALE
350
30BC
  3
CMLEADERSTYLE
350
30BB
  3
CTABLESTYLE
350
30BA
  3
DIMASSOC
350
30BF
  3
INDEXCTL
350
30BE
  3
SORTENTS
350
30BD
  0
DICTIONARY
  5
3069
102
{ACAD_REACTORS
330
2ED0
102
}
330
2ED0
100
AcDbDictionary
281
     1
  3
AcmStdDictionary
350
3077
  0
DICTIONARY
  5
2FB6
102
{ACAD_REACTORS
330
2ED0
102
}
330
2ED0
100
AcDbDictionary
281
     1
  3
AcMgSettings
350
2FB7
  0
XRECORD
  5
30C3
102
{ACAD_REACTORS
330
2ED0
102
}
330
2ED0
100
AcDbXrecord
280
     1
  1
DWGPROPS COOKIE
  2

  3

  4

  6

  7

  8
A090053
  9

300
AmdtFileType=84
301
=
302
=
303
=
304
=
305
=
306
=
307
=
308
=
309
=
 40
1.044597662037036
 41
2452321.396199653
 42
2456213.404483009
  1

 90
        1
  0
XRECORD
  5
3092
102
{ACAD_REACTORS
330
3091
102
}
330
3091
100
AcDbXrecord
280
     1
290
     1
  0
XRECORD
  5
3094
102
{ACAD_REACTORS
330
3093
102
}
330
3093
100
AcDbXrecord
280
     1
290
     1
  0
XRECORD
  5
3096
102
{ACAD_REACTORS
330
3095
102
}
330
3095
100
AcDbXrecord
280
     1
290
     1
  0
XRECORD
  5
3098
102
{ACAD_REACTORS
330
3097
102
}
330
3097
100
AcDbXrecord
280
     1
290
     1
  0
XRECORD
  5
309A
102
{ACAD_REACTORS
330
3099
102
}
330
3099
100
AcDbXrecord
280
     1
290
     1
  0
XRECORD
  5
309C
102
{ACAD_REACTORS
330
309B
102
}
330
309B
100
AcDbXrecord
280
     1
290
     1
  0
XRECORD
  5
309E
102
{ACAD_REACTORS
330
309D
102
}
330
309D
100
AcDbXrecord
280
     1
290
     1
  0
XRECORD
  5
30A0
102
{ACAD_REACTORS
330
309F
102
}
330
309F
100
AcDbXrecord
280
     1
290
     1
  0
XRECORD
  5
30A2
102
{ACAD_REACTORS
330
30A1
102
}
330
30A1
100
AcDbXrecord
280
     1
290
     1
  0
XRECORD
  5
30A4
102
{ACAD_REACTORS
330
30A3
102
}
330
30A3
100
AcDbXrecord
280
     1
290
     1
  0
XRECORD
  5
30A6
102
{ACAD_REACTORS
330
30A5
102
}
330
30A5
100
AcDbXrecord
280
     1
290
     1
  0
XRECORD
  5
30A8
102
{ACAD_REACTORS
330
30A7
102
}
330
30A7
100
AcDbXrecord
280
     1
290
     1
  0
DICTIONARY
  5
30AA
102
{ACAD_REACTORS
330
30A9
102
}
330
30A9
100
AcDbDictionary
281
     1
  3
*A1
350
30AB
  0
XRECORD
  5
30C5
102
{ACAD_REACTORS
330
30C4
102
}
330
30C4
100
AcDbXrecord
280
     1
 70
     1
  0
XRECORD
  5
30C7
102
{ACAD_REACTORS
330
30C4
102
}
330
30C4
100
AcDbXrecord
280
     1
340
2F26
  0
XRECORD
  5
30C8
102
{ACAD_REACTORS
330
30C4
102
}
330
30C4
100
AcDbXrecord
280
     1
340
2F26
  0
XRECORD
  5
30C6
102
{ACAD_REACTORS
330
30C4
102
}
330
30C4
100
AcDbXrecord
280
     1
340
2F26
  0
LAYOUT
  5
2F3B
102
{ACAD_XDICTIONARY
360
30CF
102
}
102
{ACAD_REACTORS
330
2F2D
102
}
330
2F2D
100
AcDbPlotSettings
  1

  2
自動 EPSON LP-9600S (W2450527 上)
  4

  6

 40
0.0
 41
0.0
 42
0.0
 43
0.0
 44
0.0
 45
0.0
 46
0.0
 47
0.0
 48
0.0
 49
0.0
140
0.0
141
0.0
142
1.0
143
1.0
 70
  1712
 72
     0
 73
     0
 74
     0
  7

 75
     0
147
1.0
148
0.0
149
0.0
100
AcDbLayout
  1
Model
 70
     1
 71
     0
 10
0.0
 20
0.0
 11
12.0
 21
9.0
 12
0.0
 22
0.0
 32
0.0
 14
0.0
 24
0.0
 34
0.0
 15
0.0
 25
0.0
 35
0.0
146
0.0
 13
0.0
 23
0.0
 33
0.0
 16
1.0
 26
0.0
 36
0.0
 17
0.0
 27
1.0
 37
0.0
 76
     0
330
2F38
331
2F3C
  0
LAYOUT
  5
2F37
102
{ACAD_XDICTIONARY
360
30CD
102
}
102
{ACAD_REACTORS
330
2F2D
102
}
330
2F2D
100
AcDbPlotSettings
  1

  2
自動 EPSON LP-9600S (W2450527 上)
  4

  6

 40
0.0
 41
0.0
 42
0.0
 43
0.0
 44
0.0
 45
0.0
 46
0.0
 47
0.0
 48
0.0
 49
0.0
140
0.0
141
0.0
142
1.0
143
1.0
 70
   688
 72
     0
 73
     0
 74
     5
  7

 75
    16
147
1.0
148
0.0
149
0.0
100
AcDbLayout
  1
レイアウト1
 70
     1
 71
     1
 10
0.0
 20
0.0
 11
12.0
 21
9.0
 12
0.0
 22
0.0
 32
0.0
 14
1.000000000000000E+20
 24
1.000000000000000E+20
 34
1.000000000000000E+20
 15
-1.000000000000000E+20
 25
-1.000000000000000E+20
 35
-1.000000000000000E+20
146
0.0
 13
0.0
 23
0.0
 33
0.0
 16
1.0
 26
0.0
 36
0.0
 17
0.0
 27
1.0
 37
0.0
 76
     0
330
2F34
  0
MATERIAL
  5
2EDD
102
{ACAD_XDICTIONARY
360
2EDE
102
}
102
{ACAD_REACTORS
330
2ED4
102
}
330
2ED4
100
AcDbMaterial
  1
ByBlock
 72
     0
 43
0.0208333333333333
 43
0.0
 43
0.0
 43
0.0
 43
0.0
 43
0.0208333333333333
 43
0.0
 43
0.0
 43
0.0
 43
0.0
 43
1.0
 43
0.0
 43
0.0
 43
0.0
 43
0.0
 43
1.0
 77
     0
 47
0.0208333333333333
 47
0.0
 47
0.0
 47
0.0
 47
0.0
 47
0.0208333333333333
 47
0.0
 47
0.0
 47
0.0
 47
0.0
 47
1.0
 47
0.0
 47
0.0
 47
0.0
 47
0.0
 47
1.0
171
     0
 49
0.0208333333333333
 49
0.0
 49
0.0
 49
0.0
 49
0.0
 49
0.0208333333333333
 49
0.0
 49
0.0
 49
0.0
 49
0.0
 49
1.0
 49
0.0
 49
0.0
 49
0.0
 49
0.0
 49
1.0
175
     0
142
0.0208333333333333
142
0.0
142
0.0
142
0.0
142
0.0
142
0.0208333333333333
142
0.0
142
0.0
142
0.0
142
0.0
142
1.0
142
0.0
142
0.0
142
0.0
142
0.0
142
1.0
179
     0
144
0.0208333333333333
144
0.0
144
0.0
144
0.0
144
0.0
144
0.0208333333333333
144
0.0
144
0.0
144
0.0
144
0.0
144
1.0
144
0.0
144
0.0
144
0.0
144
0.0
144
1.0
147
0.0208333333333333
147
0.0
147
0.0
147
0.0
147
0.0
147
0.0208333333333333
147
0.0
147
0.0
147
0.0
147
0.0
147
1.0
147
0.0
147
0.0
147
0.0
147
0.0
147
1.0
  0
MATERIAL
  5
2ED5
102
{ACAD_XDICTIONARY
360
2ED6
102
}
102
{ACAD_REACTORS
330
2ED4
102
}
330
2ED4
100
AcDbMaterial
  1
ByLayer
 72
     0
 43
0.0208333333333333
 43
0.0
 43
0.0
 43
0.0
 43
0.0
 43
0.0208333333333333
 43
0.0
 43
0.0
 43
0.0
 43
0.0
 43
1.0
 43
0.0
 43
0.0
 43
0.0
 43
0.0
 43
1.0
 77
     0
 47
0.0208333333333333
 47
0.0
 47
0.0
 47
0.0
 47
0.0
 47
0.0208333333333333
 47
0.0
 47
0.0
 47
0.0
 47
0.0
 47
1.0
 47
0.0
 47
0.0
 47
0.0
 47
0.0
 47
1.0
171
     0
 49
0.0208333333333333
 49
0.0
 49
0.0
 49
0.0
 49
0.0
 49
0.0208333333333333
 49
0.0
 49
0.0
 49
0.0
 49
0.0
 49
1.0
 49
0.0
 49
0.0
 49
0.0
 49
0.0
 49
1.0
175
     0
142
0.0208333333333333
142
0.0
142
0.0
142
0.0
142
0.0
142
0.0208333333333333
142
0.0
142
0.0
142
0.0
142
0.0
142
1.0
142
0.0
142
0.0
142
0.0
142
0.0
142
1.0
179
     0
144
0.0208333333333333
144
0.0
144
0.0
144
0.0
144
0.0
144
0.0208333333333333
144
0.0
144
0.0
144
0.0
144
0.0
144
1.0
144
0.0
144
0.0
144
0.0
144
0.0
144
1.0
147
0.0208333333333333
147
0.0
147
0.0
147
0.0
147
0.0
147
0.0208333333333333
147
0.0
147
0.0
147
0.0
147
0.0
147
1.0
147
0.0
147
0.0
147
0.0
147
0.0
147
1.0
  0
MATERIAL
  5
2EE5
102
{ACAD_XDICTIONARY
360
2EE6
102
}
102
{ACAD_REACTORS
330
2ED4
102
}
330
2ED4
100
AcDbMaterial
  1
Global
 72
     0
 43
0.0208333333333333
 43
0.0
 43
0.0
 43
0.0
 43
0.0
 43
0.0208333333333333
 43
0.0
 43
0.0
 43
0.0
 43
0.0
 43
1.0
 43
0.0
 43
0.0
 43
0.0
 43
0.0
 43
1.0
 77
     0
 47
0.0208333333333333
 47
0.0
 47
0.0
 47
0.0
 47
0.0
 47
0.0208333333333333
 47
0.0
 47
0.0
 47
0.0
 47
0.0
 47
1.0
 47
0.0
 47
0.0
 47
0.0
 47
0.0
 47
1.0
171
     0
 49
0.0208333333333333
 49
0.0
 49
0.0
 49
0.0
 49
0.0
 49
0.0208333333333333
 49
0.0
 49
0.0
 49
0.0
 49
0.0
 49
1.0
 49
0.0
 49
0.0
 49
0.0
 49
0.0
 49
1.0
175
     0
142
0.0208333333333333
142
0.0
142
0.0
142
0.0
142
0.0
142
0.0208333333333333
142
0.0
142
0.0
142
0.0
142
0.0
142
1.0
142
0.0
142
0.0
142
0.0
142
0.0
142
1.0
179
     0
144
0.0208333333333333
144
0.0
144
0.0
144
0.0
144
0.0
144
0.0208333333333333
144
0.0
144
0.0
144
0.0
144
0.0
144
1.0
144
0.0
144
0.0
144
0.0
144
0.0
144
1.0
147
0.0208333333333333
147
0.0
147
0.0
147
0.0
147
0.0
147
0.0208333333333333
147
0.0
147
0.0
147
0.0
147
0.0
147
1.0
147
0.0
147
0.0
147
0.0
147
0.0
147
1.0
  0
MLEADERSTYLE
  5
2F32
102
{ACAD_REACTORS
330
2F31
102
}
330
2F31
100
AcDbMLeaderStyle
170
     2
171
     1
172
     0
 90
        2
 40
0.0
 41
0.0
173
     1
 91
-1056964608
340
2F26
 92
       -2
290
     1
 42
0.09
291
     1
 43
0.36
  3
Standard
 44
0.18
300

342
2F21
174
     1
178
     6
175
     1
176
     0
 93
-1056964608
 45
0.18
292
     0
297
     0
 46
0.18
 94
-1056964608
 47
1.0
 49
1.0
140
1.0
293
     1
141
0.0
294
     1
177
     0
142
1.0
295
     0
296
     0
143
0.125
1001
ACAD_MLEADERVER
1070
     2
  0
MLINESTYLE
  5
2F2B
102
{ACAD_REACTORS
330
2F2A
102
}
330
2F2A
100
AcDbMlineStyle
  2
STANDARD
 70
     0
  3

 62
   256
 51
90.0
 52
90.0
 71
     2
 49
0.5
 62
   256
  6
BYLAYER
 49
-0.5
 62
   256
  6
BYLAYER
  0
ACDBPLACEHOLDER
  5
2ED3
102
{ACAD_REACTORS
330
2ED2
102
}
330
2ED2
  0
SCALE
  5
2EFF
102
{ACAD_REACTORS
330
2EFE
102
}
330
2EFE
100
AcDbScale
 70
     0
300
1:1
140
1.0
141
1.0
290
     1
  0
SCALE
  5
2F00
102
{ACAD_REACTORS
330
2EFE
102
}
330
2EFE
100
AcDbScale
 70
     0
300
1:2
140
1.0
141
2.0
290
     0
  0
SCALE
  5
2F01
102
{ACAD_REACTORS
330
2EFE
102
}
330
2EFE
100
AcDbScale
 70
     0
300
1:4
140
1.0
141
4.0
290
     0
  0
SCALE
  5
2F02
102
{ACAD_REACTORS
330
2EFE
102
}
330
2EFE
100
AcDbScale
 70
     0
300
1:5
140
1.0
141
5.0
290
     0
  0
SCALE
  5
2F03
102
{ACAD_REACTORS
330
2EFE
102
}
330
2EFE
100
AcDbScale
 70
     0
300
1:8
140
1.0
141
8.0
290
     0
  0
SCALE
  5
2F04
102
{ACAD_REACTORS
330
2EFE
102
}
330
2EFE
100
AcDbScale
 70
     0
300
1:10
140
1.0
141
10.0
290
     0
  0
SCALE
  5
2F05
102
{ACAD_REACTORS
330
2EFE
102
}
330
2EFE
100
AcDbScale
 70
     0
300
1:16
140
1.0
141
16.0
290
     0
  0
SCALE
  5
2F06
102
{ACAD_REACTORS
330
2EFE
102
}
330
2EFE
100
AcDbScale
 70
     0
300
1:20
140
1.0
141
20.0
290
     0
  0
SCALE
  5
2F07
102
{ACAD_REACTORS
330
2EFE
102
}
330
2EFE
100
AcDbScale
 70
     0
300
1:30
140
1.0
141
30.0
290
     0
  0
SCALE
  5
2F08
102
{ACAD_REACTORS
330
2EFE
102
}
330
2EFE
100
AcDbScale
 70
     0
300
1:40
140
1.0
141
40.0
290
     0
  0
SCALE
  5
2F09
102
{ACAD_REACTORS
330
2EFE
102
}
330
2EFE
100
AcDbScale
 70
     0
300
1:50
140
1.0
141
50.0
290
     0
  0
SCALE
  5
2F0A
102
{ACAD_REACTORS
330
2EFE
102
}
330
2EFE
100
AcDbScale
 70
     0
300
1:100
140
1.0
141
100.0
290
     0
  0
SCALE
  5
2F0B
102
{ACAD_REACTORS
330
2EFE
102
}
330
2EFE
100
AcDbScale
 70
     0
300
2:1
140
2.0
141
1.0
290
     0
  0
SCALE
  5
2F0C
102
{ACAD_REACTORS
330
2EFE
102
}
330
2EFE
100
AcDbScale
 70
     0
300
4:1
140
4.0
141
1.0
290
     0
  0
SCALE
  5
2F0D
102
{ACAD_REACTORS
330
2EFE
102
}
330
2EFE
100
AcDbScale
 70
     0
300
8:1
140
8.0
141
1.0
290
     0
  0
SCALE
  5
2F0E
102
{ACAD_REACTORS
330
2EFE
102
}
330
2EFE
100
AcDbScale
 70
     0
300
10:1
140
10.0
141
1.0
290
     0
  0
SCALE
  5
2F0F
102
{ACAD_REACTORS
330
2EFE
102
}
330
2EFE
100
AcDbScale
 70
     0
300
100:1
140
100.0
141
1.0
290
     0
  0
SCALE
  5
2F10
102
{ACAD_REACTORS
330
2EFE
102
}
330
2EFE
100
AcDbScale
 70
     0
300
1/128" = 1'-0"
140
0.0078125
141
12.0
290
     0
  0
SCALE
  5
2F11
102
{ACAD_REACTORS
330
2EFE
102
}
330
2EFE
100
AcDbScale
 70
     0
300
1/64" = 1'-0"
140
0.015625
141
12.0
290
     0
  0
SCALE
  5
2F12
102
{ACAD_REACTORS
330
2EFE
102
}
330
2EFE
100
AcDbScale
 70
     0
300
1/32" = 1'-0"
140
0.03125
141
12.0
290
     0
  0
SCALE
  5
2F13
102
{ACAD_REACTORS
330
2EFE
102
}
330
2EFE
100
AcDbScale
 70
     0
300
1/16" = 1'-0"
140
0.0625
141
12.0
290
     0
  0
SCALE
  5
2F14
102
{ACAD_REACTORS
330
2EFE
102
}
330
2EFE
100
AcDbScale
 70
     0
300
3/32" = 1'-0"
140
0.09375
141
12.0
290
     0
  0
SCALE
  5
2F15
102
{ACAD_REACTORS
330
2EFE
102
}
330
2EFE
100
AcDbScale
 70
     0
300
1/8" = 1'-0"
140
0.125
141
12.0
290
     0
  0
SCALE
  5
2F16
102
{ACAD_REACTORS
330
2EFE
102
}
330
2EFE
100
AcDbScale
 70
     0
300
3/16" = 1'-0"
140
0.1875
141
12.0
290
     0
  0
SCALE
  5
2F17
102
{ACAD_REACTORS
330
2EFE
102
}
330
2EFE
100
AcDbScale
 70
     0
300
1/4" = 1'-0"
140
0.25
141
12.0
290
     0
  0
SCALE
  5
2F18
102
{ACAD_REACTORS
330
2EFE
102
}
330
2EFE
100
AcDbScale
 70
     0
300
3/8" = 1'-0"
140
0.375
141
12.0
290
     0
  0
SCALE
  5
2F19
102
{ACAD_REACTORS
330
2EFE
102
}
330
2EFE
100
AcDbScale
 70
     0
300
1/2" = 1'-0"
140
0.5
141
12.0
290
     0
  0
SCALE
  5
2F1A
102
{ACAD_REACTORS
330
2EFE
102
}
330
2EFE
100
AcDbScale
 70
     0
300
3/4" = 1'-0"
140
0.75
141
12.0
290
     0
  0
SCALE
  5
2F1B
102
{ACAD_REACTORS
330
2EFE
102
}
330
2EFE
100
AcDbScale
 70
     0
300
1" = 1'-0"
140
1.0
141
12.0
290
     0
  0
SCALE
  5
2F1C
102
{ACAD_REACTORS
330
2EFE
102
}
330
2EFE
100
AcDbScale
 70
     0
300
1-1/2" = 1'-0"
140
1.5
141
12.0
290
     0
  0
SCALE
  5
2F1D
102
{ACAD_REACTORS
330
2EFE
102
}
330
2EFE
100
AcDbScale
 70
     0
300
3" = 1'-0"
140
3.0
141
12.0
290
     0
  0
SCALE
  5
2F1E
102
{ACAD_REACTORS
330
2EFE
102
}
330
2EFE
100
AcDbScale
 70
     0
300
6" = 1'-0"
140
6.0
141
12.0
290
     0
  0
SCALE
  5
2F1F
102
{ACAD_REACTORS
330
2EFE
102
}
330
2EFE
100
AcDbScale
 70
     0
300
1'-0" = 1'-0"
140
12.0
141
12.0
290
     0
  0
TABLESTYLE
  5
2F30
102
{ACAD_XDICTIONARY
360
30C0
102
}
102
{ACAD_REACTORS
330
2F2F
102
}
330
2F2F
100
AcDbTableStyle
  3
Standard
 70
     0
 71
     0
 40
0.06
 41
0.06
280
     0
281
     0
  7
STANDARD
140
0.18
170
     2
 62
     0
 63
     7
283
     0
274
    -2
284
     1
 64
     0
275
    -2
285
     1
 65
     0
276
    -2
286
     1
 66
     0
277
    -2
287
     1
 67
     0
278
    -2
288
     1
 68
     0
279
    -2
289
     1
 69
     0
  7
STANDARD
140
0.25
170
     5
 62
     0
 63
     7
283
     0
274
    -2
284
     1
 64
     0
275
    -2
285
     1
 65
     0
276
    -2
286
     1
 66
     0
277
    -2
287
     1
 67
     0
278
    -2
288
     1
 68
     0
279
    -2
289
     1
 69
     0
  7
STANDARD
140
0.18
170
     5
 62
     0
 63
     7
283
     0
274
    -2
284
     1
 64
     0
275
    -2
285
     1
 65
     0
276
    -2
286
     1
 66
     0
277
    -2
287
     1
 67
     0
278
    -2
288
     1
 68
     0
279
    -2
289
     1
 69
     0
  0
VISUALSTYLE
  5
2EF3
102
{ACAD_REACTORS
330
2EED
102
}
330
2EED
100
AcDbVisualStyle
  2
2dWireframe
 70
     4
 71
     0
 72
     2
 73
     0
 90
        0
 40
-0.6
 41
-30.0
 62
     5
 63
     7
 74
     1
 91
        4
 64
     7
 65
   257
 75
     1
175
     1
 42
1.0
 92
        0
 66
   257
 43
1.0
 76
     1
 77
     6
 78
     2
 67
     7
 79
     5
170
     0
171
     0
290
     0
174
     0
 93
        1
 44
0.0
173
     0
291
     0
 45
0.0
1001
ACAD
1000
AcDbSavedByObjectVersion
1070
     0
  0
VISUALSTYLE
  5
2EF5
102
{ACAD_REACTORS
330
2EED
102
}
330
2EED
100
AcDbVisualStyle
  2
3D Hidden
 70
     6
 71
     1
 72
     2
 73
     2
 90
        0
 40
-0.6
 41
-30.0
 62
     5
 63
     7
 74
     2
 91
        2
 64
     7
 65
   257
 75
     2
175
     1
 42
40.0
 92
        0
 66
   257
 43
1.0
 76
     1
 77
     6
 78
     2
 67
     7
 79
     3
170
     0
171
     0
290
     0
174
     0
 93
        1
 44
0.0
173
     0
291
     0
 45
0.0
1001
ACAD
1000
AcDbSavedByObjectVersion
1070
     0
  0
VISUALSTYLE
  5
2EF4
102
{ACAD_REACTORS
330
2EED
102
}
330
2EED
100
AcDbVisualStyle
  2
3dWireframe
 70
     5
 71
     0
 72
     2
 73
     0
 90
        0
 40
-0.6
 41
-30.0
 62
     5
 63
     7
 74
     1
 91
        4
 64
     7
 65
   257
 75
     1
175
     1
 42
1.0
 92
        0
 66
   257
 43
1.0
 76
     1
 77
     6
 78
     2
 67
     7
 79
     5
170
     0
171
     0
290
     0
174
     0
 93
        1
 44
0.0
173
     0
291
     0
 45
0.0
1001
ACAD
1000
AcDbSavedByObjectVersion
1070
     0
  0
VISUALSTYLE
  5
2EF2
102
{ACAD_REACTORS
330
2EED
102
}
330
2EED
100
AcDbVisualStyle
  2
Basic
 70
     7
 71
     1
 72
     0
 73
     1
 90
        0
 40
-0.6
 41
-30.0
 62
     5
 63
     7
 74
     0
 91
        4
 64
     7
 65
   257
 75
     1
175
     1
 42
1.0
 92
        8
 66
     7
 43
1.0
 76
     1
 77
     6
 78
     2
 67
     7
 79
     5
170
     0
171
     0
290
     0
174
     0
 93
        1
 44
0.0
173
     0
291
     1
 45
0.0
1001
ACAD
1000
AcDbSavedByObjectVersion
1070
     0
  0
VISUALSTYLE
  5
2EF9
102
{ACAD_REACTORS
330
2EED
102
}
330
2EED
100
AcDbVisualStyle
  2
Brighten
 70
    12
 71
     2
 72
     2
 73
     0
 90
        0
 40
-0.6
 41
-30.0
 62
     5
 63
     7
 74
     1
 91
        4
 64
     7
 65
   257
 75
     1
175
     1
 42
1.0
 92
        8
 66
     7
 43
1.0
 76
     1
 77
     6
 78
     2
 67
     7
 79
     5
170
     0
171
     0
290
     0
174
     0
 93
        1
 44
50.0
173
     0
291
     1
 45
0.0
1001
ACAD
1000
AcDbSavedByObjectVersion
1070
     0
  0
VISUALSTYLE
  5
2EFD
102
{ACAD_REACTORS
330
2EED
102
}
330
2EED
100
AcDbVisualStyle
  2
ColorChange
 70
    16
 71
     2
 72
     2
 73
     3
 90
        0
 40
-0.6
 41
-30.0
 62
     5
 63
     8
 74
     1
 91
        4
 64
     7
 65
   257
 75
     1
175
     1
 42
1.0
 92
        8
 66
     8
 43
1.0
 76
     1
 77
     6
 78
     2
 67
     7
 79
     5
170
     0
171
     0
290
     0
174
     0
 93
        1
 44
0.0
173
     0
291
     1
 45
0.0
1001
ACAD
1000
AcDbSavedByObjectVersion
1070
     0
  0
VISUALSTYLE
  5
2EF6
102
{ACAD_REACTORS
330
2EED
102
}
330
2EED
100
AcDbVisualStyle
  2
Conceptual
 70
     9
 71
     3
 72
     2
 73
     0
 90
        0
 40
-0.6
 41
-30.0
 62
     5
 63
     7
 74
     2
 91
        2
 64
     7
 65
   257
 75
     1
175
     1
 42
40.0
 92
        8
 66
     7
 43
1.0
 76
     1
 77
     6
 78
     2
 67
     7
 79
     3
170
     0
171
     0
290
     0
174
     0
 93
        1
 44
0.0
173
     0
291
     0
 45
0.0
1001
ACAD
1000
AcDbSavedByObjectVersion
1070
     0
  0
VISUALSTYLE
  5
2EF8
102
{ACAD_REACTORS
330
2EED
102
}
330
2EED
100
AcDbVisualStyle
  2
Dim
 70
    11
 71
     2
 72
     2
 73
     0
 90
        0
 40
-0.6
 41
-30.0
 62
     5
 63
     7
 74
     1
 91
        4
 64
     7
 65
   257
 75
     1
175
     1
 42
1.0
 92
        8
 66
     7
 43
1.0
 76
     1
 77
     6
 78
     2
 67
     7
 79
     5
170
     0
171
     0
290
     0
174
     0
 93
        1
 44
-50.0
173
     0
291
     1
 45
0.0
1001
ACAD
1000
AcDbSavedByObjectVersion
1070
     0
  0
VISUALSTYLE
  5
2EFC
102
{ACAD_REACTORS
330
2EED
102
}
330
2EED
100
AcDbVisualStyle
  2
Facepattern
 70
    15
 71
     2
 72
     2
 73
     0
 90
        0
 40
-0.6
 41
-30.0
 62
     5
 63
     7
 74
     1
 91
        4
 64
     7
 65
   257
 75
     1
175
     1
 42
1.0
 92
        8
 66
     7
 43
1.0
 76
     1
 77
     6
 78
     2
 67
     7
 79
     5
170
     0
171
     0
290
     0
174
     0
 93
        1
 44
0.0
173
     0
291
     1
 45
0.0
1001
ACAD
1000
AcDbSavedByObjectVersion
1070
     0
  0
VISUALSTYLE
  5
2EEE
102
{ACAD_REACTORS
330
2EED
102
}
330
2EED
100
AcDbVisualStyle
  2
Flat
 70
     0
 71
     2
 72
     1
 73
     1
 90
        2
 40
-0.6
 41
30.0
 62
     5
 63
     7
 74
     0
 91
        4
 64
     7
 65
   257
 75
     1
175
     1
 42
1.0
 92
        8
 66
     7
 43
1.0
 76
     1
 77
     6
 78
     2
 67
     7
 79
     5
170
     0
171
     0
290
     0
174
     0
 93
       13
 44
0.0
173
     0
291
     1
 45
0.0
1001
ACAD
1000
AcDbSavedByObjectVersion
1070
     0
  0
VISUALSTYLE
  5
2EEF
102
{ACAD_REACTORS
330
2EED
102
}
330
2EED
100
AcDbVisualStyle
  2
FlatWithEdges
 70
     1
 71
     2
 72
     1
 73
     1
 90
        2
 40
-0.6
 41
30.0
 62
     5
 63
     7
 74
     1
 91
        4
 64
     7
 65
   257
 75
     1
175
     1
 42
1.0
 92
        0
 66
   257
 43
1.0
 76
     1
 77
     6
 78
     2
 67
     7
 79
     5
170
     0
171
     0
290
     0
174
     0
 93
       13
 44
0.0
173
     0
291
     1
 45
0.0
1001
ACAD
1000
AcDbSavedByObjectVersion
1070
     0
  0
VISUALSTYLE
  5
2EF0
102
{ACAD_REACTORS
330
2EED
102
}
330
2EED
100
AcDbVisualStyle
  2
Gouraud
 70
     2
 71
     2
 72
     2
 73
     1
 90
        2
 40
-0.6
 41
30.0
 62
     5
 63
     7
 74
     0
 91
        4
 64
     7
 65
   257
 75
     1
175
     1
 42
1.0
 92
        0
 66
     7
 43
1.0
 76
     1
 77
     6
 78
     2
 67
     7
 79
     5
170
     0
171
     0
290
     0
174
     0
 93
       13
 44
0.0
173
     0
291
     1
 45
0.0
1001
ACAD
1000
AcDbSavedByObjectVersion
1070
     0
  0
VISUALSTYLE
  5
2EF1
102
{ACAD_REACTORS
330
2EED
102
}
330
2EED
100
AcDbVisualStyle
  2
GouraudWithEdges
 70
     3
 71
     2
 72
     2
 73
     1
 90
        2
 40
-0.6
 41
30.0
 62
     5
 63
     7
 74
     1
 91
        4
 64
     7
 65
   257
 75
     1
175
     1
 42
1.0
 92
        0
 66
   257
 43
1.0
 76
     1
 77
     6
 78
     2
 67
     7
 79
     5
170
     0
171
     0
290
     0
174
     0
 93
       13
 44
0.0
173
     0
291
     1
 45
0.0
1001
ACAD
1000
AcDbSavedByObjectVersion
1070
     0
  0
VISUALSTYLE
  5
2EFB
102
{ACAD_REACTORS
330
2EED
102
}
330
2EED
100
AcDbVisualStyle
  2
Linepattern
 70
    14
 71
     2
 72
     2
 73
     0
 90
        0
 40
-0.6
 41
-30.0
 62
     5
 63
     7
 74
     1
 91
        4
 64
     7
 65
   257
 75
     7
175
     7
 42
1.0
 92
        8
 66
     7
 43
1.0
 76
     1
 77
     6
 78
     2
 67
     7
 79
     5
170
     0
171
     0
290
     0
174
     0
 93
        1
 44
0.0
173
     0
291
     1
 45
0.0
1001
ACAD
1000
AcDbSavedByObjectVersion
1070
     0
  0
VISUALSTYLE
  5
2EF7
102
{ACAD_REACTORS
330
2EED
102
}
330
2EED
100
AcDbVisualStyle
  2
Realistic
 70
     8
 71
     2
 72
     2
 73
     0
 90
        0
 40
-0.6
 41
-30.0
 62
     5
 63
     7
 74
     1
 91
        0
 64
     7
 65
   257
 75
     1
175
     1
 42
1.0
 92
        8
 66
     8
 43
1.0
 76
     1
 77
     6
 78
     2
 67
     7
 79
     5
170
     0
171
     0
290
     0
174
     0
 93
       13
 44
0.0
173
     0
291
     0
 45
0.0
1001
ACAD
1000
AcDbSavedByObjectVersion
1070
     0
  0
VISUALSTYLE
  5
2EFA
102
{ACAD_REACTORS
330
2EED
102
}
330
2EED
100
AcDbVisualStyle
  2
Thicken
 70
    13
 71
     2
 72
     2
 73
     0
 90
        0
 40
-0.6
 41
-30.0
 62
     5
 63
     7
 74
     1
 91
        4
 64
     7
 65
   257
 75
     1
175
     1
 42
1.0
 92
       12
 66
     7
 43
1.0
 76
     1
 77
     6
 78
     2
 67
     7
 79
     5
170
     0
171
     0
290
     0
174
     0
 93
        1
 44
0.0
173
     0
291
     1
 45
0.0
1001
ACAD
1000
AcDbSavedByObjectVersion
1070
     0
  0
DICTIONARYVAR
  5
30BC
102
{ACAD_REACTORS
330
30B9
102
}
330
30B9
100
DictionaryVariables
280
     0
  1
1:1
  0
DICTIONARYVAR
  5
30BB
102
{ACAD_REACTORS
330
30B9
102
}
330
30B9
100
DictionaryVariables
280
     0
  1
STANDARD
  0
DICTIONARYVAR
  5
30BA
102
{ACAD_REACTORS
330
30B9
102
}
330
30B9
100
DictionaryVariables
280
     0
  1
STANDARD
  0
DICTIONARYVAR
  5
30BF
102
{ACAD_REACTORS
330
30B9
102
}
330
30B9
100
DictionaryVariables
280
     0
  1
1
  0
DICTIONARYVAR
  5
30BE
102
{ACAD_REACTORS
330
30B9
102
}
330
30B9
100
DictionaryVariables
280
     0
  1
1
  0
DICTIONARYVAR
  5
30BD
102
{ACAD_REACTORS
330
30B9
102
}
330
30B9
100
DictionaryVariables
280
     0
  1
127
  0
DICTIONARY
  5
3077
102
{ACAD_REACTORS
330
3069
102
}
330
3069
100
AcDbDictionary
281
     1
  0
DICTIONARY
  5
2FB7
102
{ACAD_REACTORS
330
2FB6
102
}
330
2FB6
100
AcDbDictionary
281
     1
  3
DWGSETTINGS
350
2FB8
  3
TRANSSETTINGS
350
2FB9
  0
LAYER_INDEX
  5
30AB
102
{ACAD_REACTORS
330
30AA
102
}
330
30AA
100
AcDbIndex
 40
2456213.404483009
100
AcDbLayerIndex
  8
0
360
30AC
 90
        1
  8
OUTLINE
360
30AD
 90
       48
  8
SIZE
360
30AE
 90
       40
  8
BASIS
360
30AF
 90
        1
  8
DETAIL
360
30B0
 90
       47
  8
ARRANGE
360
30B1
 90
        2
  8
DEFPOINTS
360
30B2
 90
        0
  8
ETC
360
30B3
 90
        3
  8
FIX
360
30B4
 90
        0
  8
NOTE
360
30B5
 90
        5
  8
SERVICESPACE
360
30B6
 90
        0
  8
SYMBOLLINE
360
30B7
 90
        0
  8
DETAIL___1
360
30B8
 90
        2
  0
DICTIONARY
  5
30CF
330
2F3B
100
AcDbDictionary
280
     1
281
     1
  3
ACAD_XREC_ROUNDTRIP
360
30D0
  0
DICTIONARY
  5
30CD
330
2F37
100
AcDbDictionary
280
     1
281
     1
  3
ACAD_XREC_ROUNDTRIP
360
30CE
  0
DICTIONARY
  5
2EDE
330
2EDD
100
AcDbDictionary
280
     1
281
     1
  3
ACAD_XREC_ROUNDTRIP
360
30CA
  3
BUMPTILE
360
2EE0
  3
DIFFUSETILE
360
2EDF
  3
OPACITYTILE
360
2EE3
  3
REFLECTIONTILE
360
2EE2
  3
REFRACTIONTILE
360
2EE4
  3
SPECULARTILE
360
2EE1
  0
DICTIONARY
  5
2ED6
330
2ED5
100
AcDbDictionary
280
     1
281
     1
  3
ACAD_XREC_ROUNDTRIP
360
30C9
  3
BUMPTILE
360
2ED8
  3
DIFFUSETILE
360
2ED7
  3
OPACITYTILE
360
2EDB
  3
REFLECTIONTILE
360
2EDA
  3
REFRACTIONTILE
360
2EDC
  3
SPECULARTILE
360
2ED9
  0
DICTIONARY
  5
2EE6
330
2EE5
100
AcDbDictionary
280
     1
281
     1
  3
ACAD_XREC_ROUNDTRIP
360
30CB
  3
BUMPTILE
360
2EE8
  3
DIFFUSETILE
360
2EE7
  3
OPACITYTILE
360
2EEB
  3
REFLECTIONTILE
360
2EEA
  3
REFRACTIONTILE
360
2EEC
  3
SPECULARTILE
360
2EE9
  0
DICTIONARY
  5
30C0
330
2F30
100
AcDbDictionary
280
     1
281
     1
  3
ACAD_ROUNDTRIP_2008_TABLESTYLE_CELLSTYLEMAP
360
30C1
  3
ACAD_XREC_ROUNDTRIP
360
30CC
  0
IDBUFFER
  5
30AC
330
0
100
AcDbIdBuffer
330
2E30
  0
IDBUFFER
  5
30AD
330
0
100
AcDbIdBuffer
330
2E3D
330
2E3E
330
2E3F
330
2E40
330
2E41
330
2E42
330
2E43
330
2E44
330
2E45
330
2E46
330
2E47
330
2E48
330
2E49
330
2E4A
330
2E4B
330
2E4C
330
2E4D
330
2E4E
330
2E4F
330
2E50
330
2E51
330
2E52
330
2E53
330
2E54
330
2E55
330
2E56
330
2E57
330
2E58
330
2E59
330
2E5A
330
2E5B
330
2E5C
330
953
330
954
330
955
330
956
330
957
330
958
330
2E33
330
2E34
330
2E35
330
2E36
330
2E37
330
2E38
330
2E39
330
2E3A
330
2E3B
330
2E3C
  0
IDBUFFER
  5
30AE
330
0
100
AcDbIdBuffer
330
2E6D
330
2E6E
330
2E6F
330
2E70
330
2E71
330
2E72
330
2E73
330
2E74
330
2E75
330
2E76
330
2E77
330
2E78
330
2E79
330
2E7A
330
2E7B
330
2E7C
330
2E7D
330
2E7E
330
2E7F
330
2E80
330
2E81
330
2E82
330
2E83
330
2E84
330
2E5D
330
2E5E
330
2E5F
330
2E60
330
2E61
330
2E62
330
2E63
330
2E64
330
2E65
330
2E66
330
2E67
330
2E68
330
2E69
330
2E6A
330
2E6B
330
2E6C
  0
IDBUFFER
  5
30AF
330
0
100
AcDbIdBuffer
330
2E01
  0
IDBUFFER
  5
30B0
330
0
100
AcDbIdBuffer
330
2E11
330
2E12
330
2E13
330
2E14
330
2E15
330
2E16
330
2E17
330
2E18
330
2E19
330
2E1A
330
2E1B
330
2E1C
330
2E1D
330
2E1E
330
2E1F
330
2E20
330
2E21
330
2E22
330
2E23
330
2E24
330
2E25
330
2E26
330
2E27
330
2E28
330
2E29
330
2E2A
330
2E2B
330
2E2C
330
2E2D
330
2E2E
330
2E2F
330
2DF9
330
2DFA
330
2DFF
330
2E00
330
2E02
330
2E06
330
2E07
330
2E08
330
2E09
330
2E0A
330
2E0B
330
2E0C
330
2E0D
330
2E0E
330
2E0F
330
2E10
  0
IDBUFFER
  5
30B1
330
0
100
AcDbIdBuffer
330
2DFE
330
2E04
  0
IDBUFFER
  5
30B2
330
0
100
AcDbIdBuffer
  0
IDBUFFER
  5
30B3
330
0
100
AcDbIdBuffer
330
2DFB
330
2DFC
330
2DFD
  0
IDBUFFER
  5
30B4
330
0
100
AcDbIdBuffer
  0
IDBUFFER
  5
30B5
330
0
100
AcDbIdBuffer
330
2E03
330
2E05
330
2E31
330
2E32
330
2E85
  0
IDBUFFER
  5
30B6
330
0
100
AcDbIdBuffer
  0
IDBUFFER
  5
30B7
330
0
100
AcDbIdBuffer
  0
IDBUFFER
  5
30B8
330
0
100
AcDbIdBuffer
330
2DF7
330
2DF8
  0
XRECORD
  5
30D0
102
{ACAD_REACTORS
330
30CF
102
}
330
30CF
100
AcDbXrecord
280
     1
102
SHADEPLOT
 70
     0
102
SHADEPLOTRESLEVEL
 70
     2
102
SHADEPLOTCUSTOMDPI
 70
   300
  0
XRECORD
  5
30CE
102
{ACAD_REACTORS
330
30CD
102
}
330
30CD
100
AcDbXrecord
280
     1
102
SHADEPLOT
 70
     0
102
SHADEPLOTRESLEVEL
 70
     2
102
SHADEPLOTCUSTOMDPI
 70
   300
  0
XRECORD
  5
30CA
102
{ACAD_REACTORS
330
2EDE
102
}
330
2EDE
100
AcDbXrecord
280
     1
102
MATERIAL
148
0.0
149
0.0
149
0.0
 93
        0
 94
      127
282
     0
 72
     0
 77
     0
171
     0
175
     0
179
     0
273
     0
  0
XRECORD
  5
2EE0
102
{ACAD_REACTORS
330
2EDE
102
}
330
2EDE
100
AcDbXrecord
280
     1
270
     1
271
     1
  0
XRECORD
  5
2EDF
102
{ACAD_REACTORS
330
2EDE
102
}
330
2EDE
100
AcDbXrecord
280
     1
270
     1
271
     1
  0
XRECORD
  5
2EE3
102
{ACAD_REACTORS
330
2EDE
102
}
330
2EDE
100
AcDbXrecord
280
     1
270
     1
271
     1
  0
XRECORD
  5
2EE2
102
{ACAD_REACTORS
330
2EDE
102
}
330
2EDE
100
AcDbXrecord
280
     1
270
     1
271
     1
  0
XRECORD
  5
2EE4
102
{ACAD_REACTORS
330
2EDE
102
}
330
2EDE
100
AcDbXrecord
280
     1
270
     1
271
     1
  0
XRECORD
  5
2EE1
102
{ACAD_REACTORS
330
2EDE
102
}
330
2EDE
100
AcDbXrecord
280
     1
270
     1
271
     1
  0
XRECORD
  5
30C9
102
{ACAD_REACTORS
330
2ED6
102
}
330
2ED6
100
AcDbXrecord
280
     1
102
MATERIAL
148
0.0
149
0.0
149
0.0
 93
        0
 94
      127
282
     0
 72
     0
 77
     0
171
     0
175
     0
179
     0
273
     0
  0
XRECORD
  5
2ED8
102
{ACAD_REACTORS
330
2ED6
102
}
330
2ED6
100
AcDbXrecord
280
     1
270
     1
271
     1
  0
XRECORD
  5
2ED7
102
{ACAD_REACTORS
330
2ED6
102
}
330
2ED6
100
AcDbXrecord
280
     1
270
     1
271
     1
  0
XRECORD
  5
2EDB
102
{ACAD_REACTORS
330
2ED6
102
}
330
2ED6
100
AcDbXrecord
280
     1
270
     1
271
     1
  0
XRECORD
  5
2EDA
102
{ACAD_REACTORS
330
2ED6
102
}
330
2ED6
100
AcDbXrecord
280
     1
270
     1
271
     1
  0
XRECORD
  5
2EDC
102
{ACAD_REACTORS
330
2ED6
102
}
330
2ED6
100
AcDbXrecord
280
     1
270
     1
271
     1
  0
XRECORD
  5
2ED9
102
{ACAD_REACTORS
330
2ED6
102
}
330
2ED6
100
AcDbXrecord
280
     1
270
     1
271
     1
  0
XRECORD
  5
30CB
102
{ACAD_REACTORS
330
2EE6
102
}
330
2EE6
100
AcDbXrecord
280
     1
102
MATERIAL
148
0.0
149
0.0
149
0.0
 93
        0
 94
      127
282
     0
 72
     0
 77
     0
171
     0
175
     0
179
     0
273
     0
  0
XRECORD
  5
2EE8
102
{ACAD_REACTORS
330
2EE6
102
}
330
2EE6
100
AcDbXrecord
280
     1
270
     1
271
     1
  0
XRECORD
  5
2EE7
102
{ACAD_REACTORS
330
2EE6
102
}
330
2EE6
100
AcDbXrecord
280
     1
270
     1
271
     1
  0
XRECORD
  5
2EEB
102
{ACAD_REACTORS
330
2EE6
102
}
330
2EE6
100
AcDbXrecord
280
     1
270
     1
271
     1
  0
XRECORD
  5
2EEA
102
{ACAD_REACTORS
330
2EE6
102
}
330
2EE6
100
AcDbXrecord
280
     1
270
     1
271
     1
  0
XRECORD
  5
2EEC
102
{ACAD_REACTORS
330
2EE6
102
}
330
2EE6
100
AcDbXrecord
280
     1
270
     1
271
     1
  0
XRECORD
  5
2EE9
102
{ACAD_REACTORS
330
2EE6
102
}
330
2EE6
100
AcDbXrecord
280
     1
270
     1
271
     1
  0
CELLSTYLEMAP
  5
30C1
102
{ACAD_REACTORS
330
30C0
102
}
330
30C0
100
AcDbCellStyleMap
 90
        3
300
CELLSTYLE
  1
TABLEFORMAT_BEGIN
 90
        5
170
     1
 91
        0
 92
    32768
 62
   257
 93
        1
300
CONTENTFORMAT
  1
CONTENTFORMAT_BEGIN
 90
        0
 91
        0
 92
      512
 93
        0
300

 40
0.0
140
1.0
 94
        5
 62
     0
340
2F21
144
0.25
309
CONTENTFORMAT_END
171
     0
 94
        0
309
TABLEFORMAT_END
  1
CELLSTYLE_BEGIN
 90
        1
 91
        1
300
_TITLE
309
CELLSTYLE_END
300
CELLSTYLE
  1
TABLEFORMAT_BEGIN
 90
        5
170
     1
 91
        0
 92
        0
 62
   257
 93
        1
300
CONTENTFORMAT
  1
CONTENTFORMAT_BEGIN
 90
        0
 91
        0
 92
      512
 93
        0
300

 40
0.0
140
1.0
 94
        5
 62
     0
340
2F21
144
0.18
309
CONTENTFORMAT_END
171
     0
 94
        0
309
TABLEFORMAT_END
  1
CELLSTYLE_BEGIN
 90
        2
 91
        1
300
_HEADER
309
CELLSTYLE_END
300
CELLSTYLE
  1
TABLEFORMAT_BEGIN
 90
        5
170
     1
 91
        0
 92
        0
 62
   257
 93
        1
300
CONTENTFORMAT
  1
CONTENTFORMAT_BEGIN
 90
        0
 91
        0
 92
      512
 93
        0
300

 40
0.0
140
1.0
 94
        2
 62
     0
340
2F21
144
0.18
309
CONTENTFORMAT_END
171
     0
 94
        0
309
TABLEFORMAT_END
  1
CELLSTYLE_BEGIN
 90
        3
 91
        2
300
_DATA
309
CELLSTYLE_END
  0
XRECORD
  5
30CC
102
{ACAD_REACTORS
330
30C0
102
}
330
30C0
100
AcDbXrecord
280
     1
102
ACAD_ROUNDTRIP_PRE2007_TABLESTYLE
 90
      512
 91
        0
  1

 92
      512
 93
        0
  2

 94
      512
 95
        0
  3

  0
ENDSEC
  0
EOF
