  0
SECTION
  2
HEADER
  9
$ACADVER
  1
AC1015
  9
$ACADMAINTVER
 70
    20
  9
$DWGCODEPAGE
  3
ANSI_932
  9
$INSBASE
 10
0.0
 20
0.0
 30
0.0
  9
$EXTMIN
 10
-958.7093999922544
 20
-1039.152290639288
 30
0.0
  9
$EXTMAX
 10
1215.563876841727
 20
516.9713086302127
 30
50.0
  9
$LIMMIN
 10
-2970.0
 20
-2100.0
  9
$LIMMAX
 10
2970.0
 20
2100.0
  9
$ORTHOMODE
 70
     1
  9
$REGENMODE
 70
     0
  9
$FILLMODE
 70
     1
  9
$QTEXTMODE
 70
     0
  9
$MIRRTEXT
 70
     0
  9
$LTSCALE
 40
20.0
  9
$ATTMODE
 70
     1
  9
$TEXTSIZE
 40
64.0
  9
$TRACEWID
 40
0.05
  9
$TEXTSTYLE
  7
STANDARD
  9
$CLAYER
  8
0
  9
$CELTYPE
  6
ByLayer
  9
$CECOLOR
 62
   256
  9
$CELTSCALE
 40
1.0
  9
$DISPSILH
 70
     0
  9
$DIMSCALE
 40
1.0
  9
$DIMASZ
 40
0.12
  9
$DIMEXO
 40
0.05
  9
$DIMDLI
 40
0.5
  9
$DIMRND
 40
0.0
  9
$DIMDLE
 40
0.0
  9
$DIMEXE
 40
0.1
  9
$DIMTP
 40
0.1
  9
$DIMTM
 40
0.1
  9
$DIMTXT
 40
0.12
  9
$DIMCEN
 40
0.0
  9
$DIMTSZ
 40
0.0
  9
$DIMTOL
 70
     0
  9
$DIMLIM
 70
     0
  9
$DIMTIH
 70
     1
  9
$DIMTOH
 70
     1
  9
$DIMSE1
 70
     0
  9
$DIMSE2
 70
     0
  9
$DIMTAD
 70
     0
  9
$DIMZIN
 70
     7
  9
$DIMBLK
  1

  9
$DIMASO
 70
     1
  9
$DIMSHO
 70
     0
  9
$DIMPOST
  1

  9
$DIMAPOST
  1
mm
  9
$DIMALT
 70
     0
  9
$DIMALTD
 70
     2
  9
$DIMALTF
 40
25.4
  9
$DIMLFAC
 40
1.0
  9
$DIMTOFL
 70
     0
  9
$DIMTVP
 40
0.0
  9
$DIMTIX
 70
     0
  9
$DIMSOXD
 70
     0
  9
$DIMSAH
 70
     0
  9
$DIMBLK1
  1

  9
$DIMBLK2
  1

  9
$DIMSTYLE
  2
AM_ANSI
  9
$DIMCLRD
 70
   256
  9
$DIMCLRE
 70
   256
  9
$DIMCLRT
 70
     2
  9
$DIMTFAC
 40
0.71
  9
$DIMGAP
 40
0.06
  9
$DIMJUST
 70
     0
  9
$DIMSD1
 70
     0
  9
$DIMSD2
 70
     0
  9
$DIMTOLJ
 70
     1
  9
$DIMTZIN
 70
     7
  9
$DIMALTZ
 70
     0
  9
$DIMALTTZ
 70
     0
  9
$DIMUPT
 70
     0
  9
$DIMDEC
 70
     4
  9
$DIMTDEC
 70
     4
  9
$DIMALTU
 70
     2
  9
$DIMALTTD
 70
     4
  9
$DIMTXSTY
  7
STANDARD
  9
$DIMAUNIT
 70
     0
  9
$DIMADEC
 70
     0
  9
$DIMALTRND
 40
0.0
  9
$DIMAZIN
 70
     2
  9
$DIMDSEP
 70
    46
  9
$DIMATFIT
 70
     3
  9
$DIMFRAC
 70
     0
  9
$DIMLDRBLK
  1

  9
$DIMLUNIT
 70
     2
  9
$DIMLWD
 70
    -1
  9
$DIMLWE
 70
    -1
  9
$DIMTMOVE
 70
     0
  9
$LUNITS
 70
     2
  9
$LUPREC
 70
     4
  9
$SKETCHINC
 40
0.1
  9
$FILLETRAD
 40
4.0
  9
$AUNITS
 70
     1
  9
$AUPREC
 70
     3
  9
$MENU
  1
ACAD
  9
$ELEVATION
 40
0.0
  9
$PELEVATION
 40
0.0
  9
$THICKNESS
 40
50.0
  9
$LIMCHECK
 70
     0
  9
$CHAMFERA
 40
0.0
  9
$CHAMFERB
 40
0.0
  9
$CHAMFERC
 40
0.0
  9
$CHAMFERD
 40
0.0
  9
$SKPOLY
 70
     0
  9
$TDCREATE
 40
2452321.396199653
  9
$TDUCREATE
 40
2452321.021199653
  9
$TDUPDATE
 40
2456213.407986389
  9
$TDUUPDATE
 40
2456213.032986389
  9
$TDINDWG
 40
1.0440113426
  9
$TDUSRTIMER
 40
1.0440059375
  9
$USRTIMER
 70
     1
  9
$ANGBASE
 50
0.0
  9
$ANGDIR
 70
     0
  9
$PDMODE
 70
     3
  9
$PDSIZE
 40
-2.0
  9
$PLINEWID
 40
0.0
  9
$SPLFRAME
 70
     0
  9
$SPLINETYPE
 70
     6
  9
$SPLINESEGS
 70
     8
  9
$HANDSEED
  5
3196
  9
$SURFTAB1
 70
     6
  9
$SURFTAB2
 70
     6
  9
$SURFTYPE
 70
     6
  9
$SURFU
 70
     6
  9
$SURFV
 70
     6
  9
$UCSBASE
  2

  9
$UCSNAME
  2

  9
$UCSORG
 10
0.0
 20
0.0
 30
0.0
  9
$UCSXDIR
 10
1.0
 20
0.0
 30
0.0
  9
$UCSYDIR
 10
0.0
 20
1.0
 30
0.0
  9
$UCSORTHOREF
  2

  9
$UCSORTHOVIEW
 70
     0
  9
$UCSORGTOP
 10
0.0
 20
0.0
 30
0.0
  9
$UCSORGBOTTOM
 10
0.0
 20
0.0
 30
0.0
  9
$UCSORGLEFT
 10
0.0
 20
0.0
 30
0.0
  9
$UCSORGRIGHT
 10
0.0
 20
0.0
 30
0.0
  9
$UCSORGFRONT
 10
0.0
 20
0.0
 30
0.0
  9
$UCSORGBACK
 10
0.0
 20
0.0
 30
0.0
  9
$PUCSBASE
  2

  9
$PUCSNAME
  2

  9
$PUCSORG
 10
0.0
 20
0.0
 30
0.0
  9
$PUCSXDIR
 10
1.0
 20
0.0
 30
0.0
  9
$PUCSYDIR
 10
0.0
 20
1.0
 30
0.0
  9
$PUCSORTHOREF
  2

  9
$PUCSORTHOVIEW
 70
     0
  9
$PUCSORGTOP
 10
0.0
 20
0.0
 30
0.0
  9
$PUCSORGBOTTOM
 10
0.0
 20
0.0
 30
0.0
  9
$PUCSORGLEFT
 10
0.0
 20
0.0
 30
0.0
  9
$PUCSORGRIGHT
 10
0.0
 20
0.0
 30
0.0
  9
$PUCSORGFRONT
 10
0.0
 20
0.0
 30
0.0
  9
$PUCSORGBACK
 10
0.0
 20
0.0
 30
0.0
  9
$USERI1
 70
     0
  9
$USERI2
 70
     0
  9
$USERI3
 70
     0
  9
$USERI4
 70
     0
  9
$USERI5
 70
     0
  9
$USERR1
 40
20.0
  9
$USERR2
 40
0.0
  9
$USERR3
 40
0.0
  9
$USERR4
 40
0.0
  9
$USERR5
 40
0.0
  9
$WORLDVIEW
 70
     1
  9
$SHADEDGE
 70
     3
  9
$SHADEDIF
 70
    70
  9
$TILEMODE
 70
     1
  9
$MAXACTVP
 70
    64
  9
$PINSBASE
 10
0.0
 20
0.0
 30
0.0
  9
$PLIMCHECK
 70
     0
  9
$PEXTMIN
 10
1.000000000000000E+20
 20
1.000000000000000E+20
 30
1.000000000000000E+20
  9
$PEXTMAX
 10
-1.000000000000000E+20
 20
-1.000000000000000E+20
 30
-1.000000000000000E+20
  9
$PLIMMIN
 10
0.0
 20
0.0
  9
$PLIMMAX
 10
12.0
 20
9.0
  9
$UNITMODE
 70
     0
  9
$VISRETAIN
 70
     1
  9
$PLINEGEN
 70
     0
  9
$PSLTSCALE
 70
     1
  9
$TREEDEPTH
 70
  3020
  9
$CMLSTYLE
  2
Standard
  9
$CMLJUST
 70
     0
  9
$CMLSCALE
 40
1.0
  9
$PROXYGRAPHICS
 70
     1
  9
$MEASUREMENT
 70
     0
  9
$CELWEIGHT
370
    -1
  9
$ENDCAPS
280
     0
  9
$JOINSTYLE
280
     0
  9
$LWDISPLAY
290
     0
  9
$INSUNITS
 70
     0
  9
$HYPERLINKBASE
  1

  9
$STYLESHEET
  1

  9
$XEDIT
290
     1
  9
$CEPSNTYPE
380
     0
  9
$PSTYLEMODE
290
     1
  9
$FINGERPRINTGUID
  2
{0A6B74DE-5F4D-4794-842F-87A6D159827B}
  9
$VERSIONGUID
  2
{F4ABC491-75CE-4F0E-8F14-837B8C1188D6}
  9
$EXTNAMES
290
     1
  9
$PSVPSCALE
 40
0.0
  9
$OLESTARTUP
290
     0
  0
ENDSEC
  0
SECTION
  2
CLASSES
  0
CLASS
  1
ACDBDICTIONARYWDFLT
  2
AcDbDictionaryWithDefault
  3
ObjectDBX Classes
 90
        0
280
     0
281
     0
  0
CLASS
  1
MATERIAL
  2
AcDbMaterial
  3
ObjectDBX Classes
 90
     1153
280
     0
281
     0
  0
CLASS
  1
VISUALSTYLE
  2
AcDbVisualStyle
  3
ObjectDBX Classes
 90
     4095
280
     0
281
     0
  0
CLASS
  1
SCALE
  2
AcDbScale
  3
ObjectDBX Classes
 90
     1153
280
     0
281
     0
  0
CLASS
  1
TABLESTYLE
  2
AcDbTableStyle
  3
ObjectDBX Classes
 90
     4095
280
     0
281
     0
  0
CLASS
  1
MLEADERSTYLE
  2
AcDbMLeaderStyle
  3
ACDB_MLEADERSTYLE_CLASS
 90
     4095
280
     0
281
     0
  0
CLASS
  1
AMGSETTINGSOBJ
  2
AmgSettingsObj
  3
"AcadM|Product Description: AutoCAD Mechanical|Company: Autodesk, Inc."
 90
     1024
280
     0
281
     0
  0
CLASS
  1
ACME_DOCUMENT
  2
AcMeDbDoc
  3
AcMeServices
 90
     1024
280
     0
281
     0
  0
CLASS
  1
ACMESCOPE
  2
AcMeScope
  3
AcMeServices
 90
     1024
280
     0
281
     0
  0
CLASS
  1
ACMECOMMANDHISTORY
  2
AcMeCommandHistory
  3
AcMeServices
 90
     1024
280
     0
281
     0
  0
CLASS
  1
ACIMSYSVARMAN
  2
AcImSysVarManager
  3
AcMeServices
 90
     1024
280
     0
281
     0
  0
CLASS
  1
ACIMREALSYSVAR
  2
AcImRealSysVar
  3
AcMeServices
 90
     1024
280
     0
281
     0
  0
CLASS
  1
ACIMINTSYSVAR
  2
AcImIntSysVar
  3
AcMeServices
 90
     1024
280
     0
281
     0
  0
CLASS
  1
ACMEDRAWINGMAN
  2
AcMeDrawingMan
  3
AcMeServices
 90
     1024
280
     0
281
     0
  0
CLASS
  1
ACMEVIEW
  2
AcMeView
  3
AcMeServices
 90
     1024
280
     0
281
     0
  0
CLASS
  1
ACDBENTITYCACHE
  2
AcMeEntityCache
  3
AcMeServices
 90
     1024
280
     0
281
     0
  0
CLASS
  1
GSMANAGER
  2
AcMeGSManager
  3
AcMeServices
 90
     1024
280
     0
281
     0
  0
CLASS
  1
AMDTINTERNALREACTOR
  2
AmdtInternalReactor
  3
AcMeServices
 90
     1024
280
     0
281
     0
  0
CLASS
  1
ACMESTATEMGR
  2
AcMeStateMgr
  3
AcMeServices
 90
     1024
280
     0
281
     0
  0
CLASS
  1
ACGREFMASTER
  2
AcGrefMaster
  3
AcAttribServices
 90
     1024
280
     0
281
     0
  0
CLASS
  1
AM_DRAWING_MGR
  2
AcDmDwgMgr
  3
AcMechDwgViewMgmt
 90
     1024
280
     0
281
     0
  0
CLASS
  1
AM_DWG_DOCUMENT
  2
AcDmDwgDocument
  3
AcMechDwgViewMgmt
 90
     1024
280
     0
281
     0
  0
CLASS
  1
AM_DWG_SHEET
  2
AcDmSheet
  3
AcMechDwgViewMgmt
 90
     1024
280
     0
281
     0
  0
CLASS
  1
AM_VIEWDIMPARMAP
  2
AcDmViewDimParMap
  3
AcMechDwgViewMgmt
 90
     1024
280
     0
281
     0
  0
CLASS
  1
AM_DWGMGR_NAME
  2
AcDmDwgMgrName
  3
AcMechDwgViewMgmt
 90
     1024
280
     0
281
     0
  0
CLASS
  1
ACME_DATABASE
  2
AcMeDbDatabase
  3
AcMeServices
 90
     1024
280
     0
281
     0
  0
CLASS
  1
ACRFINSADJUSTERMGR
  2
AcRfInsAdjusterMgr
  3
AcMeServices
 90
     1024
280
     0
281
     0
  0
CLASS
  1
ACGREFACADMASTER
  2
AcGrefacadMaster
  3
AcGrefServices
 90
     1024
280
     0
281
     0
  0
CLASS
  1
AMDTMENUSTATEMGR
  2
AmdtMenuStateMgr
  3
McadcomServices
 90
     1024
280
     0
281
     0
  0
CLASS
  1
AMDTMCOMMENUSTATE
  2
AmdtMcomMenuState
  3
McadcomServices
 90
     1024
280
     0
281
     0
  0
CLASS
  1
AMIMASTER
  2
AmiMaster
  3
AmiServices
 90
     1024
280
     0
281
     0
  0
CLASS
  1
ASAPP
  2
AcAsAppObject
  3
AutoSurfServices
 90
     1024
280
     0
281
     0
  0
CLASS
  1
IM_STATIC_MAN
  2
AcImStaticVarManager
  3
AcMeServices
 90
     1024
280
     0
281
     0
  0
CLASS
  1
ACIMSTRSYSVAR
  2
AcImStrSysVar
  3
AcMeServices
 90
     1024
280
     0
281
     0
  0
CLASS
  1
ACIMDBLSTATICVAR
  2
AcImDblStaticVar
  3
AcMeServices
 90
     1024
280
     0
281
     0
  0
CLASS
  1
ACIMSTRSTATICVAR
  2
AcImStrStaticVar
  3
AcMeServices
 90
     1024
280
     0
281
     0
  0
CLASS
  1
ACIMINTSTATICVAR
  2
AcImIntStaticVar
  3
AcMeServices
 90
     1024
280
     0
281
     0
  0
CLASS
  1
ACASGREFMASTER
  2
AcAsGrefMaster
  3
AutoSurfResolverServices
 90
     1024
280
     0
281
     0
  0
CLASS
  1
ACADGREFMODULE
  2
AcAdGrefModule
  3
AdGrefServices
 90
     1024
280
     0
281
     0
  0
CLASS
  1
AMDTMAPISURFMOUDULE
  2
AmdtMApiSurfModule
  3
MApiSurfServices
 90
     1024
280
     0
281
     0
  0
CLASS
  1
MAPIAMMOUDLE
  2
MApiAmModule
  3
MApiAmServices
 90
     1024
280
     0
281
     0
  0
CLASS
  1
AMDTADMENUSTATE
  2
AmdtAdMenuState
  3
DesignerServices
 90
     1024
280
     0
281
     0
  0
CLASS
  1
ADAPPL
  2
AcAdAppl
  3
DesignerServices
 90
     1024
280
     0
281
     0
  0
CLASS
  1
DEPMGR
  2
AcAdDepMgr
  3
DesignerServices
 90
     1024
280
     0
281
     0
  0
CLASS
  1
PARAMMGR
  2
AcAdParamMgr
  3
DesignerServices
 90
     1024
280
     0
281
     0
  0
CLASS
  1
PARAMSCOPE
  2
AcAdParamScope
  3
DesignerServices
 90
     1024
280
     0
281
     0
  0
CLASS
  1
NAMEDAPPL
  2
AcAdNamedAppl
  3
DesignerServices
 90
     1024
280
     0
281
     0
  0
CLASS
  1
AMDTDMMENUSTATE
  2
AmdtDmMenuState
  3
AcMechDwgViewMgmt
 90
     1024
280
     0
281
     0
  0
CLASS
  1
MAPIADMODULE
  2
MApiAdModule
  3
MApiAdServices
 90
     1024
280
     0
281
     0
  0
CLASS
  1
AMDTAMMENUSTATE
  2
AmdtAmMenuState
  3
DesignerAssemblies
 90
     1024
280
     0
281
     0
  0
CLASS
  1
ACAMPROJECT
  2
AcAmProject
  3
DesignerAssemblies
 90
     1024
280
     0
281
     0
  0
CLASS
  1
ACAMGRCOMPDEF
  2
AcAmGrCompDef
  3
DesignerAssemblies
 90
     1024
280
     0
281
     0
  0
CLASS
  1
ACCMCONTEXT
  2
AcCmContext
  3
DesignerAssemblies
 90
     1024
280
     0
281
     0
  0
CLASS
  1
ACAMCOMPDEF
  2
AcAmCompDef
  3
DesignerAssemblies
 90
     1024
280
     0
281
     0
  0
CLASS
  1
ACAMCOMPDEFMGR
  2
AcAmCompDefMgr
  3
DesignerAssemblies
 90
     1024
280
     0
281
     0
  0
CLASS
  1
AMCONTEXTMGR
  2
AcAmContextMgr
  3
DesignerAssemblies
 90
     1024
280
     0
281
     0
  0
CLASS
  1
ACAMCONTEXTMODELER
  2
AcAmContextModeler
  3
DesignerAssemblies
 90
     1024
280
     0
281
     0
  0
CLASS
  1
ACMDATADICTIONARY
  2
AcmDataDictionary
  3
"AcmSymBB|Product Description: AutoCAD Mechanical|Company: Autodesk, Inc."
 90
     1024
280
     0
281
     0
  0
CLASS
  1
ACMDATAENTRYBLOCK
  2
AcmDataEntryBlock
  3
AcmSymBB|Product Description: AutoCAD Mechanical|Company: Autodesk, Inc.
 90
     1024
280
     0
281
     0
  0
CLASS
  1
ACRFATTGENMGR
  2
AcRfAttGeneralMgr
  3
AcAttribServices
 90
     1024
280
     0
281
     0
  0
CLASS
  1
ACRFOBJATTMGR
  2
AcRfObjAttGroupMgr
  3
AcAttribServices
 90
     1024
280
     0
281
     0
  0
CLASS
  1
ACRFMCADAPIATTHOLDER
  2
AcRfMCADAPIAttHolder
  3
AcAttribServices
 90
     1024
280
     0
281
     0
  0
CLASS
  1
AMDTSYSATTR
  2
AmdtSystemAttribute
  3
AcAttribServices
 90
     1024
280
     0
281
     0
  0
CLASS
  1
CATALOGSTATE
  2
AcAmCatalogState
  3
DesignerAssemblies
 90
     1024
280
     0
281
     0
  0
CLASS
  1
ACAMGRCOMPDEFSET
  2
AcAmGrCompDefSet
  3
DesignerAssemblies
 90
     1024
280
     0
281
     0
  0
CLASS
  1
AMDTBROWSERDBTAB
  2
AmdtBrowserDbTab
  3
McadcomServices
 90
     1024
280
     0
281
     0
  0
CLASS
  1
CBROWSERAPPOBJECT
  2
CBrowserAppObject
  3
McadcomServices
 90
     1024
280
     0
281
     0
  0
CLASS
  1
DM_PLACEHOLDER
  2
AcDmSelsetPlaceholder
  3
AcMechDwgViewMgmt
 90
     1024
280
     0
281
     0
  0
CLASS
  1
ACMSTANDARDANSI
  2
AcmStandardANSI
  3
"Amdt_StdImp|Product Description: AutoCAD Mechanical|Company: Autodesk, Inc."
 90
     1024
280
     0
281
     0
  0
CLASS
  1
ACMSURFSTANDARDANSI
  2
AcmSurfTextStdANSI
  3
"Amdt_StdImp|Product Description: AutoCAD Mechanical|Company: Autodesk, Inc."
 90
     1024
280
     0
281
     0
  0
CLASS
  1
ACMFCFSTANDARDANSI
  2
AcmFCFStdANSI
  3
"Amdt_StdImp|Product Description: AutoCAD Mechanical|Company: Autodesk, Inc."
 90
     1024
280
     0
281
     0
  0
CLASS
  1
ACMWELDSTANDARDANSI
  2
AcmWeldingStdANSI
  3
"Amdt_StdImp|Product Description: AutoCAD Mechanical|Company: Autodesk, Inc."
 90
     1024
280
     0
281
     0
  0
CLASS
  1
ACMIDSTANDARDANSI
  2
AcmIdStdANSI
  3
"Amdt_StdImp|Product Description: AutoCAD Mechanical|Company: Autodesk, Inc."
 90
     1024
280
     0
281
     0
  0
CLASS
  1
ACMDATUMSTANDARDANSI
  2
AcmDatumStdANSI
  3
"Amdt_StdImp|Product Description: AutoCAD Mechanical|Company: Autodesk, Inc."
 90
     1024
280
     0
281
     0
  0
CLASS
  1
ACMBOMSTANDARDANSI
  2
AcmBOMStdANSI
  3
"Amdt_StdImp|Product Description: AutoCAD Mechanical|Company: Autodesk, Inc."
 90
     1024
280
     0
281
     0
  0
CLASS
  1
ACMDETAILSTANDARDANSI
  2
AmdtDetailSymStdANSI
  3
"Amdt_StdImp|Product Description: AutoCAD Mechanical|Company: Autodesk, Inc."
 90
     1024
280
     0
281
     0
  0
CLASS
  1
ACMSECTIONSTANDARDANSI
  2
AmdtSectionSymStdANSI
  3
"Amdt_StdImp|Product Description: AutoCAD Mechanical|Company: Autodesk, Inc."
 90
     1024
280
     0
281
     0
  0
CLASS
  1
ACMCENTERLINESTANDARDANSI
  2
AmdtCenterLineStdANSI
  3
"Amdt_StdImp|Product Description: AutoCAD Mechanical|Company: Autodesk, Inc."
 90
     1024
280
     0
281
     0
  0
CLASS
  1
ACMTHREADLINESTANDARDANSI
  2
AmdtThreadLineStdANSI
  3
"Amdt_StdImp|Product Description: AutoCAD Mechanical|Company: Autodesk, Inc."
 90
     1024
280
     0
281
     0
  0
CLASS
  1
ACMNOTESTANDARDANSI
  2
AmdtNoteStdANSI
  3
"Amdt_StdImp|Product Description: AutoCAD Mechanical|Company: Autodesk, Inc."
 90
     1024
280
     0
281
     0
  0
CLASS
  1
ACMTAPERSTANDARDANSI
  2
AcmTaperStdANSI
  3
"Amdt_StdImp|Product Description: AutoCAD Mechanical|Company: Autodesk, Inc."
 90
     1024
280
     0
281
     0
  0
CLASS
  1
ACMANOOTATIONVIEWSTANDARDANSI
  2
AmdtAnViewStdANSI
  3
"Amdt_StdImp|Product Description: AutoCAD Mechanical|Company: Autodesk, Inc."
 90
     1024
280
     0
281
     0
  0
CLASS
  1
ACAMGLAYSTD
  2
AcAmgLayStd
  3
"AmgLay|Product Description: AutoCAD Mechanical|Company: Autodesk, Inc."
 90
     1024
280
     0
281
     0
  0
CLASS
  1
ACAMGDIMSTD
  2
AcAmgDimStd
  3
"AmgDim|Product Description: AutoCAD Mechanical|Company: Autodesk, Inc."
 90
     1024
280
     0
281
     0
  0
CLASS
  1
ACAMGHOLECHARTSTDANSI
  2
AcAmgHoleChartStdANSI
  3
AmgDim|Product Description: AutoCAD Mechanical|Company: Autodesk, Inc.
 90
     1024
280
     0
281
     0
  0
CLASS
  1
AMGOBJPROPCFG
  2
AmgObjPropCfg
  3
"AmgLay|Product Description: AutoCAD Mechanical|Company: Autodesk, Inc."
 90
     1025
280
     0
281
     0
  0
CLASS
  1
ACAMGTITLESTD
  2
AcAmgTitleStd
  3
"AmgTitle|Product Description: AutoCAD Mechanical|Company: Autodesk, Inc."
 90
     4095
280
     0
281
     0
  0
CLASS
  1
AMDTNOTETEMPLATEDB
  2
AmdtNoteTemplateDB
  3
AcmSymBB|Product Description: AutoCAD Mechanical|Company: Autodesk, Inc.
 90
     1024
280
     0
281
     0
  0
CLASS
  1
LAYER_INDEX
  2
AcDbLayerIndex
  3
ObjectDBX Classes
 90
        0
280
     0
281
     0
  0
CLASS
  1
IDBUFFER
  2
AcDbIdBuffer
  3
ObjectDBX Classes
 90
        0
280
     0
281
     0
  0
CLASS
  1
DICTIONARYVAR
  2
AcDbDictionaryVar
  3
ObjectDBX Classes
 90
        0
280
     0
281
     0
  0
CLASS
  1
CELLSTYLEMAP
  2
AcDbCellStyleMap
  3
ObjectDBX Classes
 90
     1152
280
     0
281
     0
  0
CLASS
  1
ACDBPLACEHOLDER
  2
AcDbPlaceHolder
  3
ObjectDBX Classes
 90
        0
280
     0
281
     0
  0
CLASS
  1
LAYOUT
  2
AcDbLayout
  3
ObjectDBX Classes
 90
        0
280
     0
281
     0
  0
ENDSEC
  0
SECTION
  2
TABLES
  0
TABLE
  2
VPORT
  5
2F8F
330
0
100
AcDbSymbolTable
 70
     1
  0
VPORT
  5
2FFF
330
2F8F
100
AcDbSymbolTableRecord
100
AcDbViewportTableRecord
  2
*ACTIVE
 70
     0
 10
0.0
 20
0.0
 11
1.0
 21
1.0
 12
0.0
 22
0.0
 13
0.0
 23
0.0
 14
1.0
 24
1.0
 15
0.0
 25
0.0
 16
0.0
 26
0.0
 36
1.0
 17
128.4782549465047
 27
-260.9939480444818
 37
0.0
 40
1566.623646876935
 41
1.712555066079295
 42
50.0
 43
0.0
 44
0.0
 50
0.0
 51
0.0
 71
     0
 72
   100
 73
     1
 74
     0
 75
     0
 76
     0
 77
     0
 78
     0
281
     0
 65
     0
110
0.0
120
0.0
130
0.0
111
1.0
121
0.0
131
0.0
112
0.0
122
1.0
132
0.0
 79
     0
146
0.0
  0
ENDTAB
  0
TABLE
  2
LTYPE
  5
2F8C
330
0
100
AcDbSymbolTable
 70
    19
  0
LTYPE
  5
2FE9
330
2F8C
100
AcDbSymbolTableRecord
100
AcDbLinetypeTableRecord
  2
ByBlock
 70
     0
  3

 72
    65
 73
     0
 40
0.0
  0
LTYPE
  5
2FEA
330
2F8C
100
AcDbSymbolTableRecord
100
AcDbLinetypeTableRecord
  2
ByLayer
 70
     0
  3

 72
    65
 73
     0
 40
0.0
  0
LTYPE
  5
2FEB
330
2F8C
100
AcDbSymbolTableRecord
100
AcDbLinetypeTableRecord
  2
CONTINUOUS
 70
     0
  3
実線
 72
    65
 73
     0
 40
0.0
  0
LTYPE
  5
3000
330
2F8C
100
AcDbSymbolTableRecord
100
AcDbLinetypeTableRecord
  2
DASHDOT
 70
     0
  3
____ _ ____ _ ____ _ ____ _ ____ _ ____ _ ____
 72
    65
 73
     4
 40
5.5
 49
4.0
 74
     0
 49
-0.6
 74
     0
 49
0.3
 74
     0
 49
-0.6
 74
     0
  0
LTYPE
  5
3001
330
2F8C
100
AcDbSymbolTableRecord
100
AcDbLinetypeTableRecord
  2
HIDDEN
 70
     0
  3
Hidden __ __ __ __ __ __ __ __ __ __ __ __ __ _
 72
    65
 73
     2
 40
0.375
 49
0.25
 74
     0
 49
-0.125
 74
     0
  0
LTYPE
  5
3002
330
2F8C
100
AcDbSymbolTableRecord
100
AcDbLinetypeTableRecord
  2
PHANTOM2
 70
     0
  3
Phantom (.5x) ___ _ _ ___ _ _ ___ _ _ ___ _ _
 72
    65
 73
     6
 40
1.25
 49
0.625
 74
     0
 49
-0.125
 74
     0
 49
0.125
 74
     0
 49
-0.125
 74
     0
 49
0.125
 74
     0
 49
-0.125
 74
     0
  0
LTYPE
  5
3003
330
2F8C
100
AcDbSymbolTableRecord
100
AcDbLinetypeTableRecord
  2
CENTER
 70
     0
  3
Center ____ _ ____ _ ____ _ ____ _ ____ _ ____
 72
    65
 73
     4
 40
2.0
 49
1.25
 74
     0
 49
-0.25
 74
     0
 49
0.25
 74
     0
 49
-0.25
 74
     0
  0
LTYPE
  5
3004
330
2F8C
100
AcDbSymbolTableRecord
100
AcDbLinetypeTableRecord
  2
ASULTYPE
 70
     0
  3
実線
 72
    65
 73
     2
 40
3.0
 49
2.5
 74
     0
 49
0.5
 74
     0
  0
LTYPE
  5
3005
330
2F8C
100
AcDbSymbolTableRecord
100
AcDbLinetypeTableRecord
  2
ASVLTYPE
 70
     0
  3
__ __ __ __ __ __ __ __ __ __ __ __ __ __ __ __ __ __ __ __ __
 72
    65
 73
     2
 40
0.75
 49
0.5
 74
     0
 49
-0.25
 74
     0
  0
LTYPE
  5
3006
330
2F8C
100
AcDbSymbolTableRecord
100
AcDbLinetypeTableRecord
  2
AM_ISO02W050
 70
     0
  3
__ __ __ __ __ __ __ __ __ __ __ __ __ __ __
 72
    65
 73
     2
 40
7.5
 49
6.0
 74
     0
 49
-1.5
 74
     0
  0
LTYPE
  5
3007
330
2F8C
100
AcDbSymbolTableRecord
100
AcDbLinetypeTableRecord
  2
AM_ISO08W050
 70
     0
  3
____ . ____ . ____ . ____ . ____ . ____ . ____
 72
    65
 73
     4
 40
18.0
 49
12.0
 74
     0
 49
-1.5
 74
     0
 49
3.0
 74
     0
 49
-1.5
 74
     0
  0
LTYPE
  5
3008
330
2F8C
100
AcDbSymbolTableRecord
100
AcDbLinetypeTableRecord
  2
AM_ISO09W050
 70
     0
  3
_____ . . _____ . . _____ . . ____ .. ____
 72
    65
 73
     6
 40
22.5
 49
12.0
 74
     0
 49
-1.5
 74
     0
 49
3.0
 74
     0
 49
-1.5
 74
     0
 49
3.0
 74
     0
 49
-1.5
 74
     0
  0
LTYPE
  5
3009
330
2F8C
100
AcDbSymbolTableRecord
100
AcDbLinetypeTableRecord
  2
AMCONSTR
 70
     0
  3
_______________________
 72
    65
 73
     2
 40
9999.0
 49
9999.0
 74
     0
 49
0.0
 74
     0
  0
LTYPE
  5
300A
330
2F8C
100
AcDbSymbolTableRecord
100
AcDbLinetypeTableRecord
  2
AM_ISO08W050X2
 70
     0
  3
__ . __ . __ . __ . __ . __
 72
    65
 73
     4
 40
9.0
 49
6.0
 74
     0
 49
-0.75
 74
     0
 49
1.5
 74
     0
 49
-0.75
 74
     0
  0
LTYPE
  5
300B
330
2F8C
100
AcDbSymbolTableRecord
100
AcDbLinetypeTableRecord
  2
AM_ISO02W050X2
 70
     0
  3
 _ _ _ _ _ _ _ _ _ _ _ _
 72
    65
 73
     2
 40
3.75
 49
3.0
 74
     0
 49
-0.75
 74
     0
  0
LTYPE
  5
300C
330
2F8C
100
AcDbSymbolTableRecord
100
AcDbLinetypeTableRecord
  2
AMZIGZAG
 70
     0
  3
/\/-/\/-/\/-/\/-/\/-/\/
 72
    65
 73
     2
 40
11.0001
 49
0.0001
 74
     0
 49
-11.0
 74
     0
  0
LTYPE
  5
300D
330
2F8C
100
AcDbSymbolTableRecord
100
AcDbLinetypeTableRecord
  2
CENTER2
 70
     0
  3
Center (.5x) ___ _ ___ _ ___ _ ___ _ ___ _ ___
 72
    65
 73
     4
 40
1.125
 49
0.75
 74
     0
 49
-0.125
 74
     0
 49
0.125
 74
     0
 49
-0.125
 74
     0
  0
LTYPE
  5
300E
330
2F8C
100
AcDbSymbolTableRecord
100
AcDbLinetypeTableRecord
  2
HIDDEN2
 70
     0
  3
Hidden (.5x) _ _ _ _ _ _ _ _ _ _ _ _ _ _ _ _ _
 72
    65
 73
     2
 40
0.1875
 49
0.125
 74
     0
 49
-0.0625
 74
     0
  0
LTYPE
  5
300F
330
2F8C
100
AcDbSymbolTableRecord
100
AcDbLinetypeTableRecord
  2
AMZIGZAG2
 70
     0
  3
/\/-/\/-/\/-/\/-/\/-/\/
 72
    65
 73
     2
 40
0.4401
 49
0.0001
 74
     0
 49
-0.4400000000000003
 74
     0
  0
LTYPE
  5
3010
330
2F8C
100
AcDbSymbolTableRecord
100
AcDbLinetypeTableRecord
  2
ACANSTGB
 70
     0
  3
__ . . __ . .
 72
    65
 73
     6
 40
0.35433070866
 49
0.15748031496
 74
     0
 49
-0.03937007874
 74
     0
 49
0.03937007874
 74
     0
 49
-0.03937007874
 74
     0
 49
0.03937007874
 74
     0
 49
-0.03937007874
 74
     0
  0
LTYPE
  5
3011
330
2F8C
100
AcDbSymbolTableRecord
100
AcDbLinetypeTableRecord
  2
ACANSTGL
 70
     0
  3
_ _ _ _ _
 72
    65
 73
     2
 40
0.11811023622
 49
0.07874015748
 74
     0
 49
-0.03937007874
 74
     0
  0
ENDTAB
  0
TABLE
  2
LAYER
  5
2F89
330
0
100
AcDbSymbolTable
 70
    13
  0
LAYER
  5
2FE3
102
{ACAD_XDICTIONARY
360
3152
102
}
330
2F89
100
AcDbSymbolTableRecord
100
AcDbLayerTableRecord
  2
0
 70
     0
 62
     7
  6
CONTINUOUS
370
    -3
390
2F96
  0
LAYER
  5
3012
102
{ACAD_XDICTIONARY
360
3154
102
}
330
2F89
100
AcDbSymbolTableRecord
100
AcDbLayerTableRecord
  2
OUTLINE
 70
     0
 62
     3
  6
CONTINUOUS
370
    -3
390
2F96
  0
LAYER
  5
3013
102
{ACAD_XDICTIONARY
360
3156
102
}
330
2F89
100
AcDbSymbolTableRecord
100
AcDbLayerTableRecord
  2
SIZE
 70
     0
 62
    30
  6
CONTINUOUS
370
    -3
390
2F96
  0
LAYER
  5
3014
102
{ACAD_XDICTIONARY
360
3158
102
}
330
2F89
100
AcDbSymbolTableRecord
100
AcDbLayerTableRecord
  2
BASIS
 70
     0
 62
     6
  6
DASHDOT
370
    -3
390
2F96
  0
LAYER
  5
3015
102
{ACAD_XDICTIONARY
360
315A
102
}
330
2F89
100
AcDbSymbolTableRecord
100
AcDbLayerTableRecord
  2
DETAIL
 70
     0
 62
     5
  6
CONTINUOUS
370
    -3
390
2F96
  0
LAYER
  5
3016
102
{ACAD_XDICTIONARY
360
315C
102
}
330
2F89
100
AcDbSymbolTableRecord
100
AcDbLayerTableRecord
  2
ARRANGE
 70
     0
 62
     1
  6
CONTINUOUS
370
    -3
390
2F96
  0
LAYER
  5
3017
330
2F89
100
AcDbSymbolTableRecord
100
AcDbLayerTableRecord
  2
DEFPOINTS
 70
     0
 62
     7
  6
CONTINUOUS
290
     0
370
    -3
390
2F96
  0
LAYER
  5
3018
102
{ACAD_XDICTIONARY
360
315E
102
}
330
2F89
100
AcDbSymbolTableRecord
100
AcDbLayerTableRecord
  2
ETC
 70
     0
 62
    61
  6
CONTINUOUS
370
    -3
390
2F96
  0
LAYER
  5
3019
102
{ACAD_XDICTIONARY
360
3160
102
}
330
2F89
100
AcDbSymbolTableRecord
100
AcDbLayerTableRecord
  2
FIX
 70
     0
 62
    11
  6
CONTINUOUS
370
    -3
390
2F96
  0
LAYER
  5
301A
102
{ACAD_XDICTIONARY
360
3162
102
}
330
2F89
100
AcDbSymbolTableRecord
100
AcDbLayerTableRecord
  2
NOTE
 70
     0
 62
     4
  6
CONTINUOUS
370
    -3
390
2F96
  0
LAYER
  5
301B
102
{ACAD_XDICTIONARY
360
3164
102
}
330
2F89
100
AcDbSymbolTableRecord
100
AcDbLayerTableRecord
  2
SERVICESPACE
 70
     0
 62
     2
  6
DASHDOT
370
    -3
390
2F96
  0
LAYER
  5
301C
102
{ACAD_XDICTIONARY
360
3166
102
}
330
2F89
100
AcDbSymbolTableRecord
100
AcDbLayerTableRecord
  2
SYMBOLLINE
 70
     0
 62
    15
  6
CONTINUOUS
370
    -3
390
2F96
  0
LAYER
  5
301D
102
{ACAD_XDICTIONARY
360
3168
102
}
330
2F89
100
AcDbSymbolTableRecord
100
AcDbLayerTableRecord
  2
DETAIL___1
 70
     0
 62
     5
  6
CONTINUOUS
370
    -3
390
2F96
  0
ENDTAB
  0
TABLE
  2
STYLE
  5
2F8A
330
0
100
AcDbSymbolTable
 70
     5
  0
STYLE
  5
2FE4
330
2F8A
100
AcDbSymbolTableRecord
100
AcDbTextStyleTableRecord
  2
STANDARD
 70
     0
 40
64.0
 41
0.9
 50
0.0
 71
     0
 42
64.0
  3
SIMPLEX.shx
  4
BIGFONT.shx
  0
STYLE
  5
2FE8
330
2F8A
100
AcDbSymbolTableRecord
100
AcDbTextStyleTableRecord
  2
ANNOTATIVE
 70
     0
 40
0.0
 41
1.0
 50
0.0
 71
     0
 42
0.2
  3
txt
  4

1001
ACADANNOTATIVE
1000
AnnotativeData
1002
{
1070
     1
1070
     1
1002
}
  0
STYLE
  5
301E
330
2F8A
100
AcDbSymbolTableRecord
100
AcDbTextStyleTableRecord
  2

 70
     1
 40
0.0
 41
1.0
 50
0.0
 71
     0
 42
64.0
  3
genltshp.shx
  4

  0
STYLE
  5
301F
330
2F8A
100
AcDbSymbolTableRecord
100
AcDbTextStyleTableRecord
  2
ACANSTS
 70
     0
 40
1.0
 41
1.0
 50
0.0
 71
     0
 42
64.0
  3
romans.shx
  4
extfont.shx
  0
STYLE
  5
3020
330
2F8A
100
AcDbSymbolTableRecord
100
AcDbTextStyleTableRecord
  2
ACANSGDT
 70
     0
 40
0.0
 41
1.0
 50
0.0
 71
     0
 42
64.0
  3
amgdt.shx
  4

  0
ENDTAB
  0
TABLE
  2
VIEW
  5
2F8D
330
0
100
AcDbSymbolTable
 70
     1
  0
VIEW
  5
3021
330
2F8D
100
AcDbSymbolTableRecord
100
AcDbViewTableRecord
  2
ALL
 70
     0
 40
4282.619807999997
 10
0.0
 20
41.30990399999999
 41
5940.0
 11
0.0
 21
0.0
 31
1.0
 12
0.0
 22
0.0
 32
0.0
 42
50.0
 43
0.0
 44
0.0
 50
0.0
 71
     0
281
     0
 72
     1
110
0.0
120
0.0
130
0.0
111
1.0
121
0.0
131
0.0
112
0.0
122
1.0
132
0.0
 79
     0
146
0.0
  0
ENDTAB
  0
TABLE
  2
UCS
  5
2F8E
330
0
100
AcDbSymbolTable
 70
     0
  0
ENDTAB
  0
TABLE
  2
APPID
  5
2F90
330
0
100
AcDbSymbolTable
 70
    30
  0
APPID
  5
2FE5
330
2F90
100
AcDbSymbolTableRecord
100
AcDbRegAppTableRecord
  2
ACAD
 70
     0
  0
APPID
  5
2FEC
330
2F90
100
AcDbSymbolTableRecord
100
AcDbRegAppTableRecord
  2
ACADANNOTATIVE
 70
     0
  0
APPID
  5
2FF6
330
2F90
100
AcDbSymbolTableRecord
100
AcDbRegAppTableRecord
  2
ACAD_MLEADERVER
 70
     0
  0
APPID
  5
3022
330
2F90
100
AcDbSymbolTableRecord
100
AcDbRegAppTableRecord
  2
GENIUS_GENDIM_13
 70
     0
  0
APPID
  5
3023
330
2F90
100
AcDbSymbolTableRecord
100
AcDbRegAppTableRecord
  2
GENIUS_GENDTOL_13
 70
     0
  0
APPID
  5
3024
330
2F90
100
AcDbSymbolTableRecord
100
AcDbRegAppTableRecord
  2
GENIUS_GE3DTOL_13
 70
     0
  0
APPID
  5
3025
330
2F90
100
AcDbSymbolTableRecord
100
AcDbRegAppTableRecord
  2
MCAD_NO_VIS
 70
     0
  0
APPID
  5
3026
330
2F90
100
AcDbSymbolTableRecord
100
AcDbRegAppTableRecord
  2
ACAD_TEMP_GRAPHIC
 70
     0
  0
APPID
  5
3027
330
2F90
100
AcDbSymbolTableRecord
100
AcDbRegAppTableRecord
  2
AD_DRAW
 70
     0
  0
APPID
  5
3028
330
2F90
100
AcDbSymbolTableRecord
100
AcDbRegAppTableRecord
  2
ACATTRIBSERVICES
 70
     0
  0
APPID
  5
3029
330
2F90
100
AcDbSymbolTableRecord
100
AcDbRegAppTableRecord
  2
ASURF_PCURVE_APPNAME
 70
     0
  0
APPID
  5
302A
330
2F90
100
AcDbSymbolTableRecord
100
AcDbRegAppTableRecord
  2
AMG_3D2D_5_0
 70
     0
  0
APPID
  5
302B
330
2F90
100
AcDbSymbolTableRecord
100
AcDbRegAppTableRecord
  2
DESIGNERASSEMBLIES
 70
     0
  0
APPID
  5
302C
330
2F90
100
AcDbSymbolTableRecord
100
AcDbRegAppTableRecord
  2
ACADM_DIM_EDIT
 70
     0
  0
APPID
  5
302D
330
2F90
100
AcDbSymbolTableRecord
100
AcDbRegAppTableRecord
  2
AMDT_DM_ADJ
 70
     0
  0
APPID
  5
302E
330
2F90
100
AcDbSymbolTableRecord
100
AcDbRegAppTableRecord
  2
ACAD_DSTYLE_DIMARC_LENGTH_
 70
     0
  0
APPID
  5
302F
330
2F90
100
AcDbSymbolTableRecord
100
AcDbRegAppTableRecord
  2
ACAD_DSTYLE_DIMJOGGED_JOGA
 70
     0
  0
APPID
  5
3030
330
2F90
100
AcDbSymbolTableRecord
100
AcDbRegAppTableRecord
  2
ACAD_PSEXT
 70
     0
  0
APPID
  5
3031
330
2F90
100
AcDbSymbolTableRecord
100
AcDbRegAppTableRecord
  2
ACAD_EXEMPT_FROM_CAD_STANDARDS
 70
     0
  0
APPID
  5
3032
330
2F90
100
AcDbSymbolTableRecord
100
AcDbRegAppTableRecord
  2
ACAD_DSTYLE_DIMJAG
 70
     0
  0
APPID
  5
3033
330
2F90
100
AcDbSymbolTableRecord
100
AcDbRegAppTableRecord
  2
ACAD_DSTYLE_DIMTALN
 70
     0
  0
APPID
  5
3034
330
2F90
100
AcDbSymbolTableRecord
100
AcDbRegAppTableRecord
  2
AMG_3D2D_5_00
 70
     0
  0
APPID
  5
3035
330
2F90
100
AcDbSymbolTableRecord
100
AcDbRegAppTableRecord
  2
AMG_3D2D_5_01
 70
     0
  0
APPID
  5
3036
330
2F90
100
AcDbSymbolTableRecord
100
AcDbRegAppTableRecord
  2
AMG_3D2D_5_02
 70
     0
  0
APPID
  5
3037
330
2F90
100
AcDbSymbolTableRecord
100
AcDbRegAppTableRecord
  2
AMG_3D2D_5_03
 70
     0
  0
APPID
  5
30F9
330
2F90
100
AcDbSymbolTableRecord
100
AcDbRegAppTableRecord
  2
AMG_3D2D_5.0
 70
     0
  0
APPID
  5
3192
330
2F90
100
AcDbSymbolTableRecord
100
AcDbRegAppTableRecord
  2
ACAD_DSTYLE_DIMARC_LENGTH_SYMBOL
 70
     0
  0
APPID
  5
3193
330
2F90
100
AcDbSymbolTableRecord
100
AcDbRegAppTableRecord
  2
ACAD_DSTYLE_DIM_LINETYPE
 70
     0
  0
APPID
  5
3194
330
2F90
100
AcDbSymbolTableRecord
100
AcDbRegAppTableRecord
  2
ACAD_DSTYLE_DIM_EXT1_LINETYPE
 70
     0
  0
APPID
  5
3195
330
2F90
100
AcDbSymbolTableRecord
100
AcDbRegAppTableRecord
  2
ACAD_DSTYLE_DIM_EXT2_LINETYPE
 70
     0
  0
ENDTAB
  0
TABLE
  2
DIMSTYLE
  5
2F91
330
0
100
AcDbSymbolTable
 70
    10
100
AcDbDimStyleTable
 71
     1
340
3038
  0
DIMSTYLE
105
2FE6
330
2F91
100
AcDbSymbolTableRecord
100
AcDbDimStyleTableRecord
  2
STANDARD
 70
     0
 41
12.0
 42
20.0
 44
20.0
 77
     1
 78
     8
140
64.0
141
0.0
147
10.0
172
     1
275
     1
279
     2
284
     7
285
     7
286
     7
340
2FE4
  0
DIMSTYLE
105
2FE7
330
2F91
100
AcDbSymbolTableRecord
100
AcDbDimStyleTableRecord
  2
ANNOTATIVE
 70
     0
275
     1
279
     2
284
     7
285
     7
286
     7
340
2FE4
1001
ACADANNOTATIVE
1000
AnnotativeData
1002
{
1070
     1
1070
     1
1002
}
  0
DIMSTYLE
105
3038
330
2F91
100
AcDbSymbolTableRecord
100
AcDbDimStyleTableRecord
  2
AM_ANSI
 70
     0
  4
mm
 41
0.12
 42
0.05
 43
0.5
 44
0.1
 47
0.1
 48
0.1
 78
     7
 79
     2
140
0.12
141
0.0
146
0.71
147
0.06
176
   256
177
   256
178
     2
274
     4
284
     7
340
2FE4
371
    -1
372
    -1
1001
ACAD_DSTYLE_DIMARC_LENGTH_SYMBOL
1070
   379
1070
     1
1001
ACAD_DSTYLE_DIM_LINETYPE
1070
   380
1005
2FE9
1001
ACAD_DSTYLE_DIM_EXT1_LINETYPE
1070
   381
1005
2FE9
1001
ACAD_DSTYLE_DIM_EXT2_LINETYPE
1070
   382
1005
2FE9
  0
DIMSTYLE
105
3039
330
2F91
100
AcDbSymbolTableRecord
100
AcDbDimStyleTableRecord
  2
AM_ANSI$3
 70
     0
  4
mm
 41
0.12
 42
0.05
 43
0.5
 44
0.1
 47
0.1
 48
0.1
 78
     7
 79
     2
140
0.12
141
0.0
146
0.71
147
0.06
176
   256
177
   256
178
     2
274
     4
284
     7
288
     1
289
     0
340
2FE4
371
    -1
372
    -1
1001
ACAD_DSTYLE_DIMARC_LENGTH_SYMBOL
1070
   379
1070
     1
1001
ACAD_DSTYLE_DIM_LINETYPE
1070
   380
1005
2FE9
1001
ACAD_DSTYLE_DIM_EXT1_LINETYPE
1070
   381
1005
2FE9
1001
ACAD_DSTYLE_DIM_EXT2_LINETYPE
1070
   382
1005
2FE9
  0
DIMSTYLE
105
303A
330
2F91
100
AcDbSymbolTableRecord
100
AcDbDimStyleTableRecord
  2
AM_ANSI$4
 70
     0
  4
mm
 41
0.12
 42
0.05
 43
0.5
 44
0.1
 47
0.1
 48
0.1
 78
     7
 79
     2
140
0.12
141
0.0
146
0.71
147
0.06
176
   256
177
   256
178
     2
274
     4
284
     7
340
2FE4
371
    -1
372
    -1
1001
ACAD_DSTYLE_DIMARC_LENGTH_SYMBOL
1070
   379
1070
     1
1001
ACAD_DSTYLE_DIM_LINETYPE
1070
   380
1005
2FE9
1001
ACAD_DSTYLE_DIM_EXT1_LINETYPE
1070
   381
1005
2FE9
1001
ACAD_DSTYLE_DIM_EXT2_LINETYPE
1070
   382
1005
2FE9
  0
DIMSTYLE
105
303B
330
2F91
100
AcDbSymbolTableRecord
100
AcDbDimStyleTableRecord
  2
AM_ANSI$7
 70
     0
  4
mm
 41
0.12
 42
0.05
 43
0.5
 44
0.1
 47
0.1
 48
0.1
 78
     7
 79
     2
140
0.12
141
0.0
146
0.71
147
0.06
176
   256
177
   256
178
     2
274
     4
284
     7
340
2FE4
371
    -1
372
    -1
1001
ACAD_DSTYLE_DIMARC_LENGTH_SYMBOL
1070
   379
1070
     1
1001
ACAD_DSTYLE_DIM_LINETYPE
1070
   380
1005
2FE9
1001
ACAD_DSTYLE_DIM_EXT1_LINETYPE
1070
   381
1005
2FE9
1001
ACAD_DSTYLE_DIM_EXT2_LINETYPE
1070
   382
1005
2FE9
  0
DIMSTYLE
105
303C
330
2F91
100
AcDbSymbolTableRecord
100
AcDbDimStyleTableRecord
  2
AM_ANSI$SF
 70
     0
  4
mm
 41
0.12
 42
0.05
 43
0.5
 44
0.1
 47
0.1
 48
0.1
 75
     1
 76
     1
 78
     7
 79
     2
140
0.12
141
0.0
146
0.71
147
0.06
176
   256
177
   256
178
     2
274
     4
284
     7
340
2FE4
371
    -1
372
    -1
1001
ACAD_DSTYLE_DIMARC_LENGTH_SYMBOL
1070
   379
1070
     1
1001
ACAD_DSTYLE_DIM_LINETYPE
1070
   380
1005
2FE9
1001
ACAD_DSTYLE_DIM_EXT1_LINETYPE
1070
   381
1005
2FE9
1001
ACAD_DSTYLE_DIM_EXT2_LINETYPE
1070
   382
1005
2FE9
  0
DIMSTYLE
105
303D
330
2F91
100
AcDbSymbolTableRecord
100
AcDbDimStyleTableRecord
  2
AM_ANSI$SH
 70
     0
  4
mm
 41
0.12
 42
0.05
 43
0.5
 44
0.1
 47
0.1
 48
0.1
 75
     1
 76
     1
 78
     7
 79
     2
140
0.12
141
0.0
146
0.71
147
0.06
173
     1
176
   256
177
   256
178
     2
274
     4
284
     7
340
2FE4
343
3051
371
    -1
372
    -1
1001
ACAD_DSTYLE_DIMARC_LENGTH_SYMBOL
1070
   379
1070
     1
1001
ACAD_DSTYLE_DIM_LINETYPE
1070
   380
1005
2FE9
1001
ACAD_DSTYLE_DIM_EXT1_LINETYPE
1070
   381
1005
2FE9
1001
ACAD_DSTYLE_DIM_EXT2_LINETYPE
1070
   382
1005
2FE9
  0
DIMSTYLE
105
303E
330
2F91
100
AcDbSymbolTableRecord
100
AcDbDimStyleTableRecord
  2
STANDARD1
 70
     0
 40
6.0
 41
2.5
 42
0.625
 43
6.0
 44
1.25
 47
1.0
 48
0.5
 77
     1
 78
     8
140
2.5
141
0.0
146
0.6
147
1.0
173
     1
275
     1
279
     2
284
     7
285
     7
286
     7
340
2FE4
  0
DIMSTYLE
105
303F
330
2F91
100
AcDbSymbolTableRecord
100
AcDbDimStyleTableRecord
  2
STANDARD$0
 70
     0
 41
12.0
 42
20.0
 44
20.0
 73
     0
 74
     0
 77
     1
 78
     8
140
64.0
141
0.0
147
10.0
172
     1
275
     1
279
     2
284
     7
285
     7
286
     7
340
2FE4
  0
ENDTAB
  0
TABLE
  2
BLOCK_RECORD
  5
2F88
330
0
100
AcDbSymbolTable
 70
    25
  0
BLOCK_RECORD
  5
2FFB
102
{ACAD_XDICTIONARY
360
316A
102
}
330
2F88
100
AcDbSymbolTableRecord
100
AcDbBlockTableRecord
  2
*Model_Space
340
2FFE
  0
BLOCK_RECORD
  5
2FF7
330
2F88
100
AcDbSymbolTableRecord
100
AcDbBlockTableRecord
  2
*Paper_Space
340
2FFA
  0
BLOCK_RECORD
  5
3047
330
2F88
100
AcDbSymbolTableRecord
100
AcDbBlockTableRecord
  2
$MODEL_SPACE
340
0
  0
BLOCK_RECORD
  5
3049
330
2F88
100
AcDbSymbolTableRecord
100
AcDbBlockTableRecord
  2
$PAPER_SPACE
340
0
  0
BLOCK_RECORD
  5
304B
330
2F88
100
AcDbSymbolTableRecord
100
AcDbBlockTableRecord
  2
_ORIGIN
340
0
  0
BLOCK_RECORD
  5
304D
330
2F88
100
AcDbSymbolTableRecord
100
AcDbBlockTableRecord
  2
_DOTBLANK
340
0
102
{BLKREFS
331
202C
331
202D
331
2035
331
2036
331
203E
331
203F
331
2047
331
2048
331
2052
331
2053
331
205D
331
205E
331
2F20
331
2F21
331
2F25
331
2F26
331
2F2A
331
2F2B
331
2F31
331
2F32
331
2F36
331
2F37
331
2F3B
331
2F3C
102
}
  0
BLOCK_RECORD
  5
304F
330
2F88
100
AcDbSymbolTableRecord
100
AcDbBlockTableRecord
  2
_OPEN30
340
0
102
{BLKREFS
331
2199
331
2586
331
2F44
102
}
  0
BLOCK_RECORD
  5
3051
330
2F88
100
AcDbSymbolTableRecord
100
AcDbBlockTableRecord
  2
GENAXEH
340
0
  0
BLOCK_RECORD
  5
3053
330
2F88
100
AcDbSymbolTableRecord
100
AcDbBlockTableRecord
  2
*U6
340
0
  0
BLOCK_RECORD
  5
3055
330
2F88
100
AcDbSymbolTableRecord
100
AcDbBlockTableRecord
  2
*D7
340
0
  0
BLOCK_RECORD
  5
3057
330
2F88
100
AcDbSymbolTableRecord
100
AcDbBlockTableRecord
  2
*U8
340
0
102
{BLKREFS
331
202E
102
}
  0
BLOCK_RECORD
  5
3059
330
2F88
100
AcDbSymbolTableRecord
100
AcDbBlockTableRecord
  2
*D9
340
0
  0
BLOCK_RECORD
  5
305B
330
2F88
100
AcDbSymbolTableRecord
100
AcDbBlockTableRecord
  2
*U10
340
0
102
{BLKREFS
331
2037
102
}
  0
BLOCK_RECORD
  5
305D
330
2F88
100
AcDbSymbolTableRecord
100
AcDbBlockTableRecord
  2
*D11
340
0
  0
BLOCK_RECORD
  5
305F
330
2F88
100
AcDbSymbolTableRecord
100
AcDbBlockTableRecord
  2
*U12
340
0
102
{BLKREFS
331
2040
102
}
  0
BLOCK_RECORD
  5
3061
330
2F88
100
AcDbSymbolTableRecord
100
AcDbBlockTableRecord
  2
*D13
340
0
  0
BLOCK_RECORD
  5
3063
330
2F88
100
AcDbSymbolTableRecord
100
AcDbBlockTableRecord
  2
*U14
340
0
102
{BLKREFS
331
2049
102
}
  0
BLOCK_RECORD
  5
3065
330
2F88
100
AcDbSymbolTableRecord
100
AcDbBlockTableRecord
  2
*D15
340
0
  0
BLOCK_RECORD
  5
3067
330
2F88
100
AcDbSymbolTableRecord
100
AcDbBlockTableRecord
  2
*U16
340
0
102
{BLKREFS
331
2054
102
}
  0
BLOCK_RECORD
  5
3069
330
2F88
100
AcDbSymbolTableRecord
100
AcDbBlockTableRecord
  2
*D17
340
0
  0
BLOCK_RECORD
  5
306B
330
2F88
100
AcDbSymbolTableRecord
100
AcDbBlockTableRecord
  2
*U18
340
0
102
{BLKREFS
331
205F
102
}
  0
BLOCK_RECORD
  5
306D
330
2F88
100
AcDbSymbolTableRecord
100
AcDbBlockTableRecord
  2
*U19
340
0
  0
BLOCK_RECORD
  5
306F
330
2F88
100
AcDbSymbolTableRecord
100
AcDbBlockTableRecord
  2
*U20
340
0
  0
BLOCK_RECORD
  5
3071
330
2F88
100
AcDbSymbolTableRecord
100
AcDbBlockTableRecord
  2
*U21
340
0
  0
BLOCK_RECORD
  5
3073
330
2F88
100
AcDbSymbolTableRecord
100
AcDbBlockTableRecord
  2
*X22
340
0
102
{BLKREFS
331
2EBC
102
}
  0
BLOCK_RECORD
  5
3075
330
2F88
100
AcDbSymbolTableRecord
100
AcDbBlockTableRecord
  2
*X23
340
0
102
{BLKREFS
331
2EBD
102
}
  0
ENDTAB
  0
ENDSEC
  0
SECTION
  2
BLOCKS
  0
BLOCK
  5
2FFC
330
2FFB
100
AcDbEntity
  8
0
100
AcDbBlockBegin
  2
*Model_Space
 70
     0
 10
0.0
 20
0.0
 30
0.0
  3
*Model_Space
  1

  0
ENDBLK
  5
2FFD
330
2FFB
100
AcDbEntity
  8
0
100
AcDbBlockEnd
  0
BLOCK
  5
2FF8
330
2FF7
100
AcDbEntity
 67
     1
  8
0
100
AcDbBlockBegin
  2
*Paper_Space
 70
     0
 10
0.0
 20
0.0
 30
0.0
  3
*Paper_Space
  1

  0
ENDBLK
  5
2FF9
330
2FF7
100
AcDbEntity
 67
     1
  8
0
100
AcDbBlockEnd
  0
BLOCK
  5
3048
330
3047
100
AcDbEntity
  8
0
100
AcDbBlockBegin
  2
$MODEL_SPACE
 70
     0
 10
0.0
 20
0.0
 30
0.0
  3
$MODEL_SPACE
  1

  0
ENDBLK
  5
290C
330
3047
100
AcDbEntity
  8
0
100
AcDbBlockEnd
  0
BLOCK
  5
304A
330
3049
100
AcDbEntity
  8
0
100
AcDbBlockBegin
  2
$PAPER_SPACE
 70
     0
 10
0.0
 20
0.0
 30
0.0
  3
$PAPER_SPACE
  1

  0
ENDBLK
  5
2908
330
3049
100
AcDbEntity
  8
0
100
AcDbBlockEnd
  0
BLOCK
  5
304C
330
304B
100
AcDbEntity
  8
0
100
AcDbBlockBegin
  2
_ORIGIN
 70
     0
 10
0.0
 20
0.0
 30
0.0
  3
_ORIGIN
  1

  0
CIRCLE
  5
880
330
304B
100
AcDbEntity
  8
0
  6
Continuous
 62
     7
100
AcDbCircle
 10
0.0
 20
0.0
 30
0.0
 40
0.5
  0
LINE
  5
881
330
304B
100
AcDbEntity
  8
0
  6
Continuous
 62
     7
100
AcDbLine
 10
0.0
 20
0.0
 30
0.0
 11
-1.0
 21
0.0
 31
0.0
  0
ENDBLK
  5
882
330
304B
100
AcDbEntity
  8
0
100
AcDbBlockEnd
  0
BLOCK
  5
304E
330
304D
100
AcDbEntity
  8
0
 62
     1
100
AcDbBlockBegin
  2
_DOTBLANK
 70
     0
 10
0.0
 20
0.0
 30
0.0
  3
_DOTBLANK
  1

  0
CIRCLE
  5
AB3
330
304D
100
AcDbEntity
  8
0
  6
ByBlock
 62
     0
100
AcDbCircle
 10
0.0
 20
0.0
 30
0.0
 40
0.5
  0
LINE
  5
AB4
330
304D
100
AcDbEntity
  8
0
  6
ByBlock
 62
     0
100
AcDbLine
 10
-0.5
 20
0.0
 30
0.0
 11
-1.0
 21
0.0
 31
0.0
  0
ENDBLK
  5
AB6
330
304D
100
AcDbEntity
  8
0
 62
     1
100
AcDbBlockEnd
  0
BLOCK
  5
3050
330
304F
100
AcDbEntity
  8
0
 62
     1
100
AcDbBlockBegin
  2
_OPEN30
 70
     0
 10
0.0
 20
0.0
 30
0.0
  3
_OPEN30
  1

  0
LINE
  5
AB8
330
304F
100
AcDbEntity
  8
0
  6
ByBlock
 62
     0
100
AcDbLine
 10
-1.0
 20
0.26794919
 30
0.0
 11
0.0
 21
0.0
 31
0.0
  0
LINE
  5
AB9
330
304F
100
AcDbEntity
  8
0
  6
ByBlock
 62
     0
100
AcDbLine
 10
0.0
 20
0.0
 30
0.0
 11
-1.0
 21
-0.26794919
 31
0.0
  0
LINE
  5
ABA
330
304F
100
AcDbEntity
  8
0
  6
ByBlock
 62
     0
100
AcDbLine
 10
0.0
 20
0.0
 30
0.0
 11
-1.0
 21
0.0
 31
0.0
  0
ENDBLK
  5
ABC
330
304F
100
AcDbEntity
  8
0
 62
     1
100
AcDbBlockEnd
  0
BLOCK
  5
3052
330
3051
100
AcDbEntity
  8
0
100
AcDbBlockBegin
  2
GENAXEH
 70
     0
 10
0.0
 20
0.0
 30
0.0
  3
GENAXEH
  1

  0
LINE
  5
FDB
330
3051
100
AcDbEntity
  8
0
100
AcDbLine
 10
-1.0
 20
0.0
 30
0.0
 11
1.0
 21
0.0
 31
0.0
  0
ENDBLK
  5
FDD
330
3051
100
AcDbEntity
  8
0
100
AcDbBlockEnd
  0
BLOCK
  5
3054
330
3053
100
AcDbEntity
  8
0
100
AcDbBlockBegin
  2
*U6
 70
     1
 10
0.0
 20
0.0
 30
0.0
  3
*U6
  1

  0
ENDBLK
  5
1ED4
330
3053
100
AcDbEntity
  8
0
100
AcDbBlockEnd
  0
BLOCK
  5
3056
330
3055
100
AcDbEntity
  8
0
100
AcDbBlockBegin
  2
*D7
 70
     1
 10
0.0
 20
0.0
 30
0.0
  3
*D7
  1

  0
LINE
  5
2029
330
3055
100
AcDbEntity
  8
SIZE
 62
     0
100
AcDbLine
 10
-135.5
 20
-449.4732256776551
 30
0.0
 11
-135.5
 21
-638.0173952306003
 31
0.0
  0
LINE
  5
202A
330
3055
100
AcDbEntity
  8
SIZE
 62
     0
100
AcDbLine
 10
135.5
 20
-449.4732256776551
 30
0.0
 11
135.5
 21
-638.0173952306003
 31
0.0
  0
LINE
  5
202B
330
3055
100
AcDbEntity
  8
SIZE
 62
     0
100
AcDbLine
 10
-123.5
 20
-618.0173952306001
 30
0.0
 11
123.5
 21
-618.0173952306001
 31
0.0
  0
INSERT
  5
202C
330
3055
100
AcDbEntity
  8
SIZE
 62
     0
100
AcDbBlockReference
  2
_DOTBLANK
 10
-135.5
 20
-618.0173952306001
 30
0.0
 41
12.0
 42
12.0
 43
12.0
 50
180.0
  0
INSERT
  5
202D
330
3055
100
AcDbEntity
  8
SIZE
 62
     0
100
AcDbBlockReference
  2
_DOTBLANK
 10
135.5
 20
-618.0173952306001
 30
0.0
 41
12.0
 42
12.0
 43
12.0
  0
INSERT
  5
202E
330
3055
100
AcDbEntity
  8
0
100
AcDbBlockReference
  2
*U8
 10
0.0
 20
0.0
 30
0.0
  0
POINT
  5
202F
330
3055
100
AcDbEntity
  8
DEFPOINTS
 62
     0
100
AcDbPoint
 10
-135.5
 20
-429.473225677655
 30
0.0
  0
POINT
  5
2030
330
3055
100
AcDbEntity
  8
DEFPOINTS
 62
     0
100
AcDbPoint
 10
135.5
 20
-429.473225677655
 30
0.0
  0
POINT
  5
2031
330
3055
100
AcDbEntity
  8
DEFPOINTS
 62
     0
100
AcDbPoint
 10
135.5
 20
-618.0173952306001
 30
0.0
  0
ENDBLK
  5
1FDF
330
3055
100
AcDbEntity
  8
0
100
AcDbBlockEnd
  0
BLOCK
  5
3058
330
3057
100
AcDbEntity
  8
0
100
AcDbBlockBegin
  2
*U8
 70
     1
 10
0.0
 20
0.0
 30
0.0
  3
*U8
  1

  0
TEXT
  5
21A6
330
3057
100
AcDbEntity
  8
SIZE
 62
     0
100
AcDbText
 10
-61.7142857142857
 20
-608.0173952306003
 30
0.0
 40
64.0
  1
271
 41
0.9
100
AcDbText
  0
ENDBLK
  5
21A8
330
3057
100
AcDbEntity
  8
0
100
AcDbBlockEnd
  0
BLOCK
  5
305A
330
3059
100
AcDbEntity
  8
0
100
AcDbBlockBegin
  2
*D9
 70
     1
 10
0.0
 20
0.0
 30
0.0
  3
*D9
  1

  0
LINE
  5
2032
330
3059
100
AcDbEntity
  8
SIZE
 62
     0
100
AcDbLine
 10
143.7000000000007
 20
-430.0
 30
0.0
 11
304.6432844803784
 21
-430.0
 31
0.0
  0
LINE
  5
2033
330
3059
100
AcDbEntity
  8
SIZE
 62
     0
100
AcDbLine
 10
177.5
 20
-0.0000000000000057
 30
0.0
 11
304.6432844803785
 21
-0.0000000000000417
 31
0.0
  0
LINE
  5
2034
330
3059
100
AcDbEntity
  8
SIZE
 62
     0
100
AcDbLine
 10
284.6432844803784
 20
-418.0
 30
0.0
 11
284.6432844803785
 21
-12.00000000000003
 31
0.0
  0
INSERT
  5
2035
330
3059
100
AcDbEntity
  8
SIZE
 62
     0
100
AcDbBlockReference
  2
_DOTBLANK
 10
284.6432844803784
 20
-430.0
 30
0.0
 41
12.0
 42
12.0
 43
12.0
 50
270.0
  0
INSERT
  5
2036
330
3059
100
AcDbEntity
  8
SIZE
 62
     0
100
AcDbBlockReference
  2
_DOTBLANK
 10
284.6432844803785
 20
-0.000000000000036
 30
0.0
 41
12.0
 42
12.0
 43
12.0
 50
90.0
  0
INSERT
  5
2037
330
3059
100
AcDbEntity
  8
0
100
AcDbBlockReference
  2
*U10
 10
0.0
 20
0.0
 30
0.0
  0
POINT
  5
2038
330
3059
100
AcDbEntity
  8
DEFPOINTS
 62
     0
100
AcDbPoint
 10
123.7000000000007
 20
-430.0
 30
0.0
  0
POINT
  5
2039
330
3059
100
AcDbEntity
  8
DEFPOINTS
 62
     0
100
AcDbPoint
 10
157.5
 20
0.0
 30
0.0
  0
POINT
  5
203A
330
3059
100
AcDbEntity
  8
DEFPOINTS
 62
     0
100
AcDbPoint
 10
284.6432844803785
 20
-0.000000000000036
 30
0.0
  0
ENDBLK
  5
1FEB
330
3059
100
AcDbEntity
  8
0
100
AcDbBlockEnd
  0
BLOCK
  5
305C
330
305B
100
AcDbEntity
  8
0
100
AcDbBlockBegin
  2
*U10
 70
     1
 10
0.0
 20
0.0
 30
0.0
  3
*U10
  1

  0
TEXT
  5
21AA
330
305B
100
AcDbEntity
  8
SIZE
 62
     0
100
AcDbText
 10
274.6432844803785
 20
-289.0571428571429
 30
0.0
 40
64.0
  1
430
 50
90.0
 41
0.9
100
AcDbText
  0
ENDBLK
  5
21AC
330
305B
100
AcDbEntity
  8
0
100
AcDbBlockEnd
  0
BLOCK
  5
305E
330
305D
100
AcDbEntity
  8
0
100
AcDbBlockBegin
  2
*D11
 70
     1
 10
0.0
 20
0.0
 30
0.0
  3
*D11
  1

  0
LINE
  5
203B
330
305D
100
AcDbEntity
  8
SIZE
 62
     0
100
AcDbLine
 10
-140.0
 20
32.5
 30
0.0
 11
-140.0
 21
136.4516878685499
 31
0.0
  0
LINE
  5
203C
330
305D
100
AcDbEntity
  8
SIZE
 62
     0
100
AcDbLine
 10
140.0
 20
32.5
 30
0.0
 11
140.0
 21
136.4516878685499
 31
0.0
  0
LINE
  5
203D
330
305D
100
AcDbEntity
  8
SIZE
 62
     0
100
AcDbLine
 10
-128.0
 20
116.4516878685499
 30
0.0
 11
128.0
 21
116.4516878685499
 31
0.0
  0
INSERT
  5
203E
330
305D
100
AcDbEntity
  8
SIZE
 62
     0
100
AcDbBlockReference
  2
_DOTBLANK
 10
-140.0
 20
116.4516878685499
 30
0.0
 41
12.0
 42
12.0
 43
12.0
 50
180.0
  0
INSERT
  5
203F
330
305D
100
AcDbEntity
  8
SIZE
 62
     0
100
AcDbBlockReference
  2
_DOTBLANK
 10
140.0
 20
116.4516878685499
 30
0.0
 41
12.0
 42
12.0
 43
12.0
  0
INSERT
  5
2040
330
305D
100
AcDbEntity
  8
0
100
AcDbBlockReference
  2
*U12
 10
0.0
 20
0.0
 30
0.0
  0
POINT
  5
2041
330
305D
100
AcDbEntity
  8
DEFPOINTS
 62
     0
100
AcDbPoint
 10
-140.0
 20
12.5
 30
0.0
  0
POINT
  5
2042
330
305D
100
AcDbEntity
  8
DEFPOINTS
 62
     0
100
AcDbPoint
 10
140.0
 20
12.5
 30
0.0
  0
POINT
  5
2043
330
305D
100
AcDbEntity
  8
DEFPOINTS
 62
     0
100
AcDbPoint
 10
140.0
 20
116.4516878685499
 30
0.0
  0
ENDBLK
  5
1FF7
330
305D
100
AcDbEntity
  8
0
100
AcDbBlockEnd
  0
BLOCK
  5
3060
330
305F
100
AcDbEntity
  8
0
100
AcDbBlockBegin
  2
*U12
 70
     1
 10
0.0
 20
0.0
 30
0.0
  3
*U12
  1

  0
TEXT
  5
21AE
330
305F
100
AcDbEntity
  8
SIZE
 62
     0
100
AcDbText
 10
-74.05714285714283
 20
126.4516878685499
 30
0.0
 40
64.0
  1
280
 41
0.9
100
AcDbText
  0
ENDBLK
  5
21B0
330
305F
100
AcDbEntity
  8
0
100
AcDbBlockEnd
  0
BLOCK
  5
3062
330
3061
100
AcDbEntity
  8
0
100
AcDbBlockBegin
  2
*D13
 70
     1
 10
0.0
 20
0.0
 30
0.0
  3
*D13
  1

  0
LINE
  5
2044
330
3061
100
AcDbEntity
  8
SIZE
 62
     0
100
AcDbLine
 10
-157.5
 20
20.0
 30
0.0
 11
-157.5
 21
245.5794621189598
 31
0.0
  0
LINE
  5
2045
330
3061
100
AcDbEntity
  8
SIZE
 62
     0
100
AcDbLine
 10
157.5
 20
20.0
 30
0.0
 11
157.5
 21
245.5794621189598
 31
0.0
  0
LINE
  5
2046
330
3061
100
AcDbEntity
  8
SIZE
 62
     0
100
AcDbLine
 10
-145.5
 20
225.5794621189598
 30
0.0
 11
145.5
 21
225.5794621189598
 31
0.0
  0
INSERT
  5
2047
330
3061
100
AcDbEntity
  8
SIZE
 62
     0
100
AcDbBlockReference
  2
_DOTBLANK
 10
-157.5
 20
225.5794621189598
 30
0.0
 41
12.0
 42
12.0
 43
12.0
 50
180.0
  0
INSERT
  5
2048
330
3061
100
AcDbEntity
  8
SIZE
 62
     0
100
AcDbBlockReference
  2
_DOTBLANK
 10
157.5
 20
225.5794621189598
 30
0.0
 41
12.0
 42
12.0
 43
12.0
  0
INSERT
  5
2049
330
3061
100
AcDbEntity
  8
0
100
AcDbBlockReference
  2
*U14
 10
0.0
 20
0.0
 30
0.0
  0
POINT
  5
204A
330
3061
100
AcDbEntity
  8
DEFPOINTS
 62
     0
100
AcDbPoint
 10
-157.5
 20
0.0
 30
0.0
  0
POINT
  5
204B
330
3061
100
AcDbEntity
  8
DEFPOINTS
 62
     0
100
AcDbPoint
 10
157.5
 20
0.0
 30
0.0
  0
POINT
  5
204C
330
3061
100
AcDbEntity
  8
DEFPOINTS
 62
     0
100
AcDbPoint
 10
157.5
 20
225.5794621189598
 30
0.0
  0
ENDBLK
  5
2003
330
3061
100
AcDbEntity
  8
0
100
AcDbBlockEnd
  0
BLOCK
  5
3064
330
3063
100
AcDbEntity
  8
0
100
AcDbBlockBegin
  2
*U14
 70
     1
 10
0.0
 20
0.0
 30
0.0
  3
*U14
  1

  0
TEXT
  5
21B2
330
3063
100
AcDbEntity
  8
SIZE
 62
     0
100
AcDbText
 10
-68.57142857142857
 20
235.5794621189598
 30
0.0
 40
64.0
  1
315
 41
0.9
100
AcDbText
  0
ENDBLK
  5
21B4
330
3063
100
AcDbEntity
  8
0
100
AcDbBlockEnd
  0
BLOCK
  5
3066
330
3065
100
AcDbEntity
  8
0
100
AcDbBlockBegin
  2
*D15
 70
     1
 10
0.0
 20
0.0
 30
0.0
  3
*D15
  1

  0
LINE
  5
204D
330
3065
100
AcDbEntity
  8
SIZE
 62
     0
100
AcDbLine
 10
-177.5
 20
0.0000000000000057
 30
0.0
 11
-219.7694545525301
 21
0.0000000000000176
 31
0.0
  0
LINE
  5
204E
330
3065
100
AcDbEntity
  8
SIZE
 62
     0
100
AcDbLine
 10
-177.5
 20
-7.999999999999993
 30
0.0
 11
-219.7694545525301
 21
-7.999999999999982
 31
0.0
  0
LINE
  5
204F
330
3065
100
AcDbEntity
  8
SIZE
 62
     0
100
AcDbLine
 10
-199.76945455253
 20
12.00000000000001
 30
0.0
 11
-199.76945455253
 21
24.00000000000001
 31
0.0
  0
LINE
  5
2050
330
3065
100
AcDbEntity
  8
SIZE
 62
     0
100
AcDbLine
 10
-199.76945455253
 20
-19.99999999999999
 30
0.0
 11
-199.7694545525301
 21
-90.4
 31
0.0
  0
LINE
  5
2051
330
3065
100
AcDbEntity
  8
SIZE
 62
     0
100
AcDbLine
 10
-199.76945455253
 20
0.000000000000012
 30
0.0
 11
-199.76945455253
 21
-7.999999999999985
 31
0.0
  0
INSERT
  5
2052
330
3065
100
AcDbEntity
  8
SIZE
 62
     0
100
AcDbBlockReference
  2
_DOTBLANK
 10
-199.76945455253
 20
0.000000000000012
 30
0.0
 41
12.0
 42
12.0
 43
12.0
 50
270.0
  0
INSERT
  5
2053
330
3065
100
AcDbEntity
  8
SIZE
 62
     0
100
AcDbBlockReference
  2
_DOTBLANK
 10
-199.76945455253
 20
-7.999999999999985
 30
0.0
 41
12.0
 42
12.0
 43
12.0
 50
90.0
  0
INSERT
  5
2054
330
3065
100
AcDbEntity
  8
0
100
AcDbBlockReference
  2
*U16
 10
0.0
 20
0.0
 30
0.0
  0
POINT
  5
2055
330
3065
100
AcDbEntity
  8
DEFPOINTS
 62
     0
100
AcDbPoint
 10
-157.5
 20
0.0
 30
0.0
  0
POINT
  5
2056
330
3065
100
AcDbEntity
  8
DEFPOINTS
 62
     0
100
AcDbPoint
 10
-157.5
 20
-8.0
 30
0.0
  0
POINT
  5
2057
330
3065
100
AcDbEntity
  8
DEFPOINTS
 62
     0
100
AcDbPoint
 10
-199.76945455253
 20
-7.999999999999985
 30
0.0
  0
ENDBLK
  5
200F
330
3065
100
AcDbEntity
  8
0
100
AcDbBlockEnd
  0
BLOCK
  5
3068
330
3067
100
AcDbEntity
  8
0
100
AcDbBlockBegin
  2
*U16
 70
     1
 10
0.0
 20
0.0
 30
0.0
  3
*U16
  1

  0
TEXT
  5
21B6
330
3067
100
AcDbEntity
  8
SIZE
 62
     0
100
AcDbText
 10
-209.7694545525301
 20
-80.4
 30
0.0
 40
64.0
  1
8
 50
90.0
 41
0.9
100
AcDbText
  0
ENDBLK
  5
21B8
330
3067
100
AcDbEntity
  8
0
100
AcDbBlockEnd
  0
BLOCK
  5
306A
330
3069
100
AcDbEntity
  8
0
100
AcDbBlockBegin
  2
*D17
 70
     1
 10
0.0
 20
0.0
 30
0.0
  3
*D17
  1

  0
LINE
  5
2058
330
3069
100
AcDbEntity
  8
SIZE
 62
     0
100
AcDbLine
 10
143.7000000000007
 20
-430.0
 30
0.0
 11
304.626441221626
 21
-430.0
 31
0.0
  0
LINE
  5
2059
330
3069
100
AcDbEntity
  8
SIZE
 62
     0
100
AcDbLine
 10
143.1000000000022
 20
-441.0000000000001
 30
0.0
 11
304.626441221626
 21
-441.0000000000001
 31
0.0
  0
LINE
  5
205A
330
3069
100
AcDbEntity
  8
SIZE
 62
     0
100
AcDbLine
 10
284.626441221626
 20
-418.0
 30
0.0
 11
284.626441221626
 21
-406.0
 31
0.0
  0
LINE
  5
205B
330
3069
100
AcDbEntity
  8
SIZE
 62
     0
100
AcDbLine
 10
284.626441221626
 20
-453.0
 30
0.0
 11
284.626441221626
 21
-542.6000000000001
 31
0.0
  0
LINE
  5
205C
330
3069
100
AcDbEntity
  8
SIZE
 62
     0
100
AcDbLine
 10
284.626441221626
 20
-430.0
 30
0.0
 11
284.626441221626
 21
-441.0000000000001
 31
0.0
  0
INSERT
  5
205D
330
3069
100
AcDbEntity
  8
SIZE
 62
     0
100
AcDbBlockReference
  2
_DOTBLANK
 10
284.626441221626
 20
-430.0
 30
0.0
 41
12.0
 42
12.0
 43
12.0
 50
270.0
  0
INSERT
  5
205E
330
3069
100
AcDbEntity
  8
SIZE
 62
     0
100
AcDbBlockReference
  2
_DOTBLANK
 10
284.626441221626
 20
-441.0000000000001
 30
0.0
 41
12.0
 42
12.0
 43
12.0
 50
90.0
  0
INSERT
  5
205F
330
3069
100
AcDbEntity
  8
0
100
AcDbBlockReference
  2
*U18
 10
0.0
 20
0.0
 30
0.0
  0
POINT
  5
2060
330
3069
100
AcDbEntity
  8
DEFPOINTS
 62
     0
100
AcDbPoint
 10
123.7000000000007
 20
-430.0
 30
0.0
  0
POINT
  5
2061
330
3069
100
AcDbEntity
  8
DEFPOINTS
 62
     0
100
AcDbPoint
 10
123.1000000000022
 20
-441.0
 30
0.0
  0
POINT
  5
2062
330
3069
100
AcDbEntity
  8
DEFPOINTS
 62
     0
100
AcDbPoint
 10
284.626441221626
 20
-441.0000000000001
 30
0.0
  0
ENDBLK
  5
201D
330
3069
100
AcDbEntity
  8
0
100
AcDbBlockEnd
  0
BLOCK
  5
306C
330
306B
100
AcDbEntity
  8
0
100
AcDbBlockBegin
  2
*U18
 70
     1
 10
0.0
 20
0.0
 30
0.0
  3
*U18
  1

  0
TEXT
  5
21BA
330
306B
100
AcDbEntity
  8
SIZE
 62
     0
100
AcDbText
 10
274.6264412216261
 20
-532.6
 30
0.0
 40
64.0
  1
11
 50
90.0
 41
0.9
100
AcDbText
  0
ENDBLK
  5
21BC
330
306B
100
AcDbEntity
  8
0
100
AcDbBlockEnd
  0
BLOCK
  5
306E
330
306D
100
AcDbEntity
  8
0
100
AcDbBlockBegin
  2
*U19
 70
     1
 10
0.0
 20
0.0
 30
0.0
  3
*U19
  1

  0
INSERT
  5
2199
330
306D
100
AcDbEntity
  8
NOTE
100
AcDbBlockReference
  2
_OPEN30
 10
-140.0
 20
0.0
 30
0.0
 41
12.0
 42
12.0
 43
12.0
 50
312.6090116116894
  0
POLYLINE
  5
219A
330
306D
100
AcDbEntity
  8
NOTE
100
AcDb2dPolyline
 66
     1
 10
0.0
 20
0.0
 30
0.0
  0
VERTEX
  5
219B
330
219A
100
AcDbEntity
  8
NOTE
100
AcDbVertex
100
AcDb2dVertex
 10
-148.1239008361894
 20
8.831887408915472
 30
0.0
  0
VERTEX
  5
219C
330
219A
100
AcDbEntity
  8
NOTE
100
AcDbVertex
100
AcDb2dVertex
 10
-227.8693999922543
 20
95.5270950580134
 30
0.0
  0
VERTEX
  5
219D
330
219A
100
AcDbEntity
  8
NOTE
100
AcDbVertex
100
AcDb2dVertex
 10
-776.4522571351115
 20
95.5270950580134
 30
0.0
  0
SEQEND
  5
219E
330
219A
100
AcDbEntity
  8
NOTE
  0
ENDBLK
  5
21A0
330
306D
100
AcDbEntity
  8
0
100
AcDbBlockEnd
  0
BLOCK
  5
3070
330
306F
100
AcDbEntity
  8
0
100
AcDbBlockBegin
  2
*U20
 70
     1
 10
0.0
 20
0.0
 30
0.0
  3
*U20
  1

  0
TEXT
  5
21A2
330
306F
100
AcDbEntity
  8
NOTE
100
AcDbText
 10
-773.7093999922541
 20
113.5270950580134
 30
0.0
 40
64.0
  1
4×φ10取付穴
 41
0.9
100
AcDbText
  0
ENDBLK
  5
21A4
330
306F
100
AcDbEntity
  8
0
100
AcDbBlockEnd
  0
BLOCK
  5
3072
330
3071
100
AcDbEntity
  8
0
100
AcDbBlockBegin
  2
*U21
 70
     1
 10
0.0
 20
0.0
 30
0.0
  3
*U21
  1

  0
INSERT
  5
2586
330
3071
100
AcDbEntity
  8
NOTE
100
AcDbBlockReference
  2
_OPEN30
 10
-325.0
 20
0.0
 30
0.0
 41
12.0
 42
12.0
 43
12.0
 50
312.6090116116894
  0
POLYLINE
  5
2587
330
3071
100
AcDbEntity
  8
NOTE
100
AcDb2dPolyline
 66
     1
 10
0.0
 20
0.0
 30
0.0
  0
VERTEX
  5
2588
330
2587
100
AcDbEntity
  8
NOTE
100
AcDbVertex
100
AcDb2dVertex
 10
-333.1239008361895
 20
8.831887408915472
 30
0.0
  0
VERTEX
  5
2589
330
2587
100
AcDbEntity
  8
NOTE
100
AcDbVertex
100
AcDb2dVertex
 10
-412.8693999922543
 20
95.5270950580134
 30
0.0
  0
VERTEX
  5
258A
330
2587
100
AcDbEntity
  8
NOTE
100
AcDbVertex
100
AcDb2dVertex
 10
-961.4522571351114
 20
95.5270950580134
 30
0.0
  0
SEQEND
  5
258B
330
2587
100
AcDbEntity
  8
NOTE
  0
ENDBLK
  5
258C
330
3071
100
AcDbEntity
  8
0
100
AcDbBlockEnd
  0
BLOCK
  5
3074
330
3073
100
AcDbEntity
  8
0
100
AcDbBlockBegin
  2
*X22
 70
     1
 10
0.0
 20
0.0
 30
0.0
  3
*X22
  1

  0
LINE
  5
2A5E
330
3073
100
AcDbEntity
  8
0
 62
     0
100
AcDbLine
 10
295.6946061765484
 20
-854.8080808012056
 30
0.0
 11
298.7999999999884
 21
-852.7378235387114
 31
0.0
  0
LINE
  5
2A5F
330
3073
100
AcDbEntity
  8
0
 62
     0
100
AcDbLine
 10
291.1946448826675
 20
-854.8080808012016
 30
0.0
 11
298.799999999992
 21
-849.7378570032925
 31
0.0
  0
LINE
  5
2A60
330
3073
100
AcDbEntity
  8
0
 62
     0
100
AcDbLine
 10
286.6946835887793
 20
-854.8080808012016
 30
0.0
 11
298.799999999992
 21
-846.7378904678771
 31
0.0
  0
LINE
  5
2A61
330
3073
100
AcDbEntity
  8
0
 62
     0
100
AcDbLine
 10
282.1947222948911
 20
-854.8080808012032
 30
0.0
 11
298.7999999999884
 21
-843.7379239324616
 31
0.0
  0
LINE
  5
2A62
330
3073
100
AcDbEntity
  8
0
 62
     0
100
AcDbLine
 10
277.6947610010065
 20
-854.8080808012056
 30
0.0
 11
298.7999999999884
 21
-840.7379573970466
 31
0.0
  0
LINE
  5
2A63
330
3073
100
AcDbEntity
  8
0
 62
     0
100
AcDbLine
 10
273.1947997071257
 20
-854.8080808012032
 30
0.0
 11
298.799999999992
 21
-837.7379908616294
 31
0.0
  0
LINE
  5
2A64
330
3073
100
AcDbEntity
  8
0
 62
     0
100
AcDbLine
 10
268.6948384132374
 20
-854.8080808012056
 30
0.0
 11
298.7999999999884
 21
-834.7380243262122
 31
0.0
  0
LINE
  5
2A65
330
3073
100
AcDbEntity
  8
0
 62
     0
100
AcDbLine
 10
264.1948771193493
 20
-854.8080808012032
 30
0.0
 11
298.7999999999884
 21
-831.7380577907968
 31
0.0
  0
LINE
  5
2A66
330
3073
100
AcDbEntity
  8
0
 62
     0
100
AcDbLine
 10
259.6949158254647
 20
-854.8080808012056
 30
0.0
 11
298.799999999992
 21
-828.7380912553818
 31
0.0
  0
LINE
  5
2A67
330
3073
100
AcDbEntity
  8
0
 62
     0
100
AcDbLine
 10
255.1949545315838
 20
-854.8080808012032
 30
0.0
 11
298.799999999992
 21
-825.7381247199646
 31
0.0
  0
LINE
  5
2A68
330
3073
100
AcDbEntity
  8
0
 62
     0
100
AcDbLine
 10
250.6949932376956
 20
-854.8080808012032
 30
0.0
 11
298.799999999992
 21
-822.7381581845474
 31
0.0
  0
LINE
  5
2A69
330
3073
100
AcDbEntity
  8
0
 62
     0
100
AcDbLine
 10
246.1950319438074
 20
-854.8080808012032
 30
0.0
 11
298.7999999999884
 21
-819.7381916491304
 31
0.0
  0
LINE
  5
2A6A
330
3073
100
AcDbEntity
  8
0
 62
     0
100
AcDbLine
 10
241.6950706499265
 20
-854.8080808012016
 30
0.0
 11
298.799999999992
 21
-816.7382251137151
 31
0.0
  0
LINE
  5
2A6B
330
3073
100
AcDbEntity
  8
0
 62
     0
100
AcDbLine
 10
237.1951093560419
 20
-854.8080808012032
 30
0.0
 11
298.799999999992
 21
-813.7382585783015
 31
0.0
  0
LINE
  5
2A6C
330
3073
100
AcDbEntity
  8
0
 62
     0
100
AcDbLine
 10
232.6951480621501
 20
-854.8080808012032
 30
0.0
 11
298.7999999999884
 21
-810.7382920428824
 31
0.0
  0
LINE
  5
2A6D
330
3073
100
AcDbEntity
  8
0
 62
     0
100
AcDbLine
 10
228.1951867682656
 20
-854.8080808012032
 30
0.0
 11
298.7999999999884
 21
-807.738325507467
 31
0.0
  0
LINE
  5
2A6E
330
3073
100
AcDbEntity
  8
0
 62
     0
100
AcDbLine
 10
223.6952254743846
 20
-854.8080808012032
 30
0.0
 11
298.799999999992
 21
-804.7383589720503
 31
0.0
  0
LINE
  5
2A6F
330
3073
100
AcDbEntity
  8
0
 62
     0
100
AcDbLine
 10
219.1952641804928
 20
-854.8080808012056
 30
0.0
 11
298.7999999999884
 21
-801.7383924366367
 31
0.0
  0
LINE
  5
2A70
330
3073
100
AcDbEntity
  8
0
 62
     0
100
AcDbLine
 10
214.6953028866119
 20
-854.8080808012032
 30
0.0
 11
298.7999999999884
 21
-798.7384259012193
 31
0.0
  0
LINE
  5
2A71
330
3073
100
AcDbEntity
  8
0
 62
     0
100
AcDbLine
 10
210.1953415927237
 20
-854.8080808012032
 30
0.0
 11
298.799999999992
 21
-795.7384593658006
 31
0.0
  0
LINE
  5
2A72
330
3073
100
AcDbEntity
  8
0
 62
     0
100
AcDbLine
 10
205.6953802988428
 20
-854.8080808012032
 30
0.0
 11
298.799999999992
 21
-792.7384928303868
 31
0.0
  0
LINE
  5
2A73
330
3073
100
AcDbEntity
  8
0
 62
     0
100
AcDbLine
 10
201.195419004951
 20
-854.8080808012073
 30
0.0
 11
298.7999999999884
 21
-789.7385262949701
 31
0.0
  0
LINE
  5
2A74
330
3073
100
AcDbEntity
  8
0
 62
     0
100
AcDbLine
 10
196.69545771107
 20
-854.8080808012032
 30
0.0
 11
298.799999999992
 21
-786.738559759553
 31
0.0
  0
LINE
  5
2A75
330
3073
100
AcDbEntity
  8
0
 62
     0
100
AcDbLine
 10
192.1954964171818
 20
-854.8080808012032
 30
0.0
 11
298.799999999992
 21
-783.7385932241377
 31
0.0
  0
LINE
  5
2A76
330
3073
100
AcDbEntity
  8
0
 62
     0
100
AcDbLine
 10
187.6955351232973
 20
-854.8080808012016
 30
0.0
 11
298.799999999992
 21
-780.7386266887187
 31
0.0
  0
LINE
  5
2A77
330
3073
100
AcDbEntity
  8
0
 62
     0
100
AcDbLine
 10
183.1955738294127
 20
-854.8080808012032
 30
0.0
 11
298.7999999999884
 21
-777.7386601533052
 31
0.0
  0
LINE
  5
2A78
330
3073
100
AcDbEntity
  8
0
 62
     0
100
AcDbLine
 10
178.6956125355281
 20
-854.8080808012056
 30
0.0
 11
298.799999999992
 21
-774.7386936178882
 31
0.0
  0
LINE
  5
2A79
330
3073
100
AcDbEntity
  8
0
 62
     0
100
AcDbLine
 10
174.1956512416436
 20
-854.8080808012016
 30
0.0
 11
298.799999999992
 21
-771.738727082473
 31
0.0
  0
LINE
  5
2A7A
330
3073
100
AcDbEntity
  8
0
 62
     0
100
AcDbLine
 10
169.6956899477518
 20
-854.8080808012032
 30
0.0
 11
298.799999999992
 21
-768.7387605470536
 31
0.0
  0
LINE
  5
2A7B
330
3073
100
AcDbEntity
  8
0
 62
     0
100
AcDbLine
 10
165.1957286538709
 20
-854.8080808012032
 30
0.0
 11
298.7999999999884
 21
-765.7387940116405
 31
0.0
  0
LINE
  5
2A7C
330
3073
100
AcDbEntity
  8
0
 62
     0
100
AcDbLine
 10
160.6957673599863
 20
-854.8080808012056
 30
0.0
 11
298.799999999992
 21
-762.738827476225
 31
0.0
  0
LINE
  5
2A7D
330
3073
100
AcDbEntity
  8
0
 62
     0
100
AcDbLine
 10
156.1958060660981
 20
-854.8080808012032
 30
0.0
 11
298.7999999999884
 21
-759.7388609408078
 31
0.0
  0
LINE
  5
2A7E
330
3073
100
AcDbEntity
  8
0
 62
     0
100
AcDbLine
 10
151.6958447722099
 20
-854.8080808012032
 30
0.0
 11
298.799999999992
 21
-756.7388944053907
 31
0.0
  0
LINE
  5
2A7F
330
3073
100
AcDbEntity
  8
0
 62
     0
100
AcDbLine
 10
147.195883478329
 20
-854.8080808012032
 30
0.0
 11
298.799999999992
 21
-753.7389278699737
 31
0.0
  0
LINE
  5
2A80
330
3073
100
AcDbEntity
  8
0
 62
     0
100
AcDbLine
 10
142.6959221844408
 20
-854.8080808012056
 30
0.0
 11
298.7999999999884
 21
-750.7389613345601
 31
0.0
  0
LINE
  5
2A81
330
3073
100
AcDbEntity
  8
0
 62
     0
100
AcDbLine
 10
138.1959608905527
 20
-854.8080808012056
 30
0.0
 11
298.799999999992
 21
-747.7389947991432
 31
0.0
  0
LINE
  5
2A82
330
3073
100
AcDbEntity
  8
0
 62
     0
100
AcDbLine
 10
133.6959995966717
 20
-854.8080808012032
 30
0.0
 11
298.799999999992
 21
-744.7390282637261
 31
0.0
  0
LINE
  5
2A83
330
3073
100
AcDbEntity
  8
0
 62
     0
100
AcDbLine
 10
129.1960383027872
 20
-854.8080808012016
 30
0.0
 11
298.799999999992
 21
-741.739061728309
 31
0.0
  0
LINE
  5
2A84
330
3073
100
AcDbEntity
  8
0
 62
     0
100
AcDbLine
 10
124.696077008899
 20
-854.8080808012016
 30
0.0
 11
298.7999999999884
 21
-738.7390951928937
 31
0.0
  0
LINE
  5
2A85
330
3073
100
AcDbEntity
  8
0
 62
     0
100
AcDbLine
 10
120.1961157150108
 20
-854.8080808012056
 30
0.0
 11
298.799999999992
 21
-735.7391286574782
 31
0.0
  0
LINE
  5
2A86
330
3073
100
AcDbEntity
  8
0
 62
     0
100
AcDbLine
 10
115.6961544211299
 20
-854.8080808012032
 30
0.0
 11
298.799999999992
 21
-732.7391621220613
 31
0.0
  0
LINE
  5
2A87
330
3073
100
AcDbEntity
  8
0
 62
     0
100
AcDbLine
 10
111.1961931272417
 20
-854.8080808012032
 30
0.0
 11
298.799999999992
 21
-729.7391955866421
 31
0.0
  0
LINE
  5
2A88
330
3073
100
AcDbEntity
  8
0
 62
     0
100
AcDbLine
 10
106.6962318333571
 20
-854.8080808012016
 30
0.0
 11
298.7999999999956
 21
-726.7392290512272
 31
0.0
  0
LINE
  5
2A89
330
3073
100
AcDbEntity
  8
0
 62
     0
100
AcDbLine
 10
102.196270539469
 20
-854.8080808012056
 30
0.0
 11
298.799999999992
 21
-723.7392625158113
 31
0.0
  0
LINE
  5
2A8A
330
3073
100
AcDbEntity
  8
0
 62
     0
100
AcDbLine
 10
97.69630924558805
 20
-854.8080808012032
 30
0.0
 11
298.7999999999956
 21
-720.7392959803944
 31
0.0
  0
LINE
  5
2A8B
330
3073
100
AcDbEntity
  8
0
 62
     0
100
AcDbLine
 10
93.19634795169987
 20
-854.8080808012032
 30
0.0
 11
298.799999999992
 21
-717.7393294449792
 31
0.0
  0
LINE
  5
2A8C
330
3073
100
AcDbEntity
  8
0
 62
     0
100
AcDbLine
 10
88.69638665781895
 20
-854.8080808012032
 30
0.0
 11
298.7999999999956
 21
-714.739362909562
 31
0.0
  0
LINE
  5
2A8D
330
3073
100
AcDbEntity
  8
0
 62
     0
100
AcDbLine
 10
84.19642536392712
 20
-854.8080808012073
 30
0.0
 11
298.799999999992
 21
-711.7393963741485
 31
0.0
  0
LINE
  5
2A8E
330
3073
100
AcDbEntity
  8
0
 62
     0
100
AcDbLine
 10
79.69646407004256
 20
-854.8080808012032
 30
0.0
 11
298.799999999992
 21
-708.7394298387298
 31
0.0
  0
LINE
  5
2A8F
330
3073
100
AcDbEntity
  8
0
 62
     0
100
AcDbLine
 10
75.19650277615801
 20
-854.8080808012032
 30
0.0
 11
298.7999999999956
 21
-705.7394633033127
 31
0.0
  0
LINE
  5
2A90
330
3073
100
AcDbEntity
  8
0
 62
     0
100
AcDbLine
 10
70.69654148227346
 20
-854.8080808012032
 30
0.0
 11
298.7999999999956
 21
-702.7394967678956
 31
0.0
  0
LINE
  5
2A91
330
3073
100
AcDbEntity
  8
0
 62
     0
100
AcDbLine
 10
66.19658018838528
 20
-854.8080808012032
 30
0.0
 11
298.799999999992
 21
-699.7395302324803
 31
0.0
  0
LINE
  5
2A92
330
3073
100
AcDbEntity
  8
0
 62
     0
100
AcDbLine
 10
61.69661889450072
 20
-854.8080808012032
 30
0.0
 11
298.799999999992
 21
-696.7395636970668
 31
0.0
  0
LINE
  5
2A93
330
3073
100
AcDbEntity
  8
0
 62
     0
100
AcDbLine
 10
57.19665760061978
 20
-854.8080808012016
 30
0.0
 11
298.7999999999956
 21
-693.7395971616479
 31
0.0
  0
LINE
  5
2A94
330
3073
100
AcDbEntity
  8
0
 62
     0
100
AcDbLine
 10
52.6966963067316
 20
-854.8080808012032
 30
0.0
 11
298.7999999999956
 21
-690.7396306262326
 31
0.0
  0
LINE
  5
2A95
330
3073
100
AcDbEntity
  8
0
 62
     0
100
AcDbLine
 10
48.19673501284341
 20
-854.8080808012032
 30
0.0
 11
298.799999999992
 21
-687.7396640908154
 31
0.0
  0
LINE
  5
2A96
330
3073
100
AcDbEntity
  8
0
 62
     0
100
AcDbLine
 10
43.69677371895885
 20
-854.8080808012056
 30
0.0
 11
298.7999999999956
 21
-684.7396975554001
 31
0.0
  0
LINE
  5
2A97
330
3073
100
AcDbEntity
  8
0
 62
     0
100
AcDbLine
 10
39.19681242507432
 20
-854.8080808012032
 30
0.0
 11
298.7999999999956
 21
-681.7397310199849
 31
0.0
  0
LINE
  5
2A98
330
3073
100
AcDbEntity
  8
0
 62
     0
100
AcDbLine
 10
34.69685113118976
 20
-854.8080808012032
 30
0.0
 11
298.7999999999956
 21
-678.7397644845658
 31
0.0
  0
LINE
  5
2A99
330
3073
100
AcDbEntity
  8
0
 62
     0
100
AcDbLine
 10
30.19688983730157
 20
-854.8080808012032
 30
0.0
 11
298.799999999992
 21
-675.7397979491525
 31
0.0
  0
LINE
  5
2A9A
330
3073
100
AcDbEntity
  8
0
 62
     0
100
AcDbLine
 10
25.69692854341702
 20
-854.8080808012056
 30
0.0
 11
298.7999999999956
 21
-672.7398314137352
 31
0.0
  0
LINE
  5
2A9B
330
3073
100
AcDbEntity
  8
0
 62
     0
100
AcDbLine
 10
21.19696724953247
 20
-854.8080808012056
 30
0.0
 11
298.7999999999956
 21
-669.7398648783202
 31
0.0
  0
LINE
  5
2A9C
330
3073
100
AcDbEntity
  8
0
 62
     0
100
AcDbLine
 10
16.69700595564791
 20
-854.8080808012016
 30
0.0
 11
298.799999999992
 21
-666.739898342903
 31
0.0
  0
LINE
  5
2A9D
330
3073
100
AcDbEntity
  8
0
 62
     0
100
AcDbLine
 10
12.19704466175972
 20
-854.8080808012016
 30
0.0
 11
298.799999999992
 21
-663.7399318074858
 31
0.0
  0
LINE
  5
2A9E
330
3073
100
AcDbEntity
  8
0
 62
     0
100
AcDbLine
 10
7.697083367875166
 20
-854.8080808012032
 30
0.0
 11
298.7999999999956
 21
-660.7399652720704
 31
0.0
  0
LINE
  5
2A9F
330
3073
100
AcDbEntity
  8
0
 62
     0
100
AcDbLine
 10
3.197122073986975
 20
-854.8080808012056
 30
0.0
 11
298.799999999992
 21
-657.7399987366552
 31
0.0
  0
LINE
  5
2AA0
330
3073
100
AcDbEntity
  8
0
 62
     0
100
AcDbLine
 10
-1.30283921989394
 20
-854.8080808012032
 30
0.0
 11
298.799999999992
 21
-654.7400322012381
 31
0.0
  0
LINE
  5
2AA1
330
3073
100
AcDbEntity
  8
0
 62
     0
100
AcDbLine
 10
-5.802800513782129
 20
-854.8080808012016
 30
0.0
 11
298.7999999999956
 21
-651.740065665821
 31
0.0
  0
LINE
  5
2AA2
330
3073
100
AcDbEntity
  8
0
 62
     0
100
AcDbLine
 10
-10.30276180766668
 20
-854.8080808012016
 30
0.0
 11
298.799999999992
 21
-648.7400991304056
 31
0.0
  0
LINE
  5
2AA3
330
3073
100
AcDbEntity
  8
0
 62
     0
100
AcDbLine
 10
-14.80272310155487
 20
-854.8080808012056
 30
0.0
 11
298.7999999999956
 21
-645.7401325949904
 31
0.0
  0
LINE
  5
2AA4
330
3073
100
AcDbEntity
  8
0
 62
     0
100
AcDbLine
 10
-19.30268439543579
 20
-854.8080808012032
 30
0.0
 11
298.799999999992
 21
-642.7401660595733
 31
0.0
  0
LINE
  5
2AA5
330
3073
100
AcDbEntity
  8
0
 62
     0
100
AcDbLine
 10
-23.80264568932398
 20
-854.8080808012032
 30
0.0
 11
298.7999999999956
 21
-639.7401995241563
 31
0.0
  0
LINE
  5
2AA6
330
3073
100
AcDbEntity
  8
0
 62
     0
100
AcDbLine
 10
-28.30260698321217
 20
-854.8080808012056
 30
0.0
 11
298.799999999992
 21
-636.7402329887426
 31
0.0
  0
LINE
  5
2AA7
330
3073
100
AcDbEntity
  8
0
 62
     0
100
AcDbLine
 10
-32.80256827709673
 20
-854.8080808012056
 30
0.0
 11
298.7999999999956
 21
-633.7402664533255
 31
0.0
  0
LINE
  5
2AA8
330
3073
100
AcDbEntity
  8
0
 62
     0
100
AcDbLine
 10
-37.30252957097764
 20
-854.8080808012032
 30
0.0
 11
298.7999999999956
 21
-630.7402999179084
 31
0.0
  0
LINE
  5
2AA9
330
3073
100
AcDbEntity
  8
0
 62
     0
100
AcDbLine
 10
-41.80249086486583
 20
-854.8080808012032
 30
0.0
 11
298.7999999999956
 21
-627.7403333824914
 31
0.0
  0
LINE
  5
2AAA
330
3073
100
AcDbEntity
  8
0
 62
     0
100
AcDbLine
 10
-46.30245215875402
 20
-854.8080808012032
 30
0.0
 11
298.7999999999956
 21
-624.7403668470743
 31
0.0
  0
LINE
  5
2AAB
330
3073
100
AcDbEntity
  8
0
 62
     0
100
AcDbLine
 10
-50.80241345263494
 20
-854.8080808012016
 30
0.0
 11
298.7999999999956
 21
-621.7404003116607
 31
0.0
  0
LINE
  5
2AAC
330
3073
100
AcDbEntity
  8
0
 62
     0
100
AcDbLine
 10
-55.30237474651949
 20
-854.8080808012032
 30
0.0
 11
298.7999999999956
 21
-618.7404337762435
 31
0.0
  0
LINE
  5
2AAD
330
3073
100
AcDbEntity
  8
0
 62
     0
100
AcDbLine
 10
-59.80233604041131
 20
-854.8080808012032
 30
0.0
 11
298.799999999992
 21
-615.7404672408282
 31
0.0
  0
LINE
  5
2AAE
330
3073
100
AcDbEntity
  8
0
 62
     0
100
AcDbLine
 10
-64.30229733429586
 20
-854.8080808012032
 30
0.0
 11
298.7999999999956
 21
-612.7405007054094
 31
0.0
  0
LINE
  5
2AAF
330
3073
100
AcDbEntity
  8
0
 62
     0
100
AcDbLine
 10
-68.80225862817678
 20
-854.8080808012032
 30
0.0
 11
298.7999999999956
 21
-609.740534169996
 31
0.0
  0
LINE
  5
2AB0
330
3073
100
AcDbEntity
  8
0
 62
     0
100
AcDbLine
 10
-73.30221992206498
 20
-854.8080808012056
 30
0.0
 11
298.799999999992
 21
-606.7405676345788
 31
0.0
  0
LINE
  5
2AB1
330
3073
100
AcDbEntity
  8
0
 62
     0
100
AcDbLine
 10
-77.80218121594955
 20
-854.8080808012032
 30
0.0
 11
298.799999999992
 21
-603.7406010991635
 31
0.0
  0
LINE
  5
2AB2
330
3073
100
AcDbEntity
  8
0
 62
     0
100
AcDbLine
 10
-82.30214250983408
 20
-854.8080808012016
 30
0.0
 11
298.7999999999956
 21
-600.7406345637463
 31
0.0
  0
LINE
  5
2AB3
330
3073
100
AcDbEntity
  8
0
 62
     0
100
AcDbLine
 10
-86.80210380372226
 20
-854.8080808012032
 30
0.0
 11
298.799999999992
 21
-597.7406680283292
 31
0.0
  0
LINE
  5
2AB4
330
3073
100
AcDbEntity
  8
0
 62
     0
100
AcDbLine
 10
-91.30206509760315
 20
-854.8080808012032
 30
0.0
 11
298.799999999992
 21
-594.7407014929158
 31
0.0
  0
LINE
  5
2AB5
330
3073
100
AcDbEntity
  8
0
 62
     0
100
AcDbLine
 10
-95.80202639149138
 20
-854.8080808012056
 30
0.0
 11
298.7999999999956
 21
-591.7407349574967
 31
0.0
  0
LINE
  5
2AB6
330
3073
100
AcDbEntity
  8
0
 62
     0
100
AcDbLine
 10
-100.3019876853759
 20
-854.8080808012016
 30
0.0
 11
298.7999999999956
 21
-588.7407684220816
 31
0.0
  0
LINE
  5
2AB7
330
3073
100
AcDbEntity
  8
0
 62
     0
100
AcDbLine
 10
-104.8019489792641
 20
-854.8080808012032
 30
0.0
 11
298.799999999992
 21
-585.7408018866663
 31
0.0
  0
LINE
  5
2AB8
330
3073
100
AcDbEntity
  8
0
 62
     0
100
AcDbLine
 10
-109.3019102731487
 20
-854.8080808012032
 30
0.0
 11
298.7999999999956
 21
-582.7408353512472
 31
0.0
  0
LINE
  5
2AB9
330
3073
100
AcDbEntity
  8
0
 62
     0
100
AcDbLine
 10
-113.8018715670332
 20
-854.8080808012056
 30
0.0
 11
298.7999999999956
 21
-579.7408688158339
 31
0.0
  0
LINE
  5
2ABA
330
3073
100
AcDbEntity
  8
0
 62
     0
100
AcDbLine
 10
-118.3018328609177
 20
-854.8080808012016
 30
0.0
 11
298.7999999999956
 21
-576.7409022804148
 31
0.0
  0
LINE
  5
2ABB
330
3073
100
AcDbEntity
  8
0
 62
     0
100
AcDbLine
 10
-122.801794154806
 20
-854.8080808012016
 30
0.0
 11
298.799999999992
 21
-573.7409357449997
 31
0.0
  0
LINE
  5
2ABC
330
3073
100
AcDbEntity
  8
0
 62
     0
100
AcDbLine
 10
-127.3017554486905
 20
-854.8080808012032
 30
0.0
 11
298.7999999999956
 21
-570.7409692095843
 31
0.0
  0
LINE
  5
2ABD
330
3073
100
AcDbEntity
  8
0
 62
     0
100
AcDbLine
 10
-131.8017167425751
 20
-854.8080808012032
 30
0.0
 11
298.7999999999956
 21
-567.7410026741689
 31
0.0
  0
LINE
  5
2ABE
330
3073
100
AcDbEntity
  8
0
 62
     0
100
AcDbLine
 10
-136.3016780364632
 20
-854.8080808012032
 30
0.0
 11
298.799999999992
 21
-564.7410361387519
 31
0.0
  0
LINE
  5
2ABF
330
3073
100
AcDbEntity
  8
0
 62
     0
100
AcDbLine
 10
-140.8016393303442
 20
-854.8080808011999
 30
0.0
 11
298.799999999992
 21
-561.7410696033348
 31
0.0
  0
LINE
  5
2AC0
330
3073
100
AcDbEntity
  8
0
 62
     0
100
AcDbLine
 10
-145.3016006242324
 20
-854.8080808012032
 30
0.0
 11
298.7999999999956
 21
-558.7411030679194
 31
0.0
  0
LINE
  5
2AC1
330
3073
100
AcDbEntity
  8
0
 62
     0
100
AcDbLine
 10
-149.8015619181205
 20
-854.8080808012032
 30
0.0
 11
298.7999999999956
 21
-555.7411365325042
 31
0.0
  0
LINE
  5
2AC2
330
3073
100
AcDbEntity
  8
0
 62
     0
100
AcDbLine
 10
-154.3015232120051
 20
-854.8080808012032
 30
0.0
 11
298.799999999992
 21
-552.7411699970871
 31
0.0
  0
LINE
  5
2AC3
330
3073
100
AcDbEntity
  8
0
 62
     0
100
AcDbLine
 10
-158.8014845058897
 20
-854.8080808012032
 30
0.0
 11
298.7999999999956
 21
-549.74120346167
 31
0.0
  0
LINE
  5
2AC4
330
3073
100
AcDbEntity
  8
0
 62
     0
100
AcDbLine
 10
-163.3014457997742
 20
-854.8080808012056
 30
0.0
 11
298.7999999999956
 21
-546.7412369262547
 31
0.0
  0
LINE
  5
2AC5
330
3073
100
AcDbEntity
  8
0
 62
     0
100
AcDbLine
 10
-167.8014070936624
 20
-854.8080808012016
 30
0.0
 11
298.7999999999956
 21
-543.7412703908376
 31
0.0
  0
LINE
  5
2AC6
330
3073
100
AcDbEntity
  8
0
 62
     0
100
AcDbLine
 10
-172.3013683875469
 20
-854.8080808012032
 30
0.0
 11
298.799999999992
 21
-540.7413038554239
 31
0.0
  0
LINE
  5
2AC7
330
3073
100
AcDbEntity
  8
0
 62
     0
100
AcDbLine
 10
-176.8013296814315
 20
-854.8080808012032
 30
0.0
 11
298.7999999999956
 21
-537.7413373200051
 31
0.0
  0
LINE
  5
2AC8
330
3073
100
AcDbEntity
  8
0
 62
     0
100
AcDbLine
 10
-181.3012909753196
 20
-854.8080808012032
 30
0.0
 11
298.7999999999938
 21
-534.741370784588
 31
0.0
  0
LINE
  5
2AC9
330
3073
100
AcDbEntity
  8
0
 62
     0
100
AcDbLine
 10
-185.8012522692042
 20
-854.8080808012032
 30
0.0
 11
298.7999999999938
 21
-531.7414042491727
 31
0.0
  0
LINE
  5
2ACA
330
3073
100
AcDbEntity
  8
0
 62
     0
100
AcDbLine
 10
-190.3012135630888
 20
-854.8080808012032
 30
0.0
 11
298.7999999999956
 21
-528.7414377137572
 31
0.0
  0
LINE
  5
2ACB
330
3073
100
AcDbEntity
  8
0
 62
     0
100
AcDbLine
 10
-194.8011748569732
 20
-854.8080808012032
 30
0.0
 11
298.7999999999956
 21
-525.7414711783422
 31
0.0
  0
LINE
  5
2ACC
330
3073
100
AcDbEntity
  8
0
 62
     0
100
AcDbLine
 10
-199.3011361508579
 20
-854.8080808012016
 30
0.0
 11
298.7999999999938
 21
-522.7415046429232
 31
0.0
  0
LINE
  5
2ACD
330
3073
100
AcDbEntity
  8
0
 62
     0
100
AcDbLine
 10
-203.8010974447425
 20
-854.8080808012032
 30
0.0
 11
298.7999999999938
 21
-519.7415381075098
 31
0.0
  0
LINE
  5
2ACE
330
3073
100
AcDbEntity
  8
0
 62
     0
100
AcDbLine
 10
-208.3010587386307
 20
-854.8080808012056
 30
0.0
 11
298.7999999999956
 21
-516.7415715720927
 31
0.0
  0
LINE
  5
2ACF
330
3073
100
AcDbEntity
  8
0
 62
     0
100
AcDbLine
 10
-212.8010200325189
 20
-854.8080808012032
 30
0.0
 11
298.7999999999956
 21
-513.7416050366755
 31
0.0
  0
LINE
  5
2AD0
330
3073
100
AcDbEntity
  8
0
 62
     0
100
AcDbLine
 10
-217.3009813263998
 20
-854.8080808012016
 30
0.0
 11
298.7999999999938
 21
-510.7416385012583
 31
0.0
  0
LINE
  5
2AD1
330
3073
100
AcDbEntity
  8
0
 62
     0
100
AcDbLine
 10
-221.8009426202844
 20
-854.8080808012032
 30
0.0
 11
298.7999999999975
 21
-507.741671965843
 31
0.0
  0
LINE
  5
2AD2
330
3073
100
AcDbEntity
  8
0
 62
     0
100
AcDbLine
 10
-226.3009039141761
 20
-854.8080808012032
 30
0.0
 11
298.799999999992
 21
-504.7417054304276
 31
0.0
  0
LINE
  5
2AD3
330
3073
100
AcDbEntity
  8
0
 62
     0
100
AcDbLine
 10
-230.8008652080607
 20
-854.8080808012056
 30
0.0
 11
298.7999999999956
 21
-501.7417388950105
 31
0.0
  0
LINE
  5
2AD4
330
3073
100
AcDbEntity
  8
0
 62
     0
100
AcDbLine
 10
-235.3008265019416
 20
-854.8080808012016
 30
0.0
 11
298.7999999999938
 21
-498.7417723595953
 31
0.0
  0
LINE
  5
2AD5
330
3073
100
AcDbEntity
  8
0
 62
     0
100
AcDbLine
 10
-239.8007877958262
 20
-854.8080808012016
 30
0.0
 11
298.7999999999975
 21
-495.7418058241763
 31
0.0
  0
LINE
  5
2AD6
330
3073
100
AcDbEntity
  8
0
 62
     0
100
AcDbLine
 10
-244.300749089718
 20
-854.8080808012032
 30
0.0
 11
298.799999999992
 21
-492.7418392887629
 31
0.0
  0
LINE
  5
2AD7
330
3073
100
AcDbEntity
  8
0
 62
     0
100
AcDbLine
 10
-248.8007103835989
 20
-854.8080808012032
 30
0.0
 11
298.7999999999956
 21
-489.7418727533477
 31
0.0
  0
LINE
  5
2AD8
330
3073
100
AcDbEntity
  8
0
 62
     0
100
AcDbLine
 10
-253.3006716774835
 20
-854.8080808012032
 30
0.0
 11
298.7999999999938
 21
-486.7419062179305
 31
0.0
  0
LINE
  5
2AD9
330
3073
100
AcDbEntity
  8
0
 62
     0
100
AcDbLine
 10
-257.800632971368
 20
-854.8080808012016
 30
0.0
 11
298.7999999999975
 21
-483.7419396825135
 31
0.0
  0
LINE
  5
2ADA
330
3073
100
AcDbEntity
  8
0
 62
     0
100
AcDbLine
 10
-262.3005942652599
 20
-854.8080808012032
 30
0.0
 11
298.7999999999956
 21
-480.7419731470964
 31
0.0
  0
LINE
  5
2ADB
330
3073
100
AcDbEntity
  8
0
 62
     0
100
AcDbLine
 10
-266.8005555591408
 20
-854.8080808012032
 30
0.0
 11
298.7999999999975
 21
-477.7420066116809
 31
0.0
  0
LINE
  5
2ADC
330
3073
100
AcDbEntity
  8
0
 62
     0
100
AcDbLine
 10
-271.3005168530253
 20
-854.8080808012032
 30
0.0
 11
298.7999999999975
 21
-474.7420400762656
 31
0.0
  0
LINE
  5
2ADD
330
3073
100
AcDbEntity
  8
0
 62
     0
100
AcDbLine
 10
-275.8004781469135
 20
-854.8080808012032
 30
0.0
 11
298.7999999999956
 21
-471.7420735408468
 31
0.0
  0
LINE
  5
2ADE
330
3073
100
AcDbEntity
  8
0
 62
     0
100
AcDbLine
 10
-280.3004394408017
 20
-854.8080808012032
 30
0.0
 11
298.7999999999956
 21
-468.7421070054333
 31
0.0
  0
LINE
  5
2ADF
330
3073
100
AcDbEntity
  8
0
 62
     0
100
AcDbLine
 10
-284.8004007346826
 20
-854.8080808012032
 30
0.0
 11
298.7999999999975
 21
-465.7421404700161
 31
0.0
  0
LINE
  5
2AE0
330
3073
100
AcDbEntity
  8
0
 62
     0
100
AcDbLine
 10
-289.3003620285745
 20
-854.8080808012056
 30
0.0
 11
298.7999999999975
 21
-462.7421739345991
 31
0.0
  0
LINE
  5
2AE1
330
3073
100
AcDbEntity
  8
0
 62
     0
100
AcDbLine
 10
-293.8003233224554
 20
-854.8080808012032
 30
0.0
 11
298.7999999999956
 21
-459.7422073991838
 31
0.0
  0
LINE
  5
2AE2
330
3073
100
AcDbEntity
  8
0
 62
     0
100
AcDbLine
 10
-298.3002846163436
 20
-854.8080808012032
 30
0.0
 11
298.7999999999992
 21
-456.7422408637646
 31
0.0
  0
LINE
  5
2AE3
330
3073
100
AcDbEntity
  8
0
 62
     0
100
AcDbLine
 10
-298.8000000000138
 20
-852.1412570042098
 30
0.0
 11
298.7999999999938
 21
-453.7422743283513
 31
0.0
  0
LINE
  5
2AE4
330
3073
100
AcDbEntity
  8
0
 62
     0
100
AcDbLine
 10
-298.8000000000138
 20
-849.1412904687967
 30
0.0
 11
298.7999999999975
 21
-450.7423077929344
 31
0.0
  0
LINE
  5
2AE5
330
3073
100
AcDbEntity
  8
0
 62
     0
100
AcDbLine
 10
-298.8000000000138
 20
-846.1413239333793
 30
0.0
 11
298.7999999999956
 21
-447.7423412575188
 31
0.0
  0
LINE
  5
2AE6
330
3073
100
AcDbEntity
  8
0
 62
     0
100
AcDbLine
 10
-298.8000000000138
 20
-843.1413573979622
 30
0.0
 11
298.7999999999992
 21
-444.7423747221001
 31
0.0
  0
LINE
  5
2AE7
330
3073
100
AcDbEntity
  8
0
 62
     0
100
AcDbLine
 10
-298.8000000000138
 20
-840.1413908625473
 30
0.0
 11
298.7999999999975
 21
-441.7424081866847
 31
0.0
  0
LINE
  5
2AE8
330
3073
100
AcDbEntity
  8
0
 62
     0
100
AcDbLine
 10
-298.8000000000138
 20
-837.1414243271301
 30
0.0
 11
298.7999999999975
 21
-438.7424416512713
 31
0.0
  0
LINE
  5
2AE9
330
3073
100
AcDbEntity
  8
0
 62
     0
100
AcDbLine
 10
-298.8000000000138
 20
-834.1414577917149
 30
0.0
 11
298.7999999999992
 21
-435.7424751158522
 31
0.0
  0
LINE
  5
2AEA
330
3073
100
AcDbEntity
  8
0
 62
     0
100
AcDbLine
 10
-298.8000000000102
 20
-831.1414912562959
 30
0.0
 11
298.7999999999992
 21
-432.742508580437
 31
0.0
  0
LINE
  5
2AEB
330
3073
100
AcDbEntity
  8
0
 62
     0
100
AcDbLine
 10
-298.8000000000138
 20
-828.1415247208824
 30
0.0
 11
298.7999999999975
 21
-429.7425420450197
 31
0.0
  0
LINE
  5
2AEC
330
3073
100
AcDbEntity
  8
0
 62
     0
100
AcDbLine
 10
-298.8000000000138
 20
-825.141558185467
 30
0.0
 11
298.7999999999975
 21
-426.7425755096065
 31
0.0
  0
LINE
  5
2AED
330
3073
100
AcDbEntity
  8
0
 62
     0
100
AcDbLine
 10
-298.8000000000138
 20
-822.1415916500497
 30
0.0
 11
298.7999999999992
 21
-423.7426089741893
 31
0.0
  0
LINE
  5
2AEE
330
3073
100
AcDbEntity
  8
0
 62
     0
100
AcDbLine
 10
-298.8000000000138
 20
-819.1416251146327
 30
0.0
 11
298.7999999999938
 21
-420.7426424387722
 31
0.0
  0
LINE
  5
2AEF
330
3073
100
AcDbEntity
  8
0
 62
     0
100
AcDbLine
 10
-298.8000000000102
 20
-816.1416585792137
 30
0.0
 11
298.7999999999975
 21
-417.7426759033551
 31
0.0
  0
LINE
  5
2AF0
330
3073
100
AcDbEntity
  8
0
 62
     0
100
AcDbLine
 10
-298.8000000000138
 20
-813.1416920438004
 30
0.0
 11
298.7999999999956
 21
-414.7427093679397
 31
0.0
  0
LINE
  5
2AF1
330
3073
100
AcDbEntity
  8
0
 62
     0
100
AcDbLine
 10
-298.8000000000138
 20
-810.1417255083854
 30
0.0
 11
298.7999999999956
 21
-411.7427428325243
 31
0.0
  0
LINE
  5
2AF2
330
3073
100
AcDbEntity
  8
0
 62
     0
100
AcDbLine
 10
-298.8000000000138
 20
-807.141758972968
 30
0.0
 11
298.7999999999975
 21
-408.7427762971072
 31
0.0
  0
LINE
  5
2AF3
330
3073
100
AcDbEntity
  8
0
 62
     0
100
AcDbLine
 10
-298.8000000000102
 20
-804.141792437551
 30
0.0
 11
298.7999999999975
 21
-405.7428097616902
 31
0.0
  0
LINE
  5
2AF4
330
3073
100
AcDbEntity
  8
0
 62
     0
100
AcDbLine
 10
-298.8000000000175
 20
-801.1418259021352
 30
0.0
 11
298.7999999999956
 21
-402.742843226275
 31
0.0
  0
LINE
  5
2AF5
330
3073
100
AcDbEntity
  8
0
 62
     0
100
AcDbLine
 10
-298.8000000000138
 20
-798.1418593667201
 30
0.0
 11
298.7999999999975
 21
-399.7428766908578
 31
0.0
  0
LINE
  5
2AF6
330
3073
100
AcDbEntity
  8
0
 62
     0
100
AcDbLine
 10
-298.8000000000102
 20
-795.1418928313029
 30
0.0
 11
298.7999999999975
 21
-396.7429101554426
 31
0.0
  0
LINE
  5
2AF7
330
3073
100
AcDbEntity
  8
0
 62
     0
100
AcDbLine
 10
-298.8000000000102
 20
-792.141926295886
 30
0.0
 11
298.7999999999975
 21
-393.7429436200273
 31
0.0
  0
LINE
  5
2AF8
330
3073
100
AcDbEntity
  8
0
 62
     0
100
AcDbLine
 10
-298.8000000000138
 20
-789.1419597604707
 30
0.0
 11
298.7999999999956
 21
-390.7429770846102
 31
0.0
  0
LINE
  5
2AF9
330
3073
100
AcDbEntity
  8
0
 62
     0
100
AcDbLine
 10
-298.8000000000138
 20
-786.1419932250554
 30
0.0
 11
298.7999999999975
 21
-387.7430105491949
 31
0.0
  0
LINE
  5
2AFA
330
3073
100
AcDbEntity
  8
0
 62
     0
100
AcDbLine
 10
-298.8000000000102
 20
-783.1420266896381
 30
0.0
 11
298.7999999999975
 21
-384.7430440137778
 31
0.0
  0
LINE
  5
2AFB
330
3073
100
AcDbEntity
  8
0
 62
     0
100
AcDbLine
 10
-298.8000000000102
 20
-780.142060154223
 30
0.0
 11
298.7999999999992
 21
-381.7430774783606
 31
0.0
  0
LINE
  5
2AFC
330
3073
100
AcDbEntity
  8
0
 62
     0
100
AcDbLine
 10
-298.8000000000138
 20
-777.1420936188042
 30
0.0
 11
298.7999999999956
 21
-378.7431109429454
 31
0.0
  0
LINE
  5
2AFD
330
3073
100
AcDbEntity
  8
0
 62
     0
100
AcDbLine
 10
-298.8000000000138
 20
-774.1421270833908
 30
0.0
 11
298.7999999999975
 21
-375.7431444075282
 31
0.0
  0
LINE
  5
2AFE
330
3073
100
AcDbEntity
  8
0
 62
     0
100
AcDbLine
 10
-298.8000000000102
 20
-771.1421605479736
 30
0.0
 11
298.7999999999975
 21
-372.7431778721148
 31
0.0
  0
LINE
  5
2AFF
330
3073
100
AcDbEntity
  8
0
 62
     0
100
AcDbLine
 10
-298.8000000000138
 20
-768.1421940125582
 30
0.0
 11
298.7999999999956
 21
-369.7432113366958
 31
0.0
  0
LINE
  5
2B00
330
3073
100
AcDbEntity
  8
0
 62
     0
100
AcDbLine
 10
-298.8000000000138
 20
-765.1422274771412
 30
0.0
 11
298.7999999999992
 21
-366.7432448012788
 31
0.0
  0
LINE
  5
2B01
330
3073
100
AcDbEntity
  8
0
 62
     0
100
AcDbLine
 10
-298.8000000000102
 20
-762.1422609417241
 30
0.0
 11
298.7999999999975
 21
-363.7432782658652
 31
0.0
  0
LINE
  5
2B02
330
3073
100
AcDbEntity
  8
0
 62
     0
100
AcDbLine
 10
-298.8000000000138
 20
-759.1422944063102
 30
0.0
 11
298.7999999999975
 21
-360.7433117304481
 31
0.0
  0
LINE
  5
2B03
330
3073
100
AcDbEntity
  8
0
 62
     0
100
AcDbLine
 10
-298.8000000000138
 20
-756.1423278708915
 30
0.0
 11
298.7999999999956
 21
-357.7433451950328
 31
0.0
  0
LINE
  5
2B04
330
3073
100
AcDbEntity
  8
0
 62
     0
100
AcDbLine
 10
-298.8000000000138
 20
-753.142361335476
 30
0.0
 11
298.7999999999992
 21
-354.7433786596139
 31
0.0
  0
LINE
  5
2B05
330
3073
100
AcDbEntity
  8
0
 62
     0
100
AcDbLine
 10
-298.8000000000102
 20
-750.1423948000612
 30
0.0
 11
298.7999999999975
 21
-351.7434121242004
 31
0.0
  0
LINE
  5
2B06
330
3073
100
AcDbEntity
  8
0
 62
     0
100
AcDbLine
 10
-298.8000000000138
 20
-747.1424282646458
 30
0.0
 11
298.7999999999975
 21
-348.7434455887851
 31
0.0
  0
LINE
  5
2B07
330
3073
100
AcDbEntity
  8
0
 62
     0
100
AcDbLine
 10
297.2251592940265
 20
-346.7933701764196
 30
0.0
 11
298.7999999999938
 21
-345.7434790533698
 31
0.0
  0
LINE
  5
2B08
330
3073
100
AcDbEntity
  8
0
 62
     0
100
AcDbLine
 10
-298.8000000000138
 20
-744.1424617292287
 30
0.0
 11
297.2251592940265
 21
-346.7933701764196
 31
0.0
  0
LINE
  5
2B09
330
3073
100
AcDbEntity
  8
0
 62
     0
100
AcDbLine
 10
292.7251980001401
 20
-346.7933701764177
 30
0.0
 11
298.7999999999956
 21
-342.7435125179527
 31
0.0
  0
LINE
  5
2B0A
330
3073
100
AcDbEntity
  8
0
 62
     0
100
AcDbLine
 10
-298.8000000000102
 20
-741.1424951938098
 30
0.0
 11
292.7251980001401
 21
-346.7933701764177
 31
0.0
  0
LINE
  5
2B0B
330
3073
100
AcDbEntity
  8
0
 62
     0
100
AcDbLine
 10
288.2252367062556
 20
-346.7933701764159
 30
0.0
 11
298.7999999999938
 21
-339.7435459825338
 31
0.0
  0
LINE
  5
2B0C
330
3073
100
AcDbEntity
  8
0
 62
     0
100
AcDbLine
 10
-298.8000000000138
 20
-738.1425286583943
 30
0.0
 11
288.225236706252
 21
-346.7933701764177
 31
0.0
  0
LINE
  5
2B0D
330
3073
100
AcDbEntity
  8
0
 62
     0
100
AcDbLine
 10
283.7252754123674
 20
-346.7933701764196
 30
0.0
 11
298.7999999999938
 21
-336.7435794471202
 31
0.0
  0
LINE
  5
2B0E
330
3073
100
AcDbEntity
  8
0
 62
     0
100
AcDbLine
 10
-298.8000000000138
 20
-735.1425621229773
 30
0.0
 11
283.7252754123674
 21
-346.7933701764196
 31
0.0
  0
LINE
  5
2B0F
330
3073
100
AcDbEntity
  8
0
 62
     0
100
AcDbLine
 10
279.2253141184847
 20
-346.7933701764196
 30
0.0
 11
298.7999999999956
 21
-333.7436129117049
 31
0.0
  0
LINE
  5
2B10
330
3073
100
AcDbEntity
  8
0
 62
     0
100
AcDbLine
 10
-298.8000000000138
 20
-732.1425955875639
 30
0.0
 11
279.2253141184847
 21
-346.7933701764196
 31
0.0
  0
LINE
  5
2B11
330
3073
100
AcDbEntity
  8
0
 62
     0
100
AcDbLine
 10
274.7253528245983
 20
-346.7933701764196
 30
0.0
 11
298.7999999999956
 21
-330.743646376288
 31
0.0
  0
LINE
  5
2B12
330
3073
100
AcDbEntity
  8
0
 62
     0
100
AcDbLine
 10
-298.8000000000102
 20
-729.1426290521467
 30
0.0
 11
274.7253528245983
 21
-346.7933701764196
 31
0.0
  0
LINE
  5
2B13
330
3073
100
AcDbEntity
  8
0
 62
     0
100
AcDbLine
 10
270.2253915307101
 20
-346.7933701764177
 30
0.0
 11
298.7999999999938
 21
-327.7436798408708
 31
0.0
  0
LINE
  5
2B14
330
3073
100
AcDbEntity
  8
0
 62
     0
100
AcDbLine
 10
-298.8000000000138
 20
-726.1426625167294
 30
0.0
 11
270.2253915307101
 21
-346.7933701764177
 31
0.0
  0
LINE
  5
2B15
330
3073
100
AcDbEntity
  8
0
 62
     0
100
AcDbLine
 10
265.7254302368256
 20
-346.7933701764196
 30
0.0
 11
298.7999999999938
 21
-324.7437133054555
 31
0.0
  0
LINE
  5
2B16
330
3073
100
AcDbEntity
  8
0
 62
     0
100
AcDbLine
 10
-298.8000000000138
 20
-723.142695981314
 30
0.0
 11
265.7254302368256
 21
-346.7933701764196
 31
0.0
  0
LINE
  5
2B17
330
3073
100
AcDbEntity
  8
0
 62
     0
100
AcDbLine
 10
261.2254689429428
 20
-346.7933701764196
 30
0.0
 11
298.7999999999956
 21
-321.7437467700402
 31
0.0
  0
LINE
  5
2B18
330
3073
100
AcDbEntity
  8
0
 62
     0
100
AcDbLine
 10
-298.8000000000138
 20
-720.1427294459007
 30
0.0
 11
261.2254689429428
 21
-346.7933701764196
 31
0.0
  0
LINE
  5
2B19
330
3073
100
AcDbEntity
  8
0
 62
     0
100
AcDbLine
 10
256.7255076490546
 20
-346.7933701764196
 30
0.0
 11
298.799999999992
 21
-318.7437802346249
 31
0.0
  0
LINE
  5
2B1A
330
3073
100
AcDbEntity
  8
0
 62
     0
100
AcDbLine
 10
-298.8000000000138
 20
-717.1427629104819
 30
0.0
 11
256.7255076490546
 21
-346.7933701764196
 31
0.0
  0
LINE
  5
2B1B
330
3073
100
AcDbEntity
  8
0
 62
     0
100
AcDbLine
 10
252.2255463551683
 20
-346.7933701764196
 30
0.0
 11
298.7999999999938
 21
-315.7438136992059
 31
0.0
  0
LINE
  5
2B1C
330
3073
100
AcDbEntity
  8
0
 62
     0
100
AcDbLine
 10
-298.8000000000138
 20
-714.1427963750665
 30
0.0
 11
252.2255463551683
 21
-346.7933701764196
 31
0.0
  0
LINE
  5
2B1D
330
3073
100
AcDbEntity
  8
0
 62
     0
100
AcDbLine
 10
247.7255850612855
 20
-346.7933701764177
 30
0.0
 11
298.7999999999938
 21
-312.7438471637924
 31
0.0
  0
LINE
  5
2B1E
330
3073
100
AcDbEntity
  8
0
 62
     0
100
AcDbLine
 10
-298.8000000000138
 20
-711.1428298396495
 30
0.0
 11
247.7255850612855
 21
-346.7933701764177
 31
0.0
  0
LINE
  5
2B1F
330
3073
100
AcDbEntity
  8
0
 62
     0
100
AcDbLine
 10
243.2256237673974
 20
-346.7933701764196
 30
0.0
 11
298.799999999992
 21
-309.7438806283752
 31
0.0
  0
LINE
  5
2B20
330
3073
100
AcDbEntity
  8
0
 62
     0
100
AcDbLine
 10
-298.8000000000138
 20
-708.1428633042341
 30
0.0
 11
243.2256237673974
 21
-346.7933701764196
 31
0.0
  0
LINE
  5
2B21
330
3073
100
AcDbEntity
  8
0
 62
     0
100
AcDbLine
 10
238.7256624735146
 20
-346.7933701764177
 30
0.0
 11
298.7999999999938
 21
-306.7439140929583
 31
0.0
  0
LINE
  5
2B22
330
3073
100
AcDbEntity
  8
0
 62
     0
100
AcDbLine
 10
-298.8000000000138
 20
-705.142896768817
 30
0.0
 11
238.7256624735128
 21
-346.7933701764196
 31
0.0
  0
LINE
  5
2B23
330
3073
100
AcDbEntity
  8
0
 62
     0
100
AcDbLine
 10
234.2257011796264
 20
-346.7933701764196
 30
0.0
 11
298.7999999999938
 21
-303.7439475575429
 31
0.0
  0
LINE
  5
2B24
330
3073
100
AcDbEntity
  8
0
 62
     0
100
AcDbLine
 10
-298.8000000000102
 20
-702.1429302333999
 30
0.0
 11
234.2257011796264
 21
-346.7933701764196
 31
0.0
  0
LINE
  5
2B25
330
3073
100
AcDbEntity
  8
0
 62
     0
100
AcDbLine
 10
229.7257398857437
 20
-346.7933701764177
 30
0.0
 11
298.7999999999956
 21
-300.743981022124
 31
0.0
  0
LINE
  5
2B26
330
3073
100
AcDbEntity
  8
0
 62
     0
100
AcDbLine
 10
-298.8000000000138
 20
-699.1429636979844
 30
0.0
 11
229.7257398857437
 21
-346.7933701764177
 31
0.0
  0
LINE
  5
2B27
330
3073
100
AcDbEntity
  8
0
 62
     0
100
AcDbLine
 10
225.2257785918555
 20
-346.7933701764177
 30
0.0
 11
298.799999999992
 21
-297.7440144867105
 31
0.0
  0
LINE
  5
2B28
330
3073
100
AcDbEntity
  8
0
 62
     0
100
AcDbLine
 10
-298.8000000000138
 20
-696.1429971625675
 30
0.0
 11
225.2257785918555
 21
-346.7933701764177
 31
0.0
  0
LINE
  5
2B29
330
3073
100
AcDbEntity
  8
0
 62
     0
100
AcDbLine
 10
220.725817297971
 20
-346.7933701764196
 30
0.0
 11
298.7999999999938
 21
-294.7440479512934
 31
0.0
  0
LINE
  5
2B2A
330
3073
100
AcDbEntity
  8
0
 62
     0
100
AcDbLine
 10
-298.8000000000138
 20
-693.1430306271541
 30
0.0
 11
220.725817297971
 21
-346.7933701764196
 31
0.0
  0
LINE
  5
2B2B
330
3073
100
AcDbEntity
  8
0
 62
     0
100
AcDbLine
 10
216.2258560040846
 20
-346.7933701764196
 30
0.0
 11
298.7999999999938
 21
-291.7440814158782
 31
0.0
  0
LINE
  5
2B2C
330
3073
100
AcDbEntity
  8
0
 62
     0
100
AcDbLine
 10
-298.8000000000102
 20
-690.1430640917352
 30
0.0
 11
216.2258560040846
 21
-346.7933701764196
 31
0.0
  0
LINE
  5
2B2D
330
3073
100
AcDbEntity
  8
0
 62
     0
100
AcDbLine
 10
211.7258947101982
 20
-346.7933701764177
 30
0.0
 11
298.799999999992
 21
-288.7441148804609
 31
0.0
  0
LINE
  5
2B2E
330
3073
100
AcDbEntity
  8
0
 62
     0
100
AcDbLine
 10
-298.8000000000138
 20
-687.143097556318
 30
0.0
 11
211.7258947101982
 21
-346.7933701764177
 31
0.0
  0
LINE
  5
2B2F
330
3073
100
AcDbEntity
  8
0
 62
     0
100
AcDbLine
 10
207.2259334163137
 20
-346.7933701764196
 30
0.0
 11
298.799999999992
 21
-285.7441483450457
 31
0.0
  0
LINE
  5
2B30
330
3073
100
AcDbEntity
  8
0
 62
     0
100
AcDbLine
 10
-298.8000000000138
 20
-684.1431310209044
 30
0.0
 11
207.2259334163137
 21
-346.7933701764196
 31
0.0
  0
LINE
  5
2B31
330
3073
100
AcDbEntity
  8
0
 62
     0
100
AcDbLine
 10
202.7259721224291
 20
-346.7933701764196
 30
0.0
 11
298.7999999999938
 21
-282.7441818096304
 31
0.0
  0
LINE
  5
2B32
330
3073
100
AcDbEntity
  8
0
 62
     0
100
AcDbLine
 10
-298.8000000000102
 20
-681.1431644854872
 30
0.0
 11
202.7259721224291
 21
-346.7933701764196
 31
0.0
  0
LINE
  5
2B33
330
3073
100
AcDbEntity
  8
0
 62
     0
100
AcDbLine
 10
198.2260108285427
 20
-346.7933701764196
 30
0.0
 11
298.7999999999938
 21
-279.7442152742133
 31
0.0
  0
LINE
  5
2B34
330
3073
100
AcDbEntity
  8
0
 62
     0
100
AcDbLine
 10
-298.8000000000102
 20
-678.1431979500721
 30
0.0
 11
198.2260108285427
 21
-346.7933701764196
 31
0.0
  0
LINE
  5
2B35
330
3073
100
AcDbEntity
  8
0
 62
     0
100
AcDbLine
 10
193.7260495346581
 20
-346.7933701764177
 30
0.0
 11
298.799999999992
 21
-276.7442487387961
 31
0.0
  0
LINE
  5
2B36
330
3073
100
AcDbEntity
  8
0
 62
     0
100
AcDbLine
 10
-298.8000000000138
 20
-675.1432314146532
 30
0.0
 11
193.7260495346581
 21
-346.7933701764177
 31
0.0
  0
LINE
  5
2B37
330
3073
100
AcDbEntity
  8
0
 62
     0
100
AcDbLine
 10
189.2260882407716
 20
-346.7933701764196
 30
0.0
 11
298.7999999999956
 21
-273.744282203379
 31
0.0
  0
LINE
  5
2B38
330
3073
100
AcDbEntity
  8
0
 62
     0
100
AcDbLine
 10
-298.8000000000138
 20
-672.1432648792394
 30
0.0
 11
189.2260882407716
 21
-346.7933701764196
 31
0.0
  0
LINE
  5
2B39
330
3073
100
AcDbEntity
  8
0
 62
     0
100
AcDbLine
 10
184.7261269468871
 20
-346.7933701764214
 30
0.0
 11
298.7999999999938
 21
-270.7443156679655
 31
0.0
  0
LINE
  5
2B3A
330
3073
100
AcDbEntity
  8
0
 62
     0
100
AcDbLine
 10
-298.8000000000102
 20
-669.1432983438244
 30
0.0
 11
184.7261269468871
 21
-346.7933701764214
 31
0.0
  0
LINE
  5
2B3B
330
3073
100
AcDbEntity
  8
0
 62
     0
100
AcDbLine
 10
180.2261656530008
 20
-346.7933701764177
 30
0.0
 11
298.7999999999938
 21
-267.7443491325484
 31
0.0
  0
LINE
  5
2B3C
330
3073
100
AcDbEntity
  8
0
 62
     0
100
AcDbLine
 10
-298.8000000000138
 20
-666.1433318084073
 30
0.0
 11
180.2261656530008
 21
-346.7933701764177
 31
0.0
  0
LINE
  5
2B3D
330
3073
100
AcDbEntity
  8
0
 62
     0
100
AcDbLine
 10
175.7262043591163
 20
-346.7933701764177
 30
0.0
 11
298.799999999992
 21
-264.7443825971314
 31
0.0
  0
LINE
  5
2B3E
330
3073
100
AcDbEntity
  8
0
 62
     0
100
AcDbLine
 10
-298.8000000000138
 20
-663.1433652729903
 30
0.0
 11
175.7262043591163
 21
-346.7933701764177
 31
0.0
  0
LINE
  5
2B3F
330
3073
100
AcDbEntity
  8
0
 62
     0
100
AcDbLine
 10
171.2262430652299
 20
-346.7933701764177
 30
0.0
 11
298.7999999999956
 21
-261.7444160617143
 31
0.0
  0
LINE
  5
2B40
330
3073
100
AcDbEntity
  8
0
 62
     0
100
AcDbLine
 10
-298.8000000000138
 20
-660.1433987375728
 30
0.0
 11
171.2262430652299
 21
-346.7933701764177
 31
0.0
  0
LINE
  5
2B41
330
3073
100
AcDbEntity
  8
0
 62
     0
100
AcDbLine
 10
166.7262817713417
 20
-346.7933701764196
 30
0.0
 11
298.7999999999902
 21
-258.7444495263008
 31
0.0
  0
LINE
  5
2B42
330
3073
100
AcDbEntity
  8
0
 62
     0
100
AcDbLine
 10
-298.8000000000138
 20
-657.1434322021578
 30
0.0
 11
166.7262817713417
 21
-346.7933701764196
 31
0.0
  0
LINE
  5
2B43
330
3073
100
AcDbEntity
  8
0
 62
     0
100
AcDbLine
 10
162.2263204774608
 20
-346.7933701764196
 30
0.0
 11
298.7999999999938
 21
-255.7444829908836
 31
0.0
  0
LINE
  5
2B44
330
3073
100
AcDbEntity
  8
0
 62
     0
100
AcDbLine
 10
-298.8000000000138
 20
-654.1434656667425
 30
0.0
 11
162.2263204774608
 21
-346.7933701764196
 31
0.0
  0
LINE
  5
2B45
330
3073
100
AcDbEntity
  8
0
 62
     0
100
AcDbLine
 10
157.7263591835726
 20
-346.7933701764177
 30
0.0
 11
298.799999999992
 21
-252.7445164554683
 31
0.0
  0
LINE
  5
2B46
330
3073
100
AcDbEntity
  8
0
 62
     0
100
AcDbLine
 10
-298.8000000000138
 20
-651.1434991313254
 30
0.0
 11
157.7263591835726
 21
-346.7933701764177
 31
0.0
  0
LINE
  5
2B47
330
3073
100
AcDbEntity
  8
0
 62
     0
100
AcDbLine
 10
153.2263978896881
 20
-346.7933701764177
 30
0.0
 11
298.799999999992
 21
-249.7445499200512
 31
0.0
  0
LINE
  5
2B48
330
3073
100
AcDbEntity
  8
0
 62
     0
100
AcDbLine
 10
-298.8000000000102
 20
-648.1435325959083
 30
0.0
 11
153.2263978896881
 21
-346.7933701764177
 31
0.0
  0
LINE
  5
2B49
330
3073
100
AcDbEntity
  8
0
 62
     0
100
AcDbLine
 10
148.7264365957999
 20
-346.7933701764196
 30
0.0
 11
298.7999999999902
 21
-246.7445833846359
 31
0.0
  0
LINE
  5
2B4A
330
3073
100
AcDbEntity
  8
0
 62
     0
100
AcDbLine
 10
-298.8000000000138
 20
-645.1435660604927
 30
0.0
 11
148.7264365957999
 21
-346.7933701764196
 31
0.0
  0
LINE
  5
2B4B
330
3073
100
AcDbEntity
  8
0
 62
     0
100
AcDbLine
 10
144.226475301919
 20
-346.7933701764196
 30
0.0
 11
298.7999999999902
 21
-243.7446168492225
 31
0.0
  0
LINE
  5
2B4C
330
3073
100
AcDbEntity
  8
0
 62
     0
100
AcDbLine
 10
-298.8000000000138
 20
-642.1435995250775
 30
0.0
 11
144.226475301919
 21
-346.7933701764196
 31
0.0
  0
LINE
  5
2B4D
330
3073
100
AcDbEntity
  8
0
 62
     0
100
AcDbLine
 10
139.7265140080308
 20
-346.7933701764196
 30
0.0
 11
298.799999999992
 21
-240.7446503138035
 31
0.0
  0
LINE
  5
2B4E
330
3073
100
AcDbEntity
  8
0
 62
     0
100
AcDbLine
 10
-298.8000000000138
 20
-639.1436329896623
 30
0.0
 11
139.7265140080308
 21
-346.7933701764196
 31
0.0
  0
LINE
  5
2B4F
330
3073
100
AcDbEntity
  8
0
 62
     0
100
AcDbLine
 10
135.2265527141462
 20
-346.7933701764177
 30
0.0
 11
298.799999999992
 21
-237.7446837783882
 31
0.0
  0
LINE
  5
2B50
330
3073
100
AcDbEntity
  8
0
 62
     0
100
AcDbLine
 10
-298.8000000000102
 20
-636.1436664542434
 30
0.0
 11
135.2265527141462
 21
-346.7933701764177
 31
0.0
  0
LINE
  5
2B51
330
3073
100
AcDbEntity
  8
0
 62
     0
100
AcDbLine
 10
130.7265914202617
 20
-346.7933701764177
 30
0.0
 11
298.7999999999902
 21
-234.7447172429711
 31
0.0
  0
LINE
  5
2B52
330
3073
100
AcDbEntity
  8
0
 62
     0
100
AcDbLine
 10
-298.8000000000102
 20
-633.1436999188281
 30
0.0
 11
130.7265914202617
 21
-346.7933701764177
 31
0.0
  0
LINE
  5
2B53
330
3073
100
AcDbEntity
  8
0
 62
     0
100
AcDbLine
 10
126.2266301263771
 20
-346.7933701764196
 30
0.0
 11
298.7999999999902
 21
-231.7447507075576
 31
0.0
  0
LINE
  5
2B54
330
3073
100
AcDbEntity
  8
0
 62
     0
100
AcDbLine
 10
-298.8000000000138
 20
-630.1437333834128
 30
0.0
 11
126.2266301263771
 21
-346.7933701764196
 31
0.0
  0
LINE
  5
2B55
330
3073
100
AcDbEntity
  8
0
 62
     0
100
AcDbLine
 10
121.7266688324889
 20
-346.7933701764196
 30
0.0
 11
298.799999999992
 21
-228.7447841721405
 31
0.0
  0
LINE
  5
2B56
330
3073
100
AcDbEntity
  8
0
 62
     0
100
AcDbLine
 10
-298.8000000000102
 20
-627.1437668479956
 30
0.0
 11
121.7266688324889
 21
-346.7933701764196
 31
0.0
  0
LINE
  5
2B57
330
3073
100
AcDbEntity
  8
0
 62
     0
100
AcDbLine
 10
117.2267075386007
 20
-346.7933701764196
 30
0.0
 11
298.7999999999884
 21
-225.7448176367234
 31
0.0
  0
LINE
  5
2B58
330
3073
100
AcDbEntity
  8
0
 62
     0
100
AcDbLine
 10
-298.8000000000138
 20
-624.1438003125803
 30
0.0
 11
117.2267075386007
 21
-346.7933701764196
 31
0.0
  0
LINE
  5
2B59
330
3073
100
AcDbEntity
  8
0
 62
     0
100
AcDbLine
 10
112.7267462447198
 20
-346.7933701764159
 30
0.0
 11
298.7999999999902
 21
-222.7448511013063
 31
0.0
  0
LINE
  5
2B5A
330
3073
100
AcDbEntity
  8
0
 62
     0
100
AcDbLine
 10
-298.8000000000138
 20
-621.1438337771615
 30
0.0
 11
112.7267462447198
 21
-346.7933701764159
 31
0.0
  0
LINE
  5
2B5B
330
3073
100
AcDbEntity
  8
0
 62
     0
100
AcDbLine
 10
108.2267849508353
 20
-346.7933701764177
 30
0.0
 11
298.7999999999902
 21
-219.744884565891
 31
0.0
  0
LINE
  5
2B5C
330
3073
100
AcDbEntity
  8
0
 62
     0
100
AcDbLine
 10
-298.8000000000138
 20
-618.1438672417479
 30
0.0
 11
108.2267849508353
 21
-346.7933701764177
 31
0.0
  0
LINE
  5
2B5D
330
3073
100
AcDbEntity
  8
0
 62
     0
100
AcDbLine
 10
103.7268236569434
 20
-346.7933701764196
 30
0.0
 11
298.7999999999884
 21
-216.7449180304757
 31
0.0
  0
LINE
  5
2B5E
330
3073
100
AcDbEntity
  8
0
 62
     0
100
AcDbLine
 10
-298.8000000000138
 20
-615.1439007063307
 30
0.0
 11
103.7268236569434
 21
-346.7933701764196
 31
0.0
  0
LINE
  5
2B5F
330
3073
100
AcDbEntity
  8
0
 62
     0
100
AcDbLine
 10
99.22686236305892
 20
-346.7933701764196
 30
0.0
 11
298.799999999992
 21
-213.7449514950567
 31
0.0
  0
LINE
  5
2B60
330
3073
100
AcDbEntity
  8
0
 62
     0
100
AcDbLine
 10
-298.8000000000138
 20
-612.1439341709153
 30
0.0
 11
99.22686236305892
 21
-346.7933701764196
 31
0.0
  0
LINE
  5
2B61
330
3073
100
AcDbEntity
  8
0
 62
     0
100
AcDbLine
 10
94.72690106917799
 20
-346.7933701764177
 30
0.0
 11
298.7999999999902
 21
-210.7449849596414
 31
0.0
  0
LINE
  5
2B62
330
3073
100
AcDbEntity
  8
0
 62
     0
100
AcDbLine
 10
-298.8000000000138
 20
-609.1439676354966
 30
0.0
 11
94.72690106917799
 21
-346.7933701764177
 31
0.0
  0
LINE
  5
2B63
330
3073
100
AcDbEntity
  8
0
 62
     0
100
AcDbLine
 10
90.22693977528978
 20
-346.7933701764177
 30
0.0
 11
298.7999999999902
 21
-207.7450184242262
 31
0.0
  0
LINE
  5
2B64
330
3073
100
AcDbEntity
  8
0
 62
     0
100
AcDbLine
 10
-298.8000000000175
 20
-606.1440011000832
 30
0.0
 11
90.22693977528978
 21
-346.7933701764177
 31
0.0
  0
LINE
  5
2B65
330
3073
100
AcDbEntity
  8
0
 62
     0
100
AcDbLine
 10
85.7269784814016
 20
-346.7933701764196
 30
0.0
 11
298.7999999999884
 21
-204.7450518888108
 31
0.0
  0
LINE
  5
2B66
330
3073
100
AcDbEntity
  8
0
 62
     0
100
AcDbLine
 10
-298.8000000000138
 20
-603.1440345646679
 30
0.0
 11
85.7269784814016
 21
-346.7933701764196
 31
0.0
  0
LINE
  5
2B67
330
3073
100
AcDbEntity
  8
0
 62
     0
100
AcDbLine
 10
82.99999999999634
 20
-345.6113846530062
 30
0.0
 11
298.799999999992
 21
-201.7450853533937
 31
0.0
  0
LINE
  5
2B68
330
3073
100
AcDbEntity
  8
0
 62
     0
100
AcDbLine
 10
-298.8000000000102
 20
-600.1440680292489
 30
0.0
 11
82.99999999999634
 21
-345.6113846530062
 31
0.0
  0
LINE
  5
2B69
330
3073
100
AcDbEntity
  8
0
 62
     0
100
AcDbLine
 10
82.99999999999272
 20
-342.6114181175889
 30
0.0
 11
298.7999999999902
 21
-198.7451188179784
 31
0.0
  0
LINE
  5
2B6A
330
3073
100
AcDbEntity
  8
0
 62
     0
100
AcDbLine
 10
-298.8000000000138
 20
-597.1441014938336
 30
0.0
 11
82.99999999999272
 21
-342.6114181175889
 31
0.0
  0
LINE
  5
2B6B
330
3073
100
AcDbEntity
  8
0
 62
     0
100
AcDbLine
 10
82.99999999999272
 20
-339.6114515821737
 30
0.0
 11
298.7999999999902
 21
-195.7451522825611
 31
0.0
  0
LINE
  5
2B6C
330
3073
100
AcDbEntity
  8
0
 62
     0
100
AcDbLine
 10
-298.8000000000138
 20
-594.1441349584165
 30
0.0
 11
82.99999999999272
 21
-339.6114515821737
 31
0.0
  0
LINE
  5
2B6D
330
3073
100
AcDbEntity
  8
0
 62
     0
100
AcDbLine
 10
82.99999999999272
 20
-336.6114850467584
 30
0.0
 11
298.7999999999884
 21
-192.7451857471476
 31
0.0
  0
LINE
  5
2B6E
330
3073
100
AcDbEntity
  8
0
 62
     0
100
AcDbLine
 10
-298.8000000000138
 20
-591.1441684230029
 30
0.0
 11
82.99999999999272
 21
-336.6114850467584
 31
0.0
  0
LINE
  5
2B6F
330
3073
100
AcDbEntity
  8
0
 62
     0
100
AcDbLine
 10
82.99999999999272
 20
-333.6115185113413
 30
0.0
 11
298.799999999992
 21
-189.7452192117288
 31
0.0
  0
LINE
  5
2B70
330
3073
100
AcDbEntity
  8
0
 62
     0
100
AcDbLine
 10
-298.8000000000102
 20
-588.1442018875859
 30
0.0
 11
82.99999999999272
 21
-333.6115185113413
 31
0.0
  0
LINE
  5
2B71
330
3073
100
AcDbEntity
  8
0
 62
     0
100
AcDbLine
 10
82.99999999999634
 20
-330.6115519759222
 30
0.0
 11
298.7999999999902
 21
-186.7452526763136
 31
0.0
  0
LINE
  5
2B72
330
3073
100
AcDbEntity
  8
0
 62
     0
100
AcDbLine
 10
-298.8000000000138
 20
-585.1442353521687
 30
0.0
 11
82.99999999999634
 21
-330.6115519759222
 31
0.0
  0
LINE
  5
2B73
330
3073
100
AcDbEntity
  8
0
 62
     0
100
AcDbLine
 10
82.99999999999272
 20
-327.6115854405071
 30
0.0
 11
298.7999999999884
 21
-183.7452861408965
 31
0.0
  0
LINE
  5
2B74
330
3073
100
AcDbEntity
  8
0
 62
     0
100
AcDbLine
 10
-298.8000000000138
 20
-582.1442688167516
 30
0.0
 11
82.99999999999272
 21
-327.6115854405071
 31
0.0
  0
LINE
  5
2B75
330
3073
100
AcDbEntity
  8
0
 62
     0
100
AcDbLine
 10
82.99999999999634
 20
-324.6116189050917
 30
0.0
 11
298.799999999992
 21
-180.7453196054794
 31
0.0
  0
LINE
  5
2B76
330
3073
100
AcDbEntity
  8
0
 62
     0
100
AcDbLine
 10
-298.8000000000102
 20
-579.1443022813345
 30
0.0
 11
82.99999999999634
 21
-324.6116189050917
 31
0.0
  0
LINE
  5
2B77
330
3073
100
AcDbEntity
  8
0
 62
     0
100
AcDbLine
 10
82.99999999999272
 20
-321.6116523696765
 30
0.0
 11
298.7999999999902
 21
-177.7453530700659
 31
0.0
  0
LINE
  5
2B78
330
3073
100
AcDbEntity
  8
0
 62
     0
100
AcDbLine
 10
-298.8000000000102
 20
-576.1443357459211
 30
0.0
 11
82.99999999999272
 21
-321.6116523696765
 31
0.0
  0
LINE
  5
2B79
330
3073
100
AcDbEntity
  8
0
 62
     0
100
AcDbLine
 10
82.99999999999272
 20
-318.6116858342594
 30
0.0
 11
298.7999999999902
 21
-174.745386534647
 31
0.0
  0
LINE
  5
2B7A
330
3073
100
AcDbEntity
  8
0
 62
     0
100
AcDbLine
 10
-298.8000000000138
 20
-573.144369210504
 30
0.0
 11
82.99999999999272
 21
-318.6116858342594
 31
0.0
  0
LINE
  5
2B7B
330
3073
100
AcDbEntity
  8
0
 62
     0
100
AcDbLine
 10
82.99999999999272
 20
-315.611719298844
 30
0.0
 11
298.7999999999884
 21
-171.7454199992316
 31
0.0
  0
LINE
  5
2B7C
330
3073
100
AcDbEntity
  8
0
 62
     0
100
AcDbLine
 10
-298.8000000000138
 20
-570.1444026750869
 30
0.0
 11
82.99999999999272
 21
-315.611719298844
 31
0.0
  0
LINE
  5
2B7D
330
3073
100
AcDbEntity
  8
0
 62
     0
100
AcDbLine
 10
82.99999999999634
 20
-312.6117527634268
 30
0.0
 11
298.799999999992
 21
-168.7454534638145
 31
0.0
  0
LINE
  5
2B7E
330
3073
100
AcDbEntity
  8
0
 62
     0
100
AcDbLine
 10
-298.8000000000102
 20
-567.1444361396716
 30
0.0
 11
82.99999999999634
 21
-312.6117527634268
 31
0.0
  0
LINE
  5
2B7F
330
3073
100
AcDbEntity
  8
0
 62
     0
100
AcDbLine
 10
82.99999999998908
 20
-309.6117862280134
 30
0.0
 11
298.7999999999865
 21
-165.745486928401
 31
0.0
  0
LINE
  5
2B80
330
3073
100
AcDbEntity
  8
0
 62
     0
100
AcDbLine
 10
-298.8000000000138
 20
-564.1444696042563
 30
0.0
 11
82.99999999998908
 21
-309.6117862280134
 31
0.0
  0
LINE
  5
2B81
330
3073
100
AcDbEntity
  8
0
 62
     0
100
AcDbLine
 10
82.99999999999272
 20
-306.6118196925945
 30
0.0
 11
298.7999999999902
 21
-162.7455203929839
 31
0.0
  0
LINE
  5
2B82
330
3073
100
AcDbEntity
  8
0
 62
     0
100
AcDbLine
 10
-298.8000000000138
 20
-561.1445030688392
 30
0.0
 11
82.99999999999272
 21
-306.6118196925945
 31
0.0
  0
LINE
  5
2B83
330
3073
100
AcDbEntity
  8
0
 62
     0
100
AcDbLine
 10
82.99999999999272
 20
-303.6118531571792
 30
0.0
 11
298.799999999992
 21
-159.745553857565
 31
0.0
  0
LINE
  5
2B84
330
3073
100
AcDbEntity
  8
0
 62
     0
100
AcDbLine
 10
-298.8000000000138
 20
-558.1445365334237
 30
0.0
 11
82.99999999999272
 21
-303.6118531571792
 31
0.0
  0
LINE
  5
2B85
330
3073
100
AcDbEntity
  8
0
 62
     0
100
AcDbLine
 10
82.99999999999272
 20
-300.6118866217621
 30
0.0
 11
298.7999999999884
 21
-156.7455873221514
 31
0.0
  0
LINE
  5
2B86
330
3073
100
AcDbEntity
  8
0
 62
     0
100
AcDbLine
 10
-298.8000000000138
 20
-555.1445699980065
 30
0.0
 11
82.99999999999272
 21
-300.6118866217621
 31
0.0
  0
LINE
  5
2B87
330
3073
100
AcDbEntity
  8
0
 62
     0
100
AcDbLine
 10
82.99999999999272
 20
-297.6119200863468
 30
0.0
 11
298.7999999999902
 21
-153.7456207867344
 31
0.0
  0
LINE
  5
2B88
330
3073
100
AcDbEntity
  8
0
 62
     0
100
AcDbLine
 10
-298.8000000000138
 20
-552.1446034625933
 30
0.0
 11
82.99999999999272
 21
-297.6119200863468
 31
0.0
  0
LINE
  5
2B89
330
3073
100
AcDbEntity
  8
0
 62
     0
100
AcDbLine
 10
82.99999999999272
 20
-294.6119535509315
 30
0.0
 11
295.4284175029206
 21
-152.9933701764185
 31
0.0
  0
LINE
  5
2B8A
330
3073
100
AcDbEntity
  8
0
 62
     0
100
AcDbLine
 10
-298.8000000000138
 20
-549.1446369271742
 30
0.0
 11
82.99999999999272
 21
-294.6119535509315
 31
0.0
  0
LINE
  5
2B8B
330
3073
100
AcDbEntity
  8
0
 62
     0
100
AcDbLine
 10
82.99999999999634
 20
-291.6119870155126
 30
0.0
 11
290.9284562090397
 21
-152.9933701764166
 31
0.0
  0
LINE
  5
2B8C
330
3073
100
AcDbEntity
  8
0
 62
     0
100
AcDbLine
 10
-298.8000000000102
 20
-546.1446703917572
 30
0.0
 11
82.99999999999634
 21
-291.6119870155126
 31
0.0
  0
LINE
  5
2B8D
330
3073
100
AcDbEntity
  8
0
 62
     0
100
AcDbLine
 10
82.99999999999272
 20
-288.6120204800972
 30
0.0
 11
286.4284949151477
 21
-152.9933701764185
 31
0.0
  0
LINE
  5
2B8E
330
3073
100
AcDbEntity
  8
0
 62
     0
100
AcDbLine
 10
-298.8000000000138
 20
-543.144703856342
 30
0.0
 11
82.99999999999272
 21
-288.6120204800972
 31
0.0
  0
LINE
  5
2B8F
330
3073
100
AcDbEntity
  8
0
 62
     0
100
AcDbLine
 10
82.99999999999272
 20
-285.6120539446802
 30
0.0
 11
281.9285336212652
 21
-152.9933701764185
 31
0.0
  0
LINE
  5
2B90
330
3073
100
AcDbEntity
  8
0
 62
     0
100
AcDbLine
 10
-298.8000000000138
 20
-540.1447373209248
 30
0.0
 11
82.99999999999272
 21
-285.6120539446802
 31
0.0
  0
LINE
  5
2B91
330
3073
100
AcDbEntity
  8
0
 62
     0
100
AcDbLine
 10
82.99999999999272
 20
-282.6120874092667
 30
0.0
 11
277.4285723273806
 21
-152.9933701764203
 31
0.0
  0
LINE
  5
2B92
330
3073
100
AcDbEntity
  8
0
 62
     0
100
AcDbLine
 10
-298.8000000000138
 20
-537.1447707855113
 30
0.0
 11
82.99999999999272
 21
-282.6120874092667
 31
0.0
  0
LINE
  5
2B93
330
3073
100
AcDbEntity
  8
0
 62
     0
100
AcDbLine
 10
82.99999999999634
 20
-279.6121208738496
 30
0.0
 11
272.9286110334943
 21
-152.9933701764185
 31
0.0
  0
LINE
  5
2B94
330
3073
100
AcDbEntity
  8
0
 62
     0
100
AcDbLine
 10
-298.8000000000102
 20
-534.1448042500924
 30
0.0
 11
82.99999999999634
 21
-279.6121208738496
 31
0.0
  0
LINE
  5
2B95
330
3073
100
AcDbEntity
  8
0
 62
     0
100
AcDbLine
 10
82.99999999999272
 20
-276.6121543384306
 30
0.0
 11
268.428649739606
 21
-152.9933701764185
 31
0.0
  0
LINE
  5
2B96
330
3073
100
AcDbEntity
  8
0
 62
     0
100
AcDbLine
 10
-298.8000000000138
 20
-531.1448377146771
 30
0.0
 11
82.99999999999272
 21
-276.6121543384325
 31
0.0
  0
LINE
  5
2B97
330
3073
100
AcDbEntity
  8
0
 62
     0
100
AcDbLine
 10
82.99999999999272
 20
-273.6121878030171
 30
0.0
 11
263.9286884457233
 21
-152.9933701764185
 31
0.0
  0
LINE
  5
2B98
330
3073
100
AcDbEntity
  8
0
 62
     0
100
AcDbLine
 10
-298.8000000000138
 20
-528.1448711792618
 30
0.0
 11
82.99999999999272
 21
-273.6121878030171
 31
0.0
  0
LINE
  5
2B99
330
3073
100
AcDbEntity
  8
0
 62
     0
100
AcDbLine
 10
82.99999999999634
 20
-270.6122212676
 30
0.0
 11
259.4287271518388
 21
-152.9933701764203
 31
0.0
  0
LINE
  5
2B9A
330
3073
100
AcDbEntity
  8
0
 62
     0
100
AcDbLine
 10
-298.8000000000102
 20
-525.1449046438446
 30
0.0
 11
82.99999999999272
 21
-270.6122212676019
 31
0.0
  0
LINE
  5
2B9B
330
3073
100
AcDbEntity
  8
0
 62
     0
100
AcDbLine
 10
82.99999999999272
 20
-267.6122547321847
 30
0.0
 11
254.9287658579487
 21
-152.9933701764203
 31
0.0
  0
LINE
  5
2B9C
330
3073
100
AcDbEntity
  8
0
 62
     0
100
AcDbLine
 10
-298.8000000000138
 20
-522.1449381084294
 30
0.0
 11
82.99999999999272
 21
-267.6122547321847
 31
0.0
  0
LINE
  5
2B9D
330
3073
100
AcDbEntity
  8
0
 62
     0
100
AcDbLine
 10
82.99999999999272
 20
-264.6122881967676
 30
0.0
 11
250.4288045640641
 21
-152.9933701764185
 31
0.0
  0
LINE
  5
2B9E
330
3073
100
AcDbEntity
  8
0
 62
     0
100
AcDbLine
 10
-298.8000000000102
 20
-519.1449715730104
 30
0.0
 11
82.99999999999272
 21
-264.6122881967676
 31
0.0
  0
LINE
  5
2B9F
330
3073
100
AcDbEntity
  8
0
 62
     0
100
AcDbLine
 10
82.99999999999272
 20
-261.6123216613524
 30
0.0
 11
245.9288432701815
 21
-152.9933701764185
 31
0.0
  0
LINE
  5
2BA0
330
3073
100
AcDbEntity
  8
0
 62
     0
100
AcDbLine
 10
-298.8000000000138
 20
-516.145005037597
 30
0.0
 11
82.99999999999272
 21
-261.6123216613524
 31
0.0
  0
LINE
  5
2BA1
330
3073
100
AcDbEntity
  8
0
 62
     0
100
AcDbLine
 10
82.99999999999272
 20
-258.612355125937
 30
0.0
 11
241.4288819762933
 21
-152.9933701764203
 31
0.0
  0
LINE
  5
2BA2
330
3073
100
AcDbEntity
  8
0
 62
     0
100
AcDbLine
 10
-298.8000000000138
 20
-513.1450385021817
 30
0.0
 11
82.99999999999272
 21
-258.612355125937
 31
0.0
  0
LINE
  5
2BA3
330
3073
100
AcDbEntity
  8
0
 62
     0
100
AcDbLine
 10
82.99999999999272
 20
-255.6123885905199
 30
0.0
 11
236.9289206824069
 21
-152.9933701764203
 31
0.0
  0
LINE
  5
2BA4
330
3073
100
AcDbEntity
  8
0
 62
     0
100
AcDbLine
 10
-298.8000000000138
 20
-510.1450719667645
 30
0.0
 11
82.99999999999272
 21
-255.6123885905199
 31
0.0
  0
LINE
  5
2BA5
330
3073
100
AcDbEntity
  8
0
 62
     0
100
AcDbLine
 10
82.99999999999272
 20
-252.6124220551028
 30
0.0
 11
232.4289593885242
 21
-152.9933701764185
 31
0.0
  0
LINE
  5
2BA6
330
3073
100
AcDbEntity
  8
0
 62
     0
100
AcDbLine
 10
-298.8000000000102
 20
-507.1451054313455
 30
0.0
 11
82.99999999999272
 21
-252.6124220551028
 31
0.0
  0
LINE
  5
2BA7
330
3073
100
AcDbEntity
  8
0
 62
     0
100
AcDbLine
 10
82.99999999999272
 20
-249.6124555196875
 30
0.0
 11
227.9289980946396
 21
-152.9933701764166
 31
0.0
  0
LINE
  5
2BA8
330
3073
100
AcDbEntity
  8
0
 62
     0
100
AcDbLine
 10
-298.8000000000102
 20
-504.1451388959283
 30
0.0
 11
82.99999999999272
 21
-249.6124555196875
 31
0.0
  0
LINE
  5
2BA9
330
3073
100
AcDbEntity
  8
0
 62
     0
100
AcDbLine
 10
82.99999999999272
 20
-246.6124889842704
 30
0.0
 11
223.4290368007514
 21
-152.9933701764185
 31
0.0
  0
LINE
  5
2BAA
330
3073
100
AcDbEntity
  8
0
 62
     0
100
AcDbLine
 10
-298.8000000000102
 20
-501.145172360513
 30
0.0
 11
82.99999999998908
 21
-246.6124889842722
 31
0.0
  0
LINE
  5
2BAB
330
3073
100
AcDbEntity
  8
0
 62
     0
100
AcDbLine
 10
82.99999999999634
 20
-243.6125224488551
 30
0.0
 11
218.929075506865
 21
-152.9933701764203
 31
0.0
  0
LINE
  5
2BAC
330
3073
100
AcDbEntity
  8
0
 62
     0
100
AcDbLine
 10
-298.8000000000102
 20
-498.1452058250959
 30
0.0
 11
82.99999999999272
 21
-243.6125224488569
 31
0.0
  0
LINE
  5
2BAD
330
3073
100
AcDbEntity
  8
0
 62
     0
100
AcDbLine
 10
82.99999999999272
 20
-240.612555913438
 30
0.0
 11
214.4291142129841
 21
-152.9933701764185
 31
0.0
  0
LINE
  5
2BAE
330
3073
100
AcDbEntity
  8
0
 62
     0
100
AcDbLine
 10
-298.8000000000102
 20
-495.1452392896808
 30
0.0
 11
82.99999999999272
 21
-240.612555913438
 31
0.0
  0
LINE
  5
2BAF
330
3073
100
AcDbEntity
  8
0
 62
     0
100
AcDbLine
 10
82.99999999999272
 20
-237.6125893780208
 30
0.0
 11
209.9291529190941
 21
-152.9933701764185
 31
0.0
  0
LINE
  5
2BB0
330
3073
100
AcDbEntity
  8
0
 62
     0
100
AcDbLine
 10
-298.8000000000102
 20
-492.1452727542637
 30
0.0
 11
82.99999999998908
 21
-237.6125893780227
 31
0.0
  0
LINE
  5
2BB1
330
3073
100
AcDbEntity
  8
0
 62
     0
100
AcDbLine
 10
82.99999999999272
 20
-234.6126228426074
 30
0.0
 11
205.4291916252096
 21
-152.9933701764185
 31
0.0
  0
LINE
  5
2BB2
330
3073
100
AcDbEntity
  8
0
 62
     0
100
AcDbLine
 10
-298.8000000000102
 20
-489.1453062188483
 30
0.0
 11
82.99999999999272
 21
-234.6126228426074
 31
0.0
  0
LINE
  5
2BB3
330
3073
100
AcDbEntity
  8
0
 62
     0
100
AcDbLine
 10
82.99999999999634
 20
-231.6126563071903
 30
0.0
 11
200.9292303313232
 21
-152.9933701764203
 31
0.0
  0
LINE
  5
2BB4
330
3073
100
AcDbEntity
  8
0
 62
     0
100
AcDbLine
 10
-298.8000000000102
 20
-486.1453396834331
 30
0.0
 11
82.99999999999272
 21
-231.6126563071921
 31
0.0
  0
LINE
  5
2BB5
330
3073
100
AcDbEntity
  8
0
 62
     0
100
AcDbLine
 10
82.99999999999272
 20
-228.612689771775
 30
0.0
 11
196.4292690374423
 21
-152.9933701764185
 31
0.0
  0
LINE
  5
2BB6
330
3073
100
AcDbEntity
  8
0
 62
     0
100
AcDbLine
 10
-298.8000000000102
 20
-483.1453731480157
 30
0.0
 11
82.99999999999272
 21
-228.612689771775
 31
0.0
  0
LINE
  5
2BB7
330
3073
100
AcDbEntity
  8
0
 62
     0
100
AcDbLine
 10
82.99999999999272
 20
-225.612723236356
 30
0.0
 11
191.9293077435521
 21
-152.9933701764185
 31
0.0
  0
LINE
  5
2BB8
330
3073
100
AcDbEntity
  8
0
 62
     0
100
AcDbLine
 10
-298.8000000000102
 20
-480.1454066125987
 30
0.0
 11
82.99999999998908
 21
-225.6127232363578
 31
0.0
  0
LINE
  5
2BB9
330
3073
100
AcDbEntity
  8
0
 62
     0
100
AcDbLine
 10
82.99999999999634
 20
-222.6127567009407
 30
0.0
 11
187.4293464496677
 21
-152.9933701764203
 31
0.0
  0
LINE
  5
2BBA
330
3073
100
AcDbEntity
  8
0
 62
     0
100
AcDbLine
 10
-298.8000000000068
 20
-477.1454400771816
 30
0.0
 11
82.99999999999272
 21
-222.6127567009426
 31
0.0
  0
LINE
  5
2BBB
330
3073
100
AcDbEntity
  8
0
 62
     0
100
AcDbLine
 10
82.99999999999272
 20
-219.6127901655273
 30
0.0
 11
182.929385155785
 21
-152.9933701764185
 31
0.0
  0
LINE
  5
2BBC
330
3073
100
AcDbEntity
  8
0
 62
     0
100
AcDbLine
 10
-298.8000000000102
 20
-474.1454735417683
 30
0.0
 11
82.99999999999272
 21
-219.6127901655273
 31
0.0
  0
LINE
  5
2BBD
330
3073
100
AcDbEntity
  8
0
 62
     0
100
AcDbLine
 10
82.99999999999272
 20
-216.6128236301083
 30
0.0
 11
178.4294238618968
 21
-152.9933701764185
 31
0.0
  0
LINE
  5
2BBE
330
3073
100
AcDbEntity
  8
0
 62
     0
100
AcDbLine
 10
-298.8000000000102
 20
-471.1455070063512
 30
0.0
 11
82.99999999998908
 21
-216.6128236301101
 31
0.0
  0
LINE
  5
2BBF
330
3073
100
AcDbEntity
  8
0
 62
     0
100
AcDbLine
 10
82.99999999999272
 20
-213.612857094693
 30
0.0
 11
173.9294625680104
 21
-152.9933701764185
 31
0.0
  0
LINE
  5
2BC0
330
3073
100
AcDbEntity
  8
0
 62
     0
100
AcDbLine
 10
-298.8000000000102
 20
-468.145540470934
 30
0.0
 11
82.99999999998908
 21
-213.6128570946949
 31
0.0
  0
LINE
  5
2BC1
330
3073
100
AcDbEntity
  8
0
 62
     0
100
AcDbLine
 10
82.99999999999455
 20
-210.6128905592759
 30
0.0
 11
169.4295012741259
 21
-152.9933701764203
 31
0.0
  0
LINE
  5
2BC2
330
3073
100
AcDbEntity
  8
0
 62
     0
100
AcDbLine
 10
-298.8000000000068
 20
-465.1455739355188
 30
0.0
 11
82.99999999999272
 21
-210.6128905592777
 31
0.0
  0
LINE
  5
2BC3
330
3073
100
AcDbEntity
  8
0
 62
     0
100
AcDbLine
 10
82.99999999999091
 20
-207.6129240238606
 30
0.0
 11
164.9295399802395
 21
-152.9933701764185
 31
0.0
  0
LINE
  5
2BC4
330
3073
100
AcDbEntity
  8
0
 62
     0
100
AcDbLine
 10
-298.8000000000138
 20
-462.1456074001033
 30
0.0
 11
82.99999999999091
 21
-207.6129240238606
 31
0.0
  0
LINE
  5
2BC5
330
3073
100
AcDbEntity
  8
0
 62
     0
100
AcDbLine
 10
82.99999999999272
 20
-204.6129574884453
 30
0.0
 11
160.4295786863548
 21
-152.9933701764185
 31
0.0
  0
LINE
  5
2BC6
330
3073
100
AcDbEntity
  8
0
 62
     0
100
AcDbLine
 10
-298.8000000000102
 20
-459.1456408646862
 30
0.0
 11
82.99999999999091
 21
-204.6129574884471
 31
0.0
  0
LINE
  5
2BC7
330
3073
100
AcDbEntity
  8
0
 62
     0
100
AcDbLine
 10
82.99999999999272
 20
-201.6129909530282
 30
0.0
 11
155.9296173924686
 21
-152.9933701764185
 31
0.0
  0
LINE
  5
2BC8
330
3073
100
AcDbEntity
  8
0
 62
     0
100
AcDbLine
 10
-298.8000000000102
 20
-456.1456743292708
 30
0.0
 11
82.99999999999272
 21
-201.6129909530282
 31
0.0
  0
LINE
  5
2BC9
330
3073
100
AcDbEntity
  8
0
 62
     0
100
AcDbLine
 10
82.99999999999455
 20
-198.6130244176111
 30
0.0
 11
151.429656098584
 21
-152.9933701764185
 31
0.0
  0
LINE
  5
2BCA
330
3073
100
AcDbEntity
  8
0
 62
     0
100
AcDbLine
 10
-298.8000000000068
 20
-453.1457077938521
 30
0.0
 11
82.99999999999272
 21
-198.6130244176129
 31
0.0
  0
LINE
  5
2BCB
330
3073
100
AcDbEntity
  8
0
 62
     0
100
AcDbLine
 10
82.99999999999091
 20
-195.6130578821957
 30
0.0
 11
146.9296948046976
 21
-152.9933701764185
 31
0.0
  0
LINE
  5
2BCC
330
3073
100
AcDbEntity
  8
0
 62
     0
100
AcDbLine
 10
-298.8000000000138
 20
-450.1457412584384
 30
0.0
 11
82.99999999999091
 21
-195.6130578821957
 31
0.0
  0
LINE
  5
2BCD
330
3073
100
AcDbEntity
  8
0
 62
     0
100
AcDbLine
 10
82.99999999999272
 20
-192.6130913467804
 30
0.0
 11
142.4297335108131
 21
-152.9933701764203
 31
0.0
  0
LINE
  5
2BCE
330
3073
100
AcDbEntity
  8
0
 62
     0
100
AcDbLine
 10
-298.8000000000102
 20
-447.1457747230232
 30
0.0
 11
82.99999999999091
 21
-192.6130913467823
 31
0.0
  0
LINE
  5
2BCF
330
3073
100
AcDbEntity
  8
0
 62
     0
100
AcDbLine
 10
82.99999999999634
 20
-189.6131248113615
 30
0.0
 11
137.9297722169267
 21
-152.9933701764185
 31
0.0
  0
LINE
  5
2BD0
330
3073
100
AcDbEntity
  8
0
 62
     0
100
AcDbLine
 10
-298.8000000000068
 20
-444.1458081876042
 30
0.0
 11
82.99999999999272
 21
-189.6131248113652
 31
0.0
  0
LINE
  5
2BD1
330
3073
100
AcDbEntity
  8
0
 62
     0
100
AcDbLine
 10
82.99999999999091
 20
-186.6131582759462
 30
0.0
 11
133.4298109230385
 21
-152.9933701764185
 31
0.0
  0
LINE
  5
2BD2
330
3073
100
AcDbEntity
  8
0
 62
     0
100
AcDbLine
 10
-298.8000000000102
 20
-441.1458416521891
 30
0.0
 11
82.99999999998908
 21
-186.6131582759481
 31
0.0
  0
LINE
  5
2BD3
330
3073
100
AcDbEntity
  8
0
 62
     0
100
AcDbLine
 10
82.99999999999455
 20
-183.6131917405309
 30
0.0
 11
128.9298496291558
 21
-152.9933701764185
 31
0.0
  0
LINE
  5
2BD4
330
3073
100
AcDbEntity
  8
0
 62
     0
100
AcDbLine
 10
-298.8000000000102
 20
-438.145875116772
 30
0.0
 11
82.99999999999091
 21
-183.6131917405328
 31
0.0
  0
LINE
  5
2BD5
330
3073
100
AcDbEntity
  8
0
 62
     0
100
AcDbLine
 10
82.99999999999272
 20
-180.6132252051155
 30
0.0
 11
124.4298883352712
 21
-152.9933701764203
 31
0.0
  0
LINE
  5
2BD6
330
3073
100
AcDbEntity
  8
0
 62
     0
100
AcDbLine
 10
-298.8000000000102
 20
-435.1459085813583
 30
0.0
 11
82.99999999999091
 21
-180.6132252051174
 31
0.0
  0
LINE
  5
2BD7
330
3073
100
AcDbEntity
  8
0
 62
     0
100
AcDbLine
 10
82.99999999999634
 20
-177.6132586696985
 30
0.0
 11
119.9299270413848
 21
-152.9933701764203
 31
0.0
  0
LINE
  5
2BD8
330
3073
100
AcDbEntity
  8
0
 62
     0
100
AcDbLine
 10
-298.8000000000068
 20
-432.1459420459397
 30
0.0
 11
82.99999999999272
 21
-177.6132586697003
 31
0.0
  0
LINE
  5
2BD9
330
3073
100
AcDbEntity
  8
0
 62
     0
100
AcDbLine
 10
82.99999999999091
 20
-174.6132921342832
 30
0.0
 11
115.4299657475003
 21
-152.9933701764166
 31
0.0
  0
LINE
  5
2BDA
330
3073
100
AcDbEntity
  8
0
 62
     0
100
AcDbLine
 10
-298.8000000000102
 20
-429.1459755105242
 30
0.0
 11
82.99999999999091
 21
-174.6132921342832
 31
0.0
  0
LINE
  5
2BDB
330
3073
100
AcDbEntity
  8
0
 62
     0
100
AcDbLine
 10
82.99999999999455
 20
-171.6133255988661
 30
0.0
 11
110.9300044536139
 21
-152.9933701764185
 31
0.0
  0
LINE
  5
2BDC
330
3073
100
AcDbEntity
  8
0
 62
     0
100
AcDbLine
 10
-298.8000000000102
 20
-426.1460089751087
 30
0.0
 11
82.99999999999091
 21
-171.6133255988679
 31
0.0
  0
LINE
  5
2BDD
330
3073
100
AcDbEntity
  8
0
 62
     0
100
AcDbLine
 10
82.99999999999634
 20
-168.613359063449
 30
0.0
 11
106.4300431597294
 21
-152.9933701764185
 31
0.0
  0
LINE
  5
2BDE
330
3073
100
AcDbEntity
  8
0
 62
     0
100
AcDbLine
 10
-298.8000000000068
 20
-423.14604243969
 30
0.0
 11
82.99999999999272
 21
-168.6133590634508
 31
0.0
  0
LINE
  5
2BDF
330
3073
100
AcDbEntity
  8
0
 62
     0
100
AcDbLine
 10
82.99999999999272
 20
-165.6133925280337
 30
0.0
 11
101.9300818658394
 21
-152.9933701764203
 31
0.0
  0
LINE
  5
2BE0
330
3073
100
AcDbEntity
  8
0
 62
     0
100
AcDbLine
 10
-298.8000000000102
 20
-420.1460759042765
 30
0.0
 11
82.99999999998908
 21
-165.6133925280354
 31
0.0
  0
LINE
  5
2BE1
330
3073
100
AcDbEntity
  8
0
 62
     0
100
AcDbLine
 10
82.99999999999455
 20
-162.6134259926166
 30
0.0
 11
97.43012057195848
 21
-152.9933701764185
 31
0.0
  0
LINE
  5
2BE2
330
3073
100
AcDbEntity
  8
0
 62
     0
100
AcDbLine
 10
-298.8000000000102
 20
-417.1461093688576
 30
0.0
 11
82.99999999999091
 21
-162.6134259926184
 31
0.0
  0
LINE
  5
2BE3
330
3073
100
AcDbEntity
  8
0
 62
     0
100
AcDbLine
 10
82.99999999999272
 20
-159.6134594571995
 30
0.0
 11
92.93015927807207
 21
-152.9933701764166
 31
0.0
  0
LINE
  5
2BE4
330
3073
100
AcDbEntity
  8
0
 62
     0
100
AcDbLine
 10
-298.8000000000102
 20
-414.1461428334421
 30
0.0
 11
82.99999999999091
 21
-159.6134594572031
 31
0.0
  0
LINE
  5
2BE5
330
3073
100
AcDbEntity
  8
0
 62
     0
100
AcDbLine
 10
82.99999999999272
 20
-156.6134929217842
 30
0.0
 11
88.4301979841839
 21
-152.9933701764185
 31
0.0
  0
LINE
  5
2BE6
330
3073
100
AcDbEntity
  8
0
 62
     0
100
AcDbLine
 10
-298.8000000000102
 20
-411.1461762980268
 30
0.0
 11
82.99999999998908
 21
-156.613492921786
 31
0.0
  0
LINE
  5
2BE7
330
3073
100
AcDbEntity
  8
0
 62
     0
100
AcDbLine
 10
82.99999999999091
 20
-153.6135263863707
 30
0.0
 11
83.93023669029755
 21
-152.9933701764203
 31
0.0
  0
LINE
  5
2BE8
330
3073
100
AcDbEntity
  8
0
 62
     0
100
AcDbLine
 10
-298.8000000000102
 20
-408.1462097626118
 30
0.0
 11
82.99999999999091
 21
-153.6135263863707
 31
0.0
  0
LINE
  5
2BE9
330
3073
100
AcDbEntity
  8
0
 62
     0
100
AcDbLine
 10
-298.8000000000102
 20
-405.1462432271946
 30
0.0
 11
79.43027539641298
 21
-152.9933701764203
 31
0.0
  0
LINE
  5
2BEA
330
3073
100
AcDbEntity
  8
0
 62
     0
100
AcDbLine
 10
-298.8000000000068
 20
-402.1462766917755
 30
0.0
 11
74.93031410253021
 21
-152.9933701764185
 31
0.0
  0
LINE
  5
2BEB
330
3073
100
AcDbEntity
  8
0
 62
     0
100
AcDbLine
 10
-298.8000000000102
 20
-399.1463101563622
 30
0.0
 11
70.43035280864207
 21
-152.9933701764185
 31
0.0
  0
LINE
  5
2BEC
330
3073
100
AcDbEntity
  8
0
 62
     0
100
AcDbLine
 10
-298.8000000000102
 20
-396.1463436209488
 30
0.0
 11
65.9303915147575
 21
-152.9933701764203
 31
0.0
  0
LINE
  5
2BED
330
3073
100
AcDbEntity
  8
0
 62
     0
100
AcDbLine
 10
-298.8000000000102
 20
-393.1463770855298
 30
0.0
 11
61.43043022087113
 21
-152.9933701764203
 31
0.0
  0
LINE
  5
2BEE
330
3073
100
AcDbEntity
  8
0
 62
     0
100
AcDbLine
 10
-298.8000000000068
 20
-390.1464105501128
 30
0.0
 11
56.9304689269884
 21
-152.9933701764185
 31
0.0
  0
LINE
  5
2BEF
330
3073
100
AcDbEntity
  8
0
 62
     0
100
AcDbLine
 10
-298.8000000000102
 20
-387.1464440146974
 30
0.0
 11
52.4305076331002
 21
-152.9933701764203
 31
0.0
  0
LINE
  5
2BF0
330
3073
100
AcDbEntity
  8
0
 62
     0
100
AcDbLine
 10
-298.8000000000102
 20
-384.1464774792802
 30
0.0
 11
47.93054633921565
 21
-152.9933701764203
 31
0.0
  0
LINE
  5
2BF1
330
3073
100
AcDbEntity
  8
0
 62
     0
100
AcDbLine
 10
-298.8000000000102
 20
-381.1465109438668
 30
0.0
 11
43.4305850453311
 21
-152.9933701764203
 31
0.0
  0
LINE
  5
2BF2
330
3073
100
AcDbEntity
  8
0
 62
     0
100
AcDbLine
 10
-298.8000000000102
 20
-378.1465444084479
 30
0.0
 11
38.9306237514429
 21
-152.9933701764185
 31
0.0
  0
LINE
  5
2BF3
330
3073
100
AcDbEntity
  8
0
 62
     0
100
AcDbLine
 10
-298.8000000000102
 20
-375.1465778730325
 30
0.0
 11
34.43066245755836
 21
-152.9933701764185
 31
0.0
  0
LINE
  5
2BF4
330
3073
100
AcDbEntity
  8
0
 62
     0
100
AcDbLine
 10
-298.8000000000102
 20
-372.1466113376155
 30
0.0
 11
29.9307011636738
 21
-152.9933701764203
 31
0.0
  0
LINE
  5
2BF5
330
3073
100
AcDbEntity
  8
0
 62
     0
100
AcDbLine
 10
-298.8000000000102
 20
-369.1466448022002
 30
0.0
 11
25.43073986978561
 21
-152.9933701764221
 31
0.0
  0
LINE
  5
2BF6
330
3073
100
AcDbEntity
  8
0
 62
     0
100
AcDbLine
 10
-298.8000000000102
 20
-366.1466782667849
 30
0.0
 11
20.93077857590106
 21
-152.9933701764185
 31
0.0
  0
LINE
  5
2BF7
330
3073
100
AcDbEntity
  8
0
 62
     0
100
AcDbLine
 10
-298.8000000000068
 20
-363.1467117313657
 30
0.0
 11
16.4308172820165
 21
-152.9933701764185
 31
0.0
  0
LINE
  5
2BF8
330
3073
100
AcDbEntity
  8
0
 62
     0
100
AcDbLine
 10
-298.8000000000138
 20
-360.1467451959525
 30
0.0
 11
11.93085598812831
 21
-152.9933701764203
 31
0.0
  0
LINE
  5
2BF9
330
3073
100
AcDbEntity
  8
0
 62
     0
100
AcDbLine
 10
-298.8000000000102
 20
-357.1467786605353
 30
0.0
 11
7.430894694243759
 21
-152.9933701764203
 31
0.0
  0
LINE
  5
2BFA
330
3073
100
AcDbEntity
  8
0
 62
     0
100
AcDbLine
 10
-298.8000000000102
 20
-354.1468121251201
 30
0.0
 11
2.930933400359208
 21
-152.9933701764203
 31
0.0
  0
LINE
  5
2BFB
330
3073
100
AcDbEntity
  8
0
 62
     0
100
AcDbLine
 10
-298.8000000000068
 20
-351.1468455897029
 30
0.0
 11
-1.569027893525344
 21
-152.9933701764185
 31
0.0
  0
LINE
  5
2BFC
330
3073
100
AcDbEntity
  8
0
 62
     0
100
AcDbLine
 10
-298.8000000000102
 20
-348.1468790542858
 30
0.0
 11
-6.068989187413535
 21
-152.9933701764203
 31
0.0
  0
LINE
  5
2BFD
330
3073
100
AcDbEntity
  8
0
 62
     0
100
AcDbLine
 10
-298.8000000000102
 20
-345.1469125188705
 30
0.0
 11
-10.56895048129809
 21
-152.9933701764185
 31
0.0
  0
LINE
  5
2BFE
330
3073
100
AcDbEntity
  8
0
 62
     0
100
AcDbLine
 10
-298.8000000000068
 20
-342.1469459834534
 30
0.0
 11
-15.06891177518264
 21
-152.9933701764203
 31
0.0
  0
LINE
  5
2BFF
330
3073
100
AcDbEntity
  8
0
 62
     0
100
AcDbLine
 10
-298.8000000000068
 20
-339.146979448038
 30
0.0
 11
-19.56887306906719
 21
-152.9933701764203
 31
0.0
  0
LINE
  5
2C00
330
3073
100
AcDbEntity
  8
0
 62
     0
100
AcDbLine
 10
-298.8000000000102
 20
-336.1470129126192
 30
0.0
 11
-24.06883436295539
 21
-152.9933701764185
 31
0.0
  0
LINE
  5
2C01
330
3073
100
AcDbEntity
  8
0
 62
     0
100
AcDbLine
 10
-298.8000000000102
 20
-333.1470463772057
 30
0.0
 11
-28.56879565683994
 21
-152.9933701764185
 31
0.0
  0
LINE
  5
2C02
330
3073
100
AcDbEntity
  8
0
 62
     0
100
AcDbLine
 10
-298.8000000000068
 20
-330.1470798417904
 30
0.0
 11
-33.06875695072449
 21
-152.9933701764203
 31
0.0
  0
LINE
  5
2C03
330
3073
100
AcDbEntity
  8
0
 62
     0
100
AcDbLine
 10
-298.8000000000102
 20
-327.1471133063732
 30
0.0
 11
-37.56871824461268
 21
-152.9933701764203
 31
0.0
  0
LINE
  5
2C04
330
3073
100
AcDbEntity
  8
0
 62
     0
100
AcDbLine
 10
-298.8000000000102
 20
-324.1471467709563
 30
0.0
 11
-42.0686795384936
 21
-152.9933701764185
 31
0.0
  0
LINE
  5
2C05
330
3073
100
AcDbEntity
  8
0
 62
     0
100
AcDbLine
 10
-298.8000000000102
 20
-321.1471802355427
 30
0.0
 11
-46.56864083237815
 21
-152.9933701764185
 31
0.0
  0
LINE
  5
2C06
330
3073
100
AcDbEntity
  8
0
 62
     0
100
AcDbLine
 10
-298.8000000000102
 20
-318.1472137001256
 30
0.0
 11
-51.06860212627361
 21
-152.9933701764221
 31
0.0
  0
LINE
  5
2C07
330
3073
100
AcDbEntity
  8
0
 62
     0
100
AcDbLine
 10
-298.8000000000102
 20
-315.1472471647084
 30
0.0
 11
-55.56856342015453
 21
-152.9933701764203
 31
0.0
  0
LINE
  5
2C08
330
3073
100
AcDbEntity
  8
0
 62
     0
100
AcDbLine
 10
-298.8000000000102
 20
-312.1472806292914
 30
0.0
 11
-60.06852471403909
 21
-152.9933701764203
 31
0.0
  0
LINE
  5
2C09
330
3073
100
AcDbEntity
  8
0
 62
     0
100
AcDbLine
 10
-298.8000000000102
 20
-309.147314093876
 30
0.0
 11
-64.56848600792364
 21
-152.9933701764203
 31
0.0
  0
LINE
  5
2C0A
330
3073
100
AcDbEntity
  8
0
 62
     0
100
AcDbLine
 10
-298.8000000000102
 20
-306.1473475584608
 30
0.0
 11
-69.06844730181183
 21
-152.9933701764203
 31
0.0
  0
LINE
  5
2C0B
330
3073
100
AcDbEntity
  8
0
 62
     0
100
AcDbLine
 10
-298.8000000000102
 20
-303.1473810230437
 30
0.0
 11
-73.56840859569634
 21
-152.9933701764203
 31
0.0
  0
LINE
  5
2C0C
330
3073
100
AcDbEntity
  8
0
 62
     0
100
AcDbLine
 10
-298.8000000000102
 20
-300.1474144876282
 30
0.0
 11
-78.06836988957731
 21
-152.9933701764185
 31
0.0
  0
LINE
  5
2C0D
330
3073
100
AcDbEntity
  8
0
 62
     0
100
AcDbLine
 10
-298.8000000000102
 20
-297.1474479522092
 30
0.0
 11
-82.56833118346547
 21
-152.9933701764185
 31
0.0
  0
LINE
  5
2C0E
330
3073
100
AcDbEntity
  8
0
 62
     0
100
AcDbLine
 10
-298.8000000000068
 20
-294.1474814167941
 30
0.0
 11
-87.0682924773537
 21
-152.9933701764203
 31
0.0
  0
LINE
  5
2C0F
330
3073
100
AcDbEntity
  8
0
 62
     0
100
AcDbLine
 10
-298.8000000000102
 20
-291.1475148813788
 30
0.0
 11
-91.56825377123823
 21
-152.9933701764203
 31
0.0
  0
LINE
  5
2C10
330
3073
100
AcDbEntity
  8
0
 62
     0
100
AcDbLine
 10
-298.8000000000068
 20
-288.1475483459617
 30
0.0
 11
-96.06821506511913
 21
-152.9933701764185
 31
0.0
  0
LINE
  5
2C11
330
3073
100
AcDbEntity
  8
0
 62
     0
100
AcDbLine
 10
-298.8000000000102
 20
-285.1475818105464
 30
0.0
 11
-100.568176359011
 21
-152.9933701764203
 31
0.0
  0
LINE
  5
2C12
330
3073
100
AcDbEntity
  8
0
 62
     0
100
AcDbLine
 10
-298.8000000000068
 20
-282.1476152751292
 30
0.0
 11
-105.0681376528955
 21
-152.9933701764203
 31
0.0
  0
LINE
  5
2C13
330
3073
100
AcDbEntity
  8
0
 62
     0
100
AcDbLine
 10
-298.800000000012
 20
-279.1476487397158
 30
0.0
 11
-109.5680989467819
 21
-152.9933701764221
 31
0.0
  0
LINE
  5
2C14
330
3073
100
AcDbEntity
  8
0
 62
     0
100
AcDbLine
 10
-298.8000000000084
 20
-276.1476822042969
 30
0.0
 11
-114.0680602406628
 21
-152.9933701764185
 31
0.0
  0
LINE
  5
2C15
330
3073
100
AcDbEntity
  8
0
 62
     0
100
AcDbLine
 10
-298.8000000000102
 20
-273.1477156688816
 30
0.0
 11
-118.5680215345528
 21
-152.9933701764203
 31
0.0
  0
LINE
  5
2C16
330
3073
100
AcDbEntity
  8
0
 62
     0
100
AcDbLine
 10
-298.8000000000102
 20
-270.1477491334663
 30
0.0
 11
-123.0679828284374
 21
-152.9933701764203
 31
0.0
  0
LINE
  5
2C17
330
3073
100
AcDbEntity
  8
0
 62
     0
100
AcDbLine
 10
-298.800000000012
 20
-267.147782598051
 30
0.0
 11
-127.5679441223237
 21
-152.9933701764221
 31
0.0
  0
LINE
  5
2C18
330
3073
100
AcDbEntity
  8
0
 62
     0
100
AcDbLine
 10
-298.8000000000102
 20
-264.1478160626339
 30
0.0
 11
-132.0679054162065
 21
-152.9933701764203
 31
0.0
  0
LINE
  5
2C19
330
3073
100
AcDbEntity
  8
0
 62
     0
100
AcDbLine
 10
-298.8000000000068
 20
-261.1478495272149
 30
0.0
 11
-136.567866710091
 21
-152.9933701764185
 31
0.0
  0
LINE
  5
2C1A
330
3073
100
AcDbEntity
  8
0
 62
     0
100
AcDbLine
 10
-298.800000000012
 20
-258.1478829917996
 30
0.0
 11
-141.067828003981
 21
-152.9933701764185
 31
0.0
  0
LINE
  5
2C1B
330
3073
100
AcDbEntity
  8
0
 62
     0
100
AcDbLine
 10
-298.8000000000102
 20
-255.1479164563843
 30
0.0
 11
-145.5677892978638
 21
-152.9933701764185
 31
0.0
  0
LINE
  5
2C1C
330
3073
100
AcDbEntity
  8
0
 62
     0
100
AcDbLine
 10
-298.8000000000102
 20
-252.147949920969
 30
0.0
 11
-150.0677505917519
 21
-152.9933701764221
 31
0.0
  0
LINE
  5
2C1D
330
3073
100
AcDbEntity
  8
0
 62
     0
100
AcDbLine
 10
-298.8000000000068
 20
-249.1479833855519
 30
0.0
 11
-154.5677118856329
 21
-152.9933701764203
 31
0.0
  0
LINE
  5
2C1E
330
3073
100
AcDbEntity
  8
0
 62
     0
100
AcDbLine
 10
-298.800000000012
 20
-246.1480168501348
 30
0.0
 11
-159.0676731795229
 21
-152.9933701764185
 31
0.0
  0
LINE
  5
2C1F
330
3073
100
AcDbEntity
  8
0
 62
     0
100
AcDbLine
 10
-298.8000000000102
 20
-243.1480503147195
 30
0.0
 11
-163.5676344734056
 21
-152.9933701764185
 31
0.0
  0
LINE
  5
2C20
330
3073
100
AcDbEntity
  8
0
 62
     0
100
AcDbLine
 10
-298.8000000000068
 20
-240.1480837793024
 30
0.0
 11
-168.0675957672938
 21
-152.9933701764221
 31
0.0
  0
LINE
  5
2C21
330
3073
100
AcDbEntity
  8
0
 62
     0
100
AcDbLine
 10
-298.8000000000084
 20
-237.1481172438871
 30
0.0
 11
-172.5675570611765
 21
-152.9933701764203
 31
0.0
  0
LINE
  5
2C22
330
3073
100
AcDbEntity
  8
0
 62
     0
100
AcDbLine
 10
-298.8000000000102
 20
-234.14815070847
 30
0.0
 11
-177.0675183550665
 21
-152.9933701764203
 31
0.0
  0
LINE
  5
2C23
330
3073
100
AcDbEntity
  8
0
 62
     0
100
AcDbLine
 10
-298.8000000000102
 20
-231.1481841730547
 30
0.0
 11
-181.5674796489475
 21
-152.9933701764185
 31
0.0
  0
LINE
  5
2C24
330
3073
100
AcDbEntity
  8
0
 62
     0
100
AcDbLine
 10
-298.8000000000084
 20
-228.1482176376394
 30
0.0
 11
-186.0674409428338
 21
-152.9933701764203
 31
0.0
  0
LINE
  5
2C25
330
3073
100
AcDbEntity
  8
0
 62
     0
100
AcDbLine
 10
-298.8000000000084
 20
-225.1482511022241
 30
0.0
 11
-190.5674022367184
 21
-152.9933701764203
 31
0.0
  0
LINE
  5
2C26
330
3073
100
AcDbEntity
  8
0
 62
     0
100
AcDbLine
 10
-298.8000000000102
 20
-222.1482845668051
 30
0.0
 11
-195.0673635306048
 21
-152.9933701764185
 31
0.0
  0
LINE
  5
2C27
330
3073
100
AcDbEntity
  8
0
 62
     0
100
AcDbLine
 10
-298.8000000000102
 20
-219.1483180313899
 30
0.0
 11
-199.567324824493
 21
-152.9933701764203
 31
0.0
  0
LINE
  5
2C28
330
3073
100
AcDbEntity
  8
0
 62
     0
100
AcDbLine
 10
-298.8000000000084
 20
-216.1483514959726
 30
0.0
 11
-204.0672861183757
 21
-152.9933701764185
 31
0.0
  0
LINE
  5
2C29
330
3073
100
AcDbEntity
  8
0
 62
     0
100
AcDbLine
 10
-298.8000000000102
 20
-213.1483849605593
 30
0.0
 11
-208.5672474122621
 21
-152.9933701764203
 31
0.0
  0
LINE
  5
2C2A
330
3073
100
AcDbEntity
  8
0
 62
     0
100
AcDbLine
 10
-298.8000000000102
 20
-210.1484184251404
 30
0.0
 11
-213.0672087061466
 21
-152.9933701764185
 31
0.0
  0
LINE
  5
2C2B
330
3073
100
AcDbEntity
  8
0
 62
     0
100
AcDbLine
 10
-298.8000000000084
 20
-207.1484518897232
 30
0.0
 11
-217.5671700000366
 21
-152.9933701764203
 31
0.0
  0
LINE
  5
2C2C
330
3073
100
AcDbEntity
  8
0
 62
     0
100
AcDbLine
 10
-298.8000000000084
 20
-204.1484853543098
 30
0.0
 11
-222.0671312939176
 21
-152.9933701764203
 31
0.0
  0
LINE
  5
2C2D
330
3073
100
AcDbEntity
  8
0
 62
     0
100
AcDbLine
 10
-298.8000000000102
 20
-201.1485188188926
 30
0.0
 11
-226.5670925878039
 21
-152.9933701764203
 31
0.0
  0
LINE
  5
2C2E
330
3073
100
AcDbEntity
  8
0
 62
     0
100
AcDbLine
 10
-298.8000000000102
 20
-198.1485522834773
 30
0.0
 11
-231.0670538816884
 21
-152.9933701764185
 31
0.0
  0
LINE
  5
2C2F
330
3073
100
AcDbEntity
  8
0
 62
     0
100
AcDbLine
 10
-298.8000000000084
 20
-195.1485857480584
 30
0.0
 11
-235.5670151755785
 21
-152.9933701764203
 31
0.0
  0
LINE
  5
2C30
330
3073
100
AcDbEntity
  8
0
 62
     0
100
AcDbLine
 10
-298.8000000000102
 20
-192.1486192126449
 30
0.0
 11
-240.0669764694612
 21
-152.9933701764203
 31
0.0
  0
LINE
  5
2C31
330
3073
100
AcDbEntity
  8
0
 62
     0
100
AcDbLine
 10
-298.8000000000102
 20
-189.1486526772295
 30
0.0
 11
-244.5669377633458
 21
-152.9933701764221
 31
0.0
  0
LINE
  5
2C32
330
3073
100
AcDbEntity
  8
0
 62
     0
100
AcDbLine
 10
-298.8000000000084
 20
-186.1486861418106
 30
0.0
 11
-249.0668990572321
 21
-152.9933701764185
 31
0.0
  0
LINE
  5
2C33
330
3073
100
AcDbEntity
  8
0
 62
     0
100
AcDbLine
 10
-298.8000000000102
 20
-183.1487196063953
 30
0.0
 11
-253.5668603511185
 21
-152.9933701764185
 31
0.0
  0
LINE
  5
2C34
330
3073
100
AcDbEntity
  8
0
 62
     0
100
AcDbLine
 10
-298.8000000000068
 20
-180.1487530709764
 30
0.0
 11
-258.0668216450031
 21
-152.9933701764185
 31
0.0
  0
LINE
  5
2C35
330
3073
100
AcDbEntity
  8
0
 62
     0
100
AcDbLine
 10
-298.800000000012
 20
-177.148786535563
 30
0.0
 11
-262.5667829388858
 21
-152.9933701764185
 31
0.0
  0
LINE
  5
2C36
330
3073
100
AcDbEntity
  8
0
 62
     0
100
AcDbLine
 10
-298.8000000000084
 20
-174.1488200001477
 30
0.0
 11
-267.066744232774
 21
-152.9933701764221
 31
0.0
  0
LINE
  5
2C37
330
3073
100
AcDbEntity
  8
0
 62
     0
100
AcDbLine
 10
-298.8000000000102
 20
-171.1488534647305
 30
0.0
 11
-271.5667055266604
 21
-152.9933701764185
 31
0.0
  0
LINE
  5
2C38
330
3073
100
AcDbEntity
  8
0
 62
     0
100
AcDbLine
 10
-298.8000000000068
 20
-168.1488869293134
 30
0.0
 11
-276.0666668205449
 21
-152.9933701764185
 31
0.0
  0
LINE
  5
2C39
330
3073
100
AcDbEntity
  8
0
 62
     0
100
AcDbLine
 10
-298.800000000012
 20
-165.1489203938981
 30
0.0
 11
-280.5666281144277
 21
-152.9933701764185
 31
0.0
  0
LINE
  5
2C3A
330
3073
100
AcDbEntity
  8
0
 62
     0
100
AcDbLine
 10
-298.8000000000102
 20
-162.1489538584828
 30
0.0
 11
-285.0665894083176
 21
-152.9933701764221
 31
0.0
  0
LINE
  5
2C3B
330
3073
100
AcDbEntity
  8
0
 62
     0
100
AcDbLine
 10
-298.8000000000102
 20
-159.1489873230675
 30
0.0
 11
-289.5665507022023
 21
-152.9933701764203
 31
0.0
  0
LINE
  5
2C3C
330
3073
100
AcDbEntity
  8
0
 62
     0
100
AcDbLine
 10
-298.8000000000084
 20
-156.1490207876486
 30
0.0
 11
-294.0665119960885
 21
-152.9933701764203
 31
0.0
  0
LINE
  5
2C3D
330
3073
100
AcDbEntity
  8
0
 62
     0
100
AcDbLine
 10
-298.8000000000084
 20
-153.1490542522333
 30
0.0
 11
-298.5664732899695
 21
-152.9933701764185
 31
0.0
  0
ENDBLK
  5
2C3E
330
3073
100
AcDbEntity
  8
0
100
AcDbBlockEnd
  0
BLOCK
  5
3076
330
3075
100
AcDbEntity
  8
0
100
AcDbBlockBegin
  2
*X23
 70
     1
 10
0.0
 20
0.0
 30
0.0
  3
*X23
  1

  0
LINE
  5
2C41
330
3075
100
AcDbEntity
  8
0
 62
     0
100
AcDbLine
 10
-298.8000000000047
 20
-852.5249203063259
 30
0.0
 11
-295.3752505125067
 21
-854.8080808012032
 31
0.0
  0
LINE
  5
2C42
330
3075
100
AcDbEntity
  8
0
 62
     0
100
AcDbLine
 10
-298.8000000000028
 20
-849.5249537709105
 30
0.0
 11
-290.8752892186185
 21
-854.8080808012045
 31
0.0
  0
LINE
  5
2C43
330
3075
100
AcDbEntity
  8
0
 62
     0
100
AcDbLine
 10
-298.8000000000047
 20
-846.5249872354934
 30
0.0
 11
-286.3753279247339
 21
-854.8080808012045
 31
0.0
  0
LINE
  5
2C44
330
3075
100
AcDbEntity
  8
0
 62
     0
100
AcDbLine
 10
-298.8000000000047
 20
-843.5250207000771
 30
0.0
 11
-281.8753666308476
 21
-854.8080808012064
 31
0.0
  0
LINE
  5
2C45
330
3075
100
AcDbEntity
  8
0
 62
     0
100
AcDbLine
 10
-298.8000000000028
 20
-840.5250541646617
 30
0.0
 11
-277.375405336963
 21
-854.8080808012032
 31
0.0
  0
LINE
  5
2C46
330
3075
100
AcDbEntity
  8
0
 62
     0
100
AcDbLine
 10
-298.8000000000047
 20
-837.5250876292456
 30
0.0
 11
-272.8754440430765
 21
-854.8080808012056
 31
0.0
  0
LINE
  5
2C47
330
3075
100
AcDbEntity
  8
0
 62
     0
100
AcDbLine
 10
-298.8000000000047
 20
-834.5251210938286
 30
0.0
 11
-268.3754827491902
 21
-854.8080808012045
 31
0.0
  0
LINE
  5
2C48
330
3075
100
AcDbEntity
  8
0
 62
     0
100
AcDbLine
 10
-298.8000000000047
 20
-831.5251545584114
 30
0.0
 11
-263.8755214553057
 21
-854.8080808012045
 31
0.0
  0
LINE
  5
2C49
330
3075
100
AcDbEntity
  8
0
 62
     0
100
AcDbLine
 10
-298.8000000000047
 20
-828.5251880229965
 30
0.0
 11
-259.3755601614212
 21
-854.8080808012045
 31
0.0
  0
LINE
  5
2C4A
330
3075
100
AcDbEntity
  8
0
 62
     0
100
AcDbLine
 10
-298.8000000000028
 20
-825.5252214875795
 30
0.0
 11
-254.875598867533
 21
-854.8080808012032
 31
0.0
  0
LINE
  5
2C4B
330
3075
100
AcDbEntity
  8
0
 62
     0
100
AcDbLine
 10
-298.8000000000047
 20
-822.5252549521648
 30
0.0
 11
-250.3756375736484
 21
-854.8080808012056
 31
0.0
  0
LINE
  5
2C4C
330
3075
100
AcDbEntity
  8
0
 62
     0
100
AcDbLine
 10
-298.8000000000028
 20
-819.5252884167475
 30
0.0
 11
-245.8756762797638
 21
-854.8080808012025
 31
0.0
  0
LINE
  5
2C4D
330
3075
100
AcDbEntity
  8
0
 62
     0
100
AcDbLine
 10
-298.8000000000047
 20
-816.5253218813314
 30
0.0
 11
-241.3757149858793
 21
-854.8080808012045
 31
0.0
  0
LINE
  5
2C4E
330
3075
100
AcDbEntity
  8
0
 62
     0
100
AcDbLine
 10
-298.8000000000028
 20
-813.5253553459151
 30
0.0
 11
-236.8757536919911
 21
-854.8080808012045
 31
0.0
  0
LINE
  5
2C4F
330
3075
100
AcDbEntity
  8
0
 62
     0
100
AcDbLine
 10
-298.8000000000047
 20
-810.5253888104995
 30
0.0
 11
-232.3757923981066
 21
-854.8080808012056
 31
0.0
  0
LINE
  5
2C50
330
3075
100
AcDbEntity
  8
0
 62
     0
100
AcDbLine
 10
-298.8000000000047
 20
-807.5254222750825
 30
0.0
 11
-227.875831104222
 21
-854.8080808012032
 31
0.0
  0
LINE
  5
2C51
330
3075
100
AcDbEntity
  8
0
 62
     0
100
AcDbLine
 10
-298.8000000000028
 20
-804.5254557396672
 30
0.0
 11
-223.3758698103356
 21
-854.8080808012045
 31
0.0
  0
LINE
  5
2C52
330
3075
100
AcDbEntity
  8
0
 62
     0
100
AcDbLine
 10
-298.8000000000047
 20
-801.5254892042502
 30
0.0
 11
-218.8759085164511
 21
-854.8080808012045
 31
0.0
  0
LINE
  5
2C53
330
3075
100
AcDbEntity
  8
0
 62
     0
100
AcDbLine
 10
-298.8000000000028
 20
-798.525522668835
 30
0.0
 11
-214.3759472225629
 21
-854.8080808012064
 31
0.0
  0
LINE
  5
2C54
330
3075
100
AcDbEntity
  8
0
 62
     0
100
AcDbLine
 10
-298.8000000000047
 20
-795.5255561334188
 30
0.0
 11
-209.8759859286801
 21
-854.8080808012032
 31
0.0
  0
LINE
  5
2C55
330
3075
100
AcDbEntity
  8
0
 62
     0
100
AcDbLine
 10
-298.8000000000028
 20
-792.5255895980017
 30
0.0
 11
-205.3760246347937
 21
-854.8080808012032
 31
0.0
  0
LINE
  5
2C56
330
3075
100
AcDbEntity
  8
0
 62
     0
100
AcDbLine
 10
-298.8000000000047
 20
-789.5256230625854
 30
0.0
 11
-200.8760633409074
 21
-854.8080808012056
 31
0.0
  0
LINE
  5
2C57
330
3075
100
AcDbEntity
  8
0
 62
     0
100
AcDbLine
 10
-298.8000000000028
 20
-786.5256565271692
 30
0.0
 11
-196.3761020470247
 21
-854.8080808012025
 31
0.0
  0
LINE
  5
2C58
330
3075
100
AcDbEntity
  8
0
 62
     0
100
AcDbLine
 10
-298.8000000000047
 20
-783.525689991753
 30
0.0
 11
-191.8761407531365
 21
-854.8080808012045
 31
0.0
  0
LINE
  5
2C59
330
3075
100
AcDbEntity
  8
0
 62
     0
100
AcDbLine
 10
-298.8000000000047
 20
-780.5257234563359
 30
0.0
 11
-187.3761794592518
 21
-854.8080808012032
 31
0.0
  0
LINE
  5
2C5A
330
3075
100
AcDbEntity
  8
0
 62
     0
100
AcDbLine
 10
-298.8000000000047
 20
-777.5257569209216
 30
0.0
 11
-182.8762181653655
 21
-854.8080808012056
 31
0.0
  0
LINE
  5
2C5B
330
3075
100
AcDbEntity
  8
0
 62
     0
100
AcDbLine
 10
-298.8000000000028
 20
-774.5257903855041
 30
0.0
 11
-178.376256871481
 21
-854.8080808012025
 31
0.0
  0
LINE
  5
2C5C
330
3075
100
AcDbEntity
  8
0
 62
     0
100
AcDbLine
 10
-298.8000000000047
 20
-771.5258238500893
 30
0.0
 11
-173.8762955775946
 21
-854.8080808012045
 31
0.0
  0
LINE
  5
2C5D
330
3075
100
AcDbEntity
  8
0
 62
     0
100
AcDbLine
 10
-298.8000000000028
 20
-768.5258573146719
 30
0.0
 11
-169.3763342837083
 21
-854.8080808012045
 31
0.0
  0
LINE
  5
2C5E
330
3075
100
AcDbEntity
  8
0
 62
     0
100
AcDbLine
 10
-298.8000000000047
 20
-765.5258907792564
 30
0.0
 11
-164.8763729898237
 21
-854.8080808012056
 31
0.0
  0
LINE
  5
2C5F
330
3075
100
AcDbEntity
  8
0
 62
     0
100
AcDbLine
 10
-298.8000000000047
 20
-762.5259242438395
 30
0.0
 11
-160.3764116959391
 21
-854.8080808012032
 31
0.0
  0
LINE
  5
2C60
330
3075
100
AcDbEntity
  8
0
 62
     0
100
AcDbLine
 10
-298.8000000000047
 20
-759.5259577084251
 30
0.0
 11
-155.8764504020546
 21
-854.8080808012045
 31
0.0
  0
LINE
  5
2C61
330
3075
100
AcDbEntity
  8
0
 62
     0
100
AcDbLine
 10
-298.8000000000047
 20
-756.5259911730072
 30
0.0
 11
-151.3764891081664
 21
-854.8080808012045
 31
0.0
  0
LINE
  5
2C62
330
3075
100
AcDbEntity
  8
0
 62
     0
100
AcDbLine
 10
-298.8000000000028
 20
-753.5260246375901
 30
0.0
 11
-146.87652781428
 21
-854.8080808012045
 31
0.0
  0
LINE
  5
2C63
330
3075
100
AcDbEntity
  8
0
 62
     0
100
AcDbLine
 10
-298.8000000000047
 20
-750.5260581021746
 30
0.0
 11
-142.3765665203973
 21
-854.8080808012032
 31
0.0
  0
LINE
  5
2C64
330
3075
100
AcDbEntity
  8
0
 62
     0
100
AcDbLine
 10
-298.8000000000028
 20
-747.5260915667586
 30
0.0
 11
-137.8766052265108
 21
-854.8080808012032
 31
0.0
  0
LINE
  5
2C65
330
3075
100
AcDbEntity
  8
0
 62
     0
100
AcDbLine
 10
-298.8000000000047
 20
-744.5261250313434
 30
0.0
 11
-133.3766439326246
 21
-854.8080808012056
 31
0.0
  0
LINE
  5
2C66
330
3075
100
AcDbEntity
  8
0
 62
     0
100
AcDbLine
 10
-298.8000000000028
 20
-741.5261584959262
 30
0.0
 11
-128.87668263874
 21
-854.8080808012025
 31
0.0
  0
LINE
  5
2C67
330
3075
100
AcDbEntity
  8
0
 62
     0
100
AcDbLine
 10
-298.8000000000028
 20
-738.5261919605109
 30
0.0
 11
-124.37672134485
 21
-854.8080808012064
 31
0.0
  0
LINE
  5
2C68
330
3075
100
AcDbEntity
  8
0
 62
     0
100
AcDbLine
 10
-298.8000000000047
 20
-735.5262254250929
 30
0.0
 11
-119.8767600509691
 21
-854.8080808012032
 31
0.0
  0
LINE
  5
2C69
330
3075
100
AcDbEntity
  8
0
 62
     0
100
AcDbLine
 10
-298.8000000000028
 20
-732.5262588896793
 30
0.0
 11
-115.3767987570809
 21
-854.8080808012056
 31
0.0
  0
LINE
  5
2C6A
330
3075
100
AcDbEntity
  8
0
 62
     0
100
AcDbLine
 10
-298.8000000000047
 20
-729.5262923542614
 30
0.0
 11
-110.8768374632
 21
-854.8080808012025
 31
0.0
  0
LINE
  5
2C6B
330
3075
100
AcDbEntity
  8
0
 62
     0
100
AcDbLine
 10
-298.8000000000047
 20
-726.526325818846
 30
0.0
 11
-106.3768761693081
 21
-854.8080808012064
 31
0.0
  0
LINE
  5
2C6C
330
3075
100
AcDbEntity
  8
0
 62
     0
100
AcDbLine
 10
-298.8000000000047
 20
-723.5263592834286
 30
0.0
 11
-101.8769148754272
 21
-854.8080808012045
 31
0.0
  0
LINE
  5
2C6D
330
3075
100
AcDbEntity
  8
0
 62
     0
100
AcDbLine
 10
-298.8000000000047
 20
-720.5263927480134
 30
0.0
 11
-97.37695358153905
 21
-854.8080808012056
 31
0.0
  0
LINE
  5
2C6E
330
3075
100
AcDbEntity
  8
0
 62
     0
100
AcDbLine
 10
-298.8000000000028
 20
-717.5264262125964
 30
0.0
 11
-92.87699228765267
 21
-854.8080808012056
 31
0.0
  0
LINE
  5
2C6F
330
3075
100
AcDbEntity
  8
0
 62
     0
100
AcDbLine
 10
-298.8000000000047
 20
-714.5264596771803
 30
0.0
 11
-88.37703099376993
 21
-854.8080808012032
 31
0.0
  0
LINE
  5
2C70
330
3075
100
AcDbEntity
  8
0
 62
     0
100
AcDbLine
 10
-298.8000000000028
 20
-711.5264931417649
 30
0.0
 11
-83.87706969988355
 21
-854.8080808012045
 31
0.0
  0
LINE
  5
2C71
330
3075
100
AcDbEntity
  8
0
 62
     0
100
AcDbLine
 10
-298.8000000000047
 20
-708.526526606347
 30
0.0
 11
-79.37710840600082
 21
-854.8080808012025
 31
0.0
  0
LINE
  5
2C72
330
3075
100
AcDbEntity
  8
0
 62
     0
100
AcDbLine
 10
-298.8000000000028
 20
-705.5265600709327
 30
0.0
 11
-74.87714711211082
 21
-854.8080808012064
 31
0.0
  0
LINE
  5
2C73
330
3075
100
AcDbEntity
  8
0
 62
     0
100
AcDbLine
 10
-298.8000000000028
 20
-702.5265935355145
 30
0.0
 11
-70.37718581822628
 21
-854.8080808012032
 31
0.0
  0
LINE
  5
2C74
330
3075
100
AcDbEntity
  8
0
 62
     0
100
AcDbLine
 10
-298.8000000000047
 20
-699.5266270001001
 30
0.0
 11
-65.87722452434173
 21
-854.8080808012056
 31
0.0
  0
LINE
  5
2C75
330
3075
100
AcDbEntity
  8
0
 62
     0
100
AcDbLine
 10
-298.8000000000028
 20
-696.5266604646831
 30
0.0
 11
-61.37726323045717
 21
-854.8080808012025
 31
0.0
  0
LINE
  5
2C76
330
3075
100
AcDbEntity
  8
0
 62
     0
100
AcDbLine
 10
-298.8000000000047
 20
-693.526693929268
 30
0.0
 11
-56.87730193656896
 21
-854.8080808012064
 31
0.0
  0
LINE
  5
2C77
330
3075
100
AcDbEntity
  8
0
 62
     0
100
AcDbLine
 10
-298.8000000000028
 20
-690.5267273938505
 30
0.0
 11
-52.37734064268443
 21
-854.8080808012032
 31
0.0
  0
LINE
  5
2C78
330
3075
100
AcDbEntity
  8
0
 62
     0
100
AcDbLine
 10
-298.8000000000047
 20
-687.5267608584354
 30
0.0
 11
-47.87737934880168
 21
-854.8080808012045
 31
0.0
  0
LINE
  5
2C79
330
3075
100
AcDbEntity
  8
0
 62
     0
100
AcDbLine
 10
-298.8000000000028
 20
-684.5267943230192
 30
0.0
 11
-43.37741805491169
 21
-854.8080808012056
 31
0.0
  0
LINE
  5
2C7A
330
3075
100
AcDbEntity
  8
0
 62
     0
100
AcDbLine
 10
-298.8000000000047
 20
-681.526827787603
 30
0.0
 11
-38.87745676102714
 21
-854.8080808012056
 31
0.0
  0
LINE
  5
2C7B
330
3075
100
AcDbEntity
  8
0
 62
     0
100
AcDbLine
 10
-298.8000000000028
 20
-678.5268612521868
 30
0.0
 11
-34.37749546714258
 21
-854.8080808012045
 31
0.0
  0
LINE
  5
2C7C
330
3075
100
AcDbEntity
  8
0
 62
     0
100
AcDbLine
 10
-298.8000000000047
 20
-675.5268947167687
 30
0.0
 11
-29.87753417325804
 21
-854.8080808012025
 31
0.0
  0
LINE
  5
2C7D
330
3075
100
AcDbEntity
  8
0
 62
     0
100
AcDbLine
 10
-298.8000000000047
 20
-672.5269281813536
 30
0.0
 11
-25.37757287936984
 21
-854.8080808012056
 31
0.0
  0
LINE
  5
2C7E
330
3075
100
AcDbEntity
  8
0
 62
     0
100
AcDbLine
 10
-298.8000000000047
 20
-669.5269616459363
 30
0.0
 11
-20.87761158548528
 21
-854.8080808012045
 31
0.0
  0
LINE
  5
2C7F
330
3075
100
AcDbEntity
  8
0
 62
     0
100
AcDbLine
 10
-298.8000000000028
 20
-666.5269951105218
 30
0.0
 11
-16.37765029159891
 21
-854.8080808012045
 31
0.0
  0
LINE
  5
2C80
330
3075
100
AcDbEntity
  8
0
 62
     0
100
AcDbLine
 10
-298.8000000000047
 20
-663.5270285751048
 30
0.0
 11
-11.87768899771436
 21
-854.8080808012045
 31
0.0
  0
LINE
  5
2C81
330
3075
100
AcDbEntity
  8
0
 62
     0
100
AcDbLine
 10
-298.8000000000028
 20
-660.5270620396896
 30
0.0
 11
-7.377727703827985
 21
-854.8080808012045
 31
0.0
  0
LINE
  5
2C82
330
3075
100
AcDbEntity
  8
0
 62
     0
100
AcDbLine
 10
-298.8000000000047
 20
-657.5270955042725
 30
0.0
 11
-2.87776640994525
 21
-854.8080808012032
 31
0.0
  0
LINE
  5
2C83
330
3075
100
AcDbEntity
  8
0
 62
     0
100
AcDbLine
 10
-298.8000000000047
 20
-654.5271289688561
 30
0.0
 11
1.622194883941119
 21
-854.8080808012045
 31
0.0
  0
LINE
  5
2C84
330
3075
100
AcDbEntity
  8
0
 62
     0
100
AcDbLine
 10
-298.8000000000028
 20
-651.52716243344
 30
0.0
 11
6.122156177829308
 21
-854.8080808012045
 31
0.0
  0
LINE
  5
2C85
330
3075
100
AcDbEntity
  8
0
 62
     0
100
AcDbLine
 10
-298.8000000000047
 20
-648.5271958980247
 30
0.0
 11
10.62211747171386
 21
-854.8080808012056
 31
0.0
  0
LINE
  5
2C86
330
3075
100
AcDbEntity
  8
0
 62
     0
100
AcDbLine
 10
-298.8000000000028
 20
-645.5272293626076
 30
0.0
 11
15.12207876559841
 21
-854.8080808012032
 31
0.0
  0
LINE
  5
2C87
330
3075
100
AcDbEntity
  8
0
 62
     0
100
AcDbLine
 10
-298.8000000000047
 20
-642.5272628271924
 30
0.0
 11
19.62204005948296
 21
-854.8080808012045
 31
0.0
  0
LINE
  5
2C88
330
3075
100
AcDbEntity
  8
0
 62
     0
100
AcDbLine
 10
-298.8000000000028
 20
-639.5272962917752
 30
0.0
 11
24.12200135337116
 21
-854.8080808012056
 31
0.0
  0
LINE
  5
2C89
330
3075
100
AcDbEntity
  8
0
 62
     0
100
AcDbLine
 10
-298.8000000000047
 20
-636.5273297563608
 30
0.0
 11
28.62196264725572
 21
-854.8080808012056
 31
0.0
  0
LINE
  5
2C8A
330
3075
100
AcDbEntity
  8
0
 62
     0
100
AcDbLine
 10
-298.8000000000028
 20
-633.5273632209434
 30
0.0
 11
33.12192394114027
 21
-854.8080808012045
 31
0.0
  0
LINE
  5
2C8B
330
3075
100
AcDbEntity
  8
0
 62
     0
100
AcDbLine
 10
-298.8000000000028
 20
-630.5273966855263
 30
0.0
 11
37.62188523502845
 21
-854.8080808012056
 31
0.0
  0
LINE
  5
2C8C
330
3075
100
AcDbEntity
  8
0
 62
     0
100
AcDbLine
 10
-298.8000000000047
 20
-627.5274301501103
 30
0.0
 11
42.121846528913
 21
-854.8080808012056
 31
0.0
  0
LINE
  5
2C8D
330
3075
100
AcDbEntity
  8
0
 62
     0
100
AcDbLine
 10
-298.8000000000047
 20
-624.5274636146932
 30
0.0
 11
46.62180782279756
 21
-854.8080808012045
 31
0.0
  0
LINE
  5
2C8E
330
3075
100
AcDbEntity
  8
0
 62
     0
100
AcDbLine
 10
-298.8000000000047
 20
-621.5274970792778
 30
0.0
 11
51.1217691166821
 21
-854.8080808012045
 31
0.0
  0
LINE
  5
2C8F
330
3075
100
AcDbEntity
  8
0
 62
     0
100
AcDbLine
 10
-298.8000000000047
 20
-618.5275305438616
 30
0.0
 11
55.62173041056849
 21
-854.8080808012045
 31
0.0
  0
LINE
  5
2C90
330
3075
100
AcDbEntity
  8
0
 62
     0
100
AcDbLine
 10
-298.8000000000028
 20
-615.5275640084465
 30
0.0
 11
60.12169170445486
 21
-854.8080808012056
 31
0.0
  0
LINE
  5
2C91
330
3075
100
AcDbEntity
  8
0
 62
     0
100
AcDbLine
 10
-298.8000000000047
 20
-612.5275974730294
 30
0.0
 11
64.6216529983394
 21
-854.8080808012032
 31
0.0
  0
LINE
  5
2C92
330
3075
100
AcDbEntity
  8
0
 62
     0
100
AcDbLine
 10
-298.8000000000028
 20
-609.5276309376141
 30
0.0
 11
69.1216142922276
 21
-854.8080808012064
 31
0.0
  0
LINE
  5
2C93
330
3075
100
AcDbEntity
  8
0
 62
     0
100
AcDbLine
 10
-298.8000000000047
 20
-606.5276644021969
 30
0.0
 11
73.62157558611034
 21
-854.8080808012045
 31
0.0
  0
LINE
  5
2C94
330
3075
100
AcDbEntity
  8
0
 62
     0
100
AcDbLine
 10
-298.8000000000028
 20
-603.5276978667825
 30
0.0
 11
78.1215368799967
 21
-854.8080808012056
 31
0.0
  0
LINE
  5
2C95
330
3075
100
AcDbEntity
  8
0
 62
     0
100
AcDbLine
 10
-298.8000000000047
 20
-600.5277313313645
 30
0.0
 11
82.62149817388126
 21
-854.8080808012045
 31
0.0
  0
LINE
  5
2C96
330
3075
100
AcDbEntity
  8
0
 62
     0
100
AcDbLine
 10
-298.8000000000047
 20
-597.5277647959492
 30
0.0
 11
87.12145946776946
 21
-854.8080808012064
 31
0.0
  0
LINE
  5
2C97
330
3075
100
AcDbEntity
  8
0
 62
     0
100
AcDbLine
 10
-298.8000000000028
 20
-594.5277982605321
 30
0.0
 11
91.621420761654
 21
-854.8080808012056
 31
0.0
  0
LINE
  5
2C98
330
3075
100
AcDbEntity
  8
0
 62
     0
100
AcDbLine
 10
-298.8000000000047
 20
-591.5278317251147
 30
0.0
 11
96.12138205553856
 21
-854.8080808012032
 31
0.0
  0
LINE
  5
2C99
330
3075
100
AcDbEntity
  8
0
 62
     0
100
AcDbLine
 10
-298.8000000000028
 20
-588.5278651897006
 30
0.0
 11
100.6213433494249
 21
-854.8080808012045
 31
0.0
  0
LINE
  5
2C9A
330
3075
100
AcDbEntity
  8
0
 62
     0
100
AcDbLine
 10
-298.8000000000047
 20
-585.5278986542835
 30
0.0
 11
105.1213046433095
 21
-854.8080808012045
 31
0.0
  0
LINE
  5
2C9B
330
3075
100
AcDbEntity
  8
0
 62
     0
100
AcDbLine
 10
-298.8000000000028
 20
-582.5279321188681
 30
0.0
 11
109.621265937194
 21
-854.8080808012045
 31
0.0
  0
LINE
  5
2C9C
330
3075
100
AcDbEntity
  8
0
 62
     0
100
AcDbLine
 10
-298.8000000000028
 20
-579.527965583451
 30
0.0
 11
114.1212272310804
 21
-854.8080808012032
 31
0.0
  0
LINE
  5
2C9D
330
3075
100
AcDbEntity
  8
0
 62
     0
100
AcDbLine
 10
-298.8000000000028
 20
-576.5279990480356
 30
0.0
 11
118.6211885249668
 21
-854.8080808012064
 31
0.0
  0
LINE
  5
2C9E
330
3075
100
AcDbEntity
  8
0
 62
     0
100
AcDbLine
 10
-298.8000000000047
 20
-573.5280325126177
 30
0.0
 11
123.1211498188531
 21
-854.8080808012045
 31
0.0
  0
LINE
  5
2C9F
330
3075
100
AcDbEntity
  8
0
 62
     0
100
AcDbLine
 10
-298.8000000000047
 20
-570.5280659772032
 30
0.0
 11
127.6211111127359
 21
-854.8080808012056
 31
0.0
  0
LINE
  5
2CA0
330
3075
100
AcDbEntity
  8
0
 62
     0
100
AcDbLine
 10
-298.8000000000047
 20
-567.5280994417863
 30
0.0
 11
132.1210724066222
 21
-854.8080808012032
 31
0.0
  0
LINE
  5
2CA1
330
3075
100
AcDbEntity
  8
0
 62
     0
100
AcDbLine
 10
-298.8000000000047
 20
-564.5281329063709
 30
0.0
 11
136.6210337005086
 21
-854.8080808012064
 31
0.0
  0
LINE
  5
2CA2
330
3075
100
AcDbEntity
  8
0
 62
     0
100
AcDbLine
 10
-298.8000000000047
 20
-561.5281663709537
 30
0.0
 11
141.120994994395
 21
-854.8080808012045
 31
0.0
  0
LINE
  5
2CA3
330
3075
100
AcDbEntity
  8
0
 62
     0
100
AcDbLine
 10
-298.8000000000028
 20
-558.5281998355385
 30
0.0
 11
145.6209562882795
 21
-854.8080808012056
 31
0.0
  0
LINE
  5
2CA4
330
3075
100
AcDbEntity
  8
0
 62
     0
100
AcDbLine
 10
-298.8000000000047
 20
-555.5282333001223
 30
0.0
 11
150.1209175821641
 21
-854.8080808012045
 31
0.0
  0
LINE
  5
2CA5
330
3075
100
AcDbEntity
  8
0
 62
     0
100
AcDbLine
 10
-298.8000000000028
 20
-552.5282667647052
 30
0.0
 11
154.6208788760523
 21
-854.8080808012045
 31
0.0
  0
LINE
  5
2CA6
330
3075
100
AcDbEntity
  8
0
 62
     0
100
AcDbLine
 10
-298.8000000000047
 20
-549.5283002292899
 30
0.0
 11
159.1208401699368
 21
-854.8080808012056
 31
0.0
  0
LINE
  5
2CA7
330
3075
100
AcDbEntity
  8
0
 62
     0
100
AcDbLine
 10
-298.8000000000047
 20
-546.5283336938718
 30
0.0
 11
163.6208014638214
 21
-854.8080808012032
 31
0.0
  0
LINE
  5
2CA8
330
3075
100
AcDbEntity
  8
0
 62
     0
100
AcDbLine
 10
-298.8000000000028
 20
-543.5283671584564
 30
0.0
 11
168.1207627577096
 21
-854.8080808012056
 31
0.0
  0
LINE
  5
2CA9
330
3075
100
AcDbEntity
  8
0
 62
     0
100
AcDbLine
 10
-298.8000000000047
 20
-540.5284006230401
 30
0.0
 11
172.6207240515923
 21
-854.8080808012045
 31
0.0
  0
LINE
  5
2CAA
330
3075
100
AcDbEntity
  8
0
 62
     0
100
AcDbLine
 10
-298.8000000000028
 20
-537.5284340876251
 30
0.0
 11
177.1206853454787
 21
-854.8080808012045
 31
0.0
  0
LINE
  5
2CAB
330
3075
100
AcDbEntity
  8
0
 62
     0
100
AcDbLine
 10
-298.8000000000047
 20
-534.5284675522079
 30
0.0
 11
181.6206466393614
 21
-854.8080808012032
 31
0.0
  0
LINE
  5
2CAC
330
3075
100
AcDbEntity
  8
0
 62
     0
100
AcDbLine
 10
-298.8000000000028
 20
-531.5285010167928
 30
0.0
 11
186.1206079332514
 21
-854.8080808012064
 31
0.0
  0
LINE
  5
2CAD
330
3075
100
AcDbEntity
  8
0
 62
     0
100
AcDbLine
 10
-298.8000000000047
 20
-528.5285344813757
 30
0.0
 11
190.6205692271342
 21
-854.8080808012045
 31
0.0
  0
LINE
  5
2CAE
330
3075
100
AcDbEntity
  8
0
 62
     0
100
AcDbLine
 10
-298.8000000000047
 20
-525.5285679459594
 30
0.0
 11
195.1205305210205
 21
-854.8080808012056
 31
0.0
  0
LINE
  5
2CAF
330
3075
100
AcDbEntity
  8
0
 62
     0
100
AcDbLine
 10
-298.8000000000028
 20
-522.528601410544
 30
0.0
 11
199.6204918149051
 21
-854.8080808012032
 31
0.0
  0
LINE
  5
2CB0
330
3075
100
AcDbEntity
  8
0
 62
     0
100
AcDbLine
 10
-298.8000000000047
 20
-519.5286348751277
 30
0.0
 11
204.1204531087933
 21
-854.8080808012064
 31
0.0
  0
LINE
  5
2CB1
330
3075
100
AcDbEntity
  8
0
 62
     0
100
AcDbLine
 10
-298.8000000000047
 20
-516.5286683397108
 30
0.0
 11
208.6204144026778
 21
-854.8080808012056
 31
0.0
  0
LINE
  5
2CB2
330
3075
100
AcDbEntity
  8
0
 62
     0
100
AcDbLine
 10
-298.8000000000047
 20
-513.5287018042936
 30
0.0
 11
213.1203756965625
 21
-854.8080808012032
 31
0.0
  0
LINE
  5
2CB3
330
3075
100
AcDbEntity
  8
0
 62
     0
100
AcDbLine
 10
-298.8000000000047
 20
-510.5287352688783
 30
0.0
 11
217.6203369904488
 21
-854.8080808012056
 31
0.0
  0
LINE
  5
2CB4
330
3075
100
AcDbEntity
  8
0
 62
     0
100
AcDbLine
 10
-298.8000000000028
 20
-507.528768733462
 30
0.0
 11
222.1202982843351
 21
-854.8080808012032
 31
0.0
  0
LINE
  5
2CB5
330
3075
100
AcDbEntity
  8
0
 62
     0
100
AcDbLine
 10
-298.8000000000047
 20
-504.5288021980467
 30
0.0
 11
226.6202595782179
 21
-854.8080808012045
 31
0.0
  0
LINE
  5
2CB6
330
3075
100
AcDbEntity
  8
0
 62
     0
100
AcDbLine
 10
-298.8000000000028
 20
-501.5288356626297
 30
0.0
 11
231.1202208721042
 21
-854.8080808012025
 31
0.0
  0
LINE
  5
2CB7
330
3075
100
AcDbEntity
  8
0
 62
     0
100
AcDbLine
 10
-298.8000000000047
 20
-498.5288691272135
 30
0.0
 11
235.6201821659906
 21
-854.8080808012056
 31
0.0
  0
LINE
  5
2CB8
330
3075
100
AcDbEntity
  8
0
 62
     0
100
AcDbLine
 10
-298.8000000000028
 20
-495.5289025917982
 30
0.0
 11
240.120143459877
 21
-854.8080808012045
 31
0.0
  0
LINE
  5
2CB9
330
3075
100
AcDbEntity
  8
0
 62
     0
100
AcDbLine
 10
-298.8000000000028
 20
-492.5289360563818
 30
0.0
 11
244.6201047537615
 21
-854.8080808012045
 31
0.0
  0
LINE
  5
2CBA
330
3075
100
AcDbEntity
  8
0
 62
     0
100
AcDbLine
 10
-298.8000000000047
 20
-489.5289695209648
 30
0.0
 11
249.1200660476461
 21
-854.8080808012032
 31
0.0
  0
LINE
  5
2CBB
330
3075
100
AcDbEntity
  8
0
 62
     0
100
AcDbLine
 10
-298.8000000000028
 20
-486.5290029855494
 30
0.0
 11
253.6200273415343
 21
-854.8080808012064
 31
0.0
  0
LINE
  5
2CBC
330
3075
100
AcDbEntity
  8
0
 62
     0
100
AcDbLine
 10
-298.8000000000047
 20
-483.5290364501322
 30
0.0
 11
258.1199886354188
 21
-854.8080808012045
 31
0.0
  0
LINE
  5
2CBD
330
3075
100
AcDbEntity
  8
0
 62
     0
100
AcDbLine
 10
-298.8000000000028
 20
-480.5290699147171
 30
0.0
 11
262.6199499293034
 21
-854.8080808012056
 31
0.0
  0
LINE
  5
2CBE
330
3075
100
AcDbEntity
  8
0
 62
     0
100
AcDbLine
 10
-298.8000000000047
 20
-477.5291033793008
 30
0.0
 11
267.1199112231897
 21
-854.8080808012064
 31
0.0
  0
LINE
  5
2CBF
330
3075
100
AcDbEntity
  8
0
 62
     0
100
AcDbLine
 10
-298.8000000000028
 20
-474.5291368438838
 30
0.0
 11
271.6198725170761
 21
-854.8080808012045
 31
0.0
  0
LINE
  5
2CC0
330
3075
100
AcDbEntity
  8
0
 62
     0
100
AcDbLine
 10
-298.8000000000047
 20
-471.5291703084676
 30
0.0
 11
276.1198338109625
 21
-854.8080808012056
 31
0.0
  0
LINE
  5
2CC1
330
3075
100
AcDbEntity
  8
0
 62
     0
100
AcDbLine
 10
-298.8000000000028
 20
-468.5292037730514
 30
0.0
 11
280.6197951048453
 21
-854.8080808012032
 31
0.0
  0
LINE
  5
2CC2
330
3075
100
AcDbEntity
  8
0
 62
     0
100
AcDbLine
 10
-298.8000000000047
 20
-465.5292372376352
 30
0.0
 11
285.1197563987335
 21
-854.8080808012056
 31
0.0
  0
LINE
  5
2CC3
330
3075
100
AcDbEntity
  8
0
 62
     0
100
AcDbLine
 10
-298.8000000000047
 20
-462.5292707022189
 30
0.0
 11
289.6197176926161
 21
-854.8080808012032
 31
0.0
  0
LINE
  5
2CC4
330
3075
100
AcDbEntity
  8
0
 62
     0
100
AcDbLine
 10
-298.8000000000047
 20
-459.5293041668035
 30
0.0
 11
294.1196789865026
 21
-854.8080808012045
 31
0.0
  0
LINE
  5
2CC5
330
3075
100
AcDbEntity
  8
0
 62
     0
100
AcDbLine
 10
-298.8000000000028
 20
-456.5293376313865
 30
0.0
 11
298.6196402803871
 21
-854.8080808012025
 31
0.0
  0
LINE
  5
2CC6
330
3075
100
AcDbEntity
  8
0
 62
     0
100
AcDbLine
 10
-298.8000000000047
 20
-453.5293710959712
 30
0.0
 11
298.7999999999956
 21
-851.9283537718257
 31
0.0
  0
LINE
  5
2CC7
330
3075
100
AcDbEntity
  8
0
 62
     0
100
AcDbLine
 10
-298.8000000000028
 20
-450.5294045605542
 30
0.0
 11
298.7999999999956
 21
-848.9283872364076
 31
0.0
  0
LINE
  5
2CC8
330
3075
100
AcDbEntity
  8
0
 62
     0
100
AcDbLine
 10
-298.8000000000047
 20
-447.5294380251398
 30
0.0
 11
298.7999999999956
 21
-845.9284207009932
 31
0.0
  0
LINE
  5
2CC9
330
3075
100
AcDbEntity
  8
0
 62
     0
100
AcDbLine
 10
-298.8000000000047
 20
-444.5294714897218
 30
0.0
 11
298.7999999999956
 21
-842.9284541655752
 31
0.0
  0
LINE
  5
2CCA
330
3075
100
AcDbEntity
  8
0
 62
     0
100
AcDbLine
 10
-298.8000000000047
 20
-441.5295049543074
 30
0.0
 11
298.7999999999938
 21
-839.9284876301599
 31
0.0
  0
LINE
  5
2CCB
330
3075
100
AcDbEntity
  8
0
 62
     0
100
AcDbLine
 10
-298.8000000000047
 20
-438.5295384188894
 30
0.0
 11
298.7999999999956
 21
-836.9285210947429
 31
0.0
  0
LINE
  5
2CCC
330
3075
100
AcDbEntity
  8
0
 62
     0
100
AcDbLine
 10
-298.8000000000028
 20
-435.529571883474
 30
0.0
 11
298.7999999999956
 21
-833.9285545593282
 31
0.0
  0
LINE
  5
2CCD
330
3075
100
AcDbEntity
  8
0
 62
     0
100
AcDbLine
 10
-298.8000000000047
 20
-432.5296053480569
 30
0.0
 11
298.7999999999956
 21
-830.9285880239109
 31
0.0
  0
LINE
  5
2CCE
330
3075
100
AcDbEntity
  8
0
 62
     0
100
AcDbLine
 10
-298.8000000000028
 20
-429.5296388126407
 30
0.0
 11
298.7999999999956
 21
-827.9286214884939
 31
0.0
  0
LINE
  5
2CCF
330
3075
100
AcDbEntity
  8
0
 62
     0
100
AcDbLine
 10
-298.8000000000047
 20
-426.5296722772253
 30
0.0
 11
298.7999999999956
 21
-824.9286549530788
 31
0.0
  0
LINE
  5
2CD0
330
3075
100
AcDbEntity
  8
0
 62
     0
100
AcDbLine
 10
-298.8000000000028
 20
-423.5297057418081
 30
0.0
 11
298.7999999999938
 21
-821.9286884176606
 31
0.0
  0
LINE
  5
2CD1
330
3075
100
AcDbEntity
  8
0
 62
     0
100
AcDbLine
 10
-298.8000000000028
 20
-420.5297392063928
 30
0.0
 11
298.7999999999975
 21
-818.9287218822473
 31
0.0
  0
LINE
  5
2CD2
330
3075
100
AcDbEntity
  8
0
 62
     0
100
AcDbLine
 10
-298.8000000000047
 20
-417.5297726709748
 30
0.0
 11
298.7999999999938
 21
-815.928755346829
 31
0.0
  0
LINE
  5
2CD3
330
3075
100
AcDbEntity
  8
0
 62
     0
100
AcDbLine
 10
-298.8000000000028
 20
-414.5298061355616
 30
0.0
 11
298.7999999999956
 21
-812.9287888114141
 31
0.0
  0
LINE
  5
2CD4
330
3075
100
AcDbEntity
  8
0
 62
     0
100
AcDbLine
 10
-298.8000000000047
 20
-411.5298396001433
 30
0.0
 11
298.7999999999938
 21
-809.928822275997
 31
0.0
  0
LINE
  5
2CD5
330
3075
100
AcDbEntity
  8
0
 62
     0
100
AcDbLine
 10
-298.8000000000047
 20
-408.5298730647282
 30
0.0
 11
298.7999999999956
 21
-806.9288557405815
 31
0.0
  0
LINE
  5
2CD6
330
3075
100
AcDbEntity
  8
0
 62
     0
100
AcDbLine
 10
-298.8000000000047
 20
-405.5299065293111
 30
0.0
 11
298.7999999999938
 21
-803.9288892051654
 31
0.0
  0
LINE
  5
2CD7
330
3075
100
AcDbEntity
  8
0
 62
     0
100
AcDbLine
 10
-298.8000000000047
 20
-402.5299399938957
 30
0.0
 11
298.7999999999956
 21
-800.92892266975
 31
0.0
  0
LINE
  5
2CD8
330
3075
100
AcDbEntity
  8
0
 62
     0
100
AcDbLine
 10
-298.8000000000028
 20
-399.5299734584796
 30
0.0
 11
298.7999999999956
 21
-797.928956134333
 31
0.0
  0
LINE
  5
2CD9
330
3075
100
AcDbEntity
  8
0
 62
     0
100
AcDbLine
 10
-298.8000000000047
 20
-396.5300069230643
 30
0.0
 11
298.7999999999938
 21
-794.9289895989168
 31
0.0
  0
LINE
  5
2CDA
330
3075
100
AcDbEntity
  8
0
 62
     0
100
AcDbLine
 10
-298.8000000000028
 20
-393.5300403876471
 30
0.0
 11
298.7999999999956
 21
-791.9290230634999
 31
0.0
  0
LINE
  5
2CDB
330
3075
100
AcDbEntity
  8
0
 62
     0
100
AcDbLine
 10
-298.8000000000047
 20
-390.5300738522292
 30
0.0
 11
298.7999999999938
 21
-788.9290565280822
 31
0.0
  0
LINE
  5
2CDC
330
3075
100
AcDbEntity
  8
0
 62
     0
100
AcDbLine
 10
-298.8000000000028
 20
-387.5301073168148
 30
0.0
 11
298.7999999999956
 21
-785.9290899926683
 31
0.0
  0
LINE
  5
2CDD
330
3075
100
AcDbEntity
  8
0
 62
     0
100
AcDbLine
 10
-298.8000000000028
 20
-384.5301407813968
 30
0.0
 11
298.7999999999956
 21
-782.9291234572512
 31
0.0
  0
LINE
  5
2CDE
330
3075
100
AcDbEntity
  8
0
 62
     0
100
AcDbLine
 10
-298.8000000000047
 20
-381.5301742459824
 30
0.0
 11
298.7999999999956
 21
-779.9291569218353
 31
0.0
  0
LINE
  5
2CDF
330
3075
100
AcDbEntity
  8
0
 62
     0
100
AcDbLine
 10
-298.8000000000028
 20
-378.5302077105653
 30
0.0
 11
298.7999999999956
 21
-776.9291903864183
 31
0.0
  0
LINE
  5
2CE0
330
3075
100
AcDbEntity
  8
0
 62
     0
100
AcDbLine
 10
-298.8000000000047
 20
-375.53024117515
 30
0.0
 11
298.7999999999956
 21
-773.929223851004
 31
0.0
  0
LINE
  5
2CE1
330
3075
100
AcDbEntity
  8
0
 62
     0
100
AcDbLine
 10
-298.8000000000028
 20
-372.5302746397328
 30
0.0
 11
298.7999999999956
 21
-770.929257315587
 31
0.0
  0
LINE
  5
2CE2
330
3075
100
AcDbEntity
  8
0
 62
     0
100
AcDbLine
 10
-298.8000000000028
 20
-369.5303081043176
 30
0.0
 11
298.7999999999975
 21
-767.9292907801715
 31
0.0
  0
LINE
  5
2CE3
330
3075
100
AcDbEntity
  8
0
 62
     0
100
AcDbLine
 10
-298.8000000000028
 20
-366.5303415689014
 30
0.0
 11
298.7999999999938
 21
-764.9293242447537
 31
0.0
  0
LINE
  5
2CE4
330
3075
100
AcDbEntity
  8
0
 62
     0
100
AcDbLine
 10
-298.8000000000047
 20
-363.530375033485
 30
0.0
 11
298.7999999999956
 21
-761.9293577093385
 31
0.0
  0
LINE
  5
2CE5
330
3075
100
AcDbEntity
  8
0
 62
     0
100
AcDbLine
 10
-298.8000000000028
 20
-360.5304084980688
 30
0.0
 11
298.7999999999938
 21
-758.9293911739215
 31
0.0
  0
LINE
  5
2CE6
330
3075
100
AcDbEntity
  8
0
 62
     0
100
AcDbLine
 10
-298.8000000000047
 20
-357.5304419626527
 30
0.0
 11
298.7999999999956
 21
-755.9294246385069
 31
0.0
  0
LINE
  5
2CE7
330
3075
100
AcDbEntity
  8
0
 62
     0
100
AcDbLine
 10
-298.8000000000047
 20
-354.5304754272356
 30
0.0
 11
298.7999999999938
 21
-752.9294581030899
 31
0.0
  0
LINE
  5
2CE8
330
3075
100
AcDbEntity
  8
0
 62
     0
100
AcDbLine
 10
-298.8000000000047
 20
-351.5305088918194
 30
0.0
 11
298.7999999999956
 21
-749.9294915676727
 31
0.0
  0
LINE
  5
2CE9
330
3075
100
AcDbEntity
  8
0
 62
     0
100
AcDbLine
 10
-298.8000000000028
 20
-348.5305423564041
 30
0.0
 11
298.7999999999956
 21
-746.9295250322574
 31
0.0
  0
LINE
  5
2CEA
330
3075
100
AcDbEntity
  8
0
 62
     0
100
AcDbLine
 10
-298.8000000000047
 20
-345.530575820987
 30
0.0
 11
298.7999999999956
 21
-743.9295584968403
 31
0.0
  0
LINE
  5
2CEB
330
3075
100
AcDbEntity
  8
0
 62
     0
100
AcDbLine
 10
-298.8000000000028
 20
-342.5306092855716
 30
0.0
 11
298.7999999999956
 21
-740.9295919614253
 31
0.0
  0
LINE
  5
2CEC
330
3075
100
AcDbEntity
  8
0
 62
     0
100
AcDbLine
 10
-298.8000000000047
 20
-339.5306427501546
 30
0.0
 11
298.7999999999956
 21
-737.9296254260089
 31
0.0
  0
LINE
  5
2CED
330
3075
100
AcDbEntity
  8
0
 62
     0
100
AcDbLine
 10
-298.8000000000047
 20
-336.5306762147384
 30
0.0
 11
298.7999999999956
 21
-734.9296588905928
 31
0.0
  0
LINE
  5
2CEE
330
3075
100
AcDbEntity
  8
0
 62
     0
100
AcDbLine
 10
-298.8000000000028
 20
-333.5307096793223
 30
0.0
 11
298.7999999999975
 21
-731.929692355176
 31
0.0
  0
LINE
  5
2CEF
330
3075
100
AcDbEntity
  8
0
 62
     0
100
AcDbLine
 10
-298.8000000000047
 20
-330.5307431439069
 30
0.0
 11
298.7999999999956
 21
-728.9297258197604
 31
0.0
  0
LINE
  5
2CF0
330
3075
100
AcDbEntity
  8
0
 62
     0
100
AcDbLine
 10
-298.8000000000028
 20
-327.5307766084897
 30
0.0
 11
298.7999999999956
 21
-725.9297592843441
 31
0.0
  0
LINE
  5
2CF1
330
3075
100
AcDbEntity
  8
0
 62
     0
100
AcDbLine
 10
-298.8000000000047
 20
-324.5308100730745
 30
0.0
 11
298.7999999999956
 21
-722.9297927489287
 31
0.0
  0
LINE
  5
2CF2
330
3075
100
AcDbEntity
  8
0
 62
     0
100
AcDbLine
 10
-298.8000000000028
 20
-321.5308435376574
 30
0.0
 11
298.7999999999956
 21
-719.9298262135116
 31
0.0
  0
LINE
  5
2CF3
330
3075
100
AcDbEntity
  8
0
 62
     0
100
AcDbLine
 10
-298.8000000000047
 20
-318.5308770022431
 30
0.0
 11
298.7999999999956
 21
-716.9298596780963
 31
0.0
  0
LINE
  5
2CF4
330
3075
100
AcDbEntity
  8
0
 62
     0
100
AcDbLine
 10
-298.8000000000028
 20
-315.5309104668257
 30
0.0
 11
298.7999999999956
 21
-713.9298931426792
 31
0.0
  0
LINE
  5
2CF5
330
3075
100
AcDbEntity
  8
0
 62
     0
100
AcDbLine
 10
-298.8000000000028
 20
-312.5309439314087
 30
0.0
 11
298.7999999999975
 21
-710.929926607263
 31
0.0
  0
LINE
  5
2CF6
330
3075
100
AcDbEntity
  8
0
 62
     0
100
AcDbLine
 10
-298.8000000000047
 20
-309.5309773959925
 30
0.0
 11
298.7999999999938
 21
-707.9299600718469
 31
0.0
  0
LINE
  5
2CF7
330
3075
100
AcDbEntity
  8
0
 62
     0
100
AcDbLine
 10
-298.8000000000047
 20
-306.5310108605753
 30
0.0
 11
298.7999999999956
 21
-704.9299935364294
 31
0.0
  0
LINE
  5
2CF8
330
3075
100
AcDbEntity
  8
0
 62
     0
100
AcDbLine
 10
-298.8000000000047
 20
-303.5310443251611
 30
0.0
 11
298.7999999999938
 21
-701.9300270010144
 31
0.0
  0
LINE
  5
2CF9
330
3075
100
AcDbEntity
  8
0
 62
     0
100
AcDbLine
 10
-298.8000000000047
 20
-300.5310777897439
 30
0.0
 11
298.7999999999956
 21
-698.9300604655972
 31
0.0
  0
LINE
  5
2CFA
330
3075
100
AcDbEntity
  8
0
 62
     0
100
AcDbLine
 10
-298.8000000000028
 20
-297.5311112543286
 30
0.0
 11
298.7999999999956
 21
-695.930093930182
 31
0.0
  0
LINE
  5
2CFB
330
3075
100
AcDbEntity
  8
0
 62
     0
100
AcDbLine
 10
-298.8000000000047
 20
-294.5311447189115
 30
0.0
 11
298.7999999999956
 21
-692.9301273947658
 31
0.0
  0
LINE
  5
2CFC
330
3075
100
AcDbEntity
  8
0
 62
     0
100
AcDbLine
 10
-298.8000000000028
 20
-291.5311781834962
 30
0.0
 11
298.7999999999956
 21
-689.9301608593503
 31
0.0
  0
LINE
  5
2CFD
330
3075
100
AcDbEntity
  8
0
 62
     0
100
AcDbLine
 10
-298.8000000000047
 20
-288.53121164808
 30
0.0
 11
298.7999999999956
 21
-686.9301943239332
 31
0.0
  0
LINE
  5
2CFE
330
3075
100
AcDbEntity
  8
0
 62
     0
100
AcDbLine
 10
-298.8000000000028
 20
-285.5312451126647
 30
0.0
 11
298.7999999999956
 21
-683.9302277885181
 31
0.0
  0
LINE
  5
2CFF
330
3075
100
AcDbEntity
  8
0
 62
     0
100
AcDbLine
 10
-298.8000000000047
 20
-282.5312785772467
 30
0.0
 11
298.7999999999938
 21
-680.9302612530999
 31
0.0
  0
LINE
  5
2D00
330
3075
100
AcDbEntity
  8
0
 62
     0
100
AcDbLine
 10
-298.8000000000047
 20
-279.5313120418314
 30
0.0
 11
298.7999999999956
 21
-677.9302947176854
 31
0.0
  0
LINE
  5
2D01
330
3075
100
AcDbEntity
  8
0
 62
     0
100
AcDbLine
 10
-298.8000000000028
 20
-276.5313455064143
 30
0.0
 11
298.7999999999956
 21
-674.9303281822685
 31
0.0
  0
LINE
  5
2D02
330
3075
100
AcDbEntity
  8
0
 62
     0
100
AcDbLine
 10
-298.8000000000047
 20
-273.5313789709971
 30
0.0
 11
298.7999999999956
 21
-671.9303616468514
 31
0.0
  0
LINE
  5
2D03
330
3075
100
AcDbEntity
  8
0
 62
     0
100
AcDbLine
 10
-298.8000000000028
 20
-270.5314124355827
 30
0.0
 11
298.7999999999956
 21
-668.9303951114361
 31
0.0
  0
LINE
  5
2D04
330
3075
100
AcDbEntity
  8
0
 62
     0
100
AcDbLine
 10
-298.8000000000047
 20
-267.5314459001656
 30
0.0
 11
298.7999999999956
 21
-665.9304285760189
 31
0.0
  0
LINE
  5
2D05
330
3075
100
AcDbEntity
  8
0
 62
     0
100
AcDbLine
 10
-298.8000000000028
 20
-264.5314793647504
 30
0.0
 11
298.7999999999956
 21
-662.9304620406047
 31
0.0
  0
LINE
  5
2D06
330
3075
100
AcDbEntity
  8
0
 62
     0
100
AcDbLine
 10
-298.8000000000028
 20
-261.5315128293332
 30
0.0
 11
298.7999999999975
 21
-659.9304955051875
 31
0.0
  0
LINE
  5
2D07
330
3075
100
AcDbEntity
  8
0
 62
     0
100
AcDbLine
 10
-298.8000000000028
 20
-258.531546293918
 30
0.0
 11
298.7999999999956
 21
-656.9305289697721
 31
0.0
  0
LINE
  5
2D08
330
3075
100
AcDbEntity
  8
0
 62
     0
100
AcDbLine
 10
-298.8000000000047
 20
-255.5315797585008
 30
0.0
 11
298.7999999999956
 21
-653.9305624343541
 31
0.0
  0
LINE
  5
2D09
330
3075
100
AcDbEntity
  8
0
 62
     0
100
AcDbLine
 10
-298.8000000000047
 20
-252.5316132230855
 30
0.0
 11
298.7999999999938
 21
-650.9305958989389
 31
0.0
  0
LINE
  5
2D0A
330
3075
100
AcDbEntity
  8
0
 62
     0
100
AcDbLine
 10
-298.8000000000047
 20
-249.5316466876684
 30
0.0
 11
298.7999999999956
 21
-647.9306293635216
 31
0.0
  0
LINE
  5
2D0B
330
3075
100
AcDbEntity
  8
0
 62
     0
100
AcDbLine
 10
-298.8000000000028
 20
-246.5316801522531
 30
0.0
 11
298.7999999999956
 21
-644.9306628281074
 31
0.0
  0
LINE
  5
2D0C
330
3075
100
AcDbEntity
  8
0
 62
     0
100
AcDbLine
 10
-298.8000000000047
 20
-243.531713616836
 30
0.0
 11
298.7999999999956
 21
-641.9306962926903
 31
0.0
  0
LINE
  5
2D0D
330
3075
100
AcDbEntity
  8
0
 62
     0
100
AcDbLine
 10
-298.8000000000028
 20
-240.5317470814216
 30
0.0
 11
298.7999999999956
 21
-638.930729757275
 31
0.0
  0
LINE
  5
2D0E
330
3075
100
AcDbEntity
  8
0
 62
     0
100
AcDbLine
 10
-298.8000000000047
 20
-237.5317805460045
 30
0.0
 11
298.7999999999956
 21
-635.9307632218579
 31
0.0
  0
LINE
  5
2D0F
330
3075
100
AcDbEntity
  8
0
 62
     0
100
AcDbLine
 10
-298.8000000000028
 20
-234.5318140105874
 30
0.0
 11
298.7999999999956
 21
-632.9307966864408
 31
0.0
  0
LINE
  5
2D10
330
3075
100
AcDbEntity
  8
0
 62
     0
100
AcDbLine
 10
-298.8000000000047
 20
-231.5318474751721
 30
0.0
 11
298.7999999999956
 21
-629.9308301510263
 31
0.0
  0
LINE
  5
2D11
330
3075
100
AcDbEntity
  8
0
 62
     0
100
AcDbLine
 10
-298.8000000000047
 20
-228.5318809397541
 30
0.0
 11
298.7999999999956
 21
-626.9308636156083
 31
0.0
  0
LINE
  5
2D12
330
3075
100
AcDbEntity
  8
0
 62
     0
100
AcDbLine
 10
-298.8000000000028
 20
-225.5319144043387
 30
0.0
 11
298.7999999999956
 21
-623.930897080193
 31
0.0
  0
LINE
  5
2D13
330
3075
100
AcDbEntity
  8
0
 62
     0
100
AcDbLine
 10
-298.8000000000047
 20
-222.5319478689224
 30
0.0
 11
298.7999999999956
 21
-620.9309305447759
 31
0.0
  0
LINE
  5
2D14
330
3075
100
AcDbEntity
  8
0
 62
     0
100
AcDbLine
 10
-298.8000000000028
 20
-219.5319813335073
 30
0.0
 11
298.7999999999956
 21
-617.9309640093607
 31
0.0
  0
LINE
  5
2D15
330
3075
100
AcDbEntity
  8
0
 62
     0
100
AcDbLine
 10
-298.8000000000047
 20
-216.5320147980901
 30
0.0
 11
298.7999999999956
 21
-614.9309974739444
 31
0.0
  0
LINE
  5
2D16
330
3075
100
AcDbEntity
  8
0
 62
     0
100
AcDbLine
 10
-298.8000000000028
 20
-213.5320482626748
 30
0.0
 11
298.7999999999956
 21
-611.9310309385292
 31
0.0
  0
LINE
  5
2D17
330
3075
100
AcDbEntity
  8
0
 62
     0
100
AcDbLine
 10
-298.8000000000028
 20
-210.5320817272577
 30
0.0
 11
298.7999999999975
 21
-608.931064403112
 31
0.0
  0
LINE
  5
2D18
330
3075
100
AcDbEntity
  8
0
 62
     0
100
AcDbLine
 10
-298.8000000000047
 20
-207.5321151918424
 30
0.0
 11
298.7999999999938
 21
-605.9310978676958
 31
0.0
  0
LINE
  5
2D19
330
3075
100
AcDbEntity
  8
0
 62
     0
100
AcDbLine
 10
-298.8000000000028
 20
-204.5321486564262
 30
0.0
 11
298.7999999999975
 21
-602.9311313322796
 31
0.0
  0
LINE
  5
2D1A
330
3075
100
AcDbEntity
  8
0
 62
     0
100
AcDbLine
 10
-298.8000000000047
 20
-201.53218212101
 30
0.0
 11
298.7999999999938
 21
-599.9311647968633
 31
0.0
  0
LINE
  5
2D1B
330
3075
100
AcDbEntity
  8
0
 62
     0
100
AcDbLine
 10
-298.8000000000047
 20
-198.5322155855929
 30
0.0
 11
298.7999999999956
 21
-596.931198261447
 31
0.0
  0
LINE
  5
2D1C
330
3075
100
AcDbEntity
  8
0
 62
     0
100
AcDbLine
 10
-298.8000000000047
 20
-195.5322490501776
 30
0.0
 11
298.7999999999975
 21
-593.9312317260336
 31
0.0
  0
LINE
  5
2D1D
330
3075
100
AcDbEntity
  8
0
 62
     0
100
AcDbLine
 10
-298.8000000000047
 20
-192.5322825147614
 30
0.0
 11
298.7999999999975
 21
-590.9312651906166
 31
0.0
  0
LINE
  5
2D1E
330
3075
100
AcDbEntity
  8
0
 62
     0
100
AcDbLine
 10
-298.8000000000028
 20
-189.5323159793441
 30
0.0
 11
298.7999999999992
 21
-587.9312986551995
 31
0.0
  0
LINE
  5
2D1F
330
3075
100
AcDbEntity
  8
0
 62
     0
100
AcDbLine
 10
-298.8000000000047
 20
-186.5323494439288
 30
0.0
 11
298.7999999999975
 21
-584.931332119785
 31
0.0
  0
LINE
  5
2D20
330
3075
100
AcDbEntity
  8
0
 62
     0
100
AcDbLine
 10
-298.8000000000028
 20
-183.5323829085118
 30
0.0
 11
298.7999999999992
 21
-581.9313655843679
 31
0.0
  0
LINE
  5
2D21
330
3075
100
AcDbEntity
  8
0
 62
     0
100
AcDbLine
 10
-298.8000000000068
 20
-180.5324163730956
 30
0.0
 11
298.7999999999975
 21
-578.9313990489517
 31
0.0
  0
LINE
  5
2D22
330
3075
100
AcDbEntity
  8
0
 62
     0
100
AcDbLine
 10
-298.8000000000028
 20
-177.5324498376803
 30
0.0
 11
298.7999999999992
 21
-575.9314325135355
 31
0.0
  0
LINE
  5
2D23
330
3075
100
AcDbEntity
  8
0
 62
     0
100
AcDbLine
 10
-298.8000000000047
 20
-174.5324833022641
 30
0.0
 11
298.7999999999992
 21
-572.9314659781192
 31
0.0
  0
LINE
  5
2D24
330
3075
100
AcDbEntity
  8
0
 62
     0
100
AcDbLine
 10
-298.8000000000047
 20
-171.532516766847
 30
0.0
 11
298.7999999999975
 21
-569.9314994427028
 31
0.0
  0
LINE
  5
2D25
330
3075
100
AcDbEntity
  8
0
 62
     0
100
AcDbLine
 10
-298.8000000000028
 20
-168.5325502314317
 30
0.0
 11
298.7999999999992
 21
-566.9315329072879
 31
0.0
  0
LINE
  5
2D26
330
3075
100
AcDbEntity
  8
0
 62
     0
100
AcDbLine
 10
-298.8000000000047
 20
-165.5325836960146
 30
0.0
 11
298.7999999999975
 21
-563.9315663718705
 31
0.0
  0
LINE
  5
2D27
330
3075
100
AcDbEntity
  8
0
 62
     0
100
AcDbLine
 10
-298.8000000000028
 20
-162.5326171606002
 30
0.0
 11
298.7999999999992
 21
-560.9315998364555
 31
0.0
  0
LINE
  5
2D28
330
3075
100
AcDbEntity
  8
0
 62
     0
100
AcDbLine
 10
-298.8000000000047
 20
-159.5326506251831
 30
0.0
 11
298.7999999999975
 21
-557.9316333010383
 31
0.0
  0
LINE
  5
2D29
330
3075
100
AcDbEntity
  8
0
 62
     0
100
AcDbLine
 10
-298.8000000000028
 20
-156.5326840897678
 30
0.0
 11
298.7999999999992
 21
-554.9316667656239
 31
0.0
  0
LINE
  5
2D2A
330
3075
100
AcDbEntity
  8
0
 62
     0
100
AcDbLine
 10
-298.8000000000047
 20
-153.5327175543498
 30
0.0
 11
298.7999999999975
 21
-551.9317002302059
 31
0.0
  0
LINE
  5
2D2B
330
3075
100
AcDbEntity
  8
0
 62
     0
100
AcDbLine
 10
-295.1090618388735
 20
-152.9933701764203
 30
0.0
 11
298.7999999999992
 21
-548.9317336947896
 31
0.0
  0
LINE
  5
2D2C
330
3075
100
AcDbEntity
  8
0
 62
     0
100
AcDbLine
 10
-290.6091005449889
 20
-152.9933701764203
 30
0.0
 11
298.7999999999975
 21
-545.9317671593735
 31
0.0
  0
LINE
  5
2D2D
330
3075
100
AcDbEntity
  8
0
 62
     0
100
AcDbLine
 10
-286.1091392511008
 20
-152.9933701764221
 30
0.0
 11
298.7999999999975
 21
-542.9318006239562
 31
0.0
  0
LINE
  5
2D2E
330
3075
100
AcDbEntity
  8
0
 62
     0
100
AcDbLine
 10
-281.6091779572161
 20
-152.9933701764212
 30
0.0
 11
298.7999999999975
 21
-539.9318340885411
 31
0.0
  0
LINE
  5
2D2F
330
3075
100
AcDbEntity
  8
0
 62
     0
100
AcDbLine
 10
-277.1092166633297
 20
-152.9933701764212
 30
0.0
 11
298.7999999999992
 21
-536.9318675531249
 31
0.0
  0
LINE
  5
2D30
330
3075
100
AcDbEntity
  8
0
 62
     0
100
AcDbLine
 10
-272.6092553694471
 20
-152.9933701764203
 30
0.0
 11
298.7999999999975
 21
-533.9319010177096
 31
0.0
  0
LINE
  5
2D31
330
3075
100
AcDbEntity
  8
0
 62
     0
100
AcDbLine
 10
-268.1092940755607
 20
-152.9933701764203
 30
0.0
 11
298.7999999999992
 21
-530.9319344822925
 31
0.0
  0
LINE
  5
2D32
330
3075
100
AcDbEntity
  8
0
 62
     0
100
AcDbLine
 10
-263.6093327816743
 20
-152.9933701764212
 30
0.0
 11
298.7999999999975
 21
-527.9319679468772
 31
0.0
  0
LINE
  5
2D33
330
3075
100
AcDbEntity
  8
0
 62
     0
100
AcDbLine
 10
-259.1093714877898
 20
-152.9933701764194
 30
0.0
 11
298.7999999999992
 21
-524.9320014114609
 31
0.0
  0
LINE
  5
2D34
330
3075
100
AcDbEntity
  8
0
 62
     0
100
AcDbLine
 10
-254.6094101938997
 20
-152.993370176423
 30
0.0
 11
298.8000000000011
 21
-521.9320348760455
 31
0.0
  0
LINE
  5
2D35
330
3075
100
AcDbEntity
  8
0
 62
     0
100
AcDbLine
 10
-250.1094489000188
 20
-152.9933701764203
 30
0.0
 11
298.7999999999975
 21
-518.9320683406275
 31
0.0
  0
LINE
  5
2D36
330
3075
100
AcDbEntity
  8
0
 62
     0
100
AcDbLine
 10
-245.6094876061306
 20
-152.9933701764221
 30
0.0
 11
298.7999999999992
 21
-515.9321018052122
 31
0.0
  0
LINE
  5
2D37
330
3075
100
AcDbEntity
  8
0
 62
     0
100
AcDbLine
 10
-241.1095263122497
 20
-152.9933701764194
 30
0.0
 11
298.7999999999975
 21
-512.9321352697952
 31
0.0
  0
LINE
  5
2D38
330
3075
100
AcDbEntity
  8
0
 62
     0
100
AcDbLine
 10
-236.6095650183579
 20
-152.9933701764212
 30
0.0
 11
298.7999999999992
 21
-509.9321687343779
 31
0.0
  0
LINE
  5
2D39
330
3075
100
AcDbEntity
  8
0
 62
     0
100
AcDbLine
 10
-232.109603724477
 20
-152.9933701764212
 30
0.0
 11
298.7999999999975
 21
-506.9322021989637
 31
0.0
  0
LINE
  5
2D3A
330
3075
100
AcDbEntity
  8
0
 62
     0
100
AcDbLine
 10
-227.6096424305888
 20
-152.9933701764203
 30
0.0
 11
298.7999999999992
 21
-503.9322356635465
 31
0.0
  0
LINE
  5
2D3B
330
3075
100
AcDbEntity
  8
0
 62
     0
100
AcDbLine
 10
-223.1096811367061
 20
-152.9933701764203
 30
0.0
 11
298.7999999999992
 21
-500.9322691281313
 31
0.0
  0
LINE
  5
2D3C
330
3075
100
AcDbEntity
  8
0
 62
     0
100
AcDbLine
 10
-218.6097198428197
 20
-152.9933701764194
 30
0.0
 11
298.7999999999975
 21
-497.9323025927131
 31
0.0
  0
LINE
  5
2D3D
330
3075
100
AcDbEntity
  8
0
 62
     0
100
AcDbLine
 10
-214.1097585489333
 20
-152.9933701764212
 30
0.0
 11
298.7999999999992
 21
-494.9323360572988
 31
0.0
  0
LINE
  5
2D3E
330
3075
100
AcDbEntity
  8
0
 62
     0
100
AcDbLine
 10
-209.6097972550506
 20
-152.9933701764185
 30
0.0
 11
298.7999999999975
 21
-491.9323695218817
 31
0.0
  0
LINE
  5
2D3F
330
3075
100
AcDbEntity
  8
0
 62
     0
100
AcDbLine
 10
83.0000000000018
 20
-345.0661036868542
 30
0.0
 11
85.59090635029134
 21
-346.7933701764196
 31
0.0
  0
LINE
  5
2D40
330
3075
100
AcDbEntity
  8
0
 62
     0
100
AcDbLine
 10
85.59090635029676
 20
-346.7933701764223
 30
0.0
 11
298.7999999999992
 21
-488.9324029864673
 31
0.0
  0
LINE
  5
2D41
330
3075
100
AcDbEntity
  8
0
 62
     0
100
AcDbLine
 10
-205.1098359611642
 20
-152.9933701764203
 30
0.0
 11
83.0
 21
-345.0661036868532
 31
0.0
  0
LINE
  5
2D42
330
3075
100
AcDbEntity
  8
0
 62
     0
100
AcDbLine
 10
83.0000000000018
 20
-342.066137151438
 30
0.0
 11
90.09086764417951
 21
-346.7933701764187
 31
0.0
  0
LINE
  5
2D43
330
3075
100
AcDbEntity
  8
0
 62
     0
100
AcDbLine
 10
90.09086764418134
 20
-346.7933701764214
 30
0.0
 11
298.7999999999992
 21
-485.9324364510491
 31
0.0
  0
LINE
  5
2D44
330
3075
100
AcDbEntity
  8
0
 62
     0
100
AcDbLine
 10
-200.609874667276
 20
-152.9933701764203
 30
0.0
 11
83.0000000000018
 21
-342.0661371514368
 31
0.0
  0
LINE
  5
2D45
330
3075
100
AcDbEntity
  8
0
 62
     0
100
AcDbLine
 10
83.0
 20
-339.0661706160218
 30
0.0
 11
94.59082893806408
 21
-346.7933701764205
 31
0.0
  0
LINE
  5
2D46
330
3075
100
AcDbEntity
  8
0
 62
     0
100
AcDbLine
 10
94.59082893806771
 20
-346.7933701764223
 30
0.0
 11
298.7999999999975
 21
-482.9324699156341
 31
0.0
  0
LINE
  5
2D47
330
3075
100
AcDbEntity
  8
0
 62
     0
100
AcDbLine
 10
-196.1099133733915
 20
-152.9933701764212
 30
0.0
 11
83.0
 21
-339.0661706160218
 31
0.0
  0
LINE
  5
2D48
330
3075
100
AcDbEntity
  8
0
 62
     0
100
AcDbLine
 10
83.0000000000018
 20
-336.0662040806055
 30
0.0
 11
99.09079023195046
 21
-346.7933701764205
 31
0.0
  0
LINE
  5
2D49
330
3075
100
AcDbEntity
  8
0
 62
     0
100
AcDbLine
 10
99.09079023195229
 20
-346.7933701764214
 30
0.0
 11
298.7999999999992
 21
-479.9325033802169
 31
0.0
  0
LINE
  5
2D4A
330
3075
100
AcDbEntity
  8
0
 62
     0
100
AcDbLine
 10
-191.6099520795069
 20
-152.9933701764194
 30
0.0
 11
83.0
 21
-336.0662040806037
 31
0.0
  0
LINE
  5
2D4B
330
3075
100
AcDbEntity
  8
0
 62
     0
100
AcDbLine
 10
83.0
 20
-333.0662375451893
 30
0.0
 11
103.5907515258332
 21
-346.7933701764196
 31
0.0
  0
LINE
  5
2D4C
330
3075
100
AcDbEntity
  8
0
 62
     0
100
AcDbLine
 10
103.5907515258368
 20
-346.7933701764214
 30
0.0
 11
298.7999999999975
 21
-476.9325368448027
 31
0.0
  0
LINE
  5
2D4D
330
3075
100
AcDbEntity
  8
0
 62
     0
100
AcDbLine
 10
-187.1099907856187
 20
-152.993370176423
 30
0.0
 11
83.0
 21
-333.0662375451893
 31
0.0
  0
LINE
  5
2D4E
330
3075
100
AcDbEntity
  8
0
 62
     0
100
AcDbLine
 10
83.0000000000018
 20
-330.0662710097722
 30
0.0
 11
108.0907128197214
 21
-346.7933701764196
 31
0.0
  0
LINE
  5
2D4F
330
3075
100
AcDbEntity
  8
0
 62
     0
100
AcDbLine
 10
108.0907128197214
 20
-346.7933701764205
 30
0.0
 11
298.7999999999992
 21
-473.9325703093855
 31
0.0
  0
LINE
  5
2D50
330
3075
100
AcDbEntity
  8
0
 62
     0
100
AcDbLine
 10
-182.6100294917342
 20
-152.9933701764203
 30
0.0
 11
83.0
 21
-330.0662710097713
 31
0.0
  0
LINE
  5
2D51
330
3075
100
AcDbEntity
  8
0
 62
     0
100
AcDbLine
 10
83.0
 20
-327.066304474356
 30
0.0
 11
112.5906741136059
 21
-346.7933701764196
 31
0.0
  0
LINE
  5
2D52
330
3075
100
AcDbEntity
  8
0
 62
     0
100
AcDbLine
 10
112.5906741136095
 20
-346.7933701764214
 30
0.0
 11
298.7999999999975
 21
-470.9326037739684
 31
0.0
  0
LINE
  5
2D53
330
3075
100
AcDbEntity
  8
0
 62
     0
100
AcDbLine
 10
-178.1100681978496
 20
-152.9933701764203
 30
0.0
 11
82.99999999999814
 21
-327.0663044743542
 31
0.0
  0
LINE
  5
2D54
330
3075
100
AcDbEntity
  8
0
 62
     0
100
AcDbLine
 10
83.0000000000018
 20
-324.0663379389407
 30
0.0
 11
117.0906354074904
 21
-346.7933701764187
 31
0.0
  0
LINE
  5
2D55
330
3075
100
AcDbEntity
  8
0
 62
     0
100
AcDbLine
 10
117.0906354074941
 20
-346.7933701764214
 30
0.0
 11
298.7999999999992
 21
-467.932637238553
 31
0.0
  0
LINE
  5
2D56
330
3075
100
AcDbEntity
  8
0
 62
     0
100
AcDbLine
 10
-173.610106903965
 20
-152.9933701764194
 30
0.0
 11
83.0
 21
-324.0663379389398
 31
0.0
  0
LINE
  5
2D57
330
3075
100
AcDbEntity
  8
0
 62
     0
100
AcDbLine
 10
83.0000000000018
 20
-321.0663714035236
 30
0.0
 11
121.5905967013768
 21
-346.7933701764187
 31
0.0
  0
LINE
  5
2D58
330
3075
100
AcDbEntity
  8
0
 62
     0
100
AcDbLine
 10
121.5905967013805
 20
-346.7933701764205
 30
0.0
 11
298.7999999999992
 21
-464.9326707031348
 31
0.0
  0
LINE
  5
2D59
330
3075
100
AcDbEntity
  8
0
 62
     0
100
AcDbLine
 10
-169.110145610075
 20
-152.9933701764212
 30
0.0
 11
83.0
 21
-321.0663714035227
 31
0.0
  0
LINE
  5
2D5A
330
3075
100
AcDbEntity
  8
0
 62
     0
100
AcDbLine
 10
83.0000000000018
 20
-318.0664048681082
 30
0.0
 11
126.0905579952614
 21
-346.7933701764196
 31
0.0
  0
LINE
  5
2D5B
330
3075
100
AcDbEntity
  8
0
 62
     0
100
AcDbLine
 10
126.0905579952668
 20
-346.7933701764232
 30
0.0
 11
298.7999999999992
 21
-461.9327041677213
 31
0.0
  0
LINE
  5
2D5C
330
3075
100
AcDbEntity
  8
0
 62
     0
100
AcDbLine
 10
-164.6101843161923
 20
-152.9933701764212
 30
0.0
 11
83.0
 21
-318.0664048681074
 31
0.0
  0
LINE
  5
2D5D
330
3075
100
AcDbEntity
  8
0
 62
     0
100
AcDbLine
 10
83.0000000000018
 20
-315.0664383326912
 30
0.0
 11
130.5905192891496
 21
-346.7933701764196
 31
0.0
  0
LINE
  5
2D5E
330
3075
100
AcDbEntity
  8
0
 62
     0
100
AcDbLine
 10
130.5905192891532
 20
-346.7933701764214
 30
0.0
 11
298.7999999999992
 21
-458.9327376323034
 31
0.0
  0
LINE
  5
2D5F
330
3075
100
AcDbEntity
  8
0
 62
     0
100
AcDbLine
 10
-160.1102230223058
 20
-152.9933701764203
 30
0.0
 11
83.0
 21
-315.0664383326903
 31
0.0
  0
LINE
  5
2D60
330
3075
100
AcDbEntity
  8
0
 62
     0
100
AcDbLine
 10
83.0
 20
-312.066471797275
 30
0.0
 11
135.0904805830323
 21
-346.7933701764187
 31
0.0
  0
LINE
  5
2D61
330
3075
100
AcDbEntity
  8
0
 62
     0
100
AcDbLine
 10
135.0904805830359
 20
-346.7933701764223
 30
0.0
 11
298.7999999999975
 21
-455.9327710968879
 31
0.0
  0
LINE
  5
2D62
330
3075
100
AcDbEntity
  8
0
 62
     0
100
AcDbLine
 10
-155.6102617284232
 20
-152.9933701764203
 30
0.0
 11
83.0
 21
-312.066471797275
 31
0.0
  0
LINE
  5
2D63
330
3075
100
AcDbEntity
  8
0
 62
     0
100
AcDbLine
 10
83.0000000000018
 20
-309.0665052618597
 30
0.0
 11
139.5904418769223
 21
-346.7933701764205
 31
0.0
  0
LINE
  5
2D64
330
3075
100
AcDbEntity
  8
0
 62
     0
100
AcDbLine
 10
139.5904418769223
 20
-346.7933701764205
 30
0.0
 11
298.7999999999992
 21
-452.932804561471
 31
0.0
  0
LINE
  5
2D65
330
3075
100
AcDbEntity
  8
0
 62
     0
100
AcDbLine
 10
-151.1103004345368
 20
-152.9933701764194
 30
0.0
 11
83.0
 21
-309.0665052618581
 31
0.0
  0
LINE
  5
2D66
330
3075
100
AcDbEntity
  8
0
 62
     0
100
AcDbLine
 10
83.0000000000018
 20
-306.0665387264436
 30
0.0
 11
144.0904031708051
 21
-346.7933701764205
 31
0.0
  0
LINE
  5
2D67
330
3075
100
AcDbEntity
  8
0
 62
     0
100
AcDbLine
 10
144.0904031708105
 20
-346.7933701764232
 30
0.0
 11
298.7999999999992
 21
-449.9328380260556
 31
0.0
  0
LINE
  5
2D68
330
3075
100
AcDbEntity
  8
0
 62
     0
100
AcDbLine
 10
-146.6103391406486
 20
-152.9933701764212
 30
0.0
 11
83.0000000000018
 21
-306.0665387264436
 31
0.0
  0
LINE
  5
2D69
330
3075
100
AcDbEntity
  8
0
 62
     0
100
AcDbLine
 10
83.0
 20
-303.0665721910263
 30
0.0
 11
148.5903644646914
 21
-346.7933701764196
 31
0.0
  0
LINE
  5
2D6A
330
3075
100
AcDbEntity
  8
0
 62
     0
100
AcDbLine
 10
148.5903644646931
 20
-346.7933701764223
 30
0.0
 11
298.7999999999992
 21
-446.9328714906387
 31
0.0
  0
LINE
  5
2D6B
330
3075
100
AcDbEntity
  8
0
 62
     0
100
AcDbLine
 10
-142.1103778467677
 20
-152.9933701764194
 30
0.0
 11
83.0
 21
-303.0665721910255
 31
0.0
  0
LINE
  5
2D6C
330
3075
100
AcDbEntity
  8
0
 62
     0
100
AcDbLine
 10
83.0000000000018
 20
-300.0666056556111
 30
0.0
 11
153.090325758576
 21
-346.7933701764196
 31
0.0
  0
LINE
  5
2D6D
330
3075
100
AcDbEntity
  8
0
 62
     0
100
AcDbLine
 10
153.0903257585796
 20
-346.7933701764223
 30
0.0
 11
298.7999999999992
 21
-443.9329049552241
 31
0.0
  0
LINE
  5
2D6E
330
3075
100
AcDbEntity
  8
0
 62
     0
100
AcDbLine
 10
-137.6104165528777
 20
-152.9933701764221
 30
0.0
 11
83.0
 21
-300.06660565561
 31
0.0
  0
LINE
  5
2D6F
330
3075
100
AcDbEntity
  8
0
 62
     0
100
AcDbLine
 10
83.0
 20
-297.0666391201939
 30
0.0
 11
157.5902870524642
 21
-346.7933701764214
 31
0.0
  0
LINE
  5
2D70
330
3075
100
AcDbEntity
  8
0
 62
     0
100
AcDbLine
 10
157.5902870524642
 20
-346.7933701764223
 30
0.0
 11
298.7999999999992
 21
-440.9329384198072
 31
0.0
  0
LINE
  5
2D71
330
3075
100
AcDbEntity
  8
0
 62
     0
100
AcDbLine
 10
-133.110455258995
 20
-152.9933701764203
 30
0.0
 11
83.0
 21
-297.066639120193
 31
0.0
  0
LINE
  5
2D72
330
3075
100
AcDbEntity
  8
0
 62
     0
100
AcDbLine
 10
83.0000000000018
 20
-294.0666725847795
 30
0.0
 11
162.0902483463469
 21
-346.7933701764205
 31
0.0
  0
LINE
  5
2D73
330
3075
100
AcDbEntity
  8
0
 62
     0
100
AcDbLine
 10
162.0902483463505
 20
-346.7933701764223
 30
0.0
 11
298.7999999999975
 21
-437.9329718843909
 31
0.0
  0
LINE
  5
2D74
330
3075
100
AcDbEntity
  8
0
 62
     0
100
AcDbLine
 10
-128.6104939651068
 20
-152.9933701764221
 30
0.0
 11
83.0
 21
-294.0666725847787
 31
0.0
  0
LINE
  5
2D75
330
3075
100
AcDbEntity
  8
0
 62
     0
100
AcDbLine
 10
83.0
 20
-291.0667060493624
 30
0.0
 11
166.5902096402333
 21
-346.7933701764205
 31
0.0
  0
LINE
  5
2D76
330
3075
100
AcDbEntity
  8
0
 62
     0
100
AcDbLine
 10
166.5902096402351
 20
-346.7933701764214
 30
0.0
 11
298.7999999999992
 21
-434.9330053489745
 31
0.0
  0
LINE
  5
2D77
330
3075
100
AcDbEntity
  8
0
 62
     0
100
AcDbLine
 10
-124.1105326712259
 20
-152.9933701764194
 30
0.0
 11
83.0
 21
-291.0667060493616
 31
0.0
  0
LINE
  5
2D78
330
3075
100
AcDbEntity
  8
0
 62
     0
100
AcDbLine
 10
83.0000000000018
 20
-288.0667395139454
 30
0.0
 11
171.0901709341196
 21
-346.7933701764196
 31
0.0
  0
LINE
  5
2D79
330
3075
100
AcDbEntity
  8
0
 62
     0
100
AcDbLine
 10
171.0901709341196
 20
-346.7933701764196
 30
0.0
 11
298.7999999999975
 21
-431.9330388135568
 31
0.0
  0
LINE
  5
2D7A
330
3075
100
AcDbEntity
  8
0
 62
     0
100
AcDbLine
 10
-119.6105713773359
 20
-152.9933701764212
 30
0.0
 11
83.0
 21
-288.0667395139444
 31
0.0
  0
LINE
  5
2D7B
330
3075
100
AcDbEntity
  8
0
 62
     0
100
AcDbLine
 10
83.0000000000018
 20
-285.0667729785291
 30
0.0
 11
175.5901322280042
 21
-346.7933701764196
 31
0.0
  0
LINE
  5
2D7C
330
3075
100
AcDbEntity
  8
0
 62
     0
100
AcDbLine
 10
175.5901322280078
 20
-346.7933701764223
 30
0.0
 11
298.7999999999992
 21
-428.9330722781423
 31
0.0
  0
LINE
  5
2D7D
330
3075
100
AcDbEntity
  8
0
 62
     0
100
AcDbLine
 10
-115.1106100834513
 20
-152.9933701764203
 30
0.0
 11
83.0000000000018
 21
-285.0667729785291
 31
0.0
  0
LINE
  5
2D7E
330
3075
100
AcDbEntity
  8
0
 62
     0
100
AcDbLine
 10
83.0000000000018
 20
-282.0668064431128
 30
0.0
 11
180.0900935218887
 21
-346.7933701764196
 31
0.0
  0
LINE
  5
2D7F
330
3075
100
AcDbEntity
  8
0
 62
     0
100
AcDbLine
 10
180.0900935218924
 20
-346.7933701764214
 30
0.0
 11
298.7999999999975
 21
-425.9331057427251
 31
0.0
  0
LINE
  5
2D80
330
3075
100
AcDbEntity
  8
0
 62
     0
100
AcDbLine
 10
-110.6106487895649
 20
-152.9933701764203
 30
0.0
 11
82.99999999999814
 21
-282.0668064431111
 31
0.0
  0
LINE
  5
2D81
330
3075
100
AcDbEntity
  8
0
 62
     0
100
AcDbLine
 10
83.0000000000018
 20
-279.0668399076976
 30
0.0
 11
184.5900548157768
 21
-346.7933701764205
 31
0.0
  0
LINE
  5
2D82
330
3075
100
AcDbEntity
  8
0
 62
     0
100
AcDbLine
 10
184.5900548157788
 20
-346.7933701764214
 30
0.0
 11
298.7999999999992
 21
-422.9331392073099
 31
0.0
  0
LINE
  5
2D83
330
3075
100
AcDbEntity
  8
0
 62
     0
100
AcDbLine
 10
-106.1106874956804
 20
-152.9933701764212
 30
0.0
 11
83.0000000000018
 21
-279.0668399076976
 31
0.0
  0
LINE
  5
2D84
330
3075
100
AcDbEntity
  8
0
 62
     0
100
AcDbLine
 10
83.0
 20
-276.0668733722805
 30
0.0
 11
189.0900161096615
 21
-346.7933701764205
 31
0.0
  0
LINE
  5
2D85
330
3075
100
AcDbEntity
  8
0
 62
     0
100
AcDbLine
 10
189.0900161096615
 20
-346.7933701764205
 30
0.0
 11
298.7999999999975
 21
-419.9331726718927
 31
0.0
  0
LINE
  5
2D86
330
3075
100
AcDbEntity
  8
0
 62
     0
100
AcDbLine
 10
-101.610726201794
 20
-152.9933701764203
 30
0.0
 11
82.99999999999814
 21
-276.0668733722796
 31
0.0
  0
LINE
  5
2D87
330
3075
100
AcDbEntity
  8
0
 62
     0
100
AcDbLine
 10
83.0000000000018
 20
-273.0669068368652
 30
0.0
 11
193.5899774035461
 21
-346.7933701764196
 31
0.0
  0
LINE
  5
2D88
330
3075
100
AcDbEntity
  8
0
 62
     0
100
AcDbLine
 10
193.5899774035497
 20
-346.7933701764232
 30
0.0
 11
298.7999999999992
 21
-416.9332061364775
 31
0.0
  0
LINE
  5
2D89
330
3075
100
AcDbEntity
  8
0
 62
     0
100
AcDbLine
 10
-97.11076490790766
 20
-152.9933701764221
 30
0.0
 11
83.0000000000018
 21
-273.0669068368652
 31
0.0
  0
LINE
  5
2D8A
330
3075
100
AcDbEntity
  8
0
 62
     0
100
AcDbLine
 10
83.0000000000018
 20
-270.0669403014481
 30
0.0
 11
198.0899386974324
 21
-346.7933701764196
 31
0.0
  0
LINE
  5
2D8B
330
3075
100
AcDbEntity
  8
0
 62
     0
100
AcDbLine
 10
198.0899386974361
 20
-346.7933701764214
 30
0.0
 11
298.7999999999992
 21
-413.9332396010614
 31
0.0
  0
LINE
  5
2D8C
330
3075
100
AcDbEntity
  8
0
 62
     0
100
AcDbLine
 10
-92.61080361402305
 20
-152.9933701764194
 30
0.0
 11
83.0
 21
-270.0669403014472
 31
0.0
  0
LINE
  5
2D8D
330
3075
100
AcDbEntity
  8
0
 62
     0
100
AcDbLine
 10
83.0000000000018
 20
-267.0669737660329
 30
0.0
 11
202.5898999913188
 21
-346.7933701764223
 31
0.0
  0
LINE
  5
2D8E
330
3075
100
AcDbEntity
  8
0
 62
     0
100
AcDbLine
 10
202.5898999913188
 20
-346.7933701764223
 30
0.0
 11
298.7999999999975
 21
-410.9332730656451
 31
0.0
  0
LINE
  5
2D8F
330
3075
100
AcDbEntity
  8
0
 62
     0
100
AcDbLine
 10
-88.1108423201349
 20
-152.993370176423
 30
0.0
 11
83.0
 21
-267.0669737660319
 31
0.0
  0
LINE
  5
2D90
330
3075
100
AcDbEntity
  8
0
 62
     0
100
AcDbLine
 10
83.0000000000018
 20
-264.0670072306166
 30
0.0
 11
207.0898612852052
 21
-346.7933701764205
 31
0.0
  0
LINE
  5
2D91
330
3075
100
AcDbEntity
  8
0
 62
     0
100
AcDbLine
 10
207.0898612852052
 20
-346.7933701764205
 30
0.0
 11
298.8000000000011
 21
-407.9333065302289
 31
0.0
  0
LINE
  5
2D92
330
3075
100
AcDbEntity
  8
0
 62
     0
100
AcDbLine
 10
-83.61088102625219
 20
-152.9933701764212
 30
0.0
 11
83.0
 21
-264.0670072306148
 31
0.0
  0
LINE
  5
2D93
330
3075
100
AcDbEntity
  8
0
 62
     0
100
AcDbLine
 10
83.0000000000018
 20
-261.0670406952013
 30
0.0
 11
211.5898225790898
 21
-346.7933701764214
 31
0.0
  0
LINE
  5
2D94
330
3075
100
AcDbEntity
  8
0
 62
     0
100
AcDbLine
 10
211.5898225790898
 20
-346.7933701764223
 30
0.0
 11
298.7999999999975
 21
-404.9333399948127
 31
0.0
  0
LINE
  5
2D95
330
3075
100
AcDbEntity
  8
0
 62
     0
100
AcDbLine
 10
-79.1109197323658
 20
-152.9933701764221
 30
0.0
 11
83.0
 21
-261.0670406952004
 31
0.0
  0
LINE
  5
2D96
330
3075
100
AcDbEntity
  8
0
 62
     0
100
AcDbLine
 10
83.0
 20
-258.0670741597832
 30
0.0
 11
216.0897838729761
 21
-346.7933701764214
 31
0.0
  0
LINE
  5
2D97
330
3075
100
AcDbEntity
  8
0
 62
     0
100
AcDbLine
 10
216.0897838729761
 20
-346.7933701764214
 30
0.0
 11
298.7999999999992
 21
-401.9333734593955
 31
0.0
  0
LINE
  5
2D98
330
3075
100
AcDbEntity
  8
0
 62
     0
100
AcDbLine
 10
-74.61095843848124
 20
-152.9933701764203
 30
0.0
 11
83.0
 21
-258.0670741597832
 31
0.0
  0
LINE
  5
2D99
330
3075
100
AcDbEntity
  8
0
 62
     0
100
AcDbLine
 10
83.0
 20
-255.067107624368
 30
0.0
 11
220.5897451668607
 21
-346.7933701764214
 31
0.0
  0
LINE
  5
2D9A
330
3075
100
AcDbEntity
  8
0
 62
     0
100
AcDbLine
 10
220.5897451668607
 20
-346.7933701764214
 30
0.0
 11
298.7999999999975
 21
-398.9334069239803
 31
0.0
  0
LINE
  5
2D9B
330
3075
100
AcDbEntity
  8
0
 62
     0
100
AcDbLine
 10
-70.11099714459307
 20
-152.9933701764238
 30
0.0
 11
83.0
 21
-255.067107624368
 31
0.0
  0
LINE
  5
2D9C
330
3075
100
AcDbEntity
  8
0
 62
     0
100
AcDbLine
 10
83.0
 20
-252.0671410889509
 30
0.0
 11
225.0897064607452
 21
-346.7933701764205
 31
0.0
  0
LINE
  5
2D9D
330
3075
100
AcDbEntity
  8
0
 62
     0
100
AcDbLine
 10
225.0897064607489
 20
-346.7933701764223
 30
0.0
 11
298.7999999999992
 21
-395.9334403885641
 31
0.0
  0
LINE
  5
2D9E
330
3075
100
AcDbEntity
  8
0
 62
     0
100
AcDbLine
 10
-65.61103585071028
 20
-152.9933701764212
 30
0.0
 11
83.0
 21
-252.0671410889509
 31
0.0
  0
LINE
  5
2D9F
330
3075
100
AcDbEntity
  8
0
 62
     0
100
AcDbLine
 10
83.0000000000018
 20
-249.0671745535355
 30
0.0
 11
229.5896677546334
 21
-346.7933701764223
 31
0.0
  0
LINE
  5
2DA0
330
3075
100
AcDbEntity
  8
0
 62
     0
100
AcDbLine
 10
229.5896677546334
 20
-346.7933701764223
 30
0.0
 11
298.7999999999992
 21
-392.9334738531488
 31
0.0
  0
LINE
  5
2DA1
330
3075
100
AcDbEntity
  8
0
 62
     0
100
AcDbLine
 10
-61.11107455682212
 20
-152.993370176423
 30
0.0
 11
82.99999999999634
 21
-249.0671745535328
 31
0.0
  0
LINE
  5
2DA2
330
3075
100
AcDbEntity
  8
0
 62
     0
100
AcDbLine
 10
83.0
 20
-246.0672080181193
 30
0.0
 11
234.089629048518
 21
-346.7933701764214
 31
0.0
  0
LINE
  5
2DA3
330
3075
100
AcDbEntity
  8
0
 62
     0
100
AcDbLine
 10
234.089629048518
 20
-346.7933701764214
 30
0.0
 11
298.7999999999992
 21
-389.9335073177317
 31
0.0
  0
LINE
  5
2DA4
330
3075
100
AcDbEntity
  8
0
 62
     0
100
AcDbLine
 10
-56.6111132629394
 20
-152.9933701764203
 30
0.0
 11
82.99999999999634
 21
-246.0672080181157
 31
0.0
  0
LINE
  5
2DA5
330
3075
100
AcDbEntity
  8
0
 62
     0
100
AcDbLine
 10
83.0000000000018
 20
-243.0672414827022
 30
0.0
 11
238.5895903424043
 21
-346.7933701764205
 31
0.0
  0
LINE
  5
2DA6
330
3075
100
AcDbEntity
  8
0
 62
     0
100
AcDbLine
 10
238.5895903424043
 20
-346.7933701764205
 30
0.0
 11
298.7999999999992
 21
-386.9335407823145
 31
0.0
  0
LINE
  5
2DA7
330
3075
100
AcDbEntity
  8
0
 62
     0
100
AcDbLine
 10
-52.11115196904938
 20
-152.9933701764221
 30
0.0
 11
82.99999999999634
 21
-243.0672414826995
 31
0.0
  0
LINE
  5
2DA8
330
3075
100
AcDbEntity
  8
0
 62
     0
100
AcDbLine
 10
83.0
 20
-240.0672749472869
 30
0.0
 11
243.0895516362871
 21
-346.7933701764205
 31
0.0
  0
LINE
  5
2DA9
330
3075
100
AcDbEntity
  8
0
 62
     0
100
AcDbLine
 10
243.0895516362907
 20
-346.7933701764223
 30
0.0
 11
298.7999999999975
 21
-383.9335742468983
 31
0.0
  0
LINE
  5
2DAA
330
3075
100
AcDbEntity
  8
0
 62
     0
100
AcDbLine
 10
-47.61119067516847
 20
-152.9933701764212
 30
0.0
 11
82.99999999999634
 21
-240.0672749472842
 31
0.0
  0
LINE
  5
2DAB
330
3075
100
AcDbEntity
  8
0
 62
     0
100
AcDbLine
 10
83.0000000000018
 20
-237.0673084118697
 30
0.0
 11
247.5895129301753
 21
-346.7933701764214
 31
0.0
  0
LINE
  5
2DAC
330
3075
100
AcDbEntity
  8
0
 62
     0
100
AcDbLine
 10
247.5895129301753
 20
-346.7933701764214
 30
0.0
 11
298.7999999999992
 21
-380.9336077114831
 31
0.0
  0
LINE
  5
2DAD
330
3075
100
AcDbEntity
  8
0
 62
     0
100
AcDbLine
 10
-43.11122938128391
 20
-152.9933701764194
 30
0.0
 11
82.99999999999634
 21
-237.0673084118671
 31
0.0
  0
LINE
  5
2DAE
330
3075
100
AcDbEntity
  8
0
 62
     0
100
AcDbLine
 10
83.0000000000018
 20
-234.0673418764545
 30
0.0
 11
252.0894742240616
 21
-346.7933701764214
 31
0.0
  0
LINE
  5
2DAF
330
3075
100
AcDbEntity
  8
0
 62
     0
100
AcDbLine
 10
252.0894742240616
 20
-346.7933701764214
 30
0.0
 11
298.7999999999992
 21
-377.9336411760669
 31
0.0
  0
LINE
  5
2DB0
330
3075
100
AcDbEntity
  8
0
 62
     0
100
AcDbLine
 10
-38.61126808739573
 20
-152.9933701764212
 30
0.0
 11
82.99999999999814
 21
-234.0673418764517
 31
0.0
  0
LINE
  5
2DB1
330
3075
100
AcDbEntity
  8
0
 62
     0
100
AcDbLine
 10
83.0
 20
-231.0673753410374
 30
0.0
 11
256.5894355179462
 21
-346.7933701764205
 31
0.0
  0
LINE
  5
2DB2
330
3075
100
AcDbEntity
  8
0
 62
     0
100
AcDbLine
 10
256.589435517948
 20
-346.7933701764223
 30
0.0
 11
298.7999999999975
 21
-374.9336746406497
 31
0.0
  0
LINE
  5
2DB3
330
3075
100
AcDbEntity
  8
0
 62
     0
100
AcDbLine
 10
-34.11130679351118
 20
-152.9933701764203
 30
0.0
 11
82.99999999999634
 21
-231.0673753410347
 31
0.0
  0
LINE
  5
2DB4
330
3075
100
AcDbEntity
  8
0
 62
     0
100
AcDbLine
 10
83.0000000000018
 20
-228.0674088056221
 30
0.0
 11
261.0893968118344
 21
-346.7933701764232
 31
0.0
  0
LINE
  5
2DB5
330
3075
100
AcDbEntity
  8
0
 62
     0
100
AcDbLine
 10
261.0893968118344
 20
-346.7933701764232
 30
0.0
 11
298.7999999999992
 21
-371.9337081052345
 31
0.0
  0
LINE
  5
2DB6
330
3075
100
AcDbEntity
  8
0
 62
     0
100
AcDbLine
 10
-29.6113454996248
 20
-152.9933701764221
 30
0.0
 11
82.99999999999634
 21
-228.0674088056185
 31
0.0
  0
LINE
  5
2DB7
330
3075
100
AcDbEntity
  8
0
 62
     0
100
AcDbLine
 10
83.0
 20
-225.067442270205
 30
0.0
 11
265.5893581057171
 21
-346.7933701764214
 31
0.0
  0
LINE
  5
2DB8
330
3075
100
AcDbEntity
  8
0
 62
     0
100
AcDbLine
 10
265.5893581057171
 20
-346.7933701764214
 30
0.0
 11
298.7999999999975
 21
-368.9337415698174
 31
0.0
  0
LINE
  5
2DB9
330
3075
100
AcDbEntity
  8
0
 62
     0
100
AcDbLine
 10
-25.11138420574207
 20
-152.9933701764194
 30
0.0
 11
82.99999999999634
 21
-225.0674422702032
 31
0.0
  0
LINE
  5
2DBA
330
3075
100
AcDbEntity
  8
0
 62
     0
100
AcDbLine
 10
83.0000000000018
 20
-222.0674757347897
 30
0.0
 11
270.0893193996035
 21
-346.7933701764223
 31
0.0
  0
LINE
  5
2DBB
330
3075
100
AcDbEntity
  8
0
 62
     0
100
AcDbLine
 10
270.0893193996035
 20
-346.7933701764223
 30
0.0
 11
298.7999999999992
 21
-365.9337750344032
 31
0.0
  0
LINE
  5
2DBC
330
3075
100
AcDbEntity
  8
0
 62
     0
100
AcDbLine
 10
-20.61142291185206
 20
-152.993370176423
 30
0.0
 11
82.99999999999634
 21
-222.067475734787
 31
0.0
  0
LINE
  5
2DBD
330
3075
100
AcDbEntity
  8
0
 62
     0
100
AcDbLine
 10
83.0000000000018
 20
-219.0675091993726
 30
0.0
 11
274.589280693488
 21
-346.7933701764205
 31
0.0
  0
LINE
  5
2DBE
330
3075
100
AcDbEntity
  8
0
 62
     0
100
AcDbLine
 10
274.5892806934898
 20
-346.7933701764223
 30
0.0
 11
298.7999999999992
 21
-362.9338084989858
 31
0.0
  0
LINE
  5
2DBF
330
3075
100
AcDbEntity
  8
0
 62
     0
100
AcDbLine
 10
-16.11146161796751
 20
-152.9933701764212
 30
0.0
 11
82.99999999999814
 21
-219.0675091993699
 31
0.0
  0
LINE
  5
2DC0
330
3075
100
AcDbEntity
  8
0
 62
     0
100
AcDbLine
 10
83.0000000000018
 20
-216.0675426639582
 30
0.0
 11
279.0892419873744
 21
-346.7933701764223
 31
0.0
  0
LINE
  5
2DC1
330
3075
100
AcDbEntity
  8
0
 62
     0
100
AcDbLine
 10
279.0892419873744
 20
-346.7933701764223
 30
0.0
 11
298.7999999999992
 21
-359.9338419635706
 31
0.0
  0
LINE
  5
2DC2
330
3075
100
AcDbEntity
  8
0
 62
     0
100
AcDbLine
 10
-11.61150032408295
 20
-152.9933701764221
 30
0.0
 11
82.99999999999634
 21
-216.0675426639546
 31
0.0
  0
LINE
  5
2DC3
330
3075
100
AcDbEntity
  8
0
 62
     0
100
AcDbLine
 10
83.0000000000018
 20
-213.0675761285411
 30
0.0
 11
283.5892032812591
 21
-346.7933701764214
 31
0.0
  0
LINE
  5
2DC4
330
3075
100
AcDbEntity
  8
0
 62
     0
100
AcDbLine
 10
283.5892032812591
 20
-346.7933701764214
 30
0.0
 11
298.7999999999992
 21
-356.9338754281525
 31
0.0
  0
LINE
  5
2DC5
330
3075
100
AcDbEntity
  8
0
 62
     0
100
AcDbLine
 10
-7.111539030198398
 20
-152.9933701764203
 30
0.0
 11
82.99999999999814
 21
-213.0675761285374
 31
0.0
  0
LINE
  5
2DC6
330
3075
100
AcDbEntity
  8
0
 62
     0
100
AcDbLine
 10
83.0000000000018
 20
-210.0676095931258
 30
0.0
 11
288.0891645751435
 21
-346.7933701764214
 31
0.0
  0
LINE
  5
2DC7
330
3075
100
AcDbEntity
  8
0
 62
     0
100
AcDbLine
 10
288.0891645751435
 20
-346.7933701764214
 30
0.0
 11
298.7999999999992
 21
-353.9339088927381
 31
0.0
  0
LINE
  5
2DC8
330
3075
100
AcDbEntity
  8
0
 62
     0
100
AcDbLine
 10
-2.611577736313845
 20
-152.9933701764212
 30
0.0
 11
82.99999999999634
 21
-210.067609593123
 31
0.0
  0
LINE
  5
2DC9
330
3075
100
AcDbEntity
  8
0
 62
     0
100
AcDbLine
 10
83.0000000000018
 20
-207.0676430577087
 30
0.0
 11
292.5891258690317
 21
-346.7933701764223
 31
0.0
  0
LINE
  5
2DCA
330
3075
100
AcDbEntity
  8
0
 62
     0
100
AcDbLine
 10
292.5891258690317
 20
-346.7933701764223
 30
0.0
 11
298.7999999999992
 21
-350.9339423573201
 31
0.0
  0
LINE
  5
2DCB
330
3075
100
AcDbEntity
  8
0
 62
     0
100
AcDbLine
 10
1.888383557574343
 20
-152.9933701764212
 30
0.0
 11
82.99999999999814
 21
-207.0676430577059
 31
0.0
  0
LINE
  5
2DCC
330
3075
100
AcDbEntity
  8
0
 62
     0
100
AcDbLine
 10
83.0
 20
-204.0676765222906
 30
0.0
 11
297.0890871629162
 21
-346.7933701764205
 31
0.0
  0
LINE
  5
2DCD
330
3075
100
AcDbEntity
  8
0
 62
     0
100
AcDbLine
 10
297.0890871629162
 20
-346.7933701764205
 30
0.0
 11
298.7999999999975
 21
-347.9339758219039
 31
0.0
  0
LINE
  5
2DCE
330
3075
100
AcDbEntity
  8
0
 62
     0
100
AcDbLine
 10
6.388344851457076
 20
-152.9933701764194
 30
0.0
 11
82.99999999999634
 21
-204.0676765222888
 31
0.0
  0
LINE
  5
2DCF
330
3075
100
AcDbEntity
  8
0
 62
     0
100
AcDbLine
 10
83.0
 20
-201.0677099868753
 30
0.0
 11
298.7999999999992
 21
-344.9340092864887
 31
0.0
  0
LINE
  5
2DD0
330
3075
100
AcDbEntity
  8
0
 62
     0
100
AcDbLine
 10
10.88830614534344
 20
-152.9933701764203
 30
0.0
 11
82.99999999999634
 21
-201.0677099868726
 31
0.0
  0
LINE
  5
2DD1
330
3075
100
AcDbEntity
  8
0
 62
     0
100
AcDbLine
 10
83.0000000000018
 20
-198.0677434514591
 30
0.0
 11
298.7999999999992
 21
-341.9340427510715
 31
0.0
  0
LINE
  5
2DD2
330
3075
100
AcDbEntity
  8
0
 62
     0
100
AcDbLine
 10
15.38826743922982
 20
-152.9933701764203
 30
0.0
 11
82.99999999999814
 21
-198.0677434514564
 31
0.0
  0
LINE
  5
2DD3
330
3075
100
AcDbEntity
  8
0
 62
     0
100
AcDbLine
 10
83.0
 20
-195.0677769160438
 30
0.0
 11
298.7999999999992
 21
-338.9340762156562
 31
0.0
  0
LINE
  5
2DD4
330
3075
100
AcDbEntity
  8
0
 62
     0
100
AcDbLine
 10
19.88822873311619
 20
-152.9933701764221
 30
0.0
 11
82.99999999999634
 21
-195.0677769160411
 31
0.0
  0
LINE
  5
2DD5
330
3075
100
AcDbEntity
  8
0
 62
     0
100
AcDbLine
 10
83.0000000000018
 20
-192.0678103806267
 30
0.0
 11
298.7999999999992
 21
-335.9341096802391
 31
0.0
  0
LINE
  5
2DD6
330
3075
100
AcDbEntity
  8
0
 62
     0
100
AcDbLine
 10
24.38819002700075
 20
-152.9933701764194
 30
0.0
 11
82.99999999999634
 21
-192.067810380624
 31
0.0
  0
LINE
  5
2DD7
330
3075
100
AcDbEntity
  8
0
 62
     0
100
AcDbLine
 10
83.0
 20
-189.0678438452114
 30
0.0
 11
298.7999999999992
 21
-332.9341431448247
 31
0.0
  0
LINE
  5
2DD8
330
3075
100
AcDbEntity
  8
0
 62
     0
100
AcDbLine
 10
28.88815132088895
 20
-152.993370176423
 30
0.0
 11
82.99999999999634
 21
-189.0678438452087
 31
0.0
  0
LINE
  5
2DD9
330
3075
100
AcDbEntity
  8
0
 62
     0
100
AcDbLine
 10
83.0000000000018
 20
-186.0678773097943
 30
0.0
 11
298.7999999999992
 21
-329.9341766094077
 31
0.0
  0
LINE
  5
2DDA
330
3075
100
AcDbEntity
  8
0
 62
     0
100
AcDbLine
 10
33.38811261477167
 20
-152.9933701764203
 30
0.0
 11
82.99999999999634
 21
-186.0678773097916
 31
0.0
  0
LINE
  5
2DDB
330
3075
100
AcDbEntity
  8
0
 62
     0
100
AcDbLine
 10
83.0000000000018
 20
-183.0679107743799
 30
0.0
 11
298.8000000000011
 21
-326.9342100739923
 31
0.0
  0
LINE
  5
2DDC
330
3075
100
AcDbEntity
  8
0
 62
     0
100
AcDbLine
 10
37.88807390865986
 20
-152.9933701764221
 30
0.0
 11
82.99999999999814
 21
-183.0679107743763
 31
0.0
  0
LINE
  5
2DDD
330
3075
100
AcDbEntity
  8
0
 62
     0
100
AcDbLine
 10
83.0000000000018
 20
-180.0679442389628
 30
0.0
 11
298.7999999999975
 21
-323.9342435385743
 31
0.0
  0
LINE
  5
2DDE
330
3075
100
AcDbEntity
  8
0
 62
     0
100
AcDbLine
 10
42.38803520254077
 20
-152.9933701764194
 30
0.0
 11
82.99999999999634
 21
-180.0679442389601
 31
0.0
  0
LINE
  5
2DDF
330
3075
100
AcDbEntity
  8
0
 62
     0
100
AcDbLine
 10
83.0000000000018
 20
-177.0679777035466
 30
0.0
 11
298.8000000000011
 21
-320.9342770031599
 31
0.0
  0
LINE
  5
2DE0
330
3075
100
AcDbEntity
  8
0
 62
     0
100
AcDbLine
 10
46.88799649642897
 20
-152.9933701764212
 30
0.0
 11
82.99999999999814
 21
-177.0679777035448
 31
0.0
  0
LINE
  5
2DE1
330
3075
100
AcDbEntity
  8
0
 62
     0
100
AcDbLine
 10
83.0
 20
-174.0680111681294
 30
0.0
 11
298.7999999999975
 21
-317.9343104677428
 31
0.0
  0
LINE
  5
2DE2
330
3075
100
AcDbEntity
  8
0
 62
     0
100
AcDbLine
 10
51.38795779031352
 20
-152.9933701764212
 30
0.0
 11
82.99999999999634
 21
-174.0680111681266
 31
0.0
  0
LINE
  5
2DE3
330
3075
100
AcDbEntity
  8
0
 62
     0
100
AcDbLine
 10
83.0000000000018
 20
-171.0680446327142
 30
0.0
 11
298.7999999999992
 21
-314.9343439323275
 31
0.0
  0
LINE
  5
2DE4
330
3075
100
AcDbEntity
  8
0
 62
     0
100
AcDbLine
 10
55.88791908419807
 20
-152.9933701764203
 30
0.0
 11
82.99999999999634
 21
-171.0680446327114
 31
0.0
  0
LINE
  5
2DE5
330
3075
100
AcDbEntity
  8
0
 62
     0
100
AcDbLine
 10
83.0
 20
-168.068078097298
 30
0.0
 11
298.7999999999975
 21
-311.9343773969104
 31
0.0
  0
LINE
  5
2DE6
330
3075
100
AcDbEntity
  8
0
 62
     0
100
AcDbLine
 10
60.38788037808263
 20
-152.9933701764203
 30
0.0
 11
82.99999999999634
 21
-168.0680780972942
 31
0.0
  0
LINE
  5
2DE7
330
3075
100
AcDbEntity
  8
0
 62
     0
100
AcDbLine
 10
83.0000000000018
 20
-165.0681115618809
 30
0.0
 11
298.7999999999992
 21
-308.9344108614932
 31
0.0
  0
LINE
  5
2DE8
330
3075
100
AcDbEntity
  8
0
 62
     0
100
AcDbLine
 10
64.88784167197079
 20
-152.9933701764203
 30
0.0
 11
82.99999999999634
 21
-165.0681115618772
 31
0.0
  0
LINE
  5
2DE9
330
3075
100
AcDbEntity
  8
0
 62
     0
100
AcDbLine
 10
83.0000000000018
 20
-162.0681450264656
 30
0.0
 11
298.7999999999992
 21
-305.9344443260779
 31
0.0
  0
LINE
  5
2DEA
330
3075
100
AcDbEntity
  8
0
 62
     0
100
AcDbLine
 10
69.38780296585719
 20
-152.9933701764212
 30
0.0
 11
82.99999999999814
 21
-162.0681450264628
 31
0.0
  0
LINE
  5
2DEB
330
3075
100
AcDbEntity
  8
0
 62
     0
100
AcDbLine
 10
83.0000000000018
 20
-159.0681784910484
 30
0.0
 11
298.7999999999992
 21
-302.9344777906617
 31
0.0
  0
LINE
  5
2DEC
330
3075
100
AcDbEntity
  8
0
 62
     0
100
AcDbLine
 10
73.88776425973992
 20
-152.9933701764194
 30
0.0
 11
82.99999999999634
 21
-159.0681784910456
 31
0.0
  0
LINE
  5
2DED
330
3075
100
AcDbEntity
  8
0
 62
     0
100
AcDbLine
 10
83.0000000000018
 20
-156.068211955633
 30
0.0
 11
298.7999999999992
 21
-299.9345112552465
 31
0.0
  0
LINE
  5
2DEE
330
3075
100
AcDbEntity
  8
0
 62
     0
100
AcDbLine
 10
78.38772555362995
 20
-152.9933701764221
 30
0.0
 11
82.99999999999814
 21
-156.0682119556304
 31
0.0
  0
LINE
  5
2DEF
330
3075
100
AcDbEntity
  8
0
 62
     0
100
AcDbLine
 10
83.0000000000018
 20
-153.0682454202169
 30
0.0
 11
298.7999999999992
 21
-296.9345447198293
 31
0.0
  0
LINE
  5
2DF0
330
3075
100
AcDbEntity
  8
0
 62
     0
100
AcDbLine
 10
82.88768684751266
 20
-152.9933701764203
 30
0.0
 11
82.99999999999634
 21
-153.0682454202133
 31
0.0
  0
LINE
  5
2DF1
330
3075
100
AcDbEntity
  8
0
 62
     0
100
AcDbLine
 10
87.38764814139903
 20
-152.9933701764221
 30
0.0
 11
298.7999999999992
 21
-293.9345781844139
 31
0.0
  0
LINE
  5
2DF2
330
3075
100
AcDbEntity
  8
0
 62
     0
100
AcDbLine
 10
91.88760943528356
 20
-152.9933701764194
 30
0.0
 11
298.7999999999992
 21
-290.934611648996
 31
0.0
  0
LINE
  5
2DF3
330
3075
100
AcDbEntity
  8
0
 62
     0
100
AcDbLine
 10
96.38757072916815
 20
-152.9933701764212
 30
0.0
 11
298.8000000000011
 21
-287.9346451135825
 31
0.0
  0
LINE
  5
2DF4
330
3075
100
AcDbEntity
  8
0
 62
     0
100
AcDbLine
 10
100.8875320230563
 20
-152.9933701764203
 30
0.0
 11
298.7999999999992
 21
-284.9346785781645
 31
0.0
  0
LINE
  5
2DF5
330
3075
100
AcDbEntity
  8
0
 62
     0
100
AcDbLine
 10
105.3874933169409
 20
-152.9933701764221
 30
0.0
 11
298.7999999999992
 21
-281.9347120427492
 31
0.0
  0
LINE
  5
2DF6
330
3075
100
AcDbEntity
  8
0
 62
     0
100
AcDbLine
 10
109.8874546108254
 20
-152.9933701764194
 30
0.0
 11
298.7999999999992
 21
-278.9347455073321
 31
0.0
  0
LINE
  5
2DF7
330
3075
100
AcDbEntity
  8
0
 62
     0
100
AcDbLine
 10
114.38741590471
 20
-152.9933701764212
 30
0.0
 11
298.7999999999992
 21
-275.9347789719168
 31
0.0
  0
LINE
  5
2DF8
330
3075
100
AcDbEntity
  8
0
 62
     0
100
AcDbLine
 10
118.8873771985982
 20
-152.9933701764212
 30
0.0
 11
298.7999999999992
 21
-272.9348124364997
 31
0.0
  0
LINE
  5
2DF9
330
3075
100
AcDbEntity
  8
0
 62
     0
100
AcDbLine
 10
123.3873384924808
 20
-152.9933701764185
 30
0.0
 11
298.8000000000011
 21
-269.9348459010835
 31
0.0
  0
LINE
  5
2DFA
330
3075
100
AcDbEntity
  8
0
 62
     0
100
AcDbLine
 10
127.8872997863673
 20
-152.9933701764203
 30
0.0
 11
298.7999999999992
 21
-266.9348793656681
 31
0.0
  0
LINE
  5
2DFB
330
3075
100
AcDbEntity
  8
0
 62
     0
100
AcDbLine
 10
132.3872610802536
 20
-152.9933701764203
 30
0.0
 11
298.7999999999992
 21
-263.9349128302502
 31
0.0
  0
LINE
  5
2DFC
330
3075
100
AcDbEntity
  8
0
 62
     0
100
AcDbLine
 10
136.88722237414
 20
-152.9933701764212
 30
0.0
 11
298.7999999999992
 21
-260.9349462948358
 31
0.0
  0
LINE
  5
2DFD
330
3075
100
AcDbEntity
  8
0
 62
     0
100
AcDbLine
 10
141.3871836680227
 20
-152.9933701764194
 30
0.0
 11
298.7999999999992
 21
-257.9349797594177
 31
0.0
  0
LINE
  5
2DFE
330
3075
100
AcDbEntity
  8
0
 62
     0
100
AcDbLine
 10
145.887144961911
 20
-152.9933701764203
 30
0.0
 11
298.7999999999992
 21
-254.9350132240034
 31
0.0
  0
LINE
  5
2DFF
330
3075
100
AcDbEntity
  8
0
 62
     0
100
AcDbLine
 10
150.3871062557954
 20
-152.9933701764203
 30
0.0
 11
298.7999999999992
 21
-251.9350466885862
 31
0.0
  0
LINE
  5
2E00
330
3075
100
AcDbEntity
  8
0
 62
     0
100
AcDbLine
 10
154.8870675496837
 20
-152.9933701764221
 30
0.0
 11
298.7999999999992
 21
-248.9350801531709
 31
0.0
  0
LINE
  5
2E01
330
3075
100
AcDbEntity
  8
0
 62
     0
100
AcDbLine
 10
159.3870288435646
 20
-152.9933701764194
 30
0.0
 11
298.7999999999992
 21
-245.9351136177538
 31
0.0
  0
LINE
  5
2E02
330
3075
100
AcDbEntity
  8
0
 62
     0
100
AcDbLine
 10
163.8869901374528
 20
-152.9933701764212
 30
0.0
 11
298.7999999999992
 21
-242.9351470823385
 31
0.0
  0
LINE
  5
2E03
330
3075
100
AcDbEntity
  8
0
 62
     0
100
AcDbLine
 10
168.3869514313392
 20
-152.9933701764203
 30
0.0
 11
298.8000000000011
 21
-239.9351805469223
 31
0.0
  0
LINE
  5
2E04
330
3075
100
AcDbEntity
  8
0
 62
     0
100
AcDbLine
 10
172.8869127252218
 20
-152.9933701764203
 30
0.0
 11
298.7999999999992
 21
-236.9352140115061
 31
0.0
  0
LINE
  5
2E05
330
3075
100
AcDbEntity
  8
0
 62
     0
100
AcDbLine
 10
177.3868740191082
 20
-152.9933701764203
 30
0.0
 11
298.8000000000011
 21
-233.9352474760899
 31
0.0
  0
LINE
  5
2E06
330
3075
100
AcDbEntity
  8
0
 62
     0
100
AcDbLine
 10
181.8868353129946
 20
-152.9933701764194
 30
0.0
 11
298.7999999999992
 21
-230.9352809406719
 31
0.0
  0
LINE
  5
2E07
330
3075
100
AcDbEntity
  8
0
 62
     0
100
AcDbLine
 10
186.3867966068808
 20
-152.9933701764212
 30
0.0
 11
298.7999999999992
 21
-227.9353144052566
 31
0.0
  0
LINE
  5
2E08
330
3075
100
AcDbEntity
  8
0
 62
     0
100
AcDbLine
 10
190.8867579007637
 20
-152.9933701764185
 30
0.0
 11
298.7999999999992
 21
-224.9353478698404
 31
0.0
  0
LINE
  5
2E09
330
3075
100
AcDbEntity
  8
0
 62
     0
100
AcDbLine
 10
195.3867191946483
 20
-152.9933701764194
 30
0.0
 11
298.7999999999992
 21
-221.9353813344251
 31
0.0
  0
LINE
  5
2E0A
330
3075
100
AcDbEntity
  8
0
 62
     0
100
AcDbLine
 10
199.8866804885383
 20
-152.9933701764203
 30
0.0
 11
298.8000000000011
 21
-218.9354147990079
 31
0.0
  0
LINE
  5
2E0B
330
3075
100
AcDbEntity
  8
0
 62
     0
100
AcDbLine
 10
204.3866417824211
 20
-152.9933701764203
 30
0.0
 11
298.7999999999992
 21
-215.9354482635927
 31
0.0
  0
LINE
  5
2E0C
330
3075
100
AcDbEntity
  8
0
 62
     0
100
AcDbLine
 10
208.8866030763074
 20
-152.9933701764194
 30
0.0
 11
298.8000000000011
 21
-212.9354817281754
 31
0.0
  0
LINE
  5
2E0D
330
3075
100
AcDbEntity
  8
0
 62
     0
100
AcDbLine
 10
213.3865643701938
 20
-152.9933701764221
 30
0.0
 11
298.7999999999975
 21
-209.9355151927593
 31
0.0
  0
LINE
  5
2E0E
330
3075
100
AcDbEntity
  8
0
 62
     0
100
AcDbLine
 10
217.8865256640802
 20
-152.9933701764203
 30
0.0
 11
298.8000000000011
 21
-206.935548657344
 31
0.0
  0
LINE
  5
2E0F
330
3075
100
AcDbEntity
  8
0
 62
     0
100
AcDbLine
 10
222.3864869579647
 20
-152.9933701764212
 30
0.0
 11
298.7999999999992
 21
-203.9355821219278
 31
0.0
  0
LINE
  5
2E10
330
3075
100
AcDbEntity
  8
0
 62
     0
100
AcDbLine
 10
226.8864482518493
 20
-152.9933701764194
 30
0.0
 11
298.7999999999992
 21
-200.9356155865107
 31
0.0
  0
LINE
  5
2E11
330
3075
100
AcDbEntity
  8
0
 62
     0
100
AcDbLine
 10
231.3864095457357
 20
-152.9933701764212
 30
0.0
 11
298.7999999999992
 21
-197.9356490510954
 31
0.0
  0
LINE
  5
2E12
330
3075
100
AcDbEntity
  8
0
 62
     0
100
AcDbLine
 10
235.8863708396202
 20
-152.9933701764194
 30
0.0
 11
298.7999999999992
 21
-194.9356825156783
 31
0.0
  0
LINE
  5
2E13
330
3075
100
AcDbEntity
  8
0
 62
     0
100
AcDbLine
 10
240.3863321335048
 20
-152.9933701764203
 30
0.0
 11
298.7999999999992
 21
-191.9357159802638
 31
0.0
  0
LINE
  5
2E14
330
3075
100
AcDbEntity
  8
0
 62
     0
100
AcDbLine
 10
244.8862934273893
 20
-152.9933701764185
 30
0.0
 11
298.7999999999992
 21
-188.9357494448468
 31
0.0
  0
LINE
  5
2E15
330
3075
100
AcDbEntity
  8
0
 62
     0
100
AcDbLine
 10
249.3862547212776
 20
-152.9933701764194
 30
0.0
 11
298.7999999999992
 21
-185.9357829094297
 31
0.0
  0
LINE
  5
2E16
330
3075
100
AcDbEntity
  8
0
 62
     0
100
AcDbLine
 10
253.8862160151639
 20
-152.9933701764203
 30
0.0
 11
298.8000000000011
 21
-182.9358163740144
 31
0.0
  0
LINE
  5
2E17
330
3075
100
AcDbEntity
  8
0
 62
     0
100
AcDbLine
 10
258.3861773090466
 20
-152.9933701764185
 30
0.0
 11
298.7999999999992
 21
-179.9358498385972
 31
0.0
  0
LINE
  5
2E18
330
3075
100
AcDbEntity
  8
0
 62
     0
100
AcDbLine
 10
262.8861386029348
 20
-152.9933701764212
 30
0.0
 11
298.7999999999992
 21
-176.935883303182
 31
0.0
  0
LINE
  5
2E19
330
3075
100
AcDbEntity
  8
0
 62
     0
100
AcDbLine
 10
267.3860998968194
 20
-152.9933701764203
 30
0.0
 11
298.8000000000011
 21
-173.9359167677658
 31
0.0
  0
LINE
  5
2E1A
330
3075
100
AcDbEntity
  8
0
 62
     0
100
AcDbLine
 10
271.8860611907057
 20
-152.9933701764203
 30
0.0
 11
298.7999999999992
 21
-170.9359502323495
 31
0.0
  0
LINE
  5
2E1B
330
3075
100
AcDbEntity
  8
0
 62
     0
100
AcDbLine
 10
276.3860224845903
 20
-152.9933701764194
 30
0.0
 11
298.8000000000011
 21
-167.9359836969324
 31
0.0
  0
LINE
  5
2E1C
330
3075
100
AcDbEntity
  8
0
 62
     0
100
AcDbLine
 10
280.8859837784766
 20
-152.9933701764203
 30
0.0
 11
298.7999999999992
 21
-164.9360171615171
 31
0.0
  0
LINE
  5
2E1D
330
3075
100
AcDbEntity
  8
0
 62
     0
100
AcDbLine
 10
285.3859450723612
 20
-152.9933701764194
 30
0.0
 11
298.8000000000011
 21
-161.9360506261009
 31
0.0
  0
LINE
  5
2E1E
330
3075
100
AcDbEntity
  8
0
 62
     0
100
AcDbLine
 10
289.8859063662458
 20
-152.9933701764203
 30
0.0
 11
298.7999999999992
 21
-158.9360840906856
 31
0.0
  0
LINE
  5
2E1F
330
3075
100
AcDbEntity
  8
0
 62
     0
100
AcDbLine
 10
294.3858676601303
 20
-152.9933701764185
 30
0.0
 11
298.8000000000011
 21
-155.9361175552685
 31
0.0
  0
ENDBLK
  5
2E20
330
3075
100
AcDbEntity
  8
0
100
AcDbBlockEnd
  0
ENDSEC
  0
SECTION
  2
ENTITIES
  0
TEXT
  5
953
330
2FFB
100
AcDbEntity
  8
OUTLINE
  6
Continuous
 62
     3
100
AcDbText
 10
-418.231467
 20
13.715189
 30
0.0
 40
64.0
  1
 
 41
0.9
100
AcDbText
  0
TEXT
  5
954
330
2FFB
100
AcDbEntity
  8
OUTLINE
  6
Continuous
 62
     3
100
AcDbText
 10
-418.231467
 20
13.715189
 30
0.0
 40
64.0
  1
 
 41
0.9
100
AcDbText
  0
TEXT
  5
955
330
2FFB
100
AcDbEntity
  8
OUTLINE
  6
Continuous
 62
     3
100
AcDbText
 10
1341.41903
 20
-706.0588199999997
 30
0.0
 40
64.0
  1
 
 41
0.9
100
AcDbText
  0
TEXT
  5
956
330
2FFB
100
AcDbEntity
  8
OUTLINE
  6
Continuous
 62
     3
100
AcDbText
 10
1341.41903
 20
-706.0588199999997
 30
0.0
 40
64.0
  1
 
 41
0.9
100
AcDbText
  0
TEXT
  5
957
330
2FFB
100
AcDbEntity
  8
OUTLINE
  6
Continuous
 62
     3
100
AcDbText
 10
1341.41903
 20
-706.0588199999997
 30
0.0
 40
64.0
  1
 
 41
0.9
100
AcDbText
  0
TEXT
  5
958
330
2FFB
100
AcDbEntity
  8
OUTLINE
  6
Continuous
 62
     3
100
AcDbText
 10
1341.41903
 20
-706.0588199999997
 30
0.0
 40
64.0
  1
 
 41
0.9
100
AcDbText
  0
INSERT
  5
2EBC
330
2FFB
100
AcDbEntity
  8
DETAIL___1
  6
Continuous
100
AcDbBlockReference
  2
*X22
 10
0.0
 20
0.0
 30
0.0
1001
ACADANNOTATIVE
1000
AnnotativeData
1002
{
1070
     1
1070
     0
1002
}
1001
ACAD
1000
HATCH
1002
{
1070
    19
1000
LINE
1040
19.969
1040
0.5880014249968896
1000
R14_HATCH_DATA
1000
3F83
1011
1.0
1021
0.0
1031
0.0
1011
0.0
1021
1.0
1031
0.0
1011
0.0
1021
0.0
1031
1.0
1040
0.0
1010
0.0
1020
0.0
1030
1.0
1000
LINE
1070
     0
1070
     0
1071
        2
1071
        7
1070
     0
1070
     1
1071
        6
1040
298.8000000000068
1040
-346.7933701764177
1040
83.00000000000364
1040
-346.7933701764177
1040
83.0
1040
-152.9933701764185
1040
-298.7999999999992
1040
-152.9933701764175
1040
-298.8000000000028
1040
-854.8080808012025
1040
298.7999999999992
1040
-854.8080808012016
1071
        0
1071
       23
1070
     0
1070
     1
1071
        4
1040
298.7999999999992
1040
-152.9933701764175
1040
83.00000000000364
1040
-152.9933701764175
1040
83.00000000000364
1040
-346.7933701764177
1040
298.8000000000028
1040
-346.7933701764177
1071
        0
1070
     0
1070
     1
1040
0.5880014249968896
1040
19.969
1070
     0
1070
     1
1040
0.5880014249968896
1040
19642.49072564245
1040
5947.091063865559
1040
-1.384598579568018
1040
2.076903172775084
1070
     0
1040
2.413997628470494
1071
        2
1040
-49.2592457867031
1040
-450.5949238940001
1040
0.0
1040
229.3833088850515
1040
-271.7147916606409
1040
0.0
1002
}
  0
INSERT
  5
2EBD
330
2FFB
100
AcDbEntity
  8
DETAIL___1
  6
Continuous
100
AcDbBlockReference
  2
*X23
 10
0.0
 20
0.0
 30
0.0
1001
ACADANNOTATIVE
1000
AnnotativeData
1002
{
1070
     1
1070
     0
1002
}
1001
ACAD
1000
HATCH
1002
{
1070
    19
1000
LINE
1040
19.969
1040
5.695183882182695
1000
R14_HATCH_DATA
1000
3F89
1011
1.0
1021
0.0
1031
0.0
1011
0.0
1021
1.0
1031
0.0
1011
0.0
1021
0.0
1031
1.0
1040
0.0
1010
0.0
1020
0.0
1030
1.0
1000
LINE
1070
     0
1070
     0
1071
        2
1071
        7
1070
     0
1070
     1
1071
        6
1040
298.8000000000028
1040
-346.7933701764177
1040
83.00000000000364
1040
-346.7933701764177
1040
83.0
1040
-152.9933701764185
1040
-298.7999999999992
1040
-152.9933701764175
1040
-298.8000000000028
1040
-854.8080808012025
1040
298.7999999999992
1040
-854.8080808012016
1071
        0
1071
       23
1070
     0
1070
     1
1071
        4
1040
83.00000000000364
1040
-152.9933701764185
1040
83.00000000000364
1040
-346.7933701764168
1040
298.8000000000028
1040
-346.7933701764177
1040
298.8000000000028
1040
-152.9933701764175
1071
        0
1070
     0
1070
     1
1040
5.695183882182695
1040
19.969
1070
     0
1070
     1
1040
5.695183882182695
1040
19642.49072564245
1040
5947.091063865559
1040
1.384598579568018
1040
2.076903172775084
1070
     0
1040
1.770698374475679
1071
        2
1040
-42.14378451351873
1040
-421.207251082508
1040
0.0
1040
194.3780182326881
1040
-198.3626932046609
1040
0.0
1002
}
  0
LINE
  5
2EBE
330
2FFB
100
AcDbEntity
  8
DETAIL
100
AcDbLine
 10
298.8000000000024
 20
-152.9933701764175
 30
0.0
 11
298.8000000000024
 21
-346.7933701764177
 31
0.0
  0
LINE
  5
2EBF
330
2FFB
100
AcDbEntity
  8
DETAIL
100
AcDbLine
 10
298.8000000000024
 20
-152.9933701764175
 30
0.0
 11
83.00000000000364
 21
-152.9933701764175
 31
0.0
  0
TEXT
  5
2EC0
330
2FFB
100
AcDbEntity
  8
ETC
100
AcDbText
 10
559.298735984586
 20
352.0879826302135
 30
0.0
 40
64.0
  1
システム部材
 41
0.9
100
AcDbText
  0
TEXT
  5
2EC1
330
2FFB
100
AcDbEntity
  8
ETC
100
AcDbText
 10
565.5067339845841
 20
452.9713086302126
 30
0.0
 40
64.0
  1
QWH-60SAM_6
 41
0.9
100
AcDbText
  0
TEXT
  5
2EC2
330
2FFB
100
AcDbEntity
  8
ETC
100
AcDbText
 10
565.5067339845841
 20
252.9713086302127
 30
0.0
 40
64.0
  1
QWH-60SAM
 41
0.9
100
AcDbText
  0
POINT
  5
2EC3
330
2FFB
100
AcDbEntity
  8
ARRANGE
100
AcDbPoint
 10
0.0
 20
0.0000000986738087
 30
0.0
 39
50.0
  0
LINE
  5
2EC4
330
2FFB
100
AcDbEntity
  8
DETAIL
100
AcDbLine
 10
-298.7999999999992
 20
-152.9933701764175
 30
0.0
 11
298.8000000000024
 21
-152.9933701764175
 31
0.0
  0
LINE
  5
2EC5
330
2FFB
100
AcDbEntity
  8
DETAIL
100
AcDbLine
 10
298.8000000000024
 20
-854.8080808012016
 30
0.0
 11
-298.7999999999992
 21
-854.8080808012016
 31
0.0
  0
LINE
  5
2EC6
330
2FFB
100
AcDbEntity
  8
DETAIL
100
AcDbLine
 10
-298.7999999999992
 20
-854.8080808012016
 30
0.0
 11
-298.7999999999992
 21
-152.9933701764185
 31
0.0
  0
LINE
  5
2EC7
330
2FFB
100
AcDbEntity
  8
NOTE
100
AcDbLine
 10
-325.0
 20
12.5
 30
0.0
 11
-325.0
 21
-12.5
 31
0.0
  0
LINE
  5
2EC8
330
2FFB
100
AcDbEntity
  8
DETAIL
100
AcDbLine
 10
298.8000000000024
 20
-854.8080808012016
 30
0.0
 11
298.8000000000024
 21
-152.9933701764175
 31
0.0
  0
LINE
  5
2EC9
330
2FFB
100
AcDbEntity
  8
BASIS
100
AcDbLine
 10
0.0
 20
25.0
 30
0.0
 11
0.0
 21
-906.0000000000004
 31
0.0
  0
CIRCLE
  5
2ECA
330
2FFB
100
AcDbEntity
  8
ARRANGE
100
AcDbCircle
 10
0.0
 20
0.0
 30
0.0
 40
40.0
  0
LINE
  5
2ECB
330
2FFB
100
AcDbEntity
  8
NOTE
100
AcDbLine
 10
324.9999999999996
 20
-12.5
 30
0.0
 11
324.9999999999996
 21
12.5
 31
0.0
  0
LINE
  5
2ECC
330
2FFB
100
AcDbEntity
  8
DETAIL
100
AcDbLine
 10
-310.7999999999992
 20
-881.0000000000011
 30
0.0
 11
-310.7999999999992
 21
-870.0
 31
0.0
  0
LINE
  5
2ECD
330
2FFB
100
AcDbEntity
  8
DETAIL
100
AcDbLine
 10
310.8000000000024
 20
-881.0000000000011
 30
0.0
 11
-310.7999999999992
 21
-881.0000000000011
 31
0.0
  0
LINE
  5
2ECE
330
2FFB
100
AcDbEntity
  8
DETAIL
100
AcDbLine
 10
310.8000000000024
 20
-870.0
 30
0.0
 11
310.8000000000024
 21
-881.0000000000016
 31
0.0
  0
LINE
  5
2ECF
330
2FFB
100
AcDbEntity
  8
DETAIL
100
AcDbLine
 10
310.8000000000024
 20
-99.66862915010096
 30
0.0
 11
-310.7999999999961
 21
-99.66862915010096
 31
0.0
  0
LINE
  5
2ED0
330
2FFB
100
AcDbEntity
  8
DETAIL
100
AcDbLine
 10
311.6000000000017
 20
-99.66862915010096
 30
0.0
 11
311.6000000000017
 21
-126.9019089103367
 31
0.0
  0
LINE
  5
2ED1
330
2FFB
100
AcDbEntity
  8
DETAIL
100
AcDbLine
 10
-311.5999999999985
 20
-99.66862915010096
 30
0.0
 11
-311.5999999999985
 21
-7.999999999999089
 31
0.0
  0
LINE
  5
2ED2
330
2FFB
100
AcDbEntity
  8
DETAIL
100
AcDbLine
 10
-311.5999999999985
 20
-126.9019089103376
 30
0.0
 11
-311.5999999999985
 21
-99.66862915010096
 31
0.0
  0
LINE
  5
2ED3
330
2FFB
100
AcDbEntity
  8
DETAIL
100
AcDbLine
 10
-310.7999999999961
 20
-99.66862915010096
 30
0.0
 11
-311.5999999999985
 21
-99.66862915010096
 31
0.0
  0
LINE
  5
2ED4
330
2FFB
100
AcDbEntity
  8
DETAIL
100
AcDbLine
 10
311.6000000000017
 20
-8.0
 30
0.0
 11
311.6000000000017
 21
-99.66862915010187
 31
0.0
  0
LINE
  5
2ED5
330
2FFB
100
AcDbEntity
  8
DETAIL
100
AcDbLine
 10
310.8000000000024
 20
-99.66862915010096
 30
0.0
 11
311.6000000000017
 21
-99.66862915010096
 31
0.0
  0
LINE
  5
2ED6
330
2FFB
100
AcDbEntity
  8
DETAIL
100
AcDbLine
 10
349.9999999999996
 20
0.0
 30
0.0
 11
-350.0
 21
0.0
 31
0.0
  0
LINE
  5
2ED7
330
2FFB
100
AcDbEntity
  8
DETAIL
100
AcDbLine
 10
349.9999999999996
 20
-8.0
 30
0.0
 11
-350.0
 21
-8.0
 31
0.0
  0
LINE
  5
2ED8
330
2FFB
100
AcDbEntity
  8
DETAIL
100
AcDbLine
 10
-350.0
 20
0.0
 30
0.0
 11
-350.0
 21
-8.0
 31
0.0
  0
LINE
  5
2ED9
330
2FFB
100
AcDbEntity
  8
DETAIL
100
AcDbLine
 10
349.9999999999996
 20
0.0
 30
0.0
 11
349.9999999999996
 21
-8.0
 31
0.0
  0
LINE
  5
2EDA
330
2FFB
100
AcDbEntity
  8
DETAIL
100
AcDbLine
 10
299.6000000000017
 20
-126.9019089103376
 30
0.0
 11
322.9999999999995
 21
-126.9019089103376
 31
0.0
  0
LINE
  5
2EDB
330
2FFB
100
AcDbEntity
  8
DETAIL
100
AcDbLine
 10
-299.7999999999997
 20
-126.9019089103376
 30
0.0
 11
-323.0
 21
-126.9019089103376
 31
0.0
  0
LINE
  5
2EDC
330
2FFB
100
AcDbEntity
  8
DETAIL
100
AcDbLine
 10
313.6000000000017
 20
-126.9019089103376
 30
0.0
 11
313.6000000000017
 21
-152.8958358562695
 31
0.0
  0
LINE
  5
2EDD
330
2FFB
100
AcDbEntity
  8
DETAIL
100
AcDbLine
 10
-313.5999999999985
 20
-126.9019089103376
 30
0.0
 11
-313.5999999999985
 21
-152.8958358562695
 31
0.0
  0
LINE
  5
2EDE
330
2FFB
100
AcDbEntity
  8
DETAIL
100
AcDbLine
 10
-313.5999999999985
 20
-126.9019089103376
 30
0.0
 11
313.6000000000017
 21
-126.9019089103376
 31
0.0
  0
LINE
  5
2EDF
330
2FFB
100
AcDbEntity
  8
DETAIL
100
AcDbLine
 10
-313.5999999999985
 20
-152.8958358562704
 30
0.0
 11
-313.5999999999985
 21
-152.9933701764175
 31
0.0
  0
LINE
  5
2EE0
330
2FFB
100
AcDbEntity
  8
DETAIL
100
AcDbLine
 10
-313.5999999999985
 20
-152.9933701764175
 30
0.0
 11
313.6000000000017
 21
-152.9933701764175
 31
0.0
  0
LINE
  5
2EE1
330
2FFB
100
AcDbEntity
  8
OUTLINE
100
AcDbLine
 10
313.6000000000017
 20
-152.8958358562704
 30
0.0
 11
313.6000000000017
 21
-152.9933701764175
 31
0.0
  0
LINE
  5
2EE2
330
2FFB
100
AcDbEntity
  8
DETAIL
100
AcDbLine
 10
-323.0
 20
-870.0
 30
0.0
 11
-323.0
 21
-126.9019089103376
 31
0.0
  0
LINE
  5
2EE3
330
2FFB
100
AcDbEntity
  8
DETAIL
100
AcDbLine
 10
-298.7999999999992
 20
-868.5138723045742
 30
0.0
 11
-313.5999999999985
 21
-868.5138723045742
 31
0.0
  0
LINE
  5
2EE4
330
2FFB
100
AcDbEntity
  8
DETAIL
100
AcDbLine
 10
-298.7999999999992
 20
-868.4163379844267
 30
0.0
 11
-298.7999999999992
 21
-868.5138723045742
 31
0.0
  0
LINE
  5
2EE5
330
2FFB
100
AcDbEntity
  8
DETAIL
100
AcDbLine
 10
-313.5999999999985
 20
-868.5138723045742
 30
0.0
 11
-313.5999999999985
 21
-152.9933701764166
 31
0.0
  0
LINE
  5
2EE6
330
2FFB
100
AcDbEntity
  8
DETAIL
100
AcDbLine
 10
-313.5999999999985
 20
-868.4163379844267
 30
0.0
 11
-298.7999999999992
 21
-868.4163379844267
 31
0.0
  0
LINE
  5
2EE7
330
2FFB
100
AcDbEntity
  8
DETAIL
100
AcDbLine
 10
-298.7999999999992
 20
-868.4163379844267
 30
0.0
 11
-298.7999999999992
 21
-152.9933701764185
 31
0.0
  0
LINE
  5
2EE8
330
2FFB
100
AcDbEntity
  8
DETAIL
100
AcDbLine
 10
322.9999999999995
 20
-126.9019089103376
 30
0.0
 11
322.9999999999995
 21
-870.0
 31
0.0
  0
LINE
  5
2EE9
330
2FFB
100
AcDbEntity
  8
DETAIL
100
AcDbLine
 10
298.8000000000024
 20
-868.5138723045742
 30
0.0
 11
313.6000000000017
 21
-868.5138723045742
 31
0.0
  0
LINE
  5
2EEA
330
2FFB
100
AcDbEntity
  8
DETAIL
100
AcDbLine
 10
298.8000000000024
 20
-868.4163379844267
 30
0.0
 11
298.8000000000024
 21
-868.5138723045742
 31
0.0
  0
LINE
  5
2EEB
330
2FFB
100
AcDbEntity
  8
DETAIL
100
AcDbLine
 10
298.8000000000024
 20
-152.9933701764175
 30
0.0
 11
298.8000000000024
 21
-868.4163379844267
 31
0.0
  0
LINE
  5
2EEC
330
2FFB
100
AcDbEntity
  8
DETAIL
100
AcDbLine
 10
313.6000000000017
 20
-868.4163379844267
 30
0.0
 11
298.8000000000024
 21
-868.4163379844267
 31
0.0
  0
LINE
  5
2EED
330
2FFB
100
AcDbEntity
  8
DETAIL
100
AcDbLine
 10
313.6000000000017
 20
-152.9933701764175
 30
0.0
 11
313.6000000000017
 21
-868.5138723045742
 31
0.0
  0
LINE
  5
2EEE
330
2FFB
100
AcDbEntity
  8
DETAIL
100
AcDbLine
 10
298.8000000000024
 20
-867.8870858167137
 30
0.0
 11
-298.7999999999992
 21
-867.8870858167137
 31
0.0
  0
LINE
  5
2EEF
330
2FFB
100
AcDbEntity
  8
DETAIL
100
AcDbLine
 10
298.8000000000024
 20
-868.104624609168
 30
0.0
 11
-298.7999999999992
 21
-868.104624609168
 31
0.0
  0
LINE
  5
2EF0
330
2FFB
100
AcDbEntity
  8
DETAIL
100
AcDbLine
 10
-298.7999999999992
 20
-854.8080808012016
 30
0.0
 11
298.8000000000024
 21
-854.8080808012016
 31
0.0
  0
LINE
  5
2EF1
330
2FFB
100
AcDbEntity
  8
DETAIL
100
AcDbLine
 10
322.9999999999995
 20
-870.0
 30
0.0
 11
-323.0
 21
-870.0
 31
0.0
  0
LINE
  5
2EF2
330
2FFB
100
AcDbEntity
  8
DETAIL
100
AcDbLine
 10
313.6000000000017
 20
-140.0
 30
0.0
 11
-313.5999999999985
 21
-140.0
 31
0.0
  0
LINE
  5
2EF3
330
2FFB
100
AcDbEntity
  8
NOTE
100
AcDbLine
 39
50.0
 10
-337.5
 20
0.0
 30
0.0
 11
-312.5
 21
0.0
 31
0.0
  0
LINE
  5
2EF4
330
2FFB
100
AcDbEntity
  8
NOTE
100
AcDbLine
 39
50.0
 10
312.4999999999996
 20
0.0
 30
0.0
 11
337.4999999999996
 21
0.0
 31
0.0
  0
LINE
  5
2EF5
330
2FFB
100
AcDbEntity
  8
OUTLINE
100
AcDbLine
 39
50.0
 10
-350.0
 20
0.0
 30
0.0
 11
349.9999999999996
 21
0.0
 31
0.0
  0
LINE
  5
2EF6
330
2FFB
100
AcDbEntity
  8
OUTLINE
100
AcDbLine
 10
-310.7999999999992
 20
-881.0000000000011
 30
0.0
 11
-310.7999999999992
 21
-870.0
 31
0.0
  0
LINE
  5
2EF7
330
2FFB
100
AcDbEntity
  8
OUTLINE
100
AcDbLine
 10
310.8000000000024
 20
-881.0000000000011
 30
0.0
 11
-310.7999999999992
 21
-881.0000000000011
 31
0.0
  0
LINE
  5
2EF8
330
2FFB
100
AcDbEntity
  8
OUTLINE
100
AcDbLine
 10
310.8000000000024
 20
-870.0
 30
0.0
 11
310.8000000000024
 21
-881.0000000000016
 31
0.0
  0
LINE
  5
2EF9
330
2FFB
100
AcDbEntity
  8
OUTLINE
100
AcDbLine
 10
310.8000000000024
 20
-99.66862915010096
 30
0.0
 11
-310.7999999999961
 21
-99.66862915010096
 31
0.0
  0
LINE
  5
2EFA
330
2FFB
100
AcDbEntity
  8
OUTLINE
100
AcDbLine
 10
311.6000000000017
 20
-99.66862915010096
 30
0.0
 11
311.6000000000017
 21
-126.9019089103367
 31
0.0
  0
LINE
  5
2EFB
330
2FFB
100
AcDbEntity
  8
OUTLINE
100
AcDbLine
 10
-311.5999999999985
 20
-99.66862915010096
 30
0.0
 11
-311.5999999999985
 21
-7.999999999999089
 31
0.0
  0
LINE
  5
2EFC
330
2FFB
100
AcDbEntity
  8
OUTLINE
100
AcDbLine
 10
-311.5999999999985
 20
-126.9019089103376
 30
0.0
 11
-311.5999999999985
 21
-99.66862915010096
 31
0.0
  0
LINE
  5
2EFD
330
2FFB
100
AcDbEntity
  8
OUTLINE
100
AcDbLine
 10
-310.7999999999961
 20
-99.66862915010096
 30
0.0
 11
-311.5999999999985
 21
-99.66862915010096
 31
0.0
  0
LINE
  5
2EFE
330
2FFB
100
AcDbEntity
  8
OUTLINE
100
AcDbLine
 10
311.6000000000017
 20
-8.0
 30
0.0
 11
311.6000000000017
 21
-99.66862915010187
 31
0.0
  0
LINE
  5
2EFF
330
2FFB
100
AcDbEntity
  8
OUTLINE
100
AcDbLine
 10
349.9999999999996
 20
-8.0
 30
0.0
 11
-350.0
 21
-8.0
 31
0.0
  0
LINE
  5
2F00
330
2FFB
100
AcDbEntity
  8
OUTLINE
100
AcDbLine
 10
-350.0
 20
0.0
 30
0.0
 11
-350.0
 21
-8.0
 31
0.0
  0
LINE
  5
2F01
330
2FFB
100
AcDbEntity
  8
OUTLINE
100
AcDbLine
 10
349.9999999999996
 20
0.0
 30
0.0
 11
349.9999999999996
 21
-8.0
 31
0.0
  0
LINE
  5
2F02
330
2FFB
100
AcDbEntity
  8
OUTLINE
100
AcDbLine
 10
299.6000000000017
 20
-126.9019089103376
 30
0.0
 11
322.9999999999995
 21
-126.9019089103376
 31
0.0
  0
LINE
  5
2F03
330
2FFB
100
AcDbEntity
  8
OUTLINE
100
AcDbLine
 10
-299.7999999999997
 20
-126.9019089103376
 30
0.0
 11
-323.0
 21
-126.9019089103376
 31
0.0
  0
LINE
  5
2F04
330
2FFB
100
AcDbEntity
  8
OUTLINE
100
AcDbLine
 10
313.6000000000017
 20
-126.9019089103376
 30
0.0
 11
313.6000000000017
 21
-152.8958358562695
 31
0.0
  0
LINE
  5
2F05
330
2FFB
100
AcDbEntity
  8
OUTLINE
100
AcDbLine
 10
-313.5999999999985
 20
-126.9019089103376
 30
0.0
 11
-313.5999999999985
 21
-152.8958358562695
 31
0.0
  0
LINE
  5
2F06
330
2FFB
100
AcDbEntity
  8
OUTLINE
100
AcDbLine
 10
-313.5999999999985
 20
-126.9019089103376
 30
0.0
 11
313.6000000000017
 21
-126.9019089103376
 31
0.0
  0
LINE
  5
2F07
330
2FFB
100
AcDbEntity
  8
OUTLINE
100
AcDbLine
 10
-313.5999999999985
 20
-152.8958358562704
 30
0.0
 11
-313.5999999999985
 21
-152.9933701764175
 31
0.0
  0
LINE
  5
2F08
330
2FFB
100
AcDbEntity
  8
OUTLINE
100
AcDbLine
 10
-313.5999999999985
 20
-152.9933701764175
 30
0.0
 11
313.6000000000017
 21
-152.9933701764175
 31
0.0
  0
LINE
  5
2F09
330
2FFB
100
AcDbEntity
  8
OUTLINE
100
AcDbLine
 10
-323.0
 20
-870.0
 30
0.0
 11
-323.0
 21
-126.9019089103376
 31
0.0
  0
LINE
  5
2F0A
330
2FFB
100
AcDbEntity
  8
OUTLINE
100
AcDbLine
 10
-298.7999999999992
 20
-868.5138723045742
 30
0.0
 11
-313.5999999999985
 21
-868.5138723045742
 31
0.0
  0
LINE
  5
2F0B
330
2FFB
100
AcDbEntity
  8
OUTLINE
100
AcDbLine
 10
-298.7999999999992
 20
-868.4163379844267
 30
0.0
 11
-298.7999999999992
 21
-868.5138723045742
 31
0.0
  0
LINE
  5
2F0C
330
2FFB
100
AcDbEntity
  8
OUTLINE
100
AcDbLine
 10
-313.5999999999985
 20
-868.5138723045742
 30
0.0
 11
-313.5999999999985
 21
-152.9933701764166
 31
0.0
  0
LINE
  5
2F0D
330
2FFB
100
AcDbEntity
  8
OUTLINE
100
AcDbLine
 10
-313.5999999999985
 20
-868.4163379844267
 30
0.0
 11
-298.7999999999992
 21
-868.4163379844267
 31
0.0
  0
LINE
  5
2F0E
330
2FFB
100
AcDbEntity
  8
OUTLINE
100
AcDbLine
 10
-298.7999999999992
 20
-868.4163379844267
 30
0.0
 11
-298.7999999999992
 21
-152.9933701764185
 31
0.0
  0
LINE
  5
2F0F
330
2FFB
100
AcDbEntity
  8
OUTLINE
100
AcDbLine
 10
322.9999999999995
 20
-126.9019089103376
 30
0.0
 11
322.9999999999995
 21
-870.0
 31
0.0
  0
LINE
  5
2F10
330
2FFB
100
AcDbEntity
  8
OUTLINE
100
AcDbLine
 10
298.8000000000024
 20
-868.5138723045742
 30
0.0
 11
313.6000000000017
 21
-868.5138723045742
 31
0.0
  0
LINE
  5
2F11
330
2FFB
100
AcDbEntity
  8
OUTLINE
100
AcDbLine
 10
298.8000000000024
 20
-868.4163379844267
 30
0.0
 11
298.8000000000024
 21
-868.5138723045742
 31
0.0
  0
LINE
  5
2F12
330
2FFB
100
AcDbEntity
  8
OUTLINE
100
AcDbLine
 10
298.8000000000024
 20
-152.9933701764175
 30
0.0
 11
298.8000000000024
 21
-868.4163379844267
 31
0.0
  0
LINE
  5
2F13
330
2FFB
100
AcDbEntity
  8
OUTLINE
100
AcDbLine
 10
313.6000000000017
 20
-868.4163379844267
 30
0.0
 11
298.8000000000024
 21
-868.4163379844267
 31
0.0
  0
LINE
  5
2F14
330
2FFB
100
AcDbEntity
  8
OUTLINE
100
AcDbLine
 10
313.6000000000017
 20
-152.9933701764175
 30
0.0
 11
313.6000000000017
 21
-868.5138723045742
 31
0.0
  0
LINE
  5
2F15
330
2FFB
100
AcDbEntity
  8
OUTLINE
100
AcDbLine
 10
298.8000000000024
 20
-867.8870858167137
 30
0.0
 11
-298.7999999999992
 21
-867.8870858167137
 31
0.0
  0
LINE
  5
2F16
330
2FFB
100
AcDbEntity
  8
OUTLINE
100
AcDbLine
 10
298.8000000000024
 20
-868.104624609168
 30
0.0
 11
-298.7999999999992
 21
-868.104624609168
 31
0.0
  0
LINE
  5
2F17
330
2FFB
100
AcDbEntity
  8
OUTLINE
100
AcDbLine
 10
-298.7999999999992
 20
-854.8080808012016
 30
0.0
 11
298.8000000000024
 21
-854.8080808012016
 31
0.0
  0
LINE
  5
2F18
330
2FFB
100
AcDbEntity
  8
OUTLINE
100
AcDbLine
 10
322.9999999999995
 20
-870.0
 30
0.0
 11
-323.0
 21
-870.0
 31
0.0
  0
LINE
  5
2F19
330
2FFB
100
AcDbEntity
  8
OUTLINE
100
AcDbLine
 10
313.6000000000017
 20
-140.0
 30
0.0
 11
-313.5999999999985
 21
-140.0
 31
0.0
  0
LINE
  5
2F1A
330
2FFB
100
AcDbEntity
  8
OUTLINE
100
AcDbLine
 10
310.8000000000024
 20
-99.66862915010096
 30
0.0
 11
311.6000000000017
 21
-99.66862915010096
 31
0.0
  0
LINE
  5
2F1B
330
2FFB
100
AcDbEntity
  8
SIZE
100
AcDbLine
 10
369.9999999999996
 20
0.0
 30
0.0
 11
474.950576634928
 21
0.0
 31
0.0
  0
LINE
  5
2F1C
330
2FFB
100
AcDbEntity
  8
SIZE
100
AcDbLine
 10
369.9999999999996
 20
-8.0
 30
0.0
 11
474.950576634928
 21
-8.0
 31
0.0
  0
LINE
  5
2F1D
330
2FFB
100
AcDbEntity
  8
SIZE
100
AcDbLine
 10
454.9505766349279
 20
12.0
 30
0.0
 11
454.9505766349279
 21
24.0
 31
0.0
  0
LINE
  5
2F1E
330
2FFB
100
AcDbEntity
  8
SIZE
100
AcDbLine
 10
454.9505766349279
 20
-20.0
 30
0.0
 11
454.9505766349279
 21
-90.39999999999997
 31
0.0
  0
LINE
  5
2F1F
330
2FFB
100
AcDbEntity
  8
SIZE
100
AcDbLine
 10
454.9505766349279
 20
0.0
 30
0.0
 11
454.9505766349279
 21
-8.0
 31
0.0
  0
INSERT
  5
2F20
330
2FFB
100
AcDbEntity
  8
SIZE
100
AcDbBlockReference
  2
_DOTBLANK
 10
454.9505766349279
 20
0.0
 30
0.0
 41
12.0
 42
12.0
 43
12.0
 50
270.0
  0
INSERT
  5
2F21
330
2FFB
100
AcDbEntity
  8
SIZE
100
AcDbBlockReference
  2
_DOTBLANK
 10
454.9505766349279
 20
-8.0
 30
0.0
 41
12.0
 42
12.0
 43
12.0
 50
90.0
  0
LINE
  5
2F22
330
2FFB
100
AcDbEntity
  8
SIZE
100
AcDbLine
 10
324.9999999999996
 20
32.5
 30
0.0
 11
324.9999999999996
 21
181.1320911082903
 31
0.0
  0
LINE
  5
2F23
330
2FFB
100
AcDbEntity
  8
SIZE
100
AcDbLine
 10
-325.0
 20
32.5
 30
0.0
 11
-325.0
 21
181.1320911082903
 31
0.0
  0
LINE
  5
2F24
330
2FFB
100
AcDbEntity
  8
SIZE
100
AcDbLine
 10
312.9999999999995
 20
161.1320911082903
 30
0.0
 11
-313.0
 21
161.1320911082903
 31
0.0
  0
INSERT
  5
2F25
330
2FFB
100
AcDbEntity
  8
SIZE
100
AcDbBlockReference
  2
_DOTBLANK
 10
324.9999999999996
 20
161.1320911082903
 30
0.0
 41
12.0
 42
12.0
 43
12.0
  0
INSERT
  5
2F26
330
2FFB
100
AcDbEntity
  8
SIZE
100
AcDbBlockReference
  2
_DOTBLANK
 10
-325.0
 20
161.1320911082903
 30
0.0
 41
12.0
 42
12.0
 43
12.0
 50
180.0
  0
LINE
  5
2F27
330
2FFB
100
AcDbEntity
  8
SIZE
100
AcDbLine
 10
349.9999999999996
 20
20.00000009867381
 30
0.0
 11
349.9999999999996
 21
299.6865930351905
 31
0.0
  0
LINE
  5
2F28
330
2FFB
100
AcDbEntity
  8
SIZE
100
AcDbLine
 10
-350.0
 20
20.00000009867381
 30
0.0
 11
-350.0
 21
299.6865930351905
 31
0.0
  0
LINE
  5
2F29
330
2FFB
100
AcDbEntity
  8
SIZE
100
AcDbLine
 10
337.9999999999995
 20
279.6865930351905
 30
0.0
 11
-338.0
 21
279.6865930351905
 31
0.0
  0
INSERT
  5
2F2A
330
2FFB
100
AcDbEntity
  8
SIZE
100
AcDbBlockReference
  2
_DOTBLANK
 10
349.9999999999996
 20
279.6865930351905
 30
0.0
 41
12.0
 42
12.0
 43
12.0
  0
INSERT
  5
2F2B
330
2FFB
100
AcDbEntity
  8
SIZE
100
AcDbBlockReference
  2
_DOTBLANK
 10
-350.0
 20
279.6865930351905
 30
0.0
 41
12.0
 42
12.0
 43
12.0
 50
180.0
  0
LINE
  5
2F2C
330
2FFB
100
AcDbEntity
  8
SIZE
100
AcDbLine
 10
-343.0
 20
-870.0
 30
0.0
 11
-543.5633253057094
 21
-870.0
 31
0.0
  0
LINE
  5
2F2D
330
2FFB
100
AcDbEntity
  8
SIZE
100
AcDbLine
 10
-330.7999999999992
 20
-881.0000000000011
 30
0.0
 11
-543.5633253057094
 21
-881.0000000000011
 31
0.0
  0
LINE
  5
2F2E
330
2FFB
100
AcDbEntity
  8
SIZE
100
AcDbLine
 10
-523.5633253057094
 20
-858.0
 30
0.0
 11
-523.5633253057094
 21
-846.0
 31
0.0
  0
LINE
  5
2F2F
330
2FFB
100
AcDbEntity
  8
SIZE
100
AcDbLine
 10
-523.5633253057094
 20
-893.0000000000008
 30
0.0
 11
-523.5633253057094
 21
-982.6000000000007
 31
0.0
  0
LINE
  5
2F30
330
2FFB
100
AcDbEntity
  8
SIZE
100
AcDbLine
 10
-523.5633253057094
 20
-870.0
 30
0.0
 11
-523.5633253057094
 21
-881.0000000000011
 31
0.0
  0
INSERT
  5
2F31
330
2FFB
100
AcDbEntity
  8
SIZE
100
AcDbBlockReference
  2
_DOTBLANK
 10
-523.5633253057094
 20
-870.0
 30
0.0
 41
12.0
 42
12.0
 43
12.0
 50
270.0
  0
INSERT
  5
2F32
330
2FFB
100
AcDbEntity
  8
SIZE
100
AcDbBlockReference
  2
_DOTBLANK
 10
-523.5633253057094
 20
-881.0000000000011
 30
0.0
 41
12.0
 42
12.0
 43
12.0
 50
90.0
  0
LINE
  5
2F33
330
2FFB
100
AcDbEntity
  8
SIZE
100
AcDbLine
 10
-343.0
 20
-870.0
 30
0.0
 11
-543.5633253057098
 21
-870.0
 31
0.0
  0
LINE
  5
2F34
330
2FFB
100
AcDbEntity
  8
SIZE
100
AcDbLine
 10
-370.0
 20
0.0000000986738087
 30
0.0
 11
-543.5633253057094
 21
0.0000000986738087
 31
0.0
  0
LINE
  5
2F35
330
2FFB
100
AcDbEntity
  8
SIZE
100
AcDbLine
 10
-523.5633253057097
 20
-858.0
 30
0.0
 11
-523.5633253057094
 21
-11.99999990132619
 31
0.0
  0
INSERT
  5
2F36
330
2FFB
100
AcDbEntity
  8
SIZE
100
AcDbBlockReference
  2
_DOTBLANK
 10
-523.5633253057097
 20
-870.0
 30
0.0
 41
12.0
 42
12.0
 43
12.0
 50
270.0
  0
INSERT
  5
2F37
330
2FFB
100
AcDbEntity
  8
SIZE
100
AcDbBlockReference
  2
_DOTBLANK
 10
-523.5633253057094
 20
0.0000000986738087
 30
0.0
 41
12.0
 42
12.0
 43
12.0
 50
90.0
  0
LINE
  5
2F38
330
2FFB
100
AcDbEntity
  8
SIZE
100
AcDbLine
 10
322.9999999999995
 20
-890.0
 30
0.0
 11
322.9999999999995
 21
-1039.152290639288
 31
0.0
  0
LINE
  5
2F39
330
2FFB
100
AcDbEntity
  8
SIZE
100
AcDbLine
 10
-323.0
 20
-890.0
 30
0.0
 11
-323.0
 21
-1039.152290639288
 31
0.0
  0
LINE
  5
2F3A
330
2FFB
100
AcDbEntity
  8
SIZE
100
AcDbLine
 10
310.9999999999995
 20
-1019.152290639288
 30
0.0
 11
-311.0
 21
-1019.152290639288
 31
0.0
  0
INSERT
  5
2F3B
330
2FFB
100
AcDbEntity
  8
SIZE
100
AcDbBlockReference
  2
_DOTBLANK
 10
322.9999999999995
 20
-1019.152290639288
 30
0.0
 41
12.0
 42
12.0
 43
12.0
  0
INSERT
  5
2F3C
330
2FFB
100
AcDbEntity
  8
SIZE
100
AcDbBlockReference
  2
_DOTBLANK
 10
-323.0
 20
-1019.152290639288
 30
0.0
 41
12.0
 42
12.0
 43
12.0
 50
180.0
  0
TEXT
  5
2F3D
330
2FFB
100
AcDbEntity
  8
SIZE
100
AcDbText
 10
-72.6857142857143
 20
-1009.152290639288
 30
0.0
 40
64.0
  1
646
 41
0.9
100
AcDbText
  0
TEXT
  5
2F3E
330
2FFB
100
AcDbEntity
  8
SIZE
100
AcDbText
 10
-533.5633253057088
 20
-972.6000000000007
 30
0.0
 40
64.0
  1
11
 50
90.0
 41
0.9
100
AcDbText
  0
TEXT
  5
2F3F
330
2FFB
100
AcDbEntity
  8
SIZE
100
AcDbText
 10
-533.5633253057094
 20
-510.1897240729612
 30
0.0
 40
64.0
  1
870
 50
90.0
 41
0.9
100
AcDbText
  0
TEXT
  5
2F40
330
2FFB
100
AcDbEntity
  8
SIZE
100
AcDbText
 10
-74.61302049113601
 20
171.1320911082903
 30
0.0
 40
64.0
  1
650
 41
0.9
100
AcDbText
  0
TEXT
  5
2F41
330
2FFB
100
AcDbEntity
  8
SIZE
100
AcDbText
 10
-74.05714285714293
 20
289.6865930351905
 30
0.0
 40
64.0
  1
700
 41
0.9
100
AcDbText
  0
TEXT
  5
2F42
330
2FFB
100
AcDbEntity
  8
SIZE
100
AcDbText
 10
444.950576634928
 20
-80.39999999999997
 30
0.0
 40
64.0
  1
8
 50
90.0
 41
0.9
100
AcDbText
  0
TEXT
  5
2F43
330
2FFB
100
AcDbEntity
  8
NOTE
100
AcDbText
 10
-958.7093999922544
 20
113.5270950580134
 30
0.0
 40
64.0
  1
4×φ15取付穴
 41
0.9
100
AcDbText
  0
INSERT
  5
2F44
330
2FFB
100
AcDbEntity
  8
NOTE
100
AcDbBlockReference
  2
_OPEN30
 10
-325.0
 20
0.0
 30
0.0
 41
11.99999999999998
 42
12.0
 43
12.0
 50
312.6090116116894
1001
ACAD
1000
DSTYLE
1002
{
1070
    41
1040
12.0
1070
    42
1040
20.0
1070
    43
1040
200.0
1070
    44
1040
20.0
1070
    73
1070
     0
1070
    74
1070
     0
1070
    77
1070
     1
1070
    78
1070
     8
1070
   140
1040
64.0
1070
   147
1040
50.0
1070
   172
1070
     1
1070
   174
1070
     1
1070
   275
1070
     0
1070
   284
1070
     0
1070
   285
1070
     0
1070
   286
1070
     0
1070
   341
1005
0
1070
   342
1005
0
1002
}
  0
POLYLINE
  5
2F45
330
2FFB
100
AcDbEntity
  8
NOTE
100
AcDb2dPolyline
 66
     1
 10
0.0
 20
0.0
 30
0.0
1001
ACAD
1000
DSTYLE
1002
{
1070
    41
1040
12.0
1070
    42
1040
20.0
1070
    43
1040
200.0
1070
    44
1040
20.0
1070
    73
1070
     0
1070
    74
1070
     0
1070
    77
1070
     1
1070
    78
1070
     8
1070
   140
1040
64.0
1070
   147
1040
50.0
1070
   172
1070
     1
1070
   174
1070
     1
1070
   275
1070
     0
1070
   284
1070
     0
1070
   285
1070
     0
1070
   286
1070
     0
1070
   341
1005
0
1070
   342
1005
0
1002
}
  0
VERTEX
  5
2F46
330
2F45
100
AcDbEntity
  8
NOTE
100
AcDbVertex
100
AcDb2dVertex
 10
-333.1239008361895
 20
8.831887408915461
 30
0.0
  0
VERTEX
  5
2F47
330
2F45
100
AcDbEntity
  8
NOTE
100
AcDbVertex
100
AcDb2dVertex
 10
-412.8693999922543
 20
95.5270950580134
 30
0.0
  0
VERTEX
  5
2F48
330
2F45
100
AcDbEntity
  8
NOTE
100
AcDbVertex
100
AcDb2dVertex
 10
-958.7093999922544
 20
95.5270950580134
 30
0.0
  0
SEQEND
  5
2F49
330
2F45
100
AcDbEntity
  8
NOTE
  0
ENDSEC
  0
SECTION
  2
OBJECTS
  0
DICTIONARY
  5
2F93
330
0
100
AcDbDictionary
281
     1
  3
ACAD_2007HEADERVARS_RT
350
3185
  3
ACAD_COLOR
350
2FF1
  3
ACAD_GROUP
350
2F94
  3
ACAD_LAYOUT
350
2FF0
  3
ACAD_MATERIAL
350
2F97
  3
ACAD_MLEADERSTYLE
350
2FF4
  3
ACAD_MLINESTYLE
350
2FED
  3
ACAD_PLOTSETTINGS
350
2FEF
  3
ACAD_PLOTSTYLENAME
350
2F95
  3
ACAD_SCALELIST
350
2FC1
  3
ACAD_TABLESTYLE
350
2FF2
  3
ACAD_VISUALSTYLE
350
2FB0
  3
ACDB_RECOMPOSE_DATA
350
3183
  3
AcDbVariableDictionary
350
317A
  3
AcmDictionary
350
312A
  3
AMG
350
3077
  3
DWGPROPS
350
3184
  3
MAPISURF_MODULE
350
30F7
  0
DICTIONARY
  5
3152
330
2FE3
100
AcDbDictionary
280
     1
281
     1
  3
ADSK_XREC_LAYER_RECONCILED
360
3153
  0
DICTIONARY
  5
3154
330
3012
100
AcDbDictionary
280
     1
281
     1
  3
ADSK_XREC_LAYER_RECONCILED
360
3155
  0
DICTIONARY
  5
3156
330
3013
100
AcDbDictionary
280
     1
281
     1
  3
ADSK_XREC_LAYER_RECONCILED
360
3157
  0
DICTIONARY
  5
3158
330
3014
100
AcDbDictionary
280
     1
281
     1
  3
ADSK_XREC_LAYER_RECONCILED
360
3159
  0
DICTIONARY
  5
315A
330
3015
100
AcDbDictionary
280
     1
281
     1
  3
ADSK_XREC_LAYER_RECONCILED
360
315B
  0
DICTIONARY
  5
315C
330
3016
100
AcDbDictionary
280
     1
281
     1
  3
ADSK_XREC_LAYER_RECONCILED
360
315D
  0
DICTIONARY
  5
315E
330
3018
100
AcDbDictionary
280
     1
281
     1
  3
ADSK_XREC_LAYER_RECONCILED
360
315F
  0
DICTIONARY
  5
3160
330
3019
100
AcDbDictionary
280
     1
281
     1
  3
ADSK_XREC_LAYER_RECONCILED
360
3161
  0
DICTIONARY
  5
3162
330
301A
100
AcDbDictionary
280
     1
281
     1
  3
ADSK_XREC_LAYER_RECONCILED
360
3163
  0
DICTIONARY
  5
3164
330
301B
100
AcDbDictionary
280
     1
281
     1
  3
ADSK_XREC_LAYER_RECONCILED
360
3165
  0
DICTIONARY
  5
3166
330
301C
100
AcDbDictionary
280
     1
281
     1
  3
ADSK_XREC_LAYER_RECONCILED
360
3167
  0
DICTIONARY
  5
3168
330
301D
100
AcDbDictionary
280
     1
281
     1
  3
ADSK_XREC_LAYER_RECONCILED
360
3169
  0
DICTIONARY
  5
316A
330
2FFB
100
AcDbDictionary
280
     1
281
     1
  3
ACAD_INDEX
360
316B
  0
DICTIONARY
  5
3185
102
{ACAD_REACTORS
330
2F93
102
}
330
2F93
100
AcDbDictionary
281
     1
  3
DIMARCSYM
350
3186
  3
DIMLTEX1
350
3188
  3
DIMLTEX2
350
3189
  3
DIMLTYPE
350
3187
  0
DICTIONARY
  5
2FF1
102
{ACAD_REACTORS
330
2F93
102
}
330
2F93
100
AcDbDictionary
281
     1
  0
DICTIONARY
  5
2F94
102
{ACAD_REACTORS
330
2F93
102
}
330
2F93
100
AcDbDictionary
281
     1
  0
DICTIONARY
  5
2FF0
102
{ACAD_REACTORS
330
2F93
102
}
330
2F93
100
AcDbDictionary
281
     1
  3
Model
350
2FFE
  3
レイアウト1
350
2FFA
  0
DICTIONARY
  5
2F97
102
{ACAD_REACTORS
330
2F93
102
}
330
2F93
100
AcDbDictionary
281
     1
  3
ByBlock
350
2FA0
  3
ByLayer
350
2F98
  3
Global
350
2FA8
  0
DICTIONARY
  5
2FF4
102
{ACAD_REACTORS
330
2F93
102
}
330
2F93
100
AcDbDictionary
281
     1
  3
Standard
350
2FF5
  0
DICTIONARY
  5
2FED
102
{ACAD_REACTORS
330
2F93
102
}
330
2F93
100
AcDbDictionary
281
     1
  3
Standard
350
2FEE
  0
DICTIONARY
  5
2FEF
102
{ACAD_REACTORS
330
2F93
102
}
330
2F93
100
AcDbDictionary
281
     1
  0
ACDBDICTIONARYWDFLT
  5
2F95
102
{ACAD_REACTORS
330
2F93
102
}
330
2F93
100
AcDbDictionary
281
     1
  3
Normal
350
2F96
100
AcDbDictionaryWithDefault
340
2F96
  0
DICTIONARY
  5
2FC1
102
{ACAD_REACTORS
330
2F93
102
}
330
2F93
100
AcDbDictionary
281
     1
  3
A0
350
2FC2
  3
A1
350
2FC3
  3
A2
350
2FC4
  3
A3
350
2FC5
  3
A4
350
2FC6
  3
A5
350
2FC7
  3
A6
350
2FC8
  3
A7
350
2FC9
  3
A8
350
2FCA
  3
A9
350
2FCB
  3
B0
350
2FCC
  3
B1
350
2FCD
  3
B2
350
2FCE
  3
B3
350
2FCF
  3
B4
350
2FD0
  3
B5
350
2FD1
  3
B6
350
2FD2
  3
B7
350
2FD3
  3
B8
350
2FD4
  3
B9
350
2FD5
  3
C0
350
2FD6
  3
C1
350
2FD7
  3
C2
350
2FD8
  3
C3
350
2FD9
  3
C4
350
2FDA
  3
C5
350
2FDB
  3
C6
350
2FDC
  3
C7
350
2FDD
  3
C8
350
2FDE
  3
C9
350
2FDF
  3
D0
350
2FE0
  3
D1
350
2FE1
  3
D2
350
2FE2
  0
DICTIONARY
  5
2FF2
102
{ACAD_REACTORS
330
2F93
102
}
330
2F93
100
AcDbDictionary
281
     1
  3
Standard
350
2FF3
  0
DICTIONARY
  5
2FB0
102
{ACAD_REACTORS
330
2F93
102
}
330
2F93
100
AcDbDictionary
281
     1
  3
2dWireframe
350
2FB6
  3
3D Hidden
350
2FB8
  3
3dWireframe
350
2FB7
  3
Basic
350
2FB5
  3
Brighten
350
2FBC
  3
ColorChange
350
2FC0
  3
Conceptual
350
2FB9
  3
Dim
350
2FBB
  3
Facepattern
350
2FBF
  3
Flat
350
2FB1
  3
FlatWithEdges
350
2FB2
  3
Gouraud
350
2FB3
  3
GouraudWithEdges
350
2FB4
  3
Linepattern
350
2FBE
  3
Realistic
350
2FBA
  3
Thicken
350
2FBD
  0
XRECORD
  5
3183
102
{ACAD_REACTORS
330
2F93
102
}
330
2F93
100
AcDbXrecord
280
     1
 90
        1
330
2FF3
  0
DICTIONARY
  5
317A
102
{ACAD_REACTORS
330
2F93
102
}
330
2F93
100
AcDbDictionary
281
     1
  3
CANNOSCALE
350
317D
  3
CMLEADERSTYLE
350
317C
  3
CTABLESTYLE
350
317B
  3
DIMASSOC
350
3180
  3
INDEXCTL
350
317F
  3
SORTENTS
350
317E
  0
DICTIONARY
  5
312A
102
{ACAD_REACTORS
330
2F93
102
}
330
2F93
100
AcDbDictionary
281
     1
  3
AcmStdDictionary
350
3138
  0
DICTIONARY
  5
3077
102
{ACAD_REACTORS
330
2F93
102
}
330
2F93
100
AcDbDictionary
281
     1
  3
AcMgSettings
350
3078
  0
XRECORD
  5
3184
102
{ACAD_REACTORS
330
2F93
102
}
330
2F93
100
AcDbXrecord
280
     1
  1
DWGPROPS COOKIE
  2

  3

  4

  6

  7

  8
A090053
  9

300
AmdtFileType=84
301
=
302
=
303
=
304
=
305
=
306
=
307
=
308
=
309
=
 40
1.044011157407407
 41
2452321.396199653
 42
2456213.407986389
  1

 90
        1
  0
XRECORD
  5
3153
102
{ACAD_REACTORS
330
3152
102
}
330
3152
100
AcDbXrecord
280
     1
290
     1
  0
XRECORD
  5
3155
102
{ACAD_REACTORS
330
3154
102
}
330
3154
100
AcDbXrecord
280
     1
290
     1
  0
XRECORD
  5
3157
102
{ACAD_REACTORS
330
3156
102
}
330
3156
100
AcDbXrecord
280
     1
290
     1
  0
XRECORD
  5
3159
102
{ACAD_REACTORS
330
3158
102
}
330
3158
100
AcDbXrecord
280
     1
290
     1
  0
XRECORD
  5
315B
102
{ACAD_REACTORS
330
315A
102
}
330
315A
100
AcDbXrecord
280
     1
290
     1
  0
XRECORD
  5
315D
102
{ACAD_REACTORS
330
315C
102
}
330
315C
100
AcDbXrecord
280
     1
290
     1
  0
XRECORD
  5
315F
102
{ACAD_REACTORS
330
315E
102
}
330
315E
100
AcDbXrecord
280
     1
290
     1
  0
XRECORD
  5
3161
102
{ACAD_REACTORS
330
3160
102
}
330
3160
100
AcDbXrecord
280
     1
290
     1
  0
XRECORD
  5
3163
102
{ACAD_REACTORS
330
3162
102
}
330
3162
100
AcDbXrecord
280
     1
290
     1
  0
XRECORD
  5
3165
102
{ACAD_REACTORS
330
3164
102
}
330
3164
100
AcDbXrecord
280
     1
290
     1
  0
XRECORD
  5
3167
102
{ACAD_REACTORS
330
3166
102
}
330
3166
100
AcDbXrecord
280
     1
290
     1
  0
XRECORD
  5
3169
102
{ACAD_REACTORS
330
3168
102
}
330
3168
100
AcDbXrecord
280
     1
290
     1
  0
DICTIONARY
  5
316B
102
{ACAD_REACTORS
330
316A
102
}
330
316A
100
AcDbDictionary
281
     1
  3
*A1
350
316C
  0
XRECORD
  5
3186
102
{ACAD_REACTORS
330
3185
102
}
330
3185
100
AcDbXrecord
280
     1
 70
     1
  0
XRECORD
  5
3188
102
{ACAD_REACTORS
330
3185
102
}
330
3185
100
AcDbXrecord
280
     1
340
2FE9
  0
XRECORD
  5
3189
102
{ACAD_REACTORS
330
3185
102
}
330
3185
100
AcDbXrecord
280
     1
340
2FE9
  0
XRECORD
  5
3187
102
{ACAD_REACTORS
330
3185
102
}
330
3185
100
AcDbXrecord
280
     1
340
2FE9
  0
LAYOUT
  5
2FFE
102
{ACAD_XDICTIONARY
360
3190
102
}
102
{ACAD_REACTORS
330
2FF0
102
}
330
2FF0
100
AcDbPlotSettings
  1

  2
自動 EPSON LP-9600S (W2450527 上)
  4

  6

 40
0.0
 41
0.0
 42
0.0
 43
0.0
 44
0.0
 45
0.0
 46
0.0
 47
0.0
 48
0.0
 49
0.0
140
0.0
141
0.0
142
1.0
143
1.0
 70
  1712
 72
     0
 73
     0
 74
     0
  7

 75
     0
147
1.0
148
0.0
149
0.0
100
AcDbLayout
  1
Model
 70
     1
 71
     0
 10
0.0
 20
0.0
 11
12.0
 21
9.0
 12
0.0
 22
0.0
 32
0.0
 14
0.0
 24
0.0
 34
0.0
 15
0.0
 25
0.0
 35
0.0
146
0.0
 13
0.0
 23
0.0
 33
0.0
 16
1.0
 26
0.0
 36
0.0
 17
0.0
 27
1.0
 37
0.0
 76
     0
330
2FFB
331
2FFF
  0
LAYOUT
  5
2FFA
102
{ACAD_XDICTIONARY
360
318E
102
}
102
{ACAD_REACTORS
330
2FF0
102
}
330
2FF0
100
AcDbPlotSettings
  1

  2
自動 EPSON LP-9600S (W2450527 上)
  4

  6

 40
0.0
 41
0.0
 42
0.0
 43
0.0
 44
0.0
 45
0.0
 46
0.0
 47
0.0
 48
0.0
 49
0.0
140
0.0
141
0.0
142
1.0
143
1.0
 70
   688
 72
     0
 73
     0
 74
     5
  7

 75
    16
147
1.0
148
0.0
149
0.0
100
AcDbLayout
  1
レイアウト1
 70
     1
 71
     1
 10
0.0
 20
0.0
 11
12.0
 21
9.0
 12
0.0
 22
0.0
 32
0.0
 14
1.000000000000000E+20
 24
1.000000000000000E+20
 34
1.000000000000000E+20
 15
-1.000000000000000E+20
 25
-1.000000000000000E+20
 35
-1.000000000000000E+20
146
0.0
 13
0.0
 23
0.0
 33
0.0
 16
1.0
 26
0.0
 36
0.0
 17
0.0
 27
1.0
 37
0.0
 76
     0
330
2FF7
  0
MATERIAL
  5
2FA0
102
{ACAD_XDICTIONARY
360
2FA1
102
}
102
{ACAD_REACTORS
330
2F97
102
}
330
2F97
100
AcDbMaterial
  1
ByBlock
 72
     0
 43
0.0208333333333333
 43
0.0
 43
0.0
 43
0.0
 43
0.0
 43
0.0208333333333333
 43
0.0
 43
0.0
 43
0.0
 43
0.0
 43
1.0
 43
0.0
 43
0.0
 43
0.0
 43
0.0
 43
1.0
 77
     0
 47
0.0208333333333333
 47
0.0
 47
0.0
 47
0.0
 47
0.0
 47
0.0208333333333333
 47
0.0
 47
0.0
 47
0.0
 47
0.0
 47
1.0
 47
0.0
 47
0.0
 47
0.0
 47
0.0
 47
1.0
171
     0
 49
0.0208333333333333
 49
0.0
 49
0.0
 49
0.0
 49
0.0
 49
0.0208333333333333
 49
0.0
 49
0.0
 49
0.0
 49
0.0
 49
1.0
 49
0.0
 49
0.0
 49
0.0
 49
0.0
 49
1.0
175
     0
142
0.0208333333333333
142
0.0
142
0.0
142
0.0
142
0.0
142
0.0208333333333333
142
0.0
142
0.0
142
0.0
142
0.0
142
1.0
142
0.0
142
0.0
142
0.0
142
0.0
142
1.0
179
     0
144
0.0208333333333333
144
0.0
144
0.0
144
0.0
144
0.0
144
0.0208333333333333
144
0.0
144
0.0
144
0.0
144
0.0
144
1.0
144
0.0
144
0.0
144
0.0
144
0.0
144
1.0
147
0.0208333333333333
147
0.0
147
0.0
147
0.0
147
0.0
147
0.0208333333333333
147
0.0
147
0.0
147
0.0
147
0.0
147
1.0
147
0.0
147
0.0
147
0.0
147
0.0
147
1.0
  0
MATERIAL
  5
2F98
102
{ACAD_XDICTIONARY
360
2F99
102
}
102
{ACAD_REACTORS
330
2F97
102
}
330
2F97
100
AcDbMaterial
  1
ByLayer
 72
     0
 43
0.0208333333333333
 43
0.0
 43
0.0
 43
0.0
 43
0.0
 43
0.0208333333333333
 43
0.0
 43
0.0
 43
0.0
 43
0.0
 43
1.0
 43
0.0
 43
0.0
 43
0.0
 43
0.0
 43
1.0
 77
     0
 47
0.0208333333333333
 47
0.0
 47
0.0
 47
0.0
 47
0.0
 47
0.0208333333333333
 47
0.0
 47
0.0
 47
0.0
 47
0.0
 47
1.0
 47
0.0
 47
0.0
 47
0.0
 47
0.0
 47
1.0
171
     0
 49
0.0208333333333333
 49
0.0
 49
0.0
 49
0.0
 49
0.0
 49
0.0208333333333333
 49
0.0
 49
0.0
 49
0.0
 49
0.0
 49
1.0
 49
0.0
 49
0.0
 49
0.0
 49
0.0
 49
1.0
175
     0
142
0.0208333333333333
142
0.0
142
0.0
142
0.0
142
0.0
142
0.0208333333333333
142
0.0
142
0.0
142
0.0
142
0.0
142
1.0
142
0.0
142
0.0
142
0.0
142
0.0
142
1.0
179
     0
144
0.0208333333333333
144
0.0
144
0.0
144
0.0
144
0.0
144
0.0208333333333333
144
0.0
144
0.0
144
0.0
144
0.0
144
1.0
144
0.0
144
0.0
144
0.0
144
0.0
144
1.0
147
0.0208333333333333
147
0.0
147
0.0
147
0.0
147
0.0
147
0.0208333333333333
147
0.0
147
0.0
147
0.0
147
0.0
147
1.0
147
0.0
147
0.0
147
0.0
147
0.0
147
1.0
  0
MATERIAL
  5
2FA8
102
{ACAD_XDICTIONARY
360
2FA9
102
}
102
{ACAD_REACTORS
330
2F97
102
}
330
2F97
100
AcDbMaterial
  1
Global
 72
     0
 43
0.0208333333333333
 43
0.0
 43
0.0
 43
0.0
 43
0.0
 43
0.0208333333333333
 43
0.0
 43
0.0
 43
0.0
 43
0.0
 43
1.0
 43
0.0
 43
0.0
 43
0.0
 43
0.0
 43
1.0
 77
     0
 47
0.0208333333333333
 47
0.0
 47
0.0
 47
0.0
 47
0.0
 47
0.0208333333333333
 47
0.0
 47
0.0
 47
0.0
 47
0.0
 47
1.0
 47
0.0
 47
0.0
 47
0.0
 47
0.0
 47
1.0
171
     0
 49
0.0208333333333333
 49
0.0
 49
0.0
 49
0.0
 49
0.0
 49
0.0208333333333333
 49
0.0
 49
0.0
 49
0.0
 49
0.0
 49
1.0
 49
0.0
 49
0.0
 49
0.0
 49
0.0
 49
1.0
175
     0
142
0.0208333333333333
142
0.0
142
0.0
142
0.0
142
0.0
142
0.0208333333333333
142
0.0
142
0.0
142
0.0
142
0.0
142
1.0
142
0.0
142
0.0
142
0.0
142
0.0
142
1.0
179
     0
144
0.0208333333333333
144
0.0
144
0.0
144
0.0
144
0.0
144
0.0208333333333333
144
0.0
144
0.0
144
0.0
144
0.0
144
1.0
144
0.0
144
0.0
144
0.0
144
0.0
144
1.0
147
0.0208333333333333
147
0.0
147
0.0
147
0.0
147
0.0
147
0.0208333333333333
147
0.0
147
0.0
147
0.0
147
0.0
147
1.0
147
0.0
147
0.0
147
0.0
147
0.0
147
1.0
  0
MLEADERSTYLE
  5
2FF5
102
{ACAD_REACTORS
330
2FF4
102
}
330
2FF4
100
AcDbMLeaderStyle
170
     2
171
     1
172
     0
 90
        2
 40
0.0
 41
0.0
173
     1
 91
-1056964608
340
2FE9
 92
       -2
290
     1
 42
0.09
291
     1
 43
0.36
  3
Standard
 44
0.18
300

342
2FE4
174
     1
178
     6
175
     1
176
     0
 93
-1056964608
 45
0.18
292
     0
297
     0
 46
0.18
 94
-1056964608
 47
1.0
 49
1.0
140
1.0
293
     1
141
0.0
294
     1
177
     0
142
1.0
295
     0
296
     0
143
0.125
1001
ACAD_MLEADERVER
1070
     2
  0
MLINESTYLE
  5
2FEE
102
{ACAD_REACTORS
330
2FED
102
}
330
2FED
100
AcDbMlineStyle
  2
STANDARD
 70
     0
  3

 62
   256
 51
90.0
 52
90.0
 71
     2
 49
0.5
 62
   256
  6
BYLAYER
 49
-0.5
 62
   256
  6
BYLAYER
  0
ACDBPLACEHOLDER
  5
2F96
102
{ACAD_REACTORS
330
2F95
102
}
330
2F95
  0
SCALE
  5
2FC2
102
{ACAD_REACTORS
330
2FC1
102
}
330
2FC1
100
AcDbScale
 70
     0
300
1:1
140
1.0
141
1.0
290
     1
  0
SCALE
  5
2FC3
102
{ACAD_REACTORS
330
2FC1
102
}
330
2FC1
100
AcDbScale
 70
     0
300
1:2
140
1.0
141
2.0
290
     0
  0
SCALE
  5
2FC4
102
{ACAD_REACTORS
330
2FC1
102
}
330
2FC1
100
AcDbScale
 70
     0
300
1:4
140
1.0
141
4.0
290
     0
  0
SCALE
  5
2FC5
102
{ACAD_REACTORS
330
2FC1
102
}
330
2FC1
100
AcDbScale
 70
     0
300
1:5
140
1.0
141
5.0
290
     0
  0
SCALE
  5
2FC6
102
{ACAD_REACTORS
330
2FC1
102
}
330
2FC1
100
AcDbScale
 70
     0
300
1:8
140
1.0
141
8.0
290
     0
  0
SCALE
  5
2FC7
102
{ACAD_REACTORS
330
2FC1
102
}
330
2FC1
100
AcDbScale
 70
     0
300
1:10
140
1.0
141
10.0
290
     0
  0
SCALE
  5
2FC8
102
{ACAD_REACTORS
330
2FC1
102
}
330
2FC1
100
AcDbScale
 70
     0
300
1:16
140
1.0
141
16.0
290
     0
  0
SCALE
  5
2FC9
102
{ACAD_REACTORS
330
2FC1
102
}
330
2FC1
100
AcDbScale
 70
     0
300
1:20
140
1.0
141
20.0
290
     0
  0
SCALE
  5
2FCA
102
{ACAD_REACTORS
330
2FC1
102
}
330
2FC1
100
AcDbScale
 70
     0
300
1:30
140
1.0
141
30.0
290
     0
  0
SCALE
  5
2FCB
102
{ACAD_REACTORS
330
2FC1
102
}
330
2FC1
100
AcDbScale
 70
     0
300
1:40
140
1.0
141
40.0
290
     0
  0
SCALE
  5
2FCC
102
{ACAD_REACTORS
330
2FC1
102
}
330
2FC1
100
AcDbScale
 70
     0
300
1:50
140
1.0
141
50.0
290
     0
  0
SCALE
  5
2FCD
102
{ACAD_REACTORS
330
2FC1
102
}
330
2FC1
100
AcDbScale
 70
     0
300
1:100
140
1.0
141
100.0
290
     0
  0
SCALE
  5
2FCE
102
{ACAD_REACTORS
330
2FC1
102
}
330
2FC1
100
AcDbScale
 70
     0
300
2:1
140
2.0
141
1.0
290
     0
  0
SCALE
  5
2FCF
102
{ACAD_REACTORS
330
2FC1
102
}
330
2FC1
100
AcDbScale
 70
     0
300
4:1
140
4.0
141
1.0
290
     0
  0
SCALE
  5
2FD0
102
{ACAD_REACTORS
330
2FC1
102
}
330
2FC1
100
AcDbScale
 70
     0
300
8:1
140
8.0
141
1.0
290
     0
  0
SCALE
  5
2FD1
102
{ACAD_REACTORS
330
2FC1
102
}
330
2FC1
100
AcDbScale
 70
     0
300
10:1
140
10.0
141
1.0
290
     0
  0
SCALE
  5
2FD2
102
{ACAD_REACTORS
330
2FC1
102
}
330
2FC1
100
AcDbScale
 70
     0
300
100:1
140
100.0
141
1.0
290
     0
  0
SCALE
  5
2FD3
102
{ACAD_REACTORS
330
2FC1
102
}
330
2FC1
100
AcDbScale
 70
     0
300
1/128" = 1'-0"
140
0.0078125
141
12.0
290
     0
  0
SCALE
  5
2FD4
102
{ACAD_REACTORS
330
2FC1
102
}
330
2FC1
100
AcDbScale
 70
     0
300
1/64" = 1'-0"
140
0.015625
141
12.0
290
     0
  0
SCALE
  5
2FD5
102
{ACAD_REACTORS
330
2FC1
102
}
330
2FC1
100
AcDbScale
 70
     0
300
1/32" = 1'-0"
140
0.03125
141
12.0
290
     0
  0
SCALE
  5
2FD6
102
{ACAD_REACTORS
330
2FC1
102
}
330
2FC1
100
AcDbScale
 70
     0
300
1/16" = 1'-0"
140
0.0625
141
12.0
290
     0
  0
SCALE
  5
2FD7
102
{ACAD_REACTORS
330
2FC1
102
}
330
2FC1
100
AcDbScale
 70
     0
300
3/32" = 1'-0"
140
0.09375
141
12.0
290
     0
  0
SCALE
  5
2FD8
102
{ACAD_REACTORS
330
2FC1
102
}
330
2FC1
100
AcDbScale
 70
     0
300
1/8" = 1'-0"
140
0.125
141
12.0
290
     0
  0
SCALE
  5
2FD9
102
{ACAD_REACTORS
330
2FC1
102
}
330
2FC1
100
AcDbScale
 70
     0
300
3/16" = 1'-0"
140
0.1875
141
12.0
290
     0
  0
SCALE
  5
2FDA
102
{ACAD_REACTORS
330
2FC1
102
}
330
2FC1
100
AcDbScale
 70
     0
300
1/4" = 1'-0"
140
0.25
141
12.0
290
     0
  0
SCALE
  5
2FDB
102
{ACAD_REACTORS
330
2FC1
102
}
330
2FC1
100
AcDbScale
 70
     0
300
3/8" = 1'-0"
140
0.375
141
12.0
290
     0
  0
SCALE
  5
2FDC
102
{ACAD_REACTORS
330
2FC1
102
}
330
2FC1
100
AcDbScale
 70
     0
300
1/2" = 1'-0"
140
0.5
141
12.0
290
     0
  0
SCALE
  5
2FDD
102
{ACAD_REACTORS
330
2FC1
102
}
330
2FC1
100
AcDbScale
 70
     0
300
3/4" = 1'-0"
140
0.75
141
12.0
290
     0
  0
SCALE
  5
2FDE
102
{ACAD_REACTORS
330
2FC1
102
}
330
2FC1
100
AcDbScale
 70
     0
300
1" = 1'-0"
140
1.0
141
12.0
290
     0
  0
SCALE
  5
2FDF
102
{ACAD_REACTORS
330
2FC1
102
}
330
2FC1
100
AcDbScale
 70
     0
300
1-1/2" = 1'-0"
140
1.5
141
12.0
290
     0
  0
SCALE
  5
2FE0
102
{ACAD_REACTORS
330
2FC1
102
}
330
2FC1
100
AcDbScale
 70
     0
300
3" = 1'-0"
140
3.0
141
12.0
290
     0
  0
SCALE
  5
2FE1
102
{ACAD_REACTORS
330
2FC1
102
}
330
2FC1
100
AcDbScale
 70
     0
300
6" = 1'-0"
140
6.0
141
12.0
290
     0
  0
SCALE
  5
2FE2
102
{ACAD_REACTORS
330
2FC1
102
}
330
2FC1
100
AcDbScale
 70
     0
300
1'-0" = 1'-0"
140
12.0
141
12.0
290
     0
  0
TABLESTYLE
  5
2FF3
102
{ACAD_XDICTIONARY
360
3181
102
}
102
{ACAD_REACTORS
330
2FF2
102
}
330
2FF2
100
AcDbTableStyle
  3
Standard
 70
     0
 71
     0
 40
0.06
 41
0.06
280
     0
281
     0
  7
STANDARD
140
0.18
170
     2
 62
     0
 63
     7
283
     0
274
    -2
284
     1
 64
     0
275
    -2
285
     1
 65
     0
276
    -2
286
     1
 66
     0
277
    -2
287
     1
 67
     0
278
    -2
288
     1
 68
     0
279
    -2
289
     1
 69
     0
  7
STANDARD
140
0.25
170
     5
 62
     0
 63
     7
283
     0
274
    -2
284
     1
 64
     0
275
    -2
285
     1
 65
     0
276
    -2
286
     1
 66
     0
277
    -2
287
     1
 67
     0
278
    -2
288
     1
 68
     0
279
    -2
289
     1
 69
     0
  7
STANDARD
140
0.18
170
     5
 62
     0
 63
     7
283
     0
274
    -2
284
     1
 64
     0
275
    -2
285
     1
 65
     0
276
    -2
286
     1
 66
     0
277
    -2
287
     1
 67
     0
278
    -2
288
     1
 68
     0
279
    -2
289
     1
 69
     0
  0
VISUALSTYLE
  5
2FB6
102
{ACAD_REACTORS
330
2FB0
102
}
330
2FB0
100
AcDbVisualStyle
  2
2dWireframe
 70
     4
 71
     0
 72
     2
 73
     0
 90
        0
 40
-0.6
 41
-30.0
 62
     5
 63
     7
 74
     1
 91
        4
 64
     7
 65
   257
 75
     1
175
     1
 42
1.0
 92
        0
 66
   257
 43
1.0
 76
     1
 77
     6
 78
     2
 67
     7
 79
     5
170
     0
171
     0
290
     0
174
     0
 93
        1
 44
0.0
173
     0
291
     0
 45
0.0
1001
ACAD
1000
AcDbSavedByObjectVersion
1070
     0
  0
VISUALSTYLE
  5
2FB8
102
{ACAD_REACTORS
330
2FB0
102
}
330
2FB0
100
AcDbVisualStyle
  2
3D Hidden
 70
     6
 71
     1
 72
     2
 73
     2
 90
        0
 40
-0.6
 41
-30.0
 62
     5
 63
     7
 74
     2
 91
        2
 64
     7
 65
   257
 75
     2
175
     1
 42
40.0
 92
        0
 66
   257
 43
1.0
 76
     1
 77
     6
 78
     2
 67
     7
 79
     3
170
     0
171
     0
290
     0
174
     0
 93
        1
 44
0.0
173
     0
291
     0
 45
0.0
1001
ACAD
1000
AcDbSavedByObjectVersion
1070
     0
  0
VISUALSTYLE
  5
2FB7
102
{ACAD_REACTORS
330
2FB0
102
}
330
2FB0
100
AcDbVisualStyle
  2
3dWireframe
 70
     5
 71
     0
 72
     2
 73
     0
 90
        0
 40
-0.6
 41
-30.0
 62
     5
 63
     7
 74
     1
 91
        4
 64
     7
 65
   257
 75
     1
175
     1
 42
1.0
 92
        0
 66
   257
 43
1.0
 76
     1
 77
     6
 78
     2
 67
     7
 79
     5
170
     0
171
     0
290
     0
174
     0
 93
        1
 44
0.0
173
     0
291
     0
 45
0.0
1001
ACAD
1000
AcDbSavedByObjectVersion
1070
     0
  0
VISUALSTYLE
  5
2FB5
102
{ACAD_REACTORS
330
2FB0
102
}
330
2FB0
100
AcDbVisualStyle
  2
Basic
 70
     7
 71
     1
 72
     0
 73
     1
 90
        0
 40
-0.6
 41
-30.0
 62
     5
 63
     7
 74
     0
 91
        4
 64
     7
 65
   257
 75
     1
175
     1
 42
1.0
 92
        8
 66
     7
 43
1.0
 76
     1
 77
     6
 78
     2
 67
     7
 79
     5
170
     0
171
     0
290
     0
174
     0
 93
        1
 44
0.0
173
     0
291
     1
 45
0.0
1001
ACAD
1000
AcDbSavedByObjectVersion
1070
     0
  0
VISUALSTYLE
  5
2FBC
102
{ACAD_REACTORS
330
2FB0
102
}
330
2FB0
100
AcDbVisualStyle
  2
Brighten
 70
    12
 71
     2
 72
     2
 73
     0
 90
        0
 40
-0.6
 41
-30.0
 62
     5
 63
     7
 74
     1
 91
        4
 64
     7
 65
   257
 75
     1
175
     1
 42
1.0
 92
        8
 66
     7
 43
1.0
 76
     1
 77
     6
 78
     2
 67
     7
 79
     5
170
     0
171
     0
290
     0
174
     0
 93
        1
 44
50.0
173
     0
291
     1
 45
0.0
1001
ACAD
1000
AcDbSavedByObjectVersion
1070
     0
  0
VISUALSTYLE
  5
2FC0
102
{ACAD_REACTORS
330
2FB0
102
}
330
2FB0
100
AcDbVisualStyle
  2
ColorChange
 70
    16
 71
     2
 72
     2
 73
     3
 90
        0
 40
-0.6
 41
-30.0
 62
     5
 63
     8
 74
     1
 91
        4
 64
     7
 65
   257
 75
     1
175
     1
 42
1.0
 92
        8
 66
     8
 43
1.0
 76
     1
 77
     6
 78
     2
 67
     7
 79
     5
170
     0
171
     0
290
     0
174
     0
 93
        1
 44
0.0
173
     0
291
     1
 45
0.0
1001
ACAD
1000
AcDbSavedByObjectVersion
1070
     0
  0
VISUALSTYLE
  5
2FB9
102
{ACAD_REACTORS
330
2FB0
102
}
330
2FB0
100
AcDbVisualStyle
  2
Conceptual
 70
     9
 71
     3
 72
     2
 73
     0
 90
        0
 40
-0.6
 41
-30.0
 62
     5
 63
     7
 74
     2
 91
        2
 64
     7
 65
   257
 75
     1
175
     1
 42
40.0
 92
        8
 66
     7
 43
1.0
 76
     1
 77
     6
 78
     2
 67
     7
 79
     3
170
     0
171
     0
290
     0
174
     0
 93
        1
 44
0.0
173
     0
291
     0
 45
0.0
1001
ACAD
1000
AcDbSavedByObjectVersion
1070
     0
  0
VISUALSTYLE
  5
2FBB
102
{ACAD_REACTORS
330
2FB0
102
}
330
2FB0
100
AcDbVisualStyle
  2
Dim
 70
    11
 71
     2
 72
     2
 73
     0
 90
        0
 40
-0.6
 41
-30.0
 62
     5
 63
     7
 74
     1
 91
        4
 64
     7
 65
   257
 75
     1
175
     1
 42
1.0
 92
        8
 66
     7
 43
1.0
 76
     1
 77
     6
 78
     2
 67
     7
 79
     5
170
     0
171
     0
290
     0
174
     0
 93
        1
 44
-50.0
173
     0
291
     1
 45
0.0
1001
ACAD
1000
AcDbSavedByObjectVersion
1070
     0
  0
VISUALSTYLE
  5
2FBF
102
{ACAD_REACTORS
330
2FB0
102
}
330
2FB0
100
AcDbVisualStyle
  2
Facepattern
 70
    15
 71
     2
 72
     2
 73
     0
 90
        0
 40
-0.6
 41
-30.0
 62
     5
 63
     7
 74
     1
 91
        4
 64
     7
 65
   257
 75
     1
175
     1
 42
1.0
 92
        8
 66
     7
 43
1.0
 76
     1
 77
     6
 78
     2
 67
     7
 79
     5
170
     0
171
     0
290
     0
174
     0
 93
        1
 44
0.0
173
     0
291
     1
 45
0.0
1001
ACAD
1000
AcDbSavedByObjectVersion
1070
     0
  0
VISUALSTYLE
  5
2FB1
102
{ACAD_REACTORS
330
2FB0
102
}
330
2FB0
100
AcDbVisualStyle
  2
Flat
 70
     0
 71
     2
 72
     1
 73
     1
 90
        2
 40
-0.6
 41
30.0
 62
     5
 63
     7
 74
     0
 91
        4
 64
     7
 65
   257
 75
     1
175
     1
 42
1.0
 92
        8
 66
     7
 43
1.0
 76
     1
 77
     6
 78
     2
 67
     7
 79
     5
170
     0
171
     0
290
     0
174
     0
 93
       13
 44
0.0
173
     0
291
     1
 45
0.0
1001
ACAD
1000
AcDbSavedByObjectVersion
1070
     0
  0
VISUALSTYLE
  5
2FB2
102
{ACAD_REACTORS
330
2FB0
102
}
330
2FB0
100
AcDbVisualStyle
  2
FlatWithEdges
 70
     1
 71
     2
 72
     1
 73
     1
 90
        2
 40
-0.6
 41
30.0
 62
     5
 63
     7
 74
     1
 91
        4
 64
     7
 65
   257
 75
     1
175
     1
 42
1.0
 92
        0
 66
   257
 43
1.0
 76
     1
 77
     6
 78
     2
 67
     7
 79
     5
170
     0
171
     0
290
     0
174
     0
 93
       13
 44
0.0
173
     0
291
     1
 45
0.0
1001
ACAD
1000
AcDbSavedByObjectVersion
1070
     0
  0
VISUALSTYLE
  5
2FB3
102
{ACAD_REACTORS
330
2FB0
102
}
330
2FB0
100
AcDbVisualStyle
  2
Gouraud
 70
     2
 71
     2
 72
     2
 73
     1
 90
        2
 40
-0.6
 41
30.0
 62
     5
 63
     7
 74
     0
 91
        4
 64
     7
 65
   257
 75
     1
175
     1
 42
1.0
 92
        0
 66
     7
 43
1.0
 76
     1
 77
     6
 78
     2
 67
     7
 79
     5
170
     0
171
     0
290
     0
174
     0
 93
       13
 44
0.0
173
     0
291
     1
 45
0.0
1001
ACAD
1000
AcDbSavedByObjectVersion
1070
     0
  0
VISUALSTYLE
  5
2FB4
102
{ACAD_REACTORS
330
2FB0
102
}
330
2FB0
100
AcDbVisualStyle
  2
GouraudWithEdges
 70
     3
 71
     2
 72
     2
 73
     1
 90
        2
 40
-0.6
 41
30.0
 62
     5
 63
     7
 74
     1
 91
        4
 64
     7
 65
   257
 75
     1
175
     1
 42
1.0
 92
        0
 66
   257
 43
1.0
 76
     1
 77
     6
 78
     2
 67
     7
 79
     5
170
     0
171
     0
290
     0
174
     0
 93
       13
 44
0.0
173
     0
291
     1
 45
0.0
1001
ACAD
1000
AcDbSavedByObjectVersion
1070
     0
  0
VISUALSTYLE
  5
2FBE
102
{ACAD_REACTORS
330
2FB0
102
}
330
2FB0
100
AcDbVisualStyle
  2
Linepattern
 70
    14
 71
     2
 72
     2
 73
     0
 90
        0
 40
-0.6
 41
-30.0
 62
     5
 63
     7
 74
     1
 91
        4
 64
     7
 65
   257
 75
     7
175
     7
 42
1.0
 92
        8
 66
     7
 43
1.0
 76
     1
 77
     6
 78
     2
 67
     7
 79
     5
170
     0
171
     0
290
     0
174
     0
 93
        1
 44
0.0
173
     0
291
     1
 45
0.0
1001
ACAD
1000
AcDbSavedByObjectVersion
1070
     0
  0
VISUALSTYLE
  5
2FBA
102
{ACAD_REACTORS
330
2FB0
102
}
330
2FB0
100
AcDbVisualStyle
  2
Realistic
 70
     8
 71
     2
 72
     2
 73
     0
 90
        0
 40
-0.6
 41
-30.0
 62
     5
 63
     7
 74
     1
 91
        0
 64
     7
 65
   257
 75
     1
175
     1
 42
1.0
 92
        8
 66
     8
 43
1.0
 76
     1
 77
     6
 78
     2
 67
     7
 79
     5
170
     0
171
     0
290
     0
174
     0
 93
       13
 44
0.0
173
     0
291
     0
 45
0.0
1001
ACAD
1000
AcDbSavedByObjectVersion
1070
     0
  0
VISUALSTYLE
  5
2FBD
102
{ACAD_REACTORS
330
2FB0
102
}
330
2FB0
100
AcDbVisualStyle
  2
Thicken
 70
    13
 71
     2
 72
     2
 73
     0
 90
        0
 40
-0.6
 41
-30.0
 62
     5
 63
     7
 74
     1
 91
        4
 64
     7
 65
   257
 75
     1
175
     1
 42
1.0
 92
       12
 66
     7
 43
1.0
 76
     1
 77
     6
 78
     2
 67
     7
 79
     5
170
     0
171
     0
290
     0
174
     0
 93
        1
 44
0.0
173
     0
291
     1
 45
0.0
1001
ACAD
1000
AcDbSavedByObjectVersion
1070
     0
  0
DICTIONARYVAR
  5
317D
102
{ACAD_REACTORS
330
317A
102
}
330
317A
100
DictionaryVariables
280
     0
  1
1:1
  0
DICTIONARYVAR
  5
317C
102
{ACAD_REACTORS
330
317A
102
}
330
317A
100
DictionaryVariables
280
     0
  1
STANDARD
  0
DICTIONARYVAR
  5
317B
102
{ACAD_REACTORS
330
317A
102
}
330
317A
100
DictionaryVariables
280
     0
  1
STANDARD
  0
DICTIONARYVAR
  5
3180
102
{ACAD_REACTORS
330
317A
102
}
330
317A
100
DictionaryVariables
280
     0
  1
1
  0
DICTIONARYVAR
  5
317F
102
{ACAD_REACTORS
330
317A
102
}
330
317A
100
DictionaryVariables
280
     0
  1
1
  0
DICTIONARYVAR
  5
317E
102
{ACAD_REACTORS
330
317A
102
}
330
317A
100
DictionaryVariables
280
     0
  1
127
  0
DICTIONARY
  5
3138
102
{ACAD_REACTORS
330
312A
102
}
330
312A
100
AcDbDictionary
281
     1
  0
DICTIONARY
  5
3078
102
{ACAD_REACTORS
330
3077
102
}
330
3077
100
AcDbDictionary
281
     1
  3
DWGSETTINGS
350
3079
  3
TRANSSETTINGS
350
307A
  0
LAYER_INDEX
  5
316C
102
{ACAD_REACTORS
330
316B
102
}
330
316B
100
AcDbIndex
 40
2456213.407986389
100
AcDbLayerIndex
  8
0
360
316D
 90
        0
  8
OUTLINE
360
316E
 90
       45
  8
SIZE
360
316F
 90
       40
  8
BASIS
360
3170
 90
        1
  8
DETAIL
360
3171
 90
       44
  8
ARRANGE
360
3172
 90
        2
  8
DEFPOINTS
360
3173
 90
        0
  8
ETC
360
3174
 90
        3
  8
FIX
360
3175
 90
        0
  8
NOTE
360
3176
 90
        7
  8
SERVICESPACE
360
3177
 90
        0
  8
SYMBOLLINE
360
3178
 90
        0
  8
DETAIL___1
360
3179
 90
        2
  0
DICTIONARY
  5
3190
330
2FFE
100
AcDbDictionary
280
     1
281
     1
  3
ACAD_XREC_ROUNDTRIP
360
3191
  0
DICTIONARY
  5
318E
330
2FFA
100
AcDbDictionary
280
     1
281
     1
  3
ACAD_XREC_ROUNDTRIP
360
318F
  0
DICTIONARY
  5
2FA1
330
2FA0
100
AcDbDictionary
280
     1
281
     1
  3
ACAD_XREC_ROUNDTRIP
360
318B
  3
BUMPTILE
360
2FA3
  3
DIFFUSETILE
360
2FA2
  3
OPACITYTILE
360
2FA6
  3
REFLECTIONTILE
360
2FA5
  3
REFRACTIONTILE
360
2FA7
  3
SPECULARTILE
360
2FA4
  0
DICTIONARY
  5
2F99
330
2F98
100
AcDbDictionary
280
     1
281
     1
  3
ACAD_XREC_ROUNDTRIP
360
318A
  3
BUMPTILE
360
2F9B
  3
DIFFUSETILE
360
2F9A
  3
OPACITYTILE
360
2F9E
  3
REFLECTIONTILE
360
2F9D
  3
REFRACTIONTILE
360
2F9F
  3
SPECULARTILE
360
2F9C
  0
DICTIONARY
  5
2FA9
330
2FA8
100
AcDbDictionary
280
     1
281
     1
  3
ACAD_XREC_ROUNDTRIP
360
318C
  3
BUMPTILE
360
2FAB
  3
DIFFUSETILE
360
2FAA
  3
OPACITYTILE
360
2FAE
  3
REFLECTIONTILE
360
2FAD
  3
REFRACTIONTILE
360
2FAF
  3
SPECULARTILE
360
2FAC
  0
DICTIONARY
  5
3181
330
2FF3
100
AcDbDictionary
280
     1
281
     1
  3
ACAD_ROUNDTRIP_2008_TABLESTYLE_CELLSTYLEMAP
360
3182
  3
ACAD_XREC_ROUNDTRIP
360
318D
  0
IDBUFFER
  5
316D
330
0
100
AcDbIdBuffer
  0
IDBUFFER
  5
316E
330
0
100
AcDbIdBuffer
330
2EFE
330
2EFF
330
2F00
330
2F01
330
2F02
330
2F03
330
2F04
330
2F05
330
2F06
330
2F07
330
2F08
330
2F09
330
2F0A
330
2F0B
330
2F0C
330
2F0D
330
2F0E
330
2F0F
330
2F10
330
2F11
330
2F12
330
2F13
330
2F14
330
2F15
330
2F16
330
2F17
330
2F18
330
2F19
330
2F1A
330
953
330
954
330
955
330
956
330
957
330
958
330
2EE1
330
2EF5
330
2EF6
330
2EF7
330
2EF8
330
2EF9
330
2EFA
330
2EFB
330
2EFC
330
2EFD
  0
IDBUFFER
  5
316F
330
0
100
AcDbIdBuffer
330
2F2B
330
2F2C
330
2F2D
330
2F2E
330
2F2F
330
2F30
330
2F31
330
2F32
330
2F33
330
2F34
330
2F35
330
2F36
330
2F37
330
2F38
330
2F39
330
2F3A
330
2F3B
330
2F3C
330
2F3D
330
2F3E
330
2F3F
330
2F40
330
2F41
330
2F42
330
2F1B
330
2F1C
330
2F1D
330
2F1E
330
2F1F
330
2F20
330
2F21
330
2F22
330
2F23
330
2F24
330
2F25
330
2F26
330
2F27
330
2F28
330
2F29
330
2F2A
  0
IDBUFFER
  5
3170
330
0
100
AcDbIdBuffer
330
2EC9
  0
IDBUFFER
  5
3171
330
0
100
AcDbIdBuffer
330
2ED6
330
2ED7
330
2ED8
330
2ED9
330
2EDA
330
2EDB
330
2EDC
330
2EDD
330
2EDE
330
2EDF
330
2EE0
330
2EE2
330
2EE3
330
2EE4
330
2EE5
330
2EE6
330
2EE7
330
2EE8
330
2EE9
330
2EEA
330
2EEB
330
2EEC
330
2EED
330
2EEE
330
2EEF
330
2EF0
330
2EF1
330
2EF2
330
2EBE
330
2EBF
330
2EC4
330
2EC5
330
2EC6
330
2EC8
330
2ECC
330
2ECD
330
2ECE
330
2ECF
330
2ED0
330
2ED1
330
2ED2
330
2ED3
330
2ED4
330
2ED5
  0
IDBUFFER
  5
3172
330
0
100
AcDbIdBuffer
330
2EC3
330
2ECA
  0
IDBUFFER
  5
3173
330
0
100
AcDbIdBuffer
  0
IDBUFFER
  5
3174
330
0
100
AcDbIdBuffer
330
2EC0
330
2EC1
330
2EC2
  0
IDBUFFER
  5
3175
330
0
100
AcDbIdBuffer
  0
IDBUFFER
  5
3176
330
0
100
AcDbIdBuffer
330
2EC7
330
2ECB
330
2EF3
330
2EF4
330
2F43
330
2F44
330
2F45
  0
IDBUFFER
  5
3177
330
0
100
AcDbIdBuffer
  0
IDBUFFER
  5
3178
330
0
100
AcDbIdBuffer
  0
IDBUFFER
  5
3179
330
0
100
AcDbIdBuffer
330
2EBC
330
2EBD
  0
XRECORD
  5
3191
102
{ACAD_REACTORS
330
3190
102
}
330
3190
100
AcDbXrecord
280
     1
102
SHADEPLOT
 70
     0
102
SHADEPLOTRESLEVEL
 70
     2
102
SHADEPLOTCUSTOMDPI
 70
   300
  0
XRECORD
  5
318F
102
{ACAD_REACTORS
330
318E
102
}
330
318E
100
AcDbXrecord
280
     1
102
SHADEPLOT
 70
     0
102
SHADEPLOTRESLEVEL
 70
     2
102
SHADEPLOTCUSTOMDPI
 70
   300
  0
XRECORD
  5
318B
102
{ACAD_REACTORS
330
2FA1
102
}
330
2FA1
100
AcDbXrecord
280
     1
102
MATERIAL
148
0.0
149
0.0
149
0.0
 93
        0
 94
      127
282
     0
 72
     0
 77
     0
171
     0
175
     0
179
     0
273
     0
  0
XRECORD
  5
2FA3
102
{ACAD_REACTORS
330
2FA1
102
}
330
2FA1
100
AcDbXrecord
280
     1
270
     1
271
     1
  0
XRECORD
  5
2FA2
102
{ACAD_REACTORS
330
2FA1
102
}
330
2FA1
100
AcDbXrecord
280
     1
270
     1
271
     1
  0
XRECORD
  5
2FA6
102
{ACAD_REACTORS
330
2FA1
102
}
330
2FA1
100
AcDbXrecord
280
     1
270
     1
271
     1
  0
XRECORD
  5
2FA5
102
{ACAD_REACTORS
330
2FA1
102
}
330
2FA1
100
AcDbXrecord
280
     1
270
     1
271
     1
  0
XRECORD
  5
2FA7
102
{ACAD_REACTORS
330
2FA1
102
}
330
2FA1
100
AcDbXrecord
280
     1
270
     1
271
     1
  0
XRECORD
  5
2FA4
102
{ACAD_REACTORS
330
2FA1
102
}
330
2FA1
100
AcDbXrecord
280
     1
270
     1
271
     1
  0
XRECORD
  5
318A
102
{ACAD_REACTORS
330
2F99
102
}
330
2F99
100
AcDbXrecord
280
     1
102
MATERIAL
148
0.0
149
0.0
149
0.0
 93
        0
 94
      127
282
     0
 72
     0
 77
     0
171
     0
175
     0
179
     0
273
     0
  0
XRECORD
  5
2F9B
102
{ACAD_REACTORS
330
2F99
102
}
330
2F99
100
AcDbXrecord
280
     1
270
     1
271
     1
  0
XRECORD
  5
2F9A
102
{ACAD_REACTORS
330
2F99
102
}
330
2F99
100
AcDbXrecord
280
     1
270
     1
271
     1
  0
XRECORD
  5
2F9E
102
{ACAD_REACTORS
330
2F99
102
}
330
2F99
100
AcDbXrecord
280
     1
270
     1
271
     1
  0
XRECORD
  5
2F9D
102
{ACAD_REACTORS
330
2F99
102
}
330
2F99
100
AcDbXrecord
280
     1
270
     1
271
     1
  0
XRECORD
  5
2F9F
102
{ACAD_REACTORS
330
2F99
102
}
330
2F99
100
AcDbXrecord
280
     1
270
     1
271
     1
  0
XRECORD
  5
2F9C
102
{ACAD_REACTORS
330
2F99
102
}
330
2F99
100
AcDbXrecord
280
     1
270
     1
271
     1
  0
XRECORD
  5
318C
102
{ACAD_REACTORS
330
2FA9
102
}
330
2FA9
100
AcDbXrecord
280
     1
102
MATERIAL
148
0.0
149
0.0
149
0.0
 93
        0
 94
      127
282
     0
 72
     0
 77
     0
171
     0
175
     0
179
     0
273
     0
  0
XRECORD
  5
2FAB
102
{ACAD_REACTORS
330
2FA9
102
}
330
2FA9
100
AcDbXrecord
280
     1
270
     1
271
     1
  0
XRECORD
  5
2FAA
102
{ACAD_REACTORS
330
2FA9
102
}
330
2FA9
100
AcDbXrecord
280
     1
270
     1
271
     1
  0
XRECORD
  5
2FAE
102
{ACAD_REACTORS
330
2FA9
102
}
330
2FA9
100
AcDbXrecord
280
     1
270
     1
271
     1
  0
XRECORD
  5
2FAD
102
{ACAD_REACTORS
330
2FA9
102
}
330
2FA9
100
AcDbXrecord
280
     1
270
     1
271
     1
  0
XRECORD
  5
2FAF
102
{ACAD_REACTORS
330
2FA9
102
}
330
2FA9
100
AcDbXrecord
280
     1
270
     1
271
     1
  0
XRECORD
  5
2FAC
102
{ACAD_REACTORS
330
2FA9
102
}
330
2FA9
100
AcDbXrecord
280
     1
270
     1
271
     1
  0
CELLSTYLEMAP
  5
3182
102
{ACAD_REACTORS
330
3181
102
}
330
3181
100
AcDbCellStyleMap
 90
        3
300
CELLSTYLE
  1
TABLEFORMAT_BEGIN
 90
        5
170
     1
 91
        0
 92
    32768
 62
   257
 93
        1
300
CONTENTFORMAT
  1
CONTENTFORMAT_BEGIN
 90
        0
 91
        0
 92
      512
 93
        0
300

 40
0.0
140
1.0
 94
        5
 62
     0
340
2FE4
144
0.25
309
CONTENTFORMAT_END
171
     0
 94
        0
309
TABLEFORMAT_END
  1
CELLSTYLE_BEGIN
 90
        1
 91
        1
300
_TITLE
309
CELLSTYLE_END
300
CELLSTYLE
  1
TABLEFORMAT_BEGIN
 90
        5
170
     1
 91
        0
 92
        0
 62
   257
 93
        1
300
CONTENTFORMAT
  1
CONTENTFORMAT_BEGIN
 90
        0
 91
        0
 92
      512
 93
        0
300

 40
0.0
140
1.0
 94
        5
 62
     0
340
2FE4
144
0.18
309
CONTENTFORMAT_END
171
     0
 94
        0
309
TABLEFORMAT_END
  1
CELLSTYLE_BEGIN
 90
        2
 91
        1
300
_HEADER
309
CELLSTYLE_END
300
CELLSTYLE
  1
TABLEFORMAT_BEGIN
 90
        5
170
     1
 91
        0
 92
        0
 62
   257
 93
        1
300
CONTENTFORMAT
  1
CONTENTFORMAT_BEGIN
 90
        0
 91
        0
 92
      512
 93
        0
300

 40
0.0
140
1.0
 94
        2
 62
     0
340
2FE4
144
0.18
309
CONTENTFORMAT_END
171
     0
 94
        0
309
TABLEFORMAT_END
  1
CELLSTYLE_BEGIN
 90
        3
 91
        2
300
_DATA
309
CELLSTYLE_END
  0
XRECORD
  5
318D
102
{ACAD_REACTORS
330
3181
102
}
330
3181
100
AcDbXrecord
280
     1
102
ACAD_ROUNDTRIP_PRE2007_TABLESTYLE
 90
      512
 91
        0
  1

 92
      512
 93
        0
  2

 94
      512
 95
        0
  3

  0
ENDSEC
  0
EOF
