  0
SECTION
  2
HEADER
  9
$ACADVER
  1
AC1009
  9
$INSBASE
 10
0.0
 20
0.0
 30
0.0
  9
$EXTMIN
 10
-1064.9991919999991
 20
-778.13806399999999
 30
0.0
  9
$EXTMAX
 10
1009.833809
 20
915.93266200000051
 30
50.0
  9
$LIMMIN
 10
-2970.0
 20
-2100.0
  9
$LIMMAX
 10
2970.0
 20
2100.0
  9
$ORTHOMODE
 70
     1
  9
$REGENMODE
 70
     0
  9
$FILLMODE
 70
     1
  9
$QTEXTMODE
 70
     0
  9
$MIRRTEXT
 70
     0
  9
$DRAGMODE
 70
     2
  9
$LTSCALE
 40
20.0
  9
$OSMODE
 70
   167
  9
$ATTMODE
 70
     1
  9
$TEXTSIZE
 40
64.0
  9
$TRACEWID
 40
0.05
  9
$TEXTSTYLE
  7
STANDARD
  9
$CLAYER
  8
OUTLINE
  9
$CELTYPE
  6
CONTINUOUS
  9
$CECOLOR
 62
     3
  9
$DIMSCALE
 40
1.0
  9
$DIMASZ
 40
12.0
  9
$DIMEXO
 40
20.0
  9
$DIMDLI
 40
200.0
  9
$DIMRND
 40
0.0
  9
$DIMDLE
 40
0.0
  9
$DIMEXE
 40
20.0
  9
$DIMTP
 40
0.0
  9
$DIMTM
 40
0.0
  9
$DIMTXT
 40
64.0
  9
$DIMCEN
 40
0.09
  9
$DIMTSZ
 40
0.0
  9
$DIMTOL
 70
     0
  9
$DIMLIM
 70
     0
  9
$DIMTIH
 70
     0
  9
$DIMTOH
 70
     0
  9
$DIMSE1
 70
     0
  9
$DIMSE2
 70
     0
  9
$DIMTAD
 70
     1
  9
$DIMZIN
 70
     8
  9
$DIMBLK
  1
NONE
  9
$DIMASO
 70
     1
  9
$DIMSHO
 70
     0
  9
$DIMPOST
  1

  9
$DIMAPOST
  1

  9
$DIMALT
 70
     0
  9
$DIMALTD
 70
     2
  9
$DIMALTF
 40
25.399999999999999
  9
$DIMLFAC
 40
1.0
  9
$DIMTOFL
 70
     1
  9
$DIMTVP
 40
0.0
  9
$DIMTIX
 70
     1
  9
$DIMSOXD
 70
     0
  9
$DIMSAH
 70
     0
  9
$DIMBLK1
  1
NONE
  9
$DIMBLK2
  1
ORIGIN
  9
$DIMSTYLE
  2
STANDARD
  9
$DIMCLRD
 70
   256
  9
$DIMCLRE
 70
   256
  9
$DIMCLRT
 70
   256
  9
$DIMTFAC
 40
1.0
  9
$DIMGAP
 40
25.0
  9
$LUNITS
 70
     2
  9
$LUPREC
 70
     4
  9
$SKETCHINC
 40
0.1
  9
$FILLETRAD
 40
4.0
  9
$AUNITS
 70
     1
  9
$AUPREC
 70
     3
  9
$MENU
  1
ACAD
  9
$ELEVATION
 40
0.0
  9
$PELEVATION
 40
0.0
  9
$THICKNESS
 40
50.0
  9
$LIMCHECK
 70
     0
  9
$BLIPMODE
 70
     0
  9
$CHAMFERA
 40
0.0
  9
$CHAMFERB
 40
0.0
  9
$SKPOLY
 70
     0
  9
$TDCREATE
 40
2453136.5472293631
  9
$TDUPDATE
 40
2454293.637620254
  9
$TDINDWG
 40
0.1132112037
  9
$TDUSRTIMER
 40
0.113209213
  9
$USRTIMER
 70
     1
  9
$ANGBASE
 50
0.0
  9
$ANGDIR
 70
     0
  9
$PDMODE
 70
     3
  9
$PDSIZE
 40
-2.0
  9
$PLINEWID
 40
0.0
  9
$COORDS
 70
     2
  9
$SPLFRAME
 70
     0
  9
$SPLINETYPE
 70
     6
  9
$SPLINESEGS
 70
     8
  9
$ATTDIA
 70
     0
  9
$ATTREQ
 70
     1
  9
$HANDLING
 70
 22529
  9
$HANDSEED
  5
1C4F
  9
$SURFTAB1
 70
     6
  9
$SURFTAB2
 70
     6
  9
$SURFTYPE
 70
     6
  9
$SURFU
 70
     6
  9
$SURFV
 70
     6
  9
$UCSNAME
  2

  9
$UCSORG
 10
0.0
 20
0.0
 30
0.0
  9
$UCSXDIR
 10
1.0
 20
0.0
 30
0.0
  9
$UCSYDIR
 10
0.0
 20
1.0
 30
0.0
  9
$PUCSNAME
  2

  9
$PUCSORG
 10
0.0
 20
0.0
 30
0.0
  9
$PUCSXDIR
 10
1.0
 20
0.0
 30
0.0
  9
$PUCSYDIR
 10
0.0
 20
1.0
 30
0.0
  9
$USERI1
 70
     0
  9
$USERI2
 70
     0
  9
$USERI3
 70
     0
  9
$USERI4
 70
     0
  9
$USERI5
 70
     0
  9
$USERR1
 40
20.0
  9
$USERR2
 40
0.0
  9
$USERR3
 40
0.0
  9
$USERR4
 40
0.0
  9
$USERR5
 40
0.0
  9
$WORLDVIEW
 70
     1
  9
$SHADEDGE
 70
     3
  9
$SHADEDIF
 70
    70
  9
$TILEMODE
 70
     1
  9
$MAXACTVP
 70
    48
  9
$PLIMCHECK
 70
     0
  9
$PEXTMIN
 10
-1.0000000000000000E+020
 20
-1.0000000000000000E+020
 30
-1.0000000000000000E+020
  9
$PEXTMAX
 10
1.0000000000000000E+020
 20
1.0000000000000000E+020
 30
1.0000000000000000E+020
  9
$PLIMMIN
 10
0.0
 20
0.0
  9
$PLIMMAX
 10
12.0
 20
9.0
  9
$UNITMODE
 70
     0
  9
$VISRETAIN
 70
     0
  9
$PLINEGEN
 70
     0
  9
$PSLTSCALE
 70
     0
  0
ENDSEC
  0
SECTION
  2
TABLES
  0
TABLE
  2
VPORT
 70
     3
  0
VPORT
  2
*ACTIVE
 70
     0
 10
0.0
 20
0.0
 11
1.0
 21
1.0
 12
-57.356795747428848
 22
80.549897048541425
 13
0.0
 23
0.0
 14
1.0
 24
1.0
 15
0.0
 25
0.0
 16
0.0
 26
0.0
 36
1.0
 17
0.0
 27
0.0
 37
0.0
 40
1952.270027025359
 41
1.6612612612612609
 42
50.0
 43
0.0
 44
0.0
 50
0.0
 51
0.0
 71
     0
 72
  1000
 73
     1
 74
     0
 75
     0
 76
     0
 77
     0
 78
     0
  0
ENDTAB
  0
TABLE
  2
LTYPE
 70
     3
  0
LTYPE
  2
CONTINUOUS
 70
     0
  3
実線
 72
    65
 73
     0
 40
0.0
  0
LTYPE
  2
DASHDOT
 70
     0
  3
____ _ ____ _ ____ _ ____ _ ____ _ ____ _ ____
 72
    65
 73
     4
 40
5.5
 49
4.0
 49
-0.6
 49
0.3
 49
-0.6
  0
LTYPE
  2
DASHED
 70
     0
  3
-- -- -- -- -- -- -- -- -- -- -- -- -- -- --
 72
    65
 73
     2
 40
0.75
 49
0.5
 49
-0.25
  0
ENDTAB
  0
TABLE
  2
LAYER
 70
    12
  0
LAYER
  2
0
 70
     0
 62
     7
  6
CONTINUOUS
  0
LAYER
  2
OUTLINE
 70
     0
 62
     3
  6
CONTINUOUS
  0
LAYER
  2
SIZE
 70
     0
 62
    30
  6
CONTINUOUS
  0
LAYER
  2
BASIS
 70
     0
 62
     6
  6
DASHDOT
  0
LAYER
  2
DETAIL
 70
     0
 62
     5
  6
CONTINUOUS
  0
LAYER
  2
ARRANGE
 70
     0
 62
     1
  6
CONTINUOUS
  0
LAYER
  2
DEFPOINTS
 70
     0
 62
     7
  6
CONTINUOUS
  0
LAYER
  2
ETC
 70
     0
 62
    61
  6
CONTINUOUS
  0
LAYER
  2
FIX
 70
     0
 62
    11
  6
CONTINUOUS
  0
LAYER
  2
NOTE
 70
     0
 62
     4
  6
CONTINUOUS
  0
LAYER
  2
SERVICESPACE
 70
     0
 62
     2
  6
DASHDOT
  0
LAYER
  2
SYMBOLLINE
 70
     4
 62
    15
  6
CONTINUOUS
  0
ENDTAB
  0
TABLE
  2
STYLE
 70
     1
  0
STYLE
  2
STANDARD
 70
     0
 40
64.0
 41
0.9
 50
0.0
 71
     0
 42
64.0
  3
SIMPLEX.shx
  4
BIGFONT.shx
  0
ENDTAB
  0
TABLE
  2
VIEW
 70
     1
  0
VIEW
  2
ALL
 70
     0
 40
4282.6198079999967
 10
0.0
 20
41.309903999999989
 41
5940.0
 11
0.0
 21
0.0
 31
1.0
 12
0.0
 22
0.0
 32
0.0
 42
50.0
 43
0.0
 44
0.0
 50
0.0
 71
     0
  0
ENDTAB
  0
TABLE
  2
UCS
 70
     0
  0
ENDTAB
  0
TABLE
  2
APPID
 70
     2
  0
APPID
  2
ACAD
 70
     0
  0
APPID
  2
AUTOCAD_POSTSCRIPT_FIGURE
 70
     0
  0
ENDTAB
  0
TABLE
  2
DIMSTYLE
 70
     1
  0
DIMSTYLE
  2
STANDARD
 70
     0
  3

  4

  5

  6

  7

 40
1.0
 41
0.18
 42
0.0625
 43
0.38
 44
0.18
 45
0.0
 46
0.0
 47
0.0
 48
0.0
140
0.18
141
0.09
142
0.0
143
25.399999999999999
144
1.0
145
0.0
146
1.0
147
0.09
 71
     0
 72
     0
 73
     1
 74
     1
 75
     0
 76
     0
 77
     0
 78
     0
170
     0
171
     2
172
     0
173
     0
174
     0
175
     0
176
     7
177
     7
178
     7
  0
ENDTAB
  0
ENDSEC
  0
SECTION
  2
BLOCKS
  0
BLOCK
  8
0
  2
$MODEL_SPACE
 70
     0
 10
0.0
 20
0.0
 30
0.0
  3
$MODEL_SPACE
  1

  0
ENDBLK
  5
138A
  8
0
  0
BLOCK
 67
     1
  8
0
  2
$PAPER_SPACE
 70
     0
 10
0.0
 20
0.0
 30
0.0
  3
$PAPER_SPACE
  1

  0
ENDBLK
  5
1386
 67
     1
  8
0
  0
BLOCK
  8
0
  2
DOT1
 70
     0
 10
0.0
 20
0.0
 30
0.0
  3
DOT1
  1

  0
CIRCLE
  5
13A7
  8
SIZE
  6
CONTINUOUS
 62
     7
 10
0.0
 20
0.0
 30
0.0
 40
3.0
  0
ENDBLK
  5
13A8
  8
0
  0
BLOCK
  8
0
  2
_ORIGIN
 70
     0
 10
0.0
 20
0.0
 30
0.0
  3
_ORIGIN
  1

  0
CIRCLE
  5
13AB
  8
0
  6
CONTINUOUS
 62
     7
 10
0.0
 20
0.0
 30
0.0
 40
0.5
  0
LINE
  5
13AC
  8
0
  6
CONTINUOUS
 62
     7
 10
0.0
 20
0.0
 30
0.0
 11
-1.0
 21
0.0
 31
0.0
  0
ENDBLK
  5
13AD
  8
0
  0
BLOCK
  8
0
 62
    30
  2
A$C65451FC6
 70
     0
 10
0.0
 20
0.0
 30
0.0
  3
A$C65451FC6
  1

  0
ARC
  5
13B0
  8
DETAIL
  6
DASHED
 62
     5
 39
50.0
 10
20.29999980566555
 20
16.772176042129839
 30
0.0
 40
1.5
 50
180.0
 51
270.0
  0
ARC
  5
13B1
  8
DETAIL
  6
DASHED
 62
     5
 39
50.0
 10
14.19999980566552
 20
16.794616042129839
 30
0.0
 40
2.299999999999998
 50
0.0
 51
44.999999999999687
  0
ARC
  5
13B2
  8
DETAIL
  6
DASHED
 62
     5
 39
50.0
 10
14.19999980566552
 20
16.794616042129839
 30
0.0
 40
4.599999999999997
 50
0.0
 51
44.999999999999687
  0
ARC
  5
13B3
  8
DETAIL
  6
DASHED
 62
     5
 39
50.0
 10
17.79999980566555
 20
22.952689042129851
 30
0.0
 40
4.599999999999997
 50
180.0
 51
224.9999999999996
  0
ARC
  5
13B4
  8
DETAIL
  6
DASHED
 62
     5
 39
50.0
 10
17.79999980566555
 20
22.952689042129851
 30
0.0
 40
2.299999999999998
 50
180.0
 51
224.9999999999996
  0
ARC
  5
13B5
  8
DETAIL
  6
DASHED
 62
     5
 39
50.0
 10
20.29999980566555
 20
3.1721760421298471
 30
0.0
 40
1.5
 50
90.0
 51
180.0
  0
ARC
  5
13B6
  8
DETAIL
  6
DASHED
 62
     5
 39
50.0
 10
7.499999805665535
 20
34.699998042129849
 30
0.0
 40
3.0
 50
0.0
 51
90.0
  0
ARC
  5
13B7
  8
DETAIL
  6
DASHED
 62
     5
 39
50.0
 10
2.9999998056655381
 20
34.699998042129849
 30
0.0
 40
3.0
 50
90.0
 51
180.0
  0
ARC
  5
13B8
  8
DETAIL
  6
DASHED
 62
     5
 39
50.0
 10
10.899999805665511
 20
25.399998042129841
 30
0.0
 40
4.599999999999997
 50
0.0
 51
90.0
  0
ARC
  5
13B9
  8
DETAIL
  6
DASHED
 62
     5
 39
50.0
 10
10.899999805665511
 20
25.399998042129841
 30
0.0
 40
2.299999999999998
 50
0.0
 51
90.0
  0
LINE
  5
13BA
  8
DETAIL
  6
DASHED
 62
     5
 39
50.0
 10
-0.0000001943344614
 20
29.999998042129839
 30
0.0
 11
10.49999980566551
 21
29.999998042129839
 31
0.0
  0
LINE
  5
13BB
  8
DETAIL
  6
DASHED
 62
     5
 39
50.0
 10
7.499999805665535
 20
37.699998042129842
 30
0.0
 11
2.9999998056655381
 21
37.699998042129842
 31
0.0
  0
LINE
  5
13BC
  8
DETAIL
  6
DASHED
 62
     5
 39
50.0
 10
-0.0000001943344614
 20
27.699998042129842
 30
0.0
 11
-0.0000001943344614
 21
34.699998042129849
 31
0.0
  0
LINE
  5
13BD
  8
DETAIL
  6
DASHED
 62
     5
 39
50.0
 10
20.29999980566555
 20
15.272176042129839
 30
0.0
 11
20.29999980566555
 21
4.6721760421298484
 31
0.0
  0
LINE
  5
13BE
  8
DETAIL
  6
DASHED
 62
     5
 39
50.0
 10
18.799999805665522
 20
-0.000001957870154
 30
0.0
 11
18.799999805665522
 21
16.794616042129839
 31
0.0
  0
LINE
  5
13BF
  8
DETAIL
  6
DASHED
 62
     5
 39
50.0
 10
16.499999805665531
 20
-0.000001957870154
 30
0.0
 11
16.499999805665531
 21
16.794616042129839
 31
0.0
  0
LINE
  5
13C0
  8
DETAIL
  6
DASHED
 62
     5
 39
50.0
 10
15.826345805665531
 20
18.420961042129822
 30
0.0
 11
14.54730880566551
 21
19.699998042129842
 31
0.0
  0
LINE
  5
13C1
  8
DETAIL
  6
DASHED
 62
     5
 39
50.0
 10
17.452690805665551
 20
20.047307042129841
 30
0.0
 11
16.173653805665531
 21
21.326344042129829
 31
0.0
  0
LINE
  5
13C2
  8
DETAIL
  6
DASHED
 62
     5
 39
50.0
 10
13.19999980566552
 20
22.952689042129851
 30
0.0
 11
13.19999980566552
 21
25.399998042129841
 31
0.0
  0
LINE
  5
13C3
  8
DETAIL
  6
DASHED
 62
     5
 39
50.0
 10
15.499999805665521
 20
22.952689042129851
 30
0.0
 11
15.499999805665521
 21
25.399998042129841
 31
0.0
  0
LINE
  5
13C4
  8
DETAIL
  6
DASHED
 62
     5
 39
50.0
 10
16.499999805665531
 20
-0.000001957870154
 30
0.0
 11
18.799999805665522
 21
-0.000001957870154
 31
0.0
  0
LINE
  5
13C5
  8
DETAIL
  6
DASHED
 62
     5
 39
50.0
 10
10.49999980566551
 20
29.999998042129839
 30
0.0
 11
10.899999805665511
 21
29.999998042129839
 31
0.0
  0
LINE
  5
13C6
  8
DETAIL
  6
DASHED
 62
     5
 39
50.0
 10
10.49999980566551
 20
27.699998042129842
 30
0.0
 11
10.49999980566551
 21
34.699998042129849
 31
0.0
  0
ENDBLK
  5
13C7
  8
0
 62
    30
  0
BLOCK
  8
0
 62
    30
  2
_NONE
 70
     0
 10
0.0
 20
0.0
 30
0.0
  3
_NONE
  1

  0
ENDBLK
  5
13CA
  8
0
 62
    30
  0
BLOCK
  8
0
 62
    30
  2
_OPEN30
 70
     0
 10
0.0
 20
0.0
 30
0.0
  3
_OPEN30
  1

  0
LINE
  5
13CD
  8
0
  6
BYBLOCK
 62
     0
 10
-1.0
 20
0.26794919
 30
0.0
 11
0.0
 21
0.0
 31
0.0
  0
LINE
  5
13CE
  8
0
  6
BYBLOCK
 62
     0
 10
0.0
 20
0.0
 30
0.0
 11
-1.0
 21
-0.26794919
 31
0.0
  0
LINE
  5
13CF
  8
0
  6
BYBLOCK
 62
     0
 10
0.0
 20
0.0
 30
0.0
 11
-1.0
 21
0.0
 31
0.0
  0
ENDBLK
  5
13D0
  8
0
 62
    30
  0
ENDSEC
  0
SECTION
  2
ENTITIES
  0
TEXT
  5
13D1
  8
ETC
  6
CONTINUOUS
 62
    61
 10
300.027355
 20
851.93266199999971
 30
0.0
 40
64.0
  1
SCF-50LS2_1
 41
0.9
  0
TEXT
  5
13D2
  8
ETC
  6
CONTINUOUS
 62
    61
 10
292.111648
 20
750.21252199999981
 30
0.0
 40
64.0
  1
ロスナイ
 41
0.9
  0
LINE
  5
13D3
  8
BASIS
  6
DASHDOT
 62
     6
 39
50.0
 10
0.0
 20
-327.42592799999971
 30
0.0
 11
0.0
 21
69.880181000000007
 31
0.0
  0
LINE
  5
13D4
  8
DETAIL
  6
CONTINUOUS
 62
     5
 39
50.0
 10
450.0
 20
0.0
 30
0.0
 11
-450.0
 21
0.0
 31
0.0
  0
LINE
  5
13D5
  8
DETAIL
  6
CONTINUOUS
 62
     5
 39
50.0
 10
450.0
 20
-295.0
 30
0.0
 11
-450.0
 21
-295.0
 31
0.0
  0
LINE
  5
13D6
  8
DETAIL
  6
CONTINUOUS
 62
     5
 39
50.0
 10
-450.0
 20
-295.0
 30
0.0
 11
-450.0
 21
0.0
 31
0.0
  0
LINE
  5
13D7
  8
DETAIL
  6
CONTINUOUS
 62
     5
 39
50.0
 10
450.0
 20
-295.0
 30
0.0
 11
450.0
 21
0.0
 31
0.0
  0
ARC
  5
13D8
  8
DETAIL
  6
DASHED
 62
     5
 39
50.0
 10
405.10000000000002
 20
-14.599999999999991
 30
0.0
 40
2.299999999999998
 50
90.0
 51
180.0
  0
ARC
  5
13D9
  8
DETAIL
  6
DASHED
 62
     5
 39
50.0
 10
405.10000000000002
 20
-14.599999999999991
 30
0.0
 40
4.599999999999997
 50
90.0
 51
180.0
  0
ARC
  5
13DA
  8
DETAIL
  6
DASHED
 62
     5
 39
50.0
 10
413.0
 20
-5.299999999999998
 30
0.0
 40
3.0
 50
0.0
 51
90.0
  0
ARC
  5
13DB
  8
DETAIL
  6
DASHED
 62
     5
 39
50.0
 10
408.49999999999989
 20
-5.299999999999998
 30
0.0
 40
3.0
 50
90.0
 51
180.0
  0
ARC
  5
13DC
  8
DETAIL
  6
DASHED
 62
     5
 39
50.0
 10
441.5
 20
-17.0
 30
0.0
 40
3.0
 50
270.0
 51
0.0
  0
ARC
  5
13DD
  8
DETAIL
  6
DASHED
 62
     5
 39
50.0
 10
395.69999999999987
 20
-36.827821999999998
 30
0.0
 40
1.5
 50
0.0
 51
90.0
  0
ARC
  5
13DE
  8
DETAIL
  6
DASHED
 62
     5
 39
50.0
 10
398.19999999999987
 20
-17.047308999999991
 30
0.0
 40
2.299999999999998
 50
315.0
 51
0.0
  0
ARC
  5
13DF
  8
DETAIL
  6
DASHED
 62
     5
 39
50.0
 10
398.19999999999987
 20
-17.047308999999991
 30
0.0
 40
4.599999999999997
 50
315.0
 51
0.0
  0
ARC
  5
13E0
  8
DETAIL
  6
DASHED
 62
     5
 39
50.0
 10
401.79999999999978
 20
-23.205382
 30
0.0
 40
4.599999999999997
 50
135.0
 51
180.0
  0
ARC
  5
13E1
  8
DETAIL
  6
DASHED
 62
     5
 39
50.0
 10
401.79999999999978
 20
-23.205382
 30
0.0
 40
2.299999999999998
 50
135.0
 51
180.0
  0
ARC
  5
13E2
  8
DETAIL
  6
DASHED
 62
     5
 39
50.0
 10
395.69999999999987
 20
-23.227822
 30
0.0
 40
1.5
 50
270.0
 51
0.0
  0
ARC
  5
13E3
  8
DETAIL
  6
DASHED
 62
     5
 39
50.0
 10
432.0
 20
-17.0
 30
0.0
 40
3.0
 50
180.0
 51
270.0
  0
LINE
  5
13E4
  8
DETAIL
  6
DASHED
 62
     5
 39
50.0
 10
416.0
 20
-10.0
 30
0.0
 11
405.49999999999989
 21
-10.0
 31
0.0
  0
LINE
  5
13E5
  8
DETAIL
  6
DASHED
 62
     5
 39
50.0
 10
429.0
 20
-12.300000000000001
 30
0.0
 11
405.10000000000002
 21
-12.300000000000001
 31
0.0
  0
LINE
  5
13E6
  8
DETAIL
  6
DASHED
 62
     5
 39
50.0
 10
429.0
 20
-10.0
 30
0.0
 11
429.0
 21
-17.0
 31
0.0
  0
LINE
  5
13E7
  8
DETAIL
  6
DASHED
 62
     5
 39
50.0
 10
444.5
 20
-10.0
 30
0.0
 11
444.5
 21
-17.0
 31
0.0
  0
LINE
  5
13E8
  8
DETAIL
  6
DASHED
 62
     5
 39
50.0
 10
444.5
 20
-10.0
 30
0.0
 11
416.0
 21
-10.0
 31
0.0
  0
LINE
  5
13E9
  8
DETAIL
  6
DASHED
 62
     5
 39
50.0
 10
444.5
 20
-12.300000000000001
 30
0.0
 11
429.0
 21
-12.300000000000001
 31
0.0
  0
LINE
  5
13EA
  8
DETAIL
  6
DASHED
 62
     5
 39
50.0
 10
416.0
 20
-12.300000000000001
 30
0.0
 11
416.0
 21
-5.299999999999998
 31
0.0
  0
LINE
  5
13EB
  8
DETAIL
  6
DASHED
 62
     5
 39
50.0
 10
408.49999999999989
 20
-2.299999999999998
 30
0.0
 11
413.0
 21
-2.299999999999998
 31
0.0
  0
LINE
  5
13EC
  8
DETAIL
  6
DASHED
 62
     5
 39
50.0
 10
441.5
 20
-20.0
 30
0.0
 11
432.0
 21
-20.0
 31
0.0
  0
LINE
  5
13ED
  8
DETAIL
  6
DASHED
 62
     5
 39
50.0
 10
405.49999999999989
 20
-12.300000000000001
 30
0.0
 11
405.49999999999989
 21
-5.299999999999998
 31
0.0
  0
LINE
  5
13EE
  8
DETAIL
  6
DASHED
 62
     5
 39
50.0
 10
405.49999999999989
 20
-10.0
 30
0.0
 11
405.10000000000002
 21
-10.0
 31
0.0
  0
LINE
  5
13EF
  8
DETAIL
  6
DASHED
 62
     5
 39
50.0
 10
399.5
 20
-40.0
 30
0.0
 11
397.19999999999987
 21
-40.0
 31
0.0
  0
LINE
  5
13F0
  8
DETAIL
  6
DASHED
 62
     5
 39
50.0
 10
400.49999999999989
 20
-17.047308999999991
 30
0.0
 11
400.49999999999989
 21
-14.599999999999991
 31
0.0
  0
LINE
  5
13F1
  8
DETAIL
  6
DASHED
 62
     5
 39
50.0
 10
402.80000000000001
 20
-17.047308999999991
 30
0.0
 11
402.80000000000001
 21
-14.599999999999991
 31
0.0
  0
LINE
  5
13F2
  8
DETAIL
  6
DASHED
 62
     5
 39
50.0
 10
398.54730899999993
 20
-19.952691000000002
 30
0.0
 11
399.826346
 21
-18.673653999999981
 31
0.0
  0
LINE
  5
13F3
  8
DETAIL
  6
DASHED
 62
     5
 39
50.0
 10
400.173654
 20
-21.579036999999971
 30
0.0
 11
401.45269099999979
 21
-20.300000000000001
 31
0.0
  0
LINE
  5
13F4
  8
DETAIL
  6
DASHED
 62
     5
 39
50.0
 10
399.5
 20
-40.0
 30
0.0
 11
399.5
 21
-23.205382
 31
0.0
  0
LINE
  5
13F5
  8
DETAIL
  6
DASHED
 62
     5
 39
50.0
 10
397.19999999999987
 20
-40.0
 30
0.0
 11
397.19999999999987
 21
-23.205382
 31
0.0
  0
LINE
  5
13F6
  8
DETAIL
  6
DASHED
 62
     5
 39
50.0
 10
395.69999999999987
 20
-24.727822
 30
0.0
 11
395.69999999999987
 21
-35.327821999999991
 31
0.0
  0
LINE
  5
13F7
  8
DETAIL
  6
CONTINUOUS
 62
     5
 10
-160.0
 20
-228.4642419999999
 30
0.0
 11
-10.0
 21
-228.4642419999999
 31
0.0
  0
LINE
  5
13F8
  8
DETAIL
  6
CONTINUOUS
 62
     5
 10
-10.0
 20
-229.42820399999999
 30
0.0
 11
-160.0
 21
-229.42820399999999
 31
0.0
  0
LINE
  5
13F9
  8
DETAIL
  6
CONTINUOUS
 62
     5
 10
-11.607255999999991
 20
-238.1287899999999
 30
0.0
 11
-11.93685299999998
 21
-238.274081
 31
0.0
  0
LINE
  5
13FA
  8
DETAIL
  6
CONTINUOUS
 62
     5
 10
-11.93685299999998
 20
-238.15606299999999
 30
0.0
 11
-11.607255999999991
 21
-238.01077100000001
 31
0.0
  0
LINE
  5
13FB
  8
DETAIL
  6
CONTINUOUS
 62
     5
 10
-10.0
 20
-125.51551000000001
 30
0.0
 11
-160.0
 21
-125.51551000000001
 31
0.0
  0
LINE
  5
13FC
  8
DETAIL
  6
CONTINUOUS
 62
     5
 10
-10.0
 20
-126.4794719999999
 30
0.0
 11
-160.0
 21
-126.4794719999999
 31
0.0
  0
LINE
  5
13FD
  8
DETAIL
  6
CONTINUOUS
 62
     5
 10
-10.0
 20
-140.2224719999999
 30
0.0
 11
-160.0
 21
-140.2224719999999
 31
0.0
  0
LINE
  5
13FE
  8
DETAIL
  6
CONTINUOUS
 62
     5
 10
-10.0
 20
-141.18643399999991
 30
0.0
 11
-160.0
 21
-141.18643399999991
 31
0.0
  0
LINE
  5
13FF
  8
DETAIL
  6
CONTINUOUS
 62
     5
 10
-10.0
 20
-154.9294329999999
 30
0.0
 11
-160.0
 21
-154.9294329999999
 31
0.0
  0
LINE
  5
1400
  8
DETAIL
  6
CONTINUOUS
 62
     5
 10
-10.0
 20
-155.893396
 30
0.0
 11
-160.0
 21
-155.893396
 31
0.0
  0
LINE
  5
1401
  8
DETAIL
  6
CONTINUOUS
 62
     5
 10
-10.0
 20
-169.63639499999999
 30
0.0
 11
-160.0
 21
-169.63639499999999
 31
0.0
  0
LINE
  5
1402
  8
DETAIL
  6
CONTINUOUS
 62
     5
 10
-10.0
 20
-170.600357
 30
0.0
 11
-160.0
 21
-170.600357
 31
0.0
  0
LINE
  5
1403
  8
DETAIL
  6
CONTINUOUS
 62
     5
 10
-10.0
 20
-184.343357
 30
0.0
 11
-160.0
 21
-184.343357
 31
0.0
  0
LINE
  5
1404
  8
DETAIL
  6
CONTINUOUS
 62
     5
 10
-10.0
 20
-185.30731900000001
 30
0.0
 11
-160.0
 21
-185.30731900000001
 31
0.0
  0
LINE
  5
1405
  8
DETAIL
  6
CONTINUOUS
 62
     5
 10
-160.0
 20
-199.050319
 30
0.0
 11
-10.0
 21
-199.050319
 31
0.0
  0
LINE
  5
1406
  8
DETAIL
  6
CONTINUOUS
 62
     5
 10
-10.0
 20
-200.01428100000001
 30
0.0
 11
-160.0
 21
-200.01428100000001
 31
0.0
  0
LINE
  5
1407
  8
DETAIL
  6
CONTINUOUS
 62
     5
 10
-160.0
 20
-213.75728000000001
 30
0.0
 11
-10.0
 21
-213.75728000000001
 31
0.0
  0
LINE
  5
1408
  8
DETAIL
  6
CONTINUOUS
 62
     5
 10
-10.0
 20
-214.7212429999999
 30
0.0
 11
-160.0
 21
-214.7212429999999
 31
0.0
  0
LINE
  5
1409
  8
DETAIL
  6
CONTINUOUS
 62
     5
 10
-11.607255999999991
 20
-194.00790499999991
 30
0.0
 11
-11.93685299999998
 21
-194.15319600000001
 31
0.0
  0
LINE
  5
140A
  8
DETAIL
  6
CONTINUOUS
 62
     5
 10
-11.607255999999991
 20
-179.3009429999999
 30
0.0
 11
-11.93685299999998
 21
-179.446235
 31
0.0
  0
LINE
  5
140B
  8
DETAIL
  6
CONTINUOUS
 62
     5
 10
-11.607255999999991
 20
-164.5939809999999
 30
0.0
 11
-11.93685299999998
 21
-164.73927299999991
 31
0.0
  0
LINE
  5
140C
  8
DETAIL
  6
CONTINUOUS
 62
     5
 10
-11.607255999999991
 20
-149.88701999999981
 30
0.0
 11
-11.93685299999998
 21
-150.03231099999999
 31
0.0
  0
LINE
  5
140D
  8
DETAIL
  6
CONTINUOUS
 62
     5
 10
-11.93685299999998
 20
-149.9142919999999
 30
0.0
 11
-11.607255999999991
 21
-149.769001
 31
0.0
  0
LINE
  5
140E
  8
DETAIL
  6
CONTINUOUS
 62
     5
 10
-11.93685299999998
 20
-164.62125399999999
 30
0.0
 11
-11.607255999999991
 21
-164.47596299999981
 31
0.0
  0
LINE
  5
140F
  8
DETAIL
  6
CONTINUOUS
 62
     5
 10
-11.93685299999998
 20
-179.32821599999991
 30
0.0
 11
-11.607255999999991
 21
-179.18292400000001
 31
0.0
  0
LINE
  5
1410
  8
DETAIL
  6
CONTINUOUS
 62
     5
 10
-11.93685299999998
 20
-194.035177
 30
0.0
 11
-11.607255999999991
 21
-193.8898859999999
 31
0.0
  0
LINE
  5
1411
  8
DETAIL
  6
CONTINUOUS
 62
     5
 10
-11.607255999999991
 20
-223.42182799999989
 30
0.0
 11
-11.93685299999998
 21
-223.56711999999999
 31
0.0
  0
LINE
  5
1412
  8
DETAIL
  6
CONTINUOUS
 62
     5
 10
-11.607255999999991
 20
-208.71486699999991
 30
0.0
 11
-11.93685299999998
 21
-208.86015800000001
 31
0.0
  0
LINE
  5
1413
  8
DETAIL
  6
CONTINUOUS
 62
     5
 10
-11.93685299999998
 20
-208.7421389999999
 30
0.0
 11
-11.607255999999991
 21
-208.59684799999999
 31
0.0
  0
LINE
  5
1414
  8
DETAIL
  6
CONTINUOUS
 62
     5
 10
-11.93685299999998
 20
-223.44910100000001
 30
0.0
 11
-11.607255999999991
 21
-223.30380899999989
 31
0.0
  0
LINE
  5
1415
  8
DETAIL
  6
CONTINUOUS
 62
     5
 10
-11.93685299999998
 20
-135.20733100000001
 30
0.0
 11
-11.607255999999991
 21
-135.062039
 31
0.0
  0
LINE
  5
1416
  8
DETAIL
  6
CONTINUOUS
 62
     5
 10
-11.607255999999991
 20
-135.180058
 30
0.0
 11
-11.93685299999998
 21
-135.3253489999999
 31
0.0
  0
LINE
  5
1417
  8
DETAIL
  6
CONTINUOUS
 62
     5
 10
-330.0
 20
-125.51551000000001
 30
0.0
 11
-180.0
 21
-125.51551000000001
 31
0.0
  0
LINE
  5
1418
  8
DETAIL
  6
CONTINUOUS
 62
     5
 10
-180.0
 20
-126.4794719999999
 30
0.0
 11
-330.0
 21
-126.4794719999999
 31
0.0
  0
LINE
  5
1419
  8
DETAIL
  6
CONTINUOUS
 62
     5
 10
-327.0
 20
-135.398225
 30
0.0
 11
-183.0
 21
-135.398225
 31
0.0
  0
LINE
  5
141A
  8
DETAIL
  6
CONTINUOUS
 62
     5
 10
-327.0
 20
-135.51624399999969
 30
0.0
 11
-183.0
 21
-135.51624399999969
 31
0.0
  0
LINE
  5
141B
  8
DETAIL
  6
CONTINUOUS
 62
     5
 10
-180.0
 20
-140.2224719999999
 30
0.0
 11
-330.0
 21
-140.2224719999999
 31
0.0
  0
LINE
  5
141C
  8
DETAIL
  6
CONTINUOUS
 62
     5
 10
-180.0
 20
-141.18643399999991
 30
0.0
 11
-330.0
 21
-141.18643399999991
 31
0.0
  0
LINE
  5
141D
  8
DETAIL
  6
CONTINUOUS
 62
     5
 10
-327.0
 20
-150.10518699999969
 30
0.0
 11
-183.0
 21
-150.10518699999969
 31
0.0
  0
LINE
  5
141E
  8
DETAIL
  6
CONTINUOUS
 62
     5
 10
-327.0
 20
-150.223206
 30
0.0
 11
-183.0
 21
-150.223206
 31
0.0
  0
LINE
  5
141F
  8
DETAIL
  6
CONTINUOUS
 62
     5
 10
-180.0
 20
-154.9294329999999
 30
0.0
 11
-330.0
 21
-154.9294329999999
 31
0.0
  0
LINE
  5
1420
  8
DETAIL
  6
CONTINUOUS
 62
     5
 10
-180.0
 20
-155.893396
 30
0.0
 11
-330.0
 21
-155.893396
 31
0.0
  0
LINE
  5
1421
  8
DETAIL
  6
CONTINUOUS
 62
     5
 10
-327.0
 20
-164.81214900000001
 30
0.0
 11
-183.0
 21
-164.81214900000001
 31
0.0
  0
LINE
  5
1422
  8
DETAIL
  6
CONTINUOUS
 62
     5
 10
-327.0
 20
-164.93016699999981
 30
0.0
 11
-183.0
 21
-164.93016699999981
 31
0.0
  0
LINE
  5
1423
  8
DETAIL
  6
CONTINUOUS
 62
     5
 10
-180.0
 20
-169.63639499999999
 30
0.0
 11
-330.0
 21
-169.63639499999999
 31
0.0
  0
LINE
  5
1424
  8
DETAIL
  6
CONTINUOUS
 62
     5
 10
-180.0
 20
-170.600357
 30
0.0
 11
-330.0
 21
-170.600357
 31
0.0
  0
LINE
  5
1425
  8
DETAIL
  6
CONTINUOUS
 62
     5
 10
-327.0
 20
-179.51911000000001
 30
0.0
 11
-183.0
 21
-179.51911000000001
 31
0.0
  0
LINE
  5
1426
  8
DETAIL
  6
CONTINUOUS
 62
     5
 10
-327.0
 20
-179.6371289999999
 30
0.0
 11
-183.0
 21
-179.6371289999999
 31
0.0
  0
LINE
  5
1427
  8
DETAIL
  6
CONTINUOUS
 62
     5
 10
-330.0
 20
-184.343357
 30
0.0
 11
-180.0
 21
-184.343357
 31
0.0
  0
LINE
  5
1428
  8
DETAIL
  6
CONTINUOUS
 62
     5
 10
-180.0
 20
-185.30731900000001
 30
0.0
 11
-330.0
 21
-185.30731900000001
 31
0.0
  0
LINE
  5
1429
  8
DETAIL
  6
CONTINUOUS
 62
     5
 10
-327.0
 20
-194.2260719999999
 30
0.0
 11
-183.0
 21
-194.2260719999999
 31
0.0
  0
LINE
  5
142A
  8
DETAIL
  6
CONTINUOUS
 62
     5
 10
-327.0
 20
-194.34409099999991
 30
0.0
 11
-183.0
 21
-194.34409099999991
 31
0.0
  0
LINE
  5
142B
  8
DETAIL
  6
CONTINUOUS
 62
     5
 10
-180.0
 20
-199.050319
 30
0.0
 11
-330.0
 21
-199.050319
 31
0.0
  0
LINE
  5
142C
  8
DETAIL
  6
CONTINUOUS
 62
     5
 10
-180.0
 20
-200.01428100000001
 30
0.0
 11
-330.0
 21
-200.01428100000001
 31
0.0
  0
LINE
  5
142D
  8
DETAIL
  6
CONTINUOUS
 62
     5
 10
-327.0
 20
-208.93303399999999
 30
0.0
 11
-183.0
 21
-208.93303399999999
 31
0.0
  0
LINE
  5
142E
  8
DETAIL
  6
CONTINUOUS
 62
     5
 10
-327.0
 20
-209.051052
 30
0.0
 11
-183.0
 21
-209.051052
 31
0.0
  0
LINE
  5
142F
  8
DETAIL
  6
CONTINUOUS
 62
     5
 10
-330.0
 20
-213.75728000000001
 30
0.0
 11
-180.0
 21
-213.75728000000001
 31
0.0
  0
LINE
  5
1430
  8
DETAIL
  6
CONTINUOUS
 62
     5
 10
-180.0
 20
-214.7212429999999
 30
0.0
 11
-330.0
 21
-214.7212429999999
 31
0.0
  0
LINE
  5
1431
  8
DETAIL
  6
CONTINUOUS
 62
     5
 10
-327.0
 20
-223.639995
 30
0.0
 11
-183.0
 21
-223.639995
 31
0.0
  0
LINE
  5
1432
  8
DETAIL
  6
CONTINUOUS
 62
     5
 10
-327.0
 20
-223.75801399999989
 30
0.0
 11
-183.0
 21
-223.75801399999989
 31
0.0
  0
LINE
  5
1433
  8
DETAIL
  6
CONTINUOUS
 62
     5
 10
-330.0
 20
-228.4642419999999
 30
0.0
 11
-180.0
 21
-228.4642419999999
 31
0.0
  0
LINE
  5
1434
  8
DETAIL
  6
CONTINUOUS
 62
     5
 10
-180.0
 20
-229.42820399999999
 30
0.0
 11
-330.0
 21
-229.42820399999999
 31
0.0
  0
LINE
  5
1435
  8
DETAIL
  6
CONTINUOUS
 62
     5
 10
-327.0
 20
-238.34695699999989
 30
0.0
 11
-183.0
 21
-238.34695699999989
 31
0.0
  0
LINE
  5
1436
  8
DETAIL
  6
CONTINUOUS
 62
     5
 10
-327.0
 20
-238.46497600000001
 30
0.0
 11
-183.0
 21
-238.46497600000001
 31
0.0
  0
LINE
  5
1437
  8
DETAIL
  6
CONTINUOUS
 62
     5
 10
-330.0
 20
-199.050319
 30
0.0
 11
-330.0
 21
-206.10965999999991
 31
0.0
  0
LINE
  5
1438
  8
DETAIL
  6
CONTINUOUS
 62
     5
 10
-327.0
 20
-238.46497600000001
 30
0.0
 11
-327.0
 21
-238.34695699999989
 31
0.0
  0
LINE
  5
1439
  8
DETAIL
  6
CONTINUOUS
 62
     5
 10
-327.36039099999982
 20
-238.3256559999999
 30
0.0
 11
-327.0
 21
-238.34695699999989
 31
0.0
  0
LINE
  5
143A
  8
DETAIL
  6
CONTINUOUS
 62
     5
 10
-327.36039099999982
 20
-209.029751
 30
0.0
 11
-327.71735899999982
 21
-208.96572299999991
 31
0.0
  0
LINE
  5
143B
  8
DETAIL
  6
CONTINUOUS
 62
     5
 10
-327.36039099999982
 20
-223.7367129999999
 30
0.0
 11
-327.71735899999982
 21
-223.672685
 31
0.0
  0
LINE
  5
143C
  8
DETAIL
  6
CONTINUOUS
 62
     5
 10
-327.71735899999982
 20
-208.84770399999991
 30
0.0
 11
-327.36039099999982
 21
-208.911732
 31
0.0
  0
LINE
  5
143D
  8
DETAIL
  6
CONTINUOUS
 62
     5
 10
-327.71735899999982
 20
-223.554666
 30
0.0
 11
-327.36039099999982
 21
-223.618694
 31
0.0
  0
LINE
  5
143E
  8
DETAIL
  6
CONTINUOUS
 62
     5
 10
-329.97827399999989
 20
-206.4630149999999
 30
0.0
 11
-330.0
 21
-206.10965999999991
 31
0.0
  0
LINE
  5
143F
  8
DETAIL
  6
CONTINUOUS
 62
     5
 10
-329.91295000000002
 20
-206.813087
 30
0.0
 11
-329.97827399999989
 21
-206.4630149999999
 31
0.0
  0
LINE
  5
1440
  8
DETAIL
  6
CONTINUOUS
 62
     5
 10
-329.80530199999993
 20
-207.15203699999989
 30
0.0
 11
-329.91295000000002
 21
-206.813087
 31
0.0
  0
LINE
  5
1441
  8
DETAIL
  6
CONTINUOUS
 62
     5
 10
-329.65711599999992
 20
-207.4751959999999
 30
0.0
 11
-329.80530199999993
 21
-207.15203699999989
 31
0.0
  0
LINE
  5
1442
  8
DETAIL
  6
CONTINUOUS
 62
     5
 10
-329.46907599999992
 20
-207.780384
 30
0.0
 11
-329.65711599999992
 21
-207.4751959999999
 31
0.0
  0
LINE
  5
1443
  8
DETAIL
  6
CONTINUOUS
 62
     5
 10
-329.24507399999999
 20
-208.06067100000001
 30
0.0
 11
-329.46907599999992
 21
-207.780384
 31
0.0
  0
LINE
  5
1444
  8
DETAIL
  6
CONTINUOUS
 62
     5
 10
-328.98977300000001
 20
-208.31097199999991
 30
0.0
 11
-329.24507399999999
 21
-208.06067100000001
 31
0.0
  0
LINE
  5
1445
  8
DETAIL
  6
CONTINUOUS
 62
     5
 10
-328.70393200000001
 20
-208.53055599999999
 30
0.0
 11
-328.98977300000001
 21
-208.31097199999991
 31
0.0
  0
LINE
  5
1446
  8
DETAIL
  6
CONTINUOUS
 62
     5
 10
-328.39265
 20
-208.71491499999999
 30
0.0
 11
-328.70393200000001
 21
-208.53055599999999
 31
0.0
  0
LINE
  5
1447
  8
DETAIL
  6
CONTINUOUS
 62
     5
 10
-328.06300299999992
 20
-208.86021099999999
 30
0.0
 11
-328.39265
 21
-208.71491499999999
 31
0.0
  0
LINE
  5
1448
  8
DETAIL
  6
CONTINUOUS
 62
     5
 10
-327.71735899999982
 20
-208.96572299999991
 30
0.0
 11
-328.06300299999992
 21
-208.86021099999999
 31
0.0
  0
LINE
  5
1449
  8
DETAIL
  6
CONTINUOUS
 62
     5
 10
-329.97827399999989
 20
-221.16997699999999
 30
0.0
 11
-330.0
 21
-220.8166219999998
 31
0.0
  0
LINE
  5
144A
  8
DETAIL
  6
CONTINUOUS
 62
     5
 10
-329.91295000000002
 20
-221.520048
 30
0.0
 11
-329.97827399999989
 21
-221.16997699999999
 31
0.0
  0
LINE
  5
144B
  8
DETAIL
  6
CONTINUOUS
 62
     5
 10
-329.80530199999993
 20
-221.85899900000001
 30
0.0
 11
-329.91295000000002
 21
-221.520048
 31
0.0
  0
LINE
  5
144C
  8
DETAIL
  6
CONTINUOUS
 62
     5
 10
-329.65711599999992
 20
-222.1821579999999
 30
0.0
 11
-329.80530199999993
 21
-221.85899900000001
 31
0.0
  0
LINE
  5
144D
  8
DETAIL
  6
CONTINUOUS
 62
     5
 10
-329.46907599999992
 20
-222.48734599999989
 30
0.0
 11
-329.65711599999992
 21
-222.1821579999999
 31
0.0
  0
LINE
  5
144E
  8
DETAIL
  6
CONTINUOUS
 62
     5
 10
-329.24507399999999
 20
-222.7676329999999
 30
0.0
 11
-329.46907599999992
 21
-222.48734599999989
 31
0.0
  0
LINE
  5
144F
  8
DETAIL
  6
CONTINUOUS
 62
     5
 10
-328.98977300000001
 20
-223.0179339999998
 30
0.0
 11
-329.24507399999999
 21
-222.7676329999999
 31
0.0
  0
LINE
  5
1450
  8
DETAIL
  6
CONTINUOUS
 62
     5
 10
-328.70393200000001
 20
-223.23751799999999
 30
0.0
 11
-328.98977300000001
 21
-223.0179339999998
 31
0.0
  0
LINE
  5
1451
  8
DETAIL
  6
CONTINUOUS
 62
     5
 10
-328.39265
 20
-223.42187699999999
 30
0.0
 11
-328.70393200000001
 21
-223.23751799999999
 31
0.0
  0
LINE
  5
1452
  8
DETAIL
  6
CONTINUOUS
 62
     5
 10
-328.06300299999992
 20
-223.56717299999991
 30
0.0
 11
-328.39265
 21
-223.42187699999999
 31
0.0
  0
LINE
  5
1453
  8
DETAIL
  6
CONTINUOUS
 62
     5
 10
-327.71735899999982
 20
-223.672685
 30
0.0
 11
-328.06300299999992
 21
-223.56717299999991
 31
0.0
  0
LINE
  5
1454
  8
DETAIL
  6
CONTINUOUS
 62
     5
 10
-330.0
 20
-213.75728000000001
 30
0.0
 11
-330.0
 21
-220.8166219999998
 31
0.0
  0
LINE
  5
1455
  8
DETAIL
  6
CONTINUOUS
 62
     5
 10
-328.06300299999992
 20
-208.74219299999999
 30
0.0
 11
-327.71735899999982
 21
-208.84770399999991
 31
0.0
  0
LINE
  5
1456
  8
DETAIL
  6
CONTINUOUS
 62
     5
 10
-328.39265
 20
-208.5968959999999
 30
0.0
 11
-328.06300299999992
 21
-208.74219299999999
 31
0.0
  0
LINE
  5
1457
  8
DETAIL
  6
CONTINUOUS
 62
     5
 10
-328.70393200000001
 20
-208.4125379999999
 30
0.0
 11
-328.39265
 21
-208.5968959999999
 31
0.0
  0
LINE
  5
1458
  8
DETAIL
  6
CONTINUOUS
 62
     5
 10
-328.98977300000001
 20
-208.1929539999999
 30
0.0
 11
-328.70393200000001
 21
-208.4125379999999
 31
0.0
  0
LINE
  5
1459
  8
DETAIL
  6
CONTINUOUS
 62
     5
 10
-329.24507399999999
 20
-207.94265200000001
 30
0.0
 11
-328.98977300000001
 21
-208.1929539999999
 31
0.0
  0
LINE
  5
145A
  8
DETAIL
  6
CONTINUOUS
 62
     5
 10
-329.46907599999992
 20
-207.66236499999999
 30
0.0
 11
-329.24507399999999
 21
-207.94265200000001
 31
0.0
  0
LINE
  5
145B
  8
DETAIL
  6
CONTINUOUS
 62
     5
 10
-329.65711599999992
 20
-207.35717700000001
 30
0.0
 11
-329.46907599999992
 21
-207.66236499999999
 31
0.0
  0
LINE
  5
145C
  8
DETAIL
  6
CONTINUOUS
 62
     5
 10
-329.80530199999993
 20
-207.034019
 30
0.0
 11
-329.65711599999992
 21
-207.35717700000001
 31
0.0
  0
LINE
  5
145D
  8
DETAIL
  6
CONTINUOUS
 62
     5
 10
-329.91295000000002
 20
-206.69506799999999
 30
0.0
 11
-329.80530199999993
 21
-207.034019
 31
0.0
  0
LINE
  5
145E
  8
DETAIL
  6
CONTINUOUS
 62
     5
 10
-329.97827399999989
 20
-206.34499700000001
 30
0.0
 11
-329.91295000000002
 21
-206.69506799999999
 31
0.0
  0
LINE
  5
145F
  8
DETAIL
  6
CONTINUOUS
 62
     5
 10
-329.99277099999989
 20
-206.109216
 30
0.0
 11
-329.97827399999989
 21
-206.34499700000001
 31
0.0
  0
LINE
  5
1460
  8
DETAIL
  6
CONTINUOUS
 62
     5
 10
-328.06300299999992
 20
-223.44915399999999
 30
0.0
 11
-327.71735899999982
 21
-223.554666
 31
0.0
  0
LINE
  5
1461
  8
DETAIL
  6
CONTINUOUS
 62
     5
 10
-328.39265
 20
-223.30385799999999
 30
0.0
 11
-328.06300299999992
 21
-223.44915399999999
 31
0.0
  0
LINE
  5
1462
  8
DETAIL
  6
CONTINUOUS
 62
     5
 10
-328.70393200000001
 20
-223.11949899999999
 30
0.0
 11
-328.39265
 21
-223.30385799999999
 31
0.0
  0
LINE
  5
1463
  8
DETAIL
  6
CONTINUOUS
 62
     5
 10
-328.98977300000001
 20
-222.89991499999991
 30
0.0
 11
-328.70393200000001
 21
-223.11949899999999
 31
0.0
  0
LINE
  5
1464
  8
DETAIL
  6
CONTINUOUS
 62
     5
 10
-329.24507399999999
 20
-222.64961400000001
 30
0.0
 11
-328.98977300000001
 21
-222.89991499999991
 31
0.0
  0
LINE
  5
1465
  8
DETAIL
  6
CONTINUOUS
 62
     5
 10
-329.46907599999992
 20
-222.369327
 30
0.0
 11
-329.24507399999999
 21
-222.64961400000001
 31
0.0
  0
LINE
  5
1466
  8
DETAIL
  6
CONTINUOUS
 62
     5
 10
-329.65711599999992
 20
-222.0641389999999
 30
0.0
 11
-329.46907599999992
 21
-222.369327
 31
0.0
  0
LINE
  5
1467
  8
DETAIL
  6
CONTINUOUS
 62
     5
 10
-329.80530199999993
 20
-221.74097999999989
 30
0.0
 11
-329.65711599999992
 21
-222.0641389999999
 31
0.0
  0
LINE
  5
1468
  8
DETAIL
  6
CONTINUOUS
 62
     5
 10
-329.91295000000002
 20
-221.40202999999991
 30
0.0
 11
-329.80530199999993
 21
-221.74097999999989
 31
0.0
  0
LINE
  5
1469
  8
DETAIL
  6
CONTINUOUS
 62
     5
 10
-329.97827399999989
 20
-221.05195800000001
 30
0.0
 11
-329.91295000000002
 21
-221.40202999999991
 31
0.0
  0
LINE
  5
146A
  8
DETAIL
  6
CONTINUOUS
 62
     5
 10
-329.99277099999989
 20
-220.81617700000001
 30
0.0
 11
-329.97827399999989
 21
-221.05195800000001
 31
0.0
  0
LINE
  5
146B
  8
DETAIL
  6
CONTINUOUS
 62
     5
 10
-327.0
 20
-209.051052
 30
0.0
 11
-327.36039099999982
 21
-209.029751
 31
0.0
  0
LINE
  5
146C
  8
DETAIL
  6
CONTINUOUS
 62
     5
 10
-327.0
 20
-223.75801399999989
 30
0.0
 11
-327.36039099999982
 21
-223.7367129999999
 31
0.0
  0
LINE
  5
146D
  8
DETAIL
  6
CONTINUOUS
 62
     5
 10
-327.0
 20
-209.051052
 30
0.0
 11
-327.0
 21
-208.93303399999999
 31
0.0
  0
LINE
  5
146E
  8
DETAIL
  6
CONTINUOUS
 62
     5
 10
-327.0
 20
-223.75801399999989
 30
0.0
 11
-327.0
 21
-223.639995
 31
0.0
  0
LINE
  5
146F
  8
DETAIL
  6
CONTINUOUS
 62
     5
 10
-327.36039099999982
 20
-208.911732
 30
0.0
 11
-327.0
 21
-208.93303399999999
 31
0.0
  0
LINE
  5
1470
  8
DETAIL
  6
CONTINUOUS
 62
     5
 10
-327.36039099999982
 20
-223.618694
 30
0.0
 11
-327.0
 21
-223.639995
 31
0.0
  0
LINE
  5
1471
  8
DETAIL
  6
CONTINUOUS
 62
     5
 10
-327.36039099999982
 20
-238.44367500000001
 30
0.0
 11
-327.71735899999982
 21
-238.37964600000001
 31
0.0
  0
LINE
  5
1472
  8
DETAIL
  6
CONTINUOUS
 62
     5
 10
-327.71735899999982
 20
-238.2616279999998
 30
0.0
 11
-327.36039099999982
 21
-238.3256559999999
 31
0.0
  0
LINE
  5
1473
  8
DETAIL
  6
CONTINUOUS
 62
     5
 10
-329.97827399999989
 20
-235.87693899999991
 30
0.0
 11
-330.0
 21
-235.5235839999998
 31
0.0
  0
LINE
  5
1474
  8
DETAIL
  6
CONTINUOUS
 62
     5
 10
-329.91295000000002
 20
-236.22700999999989
 30
0.0
 11
-329.97827399999989
 21
-235.87693899999991
 31
0.0
  0
LINE
  5
1475
  8
DETAIL
  6
CONTINUOUS
 62
     5
 10
-329.80530199999993
 20
-236.5659609999999
 30
0.0
 11
-329.91295000000002
 21
-236.22700999999989
 31
0.0
  0
LINE
  5
1476
  8
DETAIL
  6
CONTINUOUS
 62
     5
 10
-329.65711599999992
 20
-236.88911999999991
 30
0.0
 11
-329.80530199999993
 21
-236.5659609999999
 31
0.0
  0
LINE
  5
1477
  8
DETAIL
  6
CONTINUOUS
 62
     5
 10
-329.46907599999992
 20
-237.19430800000001
 30
0.0
 11
-329.65711599999992
 21
-236.88911999999991
 31
0.0
  0
LINE
  5
1478
  8
DETAIL
  6
CONTINUOUS
 62
     5
 10
-329.24507399999999
 20
-237.47459399999991
 30
0.0
 11
-329.46907599999992
 21
-237.19430800000001
 31
0.0
  0
LINE
  5
1479
  8
DETAIL
  6
CONTINUOUS
 62
     5
 10
-328.98977300000001
 20
-237.724896
 30
0.0
 11
-329.24507399999999
 21
-237.47459399999991
 31
0.0
  0
LINE
  5
147A
  8
DETAIL
  6
CONTINUOUS
 62
     5
 10
-328.70393200000001
 20
-237.94447999999991
 30
0.0
 11
-328.98977300000001
 21
-237.724896
 31
0.0
  0
LINE
  5
147B
  8
DETAIL
  6
CONTINUOUS
 62
     5
 10
-328.39265
 20
-238.12883799999989
 30
0.0
 11
-328.70393200000001
 21
-237.94447999999991
 31
0.0
  0
LINE
  5
147C
  8
DETAIL
  6
CONTINUOUS
 62
     5
 10
-328.06300299999992
 20
-238.2741349999998
 30
0.0
 11
-328.39265
 21
-238.12883799999989
 31
0.0
  0
LINE
  5
147D
  8
DETAIL
  6
CONTINUOUS
 62
     5
 10
-327.71735899999982
 20
-238.37964600000001
 30
0.0
 11
-328.06300299999992
 21
-238.2741349999998
 31
0.0
  0
LINE
  5
147E
  8
DETAIL
  6
CONTINUOUS
 62
     5
 10
-330.0
 20
-228.4642419999999
 30
0.0
 11
-330.0
 21
-235.5235839999998
 31
0.0
  0
LINE
  5
147F
  8
DETAIL
  6
CONTINUOUS
 62
     5
 10
-328.06300299999992
 20
-238.15611599999991
 30
0.0
 11
-327.71735899999982
 21
-238.2616279999998
 31
0.0
  0
LINE
  5
1480
  8
DETAIL
  6
CONTINUOUS
 62
     5
 10
-328.39265
 20
-238.01082
 30
0.0
 11
-328.06300299999992
 21
-238.15611599999991
 31
0.0
  0
LINE
  5
1481
  8
DETAIL
  6
CONTINUOUS
 62
     5
 10
-328.70393200000001
 20
-237.82646099999999
 30
0.0
 11
-328.39265
 21
-238.01082
 31
0.0
  0
LINE
  5
1482
  8
DETAIL
  6
CONTINUOUS
 62
     5
 10
-328.98977300000001
 20
-237.60687699999991
 30
0.0
 11
-328.70393200000001
 21
-237.82646099999999
 31
0.0
  0
LINE
  5
1483
  8
DETAIL
  6
CONTINUOUS
 62
     5
 10
-329.24507399999999
 20
-237.3565759999999
 30
0.0
 11
-328.98977300000001
 21
-237.60687699999991
 31
0.0
  0
LINE
  5
1484
  8
DETAIL
  6
CONTINUOUS
 62
     5
 10
-329.46907599999992
 20
-237.07628899999989
 30
0.0
 11
-329.24507399999999
 21
-237.3565759999999
 31
0.0
  0
LINE
  5
1485
  8
DETAIL
  6
CONTINUOUS
 62
     5
 10
-329.65711599999992
 20
-236.7711009999999
 30
0.0
 11
-329.46907599999992
 21
-237.07628899999989
 31
0.0
  0
LINE
  5
1486
  8
DETAIL
  6
CONTINUOUS
 62
     5
 10
-329.80530199999993
 20
-236.4479419999999
 30
0.0
 11
-329.65711599999992
 21
-236.7711009999999
 31
0.0
  0
LINE
  5
1487
  8
DETAIL
  6
CONTINUOUS
 62
     5
 10
-329.91295000000002
 20
-236.108991
 30
0.0
 11
-329.80530199999993
 21
-236.4479419999999
 31
0.0
  0
LINE
  5
1488
  8
DETAIL
  6
CONTINUOUS
 62
     5
 10
-329.97827399999989
 20
-235.75891999999999
 30
0.0
 11
-329.91295000000002
 21
-236.108991
 31
0.0
  0
LINE
  5
1489
  8
DETAIL
  6
CONTINUOUS
 62
     5
 10
-329.99277099999989
 20
-235.5231389999999
 30
0.0
 11
-329.97827399999989
 21
-235.75891999999999
 31
0.0
  0
LINE
  5
148A
  8
DETAIL
  6
CONTINUOUS
 62
     5
 10
-327.0
 20
-238.46497600000001
 30
0.0
 11
-327.36039099999982
 21
-238.44367500000001
 31
0.0
  0
LINE
  5
148B
  8
DETAIL
  6
CONTINUOUS
 62
     5
 10
-327.36039099999982
 20
-135.49494300000001
 30
0.0
 11
-327.71735899999982
 21
-135.430914
 31
0.0
  0
LINE
  5
148C
  8
DETAIL
  6
CONTINUOUS
 62
     5
 10
-327.36039099999982
 20
-150.20190500000001
 30
0.0
 11
-327.71735899999982
 21
-150.13787600000001
 31
0.0
  0
LINE
  5
148D
  8
DETAIL
  6
CONTINUOUS
 62
     5
 10
-327.36039099999982
 20
-164.90886599999979
 30
0.0
 11
-327.71735899999982
 21
-164.84483799999981
 31
0.0
  0
LINE
  5
148E
  8
DETAIL
  6
CONTINUOUS
 62
     5
 10
-327.36039099999982
 20
-179.61582799999999
 30
0.0
 11
-327.71735899999982
 21
-179.5517999999999
 31
0.0
  0
LINE
  5
148F
  8
DETAIL
  6
CONTINUOUS
 62
     5
 10
-327.36039099999982
 20
-194.32279
 30
0.0
 11
-327.71735899999982
 21
-194.25876099999991
 31
0.0
  0
LINE
  5
1490
  8
DETAIL
  6
CONTINUOUS
 62
     5
 10
-327.71735899999982
 20
-135.31289599999999
 30
0.0
 11
-327.36039099999982
 21
-135.376924
 31
0.0
  0
LINE
  5
1491
  8
DETAIL
  6
CONTINUOUS
 62
     5
 10
-327.71735899999982
 20
-150.019857
 30
0.0
 11
-327.36039099999982
 21
-150.08388599999981
 31
0.0
  0
LINE
  5
1492
  8
DETAIL
  6
CONTINUOUS
 62
     5
 10
-327.71735899999982
 20
-164.72681899999981
 30
0.0
 11
-327.36039099999982
 21
-164.7908469999999
 31
0.0
  0
LINE
  5
1493
  8
DETAIL
  6
CONTINUOUS
 62
     5
 10
-327.71735899999982
 20
-179.43378100000001
 30
0.0
 11
-327.36039099999982
 21
-179.4978089999999
 31
0.0
  0
LINE
  5
1494
  8
DETAIL
  6
CONTINUOUS
 62
     5
 10
-327.71735899999982
 20
-194.1407419999999
 30
0.0
 11
-327.36039099999982
 21
-194.20477099999991
 31
0.0
  0
LINE
  5
1495
  8
DETAIL
  6
CONTINUOUS
 62
     5
 10
-330.0
 20
-140.2224719999999
 30
0.0
 11
-330.0
 21
-147.281813
 31
0.0
  0
LINE
  5
1496
  8
DETAIL
  6
CONTINUOUS
 62
     5
 10
-329.97827399999989
 20
-147.63516899999991
 30
0.0
 11
-330.0
 21
-147.281813
 31
0.0
  0
LINE
  5
1497
  8
DETAIL
  6
CONTINUOUS
 62
     5
 10
-329.91295000000002
 20
-147.98523999999981
 30
0.0
 11
-329.97827399999989
 21
-147.63516899999991
 31
0.0
  0
LINE
  5
1498
  8
DETAIL
  6
CONTINUOUS
 62
     5
 10
-329.80530199999993
 20
-148.32419099999979
 30
0.0
 11
-329.91295000000002
 21
-147.98523999999981
 31
0.0
  0
LINE
  5
1499
  8
DETAIL
  6
CONTINUOUS
 62
     5
 10
-329.65711599999992
 20
-148.64734899999991
 30
0.0
 11
-329.80530199999993
 21
-148.32419099999979
 31
0.0
  0
LINE
  5
149A
  8
DETAIL
  6
CONTINUOUS
 62
     5
 10
-329.46907599999992
 20
-148.95253700000001
 30
0.0
 11
-329.65711599999992
 21
-148.64734899999991
 31
0.0
  0
LINE
  5
149B
  8
DETAIL
  6
CONTINUOUS
 62
     5
 10
-329.24507399999999
 20
-149.23282399999991
 30
0.0
 11
-329.46907599999992
 21
-148.95253700000001
 31
0.0
  0
LINE
  5
149C
  8
DETAIL
  6
CONTINUOUS
 62
     5
 10
-328.98977300000001
 20
-149.48312599999991
 30
0.0
 11
-329.24507399999999
 21
-149.23282399999991
 31
0.0
  0
LINE
  5
149D
  8
DETAIL
  6
CONTINUOUS
 62
     5
 10
-328.70393200000001
 20
-149.70270999999991
 30
0.0
 11
-328.98977300000001
 21
-149.48312599999991
 31
0.0
  0
LINE
  5
149E
  8
DETAIL
  6
CONTINUOUS
 62
     5
 10
-328.39265
 20
-149.887068
 30
0.0
 11
-328.70393200000001
 21
-149.70270999999991
 31
0.0
  0
LINE
  5
149F
  8
DETAIL
  6
CONTINUOUS
 62
     5
 10
-328.06300299999992
 20
-150.03236499999991
 30
0.0
 11
-328.39265
 21
-149.887068
 31
0.0
  0
LINE
  5
14A0
  8
DETAIL
  6
CONTINUOUS
 62
     5
 10
-327.71735899999982
 20
-150.13787600000001
 30
0.0
 11
-328.06300299999992
 21
-150.03236499999991
 31
0.0
  0
LINE
  5
14A1
  8
DETAIL
  6
CONTINUOUS
 62
     5
 10
-329.97827399999989
 20
-162.34212999999991
 30
0.0
 11
-330.0
 21
-161.988775
 31
0.0
  0
LINE
  5
14A2
  8
DETAIL
  6
CONTINUOUS
 62
     5
 10
-329.91295000000002
 20
-162.69220200000001
 30
0.0
 11
-329.97827399999989
 21
-162.34212999999991
 31
0.0
  0
LINE
  5
14A3
  8
DETAIL
  6
CONTINUOUS
 62
     5
 10
-329.80530199999993
 20
-163.03115199999999
 30
0.0
 11
-329.91295000000002
 21
-162.69220200000001
 31
0.0
  0
LINE
  5
14A4
  8
DETAIL
  6
CONTINUOUS
 62
     5
 10
-329.65711599999992
 20
-163.35431099999991
 30
0.0
 11
-329.80530199999993
 21
-163.03115199999999
 31
0.0
  0
LINE
  5
14A5
  8
DETAIL
  6
CONTINUOUS
 62
     5
 10
-329.46907599999992
 20
-163.65949899999981
 30
0.0
 11
-329.65711599999992
 21
-163.35431099999991
 31
0.0
  0
LINE
  5
14A6
  8
DETAIL
  6
CONTINUOUS
 62
     5
 10
-329.24507399999999
 20
-163.939786
 30
0.0
 11
-329.46907599999992
 21
-163.65949899999981
 31
0.0
  0
LINE
  5
14A7
  8
DETAIL
  6
CONTINUOUS
 62
     5
 10
-328.98977300000001
 20
-164.19008700000001
 30
0.0
 11
-329.24507399999999
 21
-163.939786
 31
0.0
  0
LINE
  5
14A8
  8
DETAIL
  6
CONTINUOUS
 62
     5
 10
-328.70393200000001
 20
-164.409671
 30
0.0
 11
-328.98977300000001
 21
-164.19008700000001
 31
0.0
  0
LINE
  5
14A9
  8
DETAIL
  6
CONTINUOUS
 62
     5
 10
-328.39265
 20
-164.59403
 30
0.0
 11
-328.70393200000001
 21
-164.409671
 31
0.0
  0
LINE
  5
14AA
  8
DETAIL
  6
CONTINUOUS
 62
     5
 10
-328.06300299999992
 20
-164.73932600000001
 30
0.0
 11
-328.39265
 21
-164.59403
 31
0.0
  0
LINE
  5
14AB
  8
DETAIL
  6
CONTINUOUS
 62
     5
 10
-327.71735899999982
 20
-164.84483799999981
 30
0.0
 11
-328.06300299999992
 21
-164.73932600000001
 31
0.0
  0
LINE
  5
14AC
  8
DETAIL
  6
CONTINUOUS
 62
     5
 10
-329.97827399999989
 20
-177.049092
 30
0.0
 11
-330.0
 21
-176.69573700000001
 31
0.0
  0
LINE
  5
14AD
  8
DETAIL
  6
CONTINUOUS
 62
     5
 10
-329.91295000000002
 20
-177.3991629999999
 30
0.0
 11
-329.97827399999989
 21
-177.049092
 31
0.0
  0
LINE
  5
14AE
  8
DETAIL
  6
CONTINUOUS
 62
     5
 10
-329.80530199999993
 20
-177.73811399999991
 30
0.0
 11
-329.91295000000002
 21
-177.3991629999999
 31
0.0
  0
LINE
  5
14AF
  8
DETAIL
  6
CONTINUOUS
 62
     5
 10
-329.65711599999992
 20
-178.061273
 30
0.0
 11
-329.80530199999993
 21
-177.73811399999991
 31
0.0
  0
LINE
  5
14B0
  8
DETAIL
  6
CONTINUOUS
 62
     5
 10
-329.46907599999992
 20
-178.3664609999999
 30
0.0
 11
-329.65711599999992
 21
-178.061273
 31
0.0
  0
LINE
  5
14B1
  8
DETAIL
  6
CONTINUOUS
 62
     5
 10
-329.24507399999999
 20
-178.64674799999969
 30
0.0
 11
-329.46907599999992
 21
-178.3664609999999
 31
0.0
  0
LINE
  5
14B2
  8
DETAIL
  6
CONTINUOUS
 62
     5
 10
-328.98977300000001
 20
-178.89704900000001
 30
0.0
 11
-329.24507399999999
 21
-178.64674799999969
 31
0.0
  0
LINE
  5
14B3
  8
DETAIL
  6
CONTINUOUS
 62
     5
 10
-328.70393200000001
 20
-179.11663300000001
 30
0.0
 11
-328.98977300000001
 21
-178.89704900000001
 31
0.0
  0
LINE
  5
14B4
  8
DETAIL
  6
CONTINUOUS
 62
     5
 10
-328.39265
 20
-179.30099199999981
 30
0.0
 11
-328.70393200000001
 21
-179.11663300000001
 31
0.0
  0
LINE
  5
14B5
  8
DETAIL
  6
CONTINUOUS
 62
     5
 10
-328.06300299999992
 20
-179.4462879999999
 30
0.0
 11
-328.39265
 21
-179.30099199999981
 31
0.0
  0
LINE
  5
14B6
  8
DETAIL
  6
CONTINUOUS
 62
     5
 10
-327.71735899999982
 20
-179.5517999999999
 30
0.0
 11
-328.06300299999992
 21
-179.4462879999999
 31
0.0
  0
LINE
  5
14B7
  8
DETAIL
  6
CONTINUOUS
 62
     5
 10
-329.97827399999989
 20
-191.75605400000001
 30
0.0
 11
-330.0
 21
-191.4026979999999
 31
0.0
  0
LINE
  5
14B8
  8
DETAIL
  6
CONTINUOUS
 62
     5
 10
-329.91295000000002
 20
-192.10612499999991
 30
0.0
 11
-329.97827399999989
 21
-191.75605400000001
 31
0.0
  0
LINE
  5
14B9
  8
DETAIL
  6
CONTINUOUS
 62
     5
 10
-329.80530199999993
 20
-192.445076
 30
0.0
 11
-329.91295000000002
 21
-192.10612499999991
 31
0.0
  0
LINE
  5
14BA
  8
DETAIL
  6
CONTINUOUS
 62
     5
 10
-329.65711599999992
 20
-192.76823400000001
 30
0.0
 11
-329.80530199999993
 21
-192.445076
 31
0.0
  0
LINE
  5
14BB
  8
DETAIL
  6
CONTINUOUS
 62
     5
 10
-329.46907599999992
 20
-193.07342199999991
 30
0.0
 11
-329.65711599999992
 21
-192.76823400000001
 31
0.0
  0
LINE
  5
14BC
  8
DETAIL
  6
CONTINUOUS
 62
     5
 10
-329.24507399999999
 20
-193.35370900000001
 30
0.0
 11
-329.46907599999992
 21
-193.07342199999991
 31
0.0
  0
LINE
  5
14BD
  8
DETAIL
  6
CONTINUOUS
 62
     5
 10
-328.98977300000001
 20
-193.60401100000001
 30
0.0
 11
-329.24507399999999
 21
-193.35370900000001
 31
0.0
  0
LINE
  5
14BE
  8
DETAIL
  6
CONTINUOUS
 62
     5
 10
-328.70393200000001
 20
-193.8235949999999
 30
0.0
 11
-328.98977300000001
 21
-193.60401100000001
 31
0.0
  0
LINE
  5
14BF
  8
DETAIL
  6
CONTINUOUS
 62
     5
 10
-328.39265
 20
-194.00795299999999
 30
0.0
 11
-328.70393200000001
 21
-193.8235949999999
 31
0.0
  0
LINE
  5
14C0
  8
DETAIL
  6
CONTINUOUS
 62
     5
 10
-328.06300299999992
 20
-194.15325000000001
 30
0.0
 11
-328.39265
 21
-194.00795299999999
 31
0.0
  0
LINE
  5
14C1
  8
DETAIL
  6
CONTINUOUS
 62
     5
 10
-327.71735899999982
 20
-194.25876099999991
 30
0.0
 11
-328.06300299999992
 21
-194.15325000000001
 31
0.0
  0
LINE
  5
14C2
  8
DETAIL
  6
CONTINUOUS
 62
     5
 10
-330.0
 20
-184.343357
 30
0.0
 11
-330.0
 21
-191.4026979999999
 31
0.0
  0
LINE
  5
14C3
  8
DETAIL
  6
CONTINUOUS
 62
     5
 10
-330.0
 20
-169.63639499999999
 30
0.0
 11
-330.0
 21
-176.69573700000001
 31
0.0
  0
LINE
  5
14C4
  8
DETAIL
  6
CONTINUOUS
 62
     5
 10
-330.0
 20
-154.9294329999999
 30
0.0
 11
-330.0
 21
-161.988775
 31
0.0
  0
LINE
  5
14C5
  8
DETAIL
  6
CONTINUOUS
 62
     5
 10
-328.06300299999992
 20
-149.91434599999991
 30
0.0
 11
-327.71735899999982
 21
-150.019857
 31
0.0
  0
LINE
  5
14C6
  8
DETAIL
  6
CONTINUOUS
 62
     5
 10
-328.39265
 20
-149.769049
 30
0.0
 11
-328.06300299999992
 21
-149.91434599999991
 31
0.0
  0
LINE
  5
14C7
  8
DETAIL
  6
CONTINUOUS
 62
     5
 10
-328.70393200000001
 20
-149.58469099999999
 30
0.0
 11
-328.39265
 21
-149.769049
 31
0.0
  0
LINE
  5
14C8
  8
DETAIL
  6
CONTINUOUS
 62
     5
 10
-328.98977300000001
 20
-149.36510699999999
 30
0.0
 11
-328.70393200000001
 21
-149.58469099999999
 31
0.0
  0
LINE
  5
14C9
  8
DETAIL
  6
CONTINUOUS
 62
     5
 10
-329.24507399999999
 20
-149.1148049999999
 30
0.0
 11
-328.98977300000001
 21
-149.36510699999999
 31
0.0
  0
LINE
  5
14CA
  8
DETAIL
  6
CONTINUOUS
 62
     5
 10
-329.46907599999992
 20
-148.83451899999969
 30
0.0
 11
-329.24507399999999
 21
-149.1148049999999
 31
0.0
  0
LINE
  5
14CB
  8
DETAIL
  6
CONTINUOUS
 62
     5
 10
-329.65711599999992
 20
-148.5293299999999
 30
0.0
 11
-329.46907599999992
 21
-148.83451899999969
 31
0.0
  0
LINE
  5
14CC
  8
DETAIL
  6
CONTINUOUS
 62
     5
 10
-329.80530199999993
 20
-148.2061719999999
 30
0.0
 11
-329.65711599999992
 21
-148.5293299999999
 31
0.0
  0
LINE
  5
14CD
  8
DETAIL
  6
CONTINUOUS
 62
     5
 10
-329.91295000000002
 20
-147.867221
 30
0.0
 11
-329.80530199999993
 21
-148.2061719999999
 31
0.0
  0
LINE
  5
14CE
  8
DETAIL
  6
CONTINUOUS
 62
     5
 10
-329.97827399999989
 20
-147.5171499999999
 30
0.0
 11
-329.91295000000002
 21
-147.867221
 31
0.0
  0
LINE
  5
14CF
  8
DETAIL
  6
CONTINUOUS
 62
     5
 10
-329.99277099999989
 20
-147.2813689999999
 30
0.0
 11
-329.97827399999989
 21
-147.5171499999999
 31
0.0
  0
LINE
  5
14D0
  8
DETAIL
  6
CONTINUOUS
 62
     5
 10
-328.06300299999992
 20
-164.6213069999998
 30
0.0
 11
-327.71735899999982
 21
-164.72681899999981
 31
0.0
  0
LINE
  5
14D1
  8
DETAIL
  6
CONTINUOUS
 62
     5
 10
-328.39265
 20
-164.4760109999998
 30
0.0
 11
-328.06300299999992
 21
-164.6213069999998
 31
0.0
  0
LINE
  5
14D2
  8
DETAIL
  6
CONTINUOUS
 62
     5
 10
-328.70393200000001
 20
-164.29165199999991
 30
0.0
 11
-328.39265
 21
-164.4760109999998
 31
0.0
  0
LINE
  5
14D3
  8
DETAIL
  6
CONTINUOUS
 62
     5
 10
-328.98977300000001
 20
-164.072068
 30
0.0
 11
-328.70393200000001
 21
-164.29165199999991
 31
0.0
  0
LINE
  5
14D4
  8
DETAIL
  6
CONTINUOUS
 62
     5
 10
-329.24507399999999
 20
-163.82176699999991
 30
0.0
 11
-328.98977300000001
 21
-164.072068
 31
0.0
  0
LINE
  5
14D5
  8
DETAIL
  6
CONTINUOUS
 62
     5
 10
-329.46907599999992
 20
-163.54148000000001
 30
0.0
 11
-329.24507399999999
 21
-163.82176699999991
 31
0.0
  0
LINE
  5
14D6
  8
DETAIL
  6
CONTINUOUS
 62
     5
 10
-329.65711599999992
 20
-163.23629199999999
 30
0.0
 11
-329.46907599999992
 21
-163.54148000000001
 31
0.0
  0
LINE
  5
14D7
  8
DETAIL
  6
CONTINUOUS
 62
     5
 10
-329.80530199999993
 20
-162.91313400000001
 30
0.0
 11
-329.65711599999992
 21
-163.23629199999999
 31
0.0
  0
LINE
  5
14D8
  8
DETAIL
  6
CONTINUOUS
 62
     5
 10
-329.91295000000002
 20
-162.574183
 30
0.0
 11
-329.80530199999993
 21
-162.91313400000001
 31
0.0
  0
LINE
  5
14D9
  8
DETAIL
  6
CONTINUOUS
 62
     5
 10
-329.97827399999989
 20
-162.22411199999991
 30
0.0
 11
-329.91295000000002
 21
-162.574183
 31
0.0
  0
LINE
  5
14DA
  8
DETAIL
  6
CONTINUOUS
 62
     5
 10
-329.99277099999989
 20
-161.98833099999979
 30
0.0
 11
-329.97827399999989
 21
-162.22411199999991
 31
0.0
  0
LINE
  5
14DB
  8
DETAIL
  6
CONTINUOUS
 62
     5
 10
-328.06300299999992
 20
-179.32826900000001
 30
0.0
 11
-327.71735899999982
 21
-179.43378100000001
 31
0.0
  0
LINE
  5
14DC
  8
DETAIL
  6
CONTINUOUS
 62
     5
 10
-328.39265
 20
-179.182973
 30
0.0
 11
-328.06300299999992
 21
-179.32826900000001
 31
0.0
  0
LINE
  5
14DD
  8
DETAIL
  6
CONTINUOUS
 62
     5
 10
-328.70393200000001
 20
-178.998614
 30
0.0
 11
-328.39265
 21
-179.182973
 31
0.0
  0
LINE
  5
14DE
  8
DETAIL
  6
CONTINUOUS
 62
     5
 10
-328.98977300000001
 20
-178.77903000000001
 30
0.0
 11
-328.70393200000001
 21
-178.998614
 31
0.0
  0
LINE
  5
14DF
  8
DETAIL
  6
CONTINUOUS
 62
     5
 10
-329.24507399999999
 20
-178.528729
 30
0.0
 11
-328.98977300000001
 21
-178.77903000000001
 31
0.0
  0
LINE
  5
14E0
  8
DETAIL
  6
CONTINUOUS
 62
     5
 10
-329.46907599999992
 20
-178.2484419999999
 30
0.0
 11
-329.24507399999999
 21
-178.528729
 31
0.0
  0
LINE
  5
14E1
  8
DETAIL
  6
CONTINUOUS
 62
     5
 10
-329.65711599999992
 20
-177.94325399999991
 30
0.0
 11
-329.46907599999992
 21
-178.2484419999999
 31
0.0
  0
LINE
  5
14E2
  8
DETAIL
  6
CONTINUOUS
 62
     5
 10
-329.80530199999993
 20
-177.62009499999991
 30
0.0
 11
-329.65711599999992
 21
-177.94325399999991
 31
0.0
  0
LINE
  5
14E3
  8
DETAIL
  6
CONTINUOUS
 62
     5
 10
-329.91295000000002
 20
-177.2811439999999
 30
0.0
 11
-329.80530199999993
 21
-177.62009499999991
 31
0.0
  0
LINE
  5
14E4
  8
DETAIL
  6
CONTINUOUS
 62
     5
 10
-329.97827399999989
 20
-176.93107299999991
 30
0.0
 11
-329.91295000000002
 21
-177.2811439999999
 31
0.0
  0
LINE
  5
14E5
  8
DETAIL
  6
CONTINUOUS
 62
     5
 10
-329.99277099999989
 20
-176.69529199999999
 30
0.0
 11
-329.97827399999989
 21
-176.93107299999991
 31
0.0
  0
LINE
  5
14E6
  8
DETAIL
  6
CONTINUOUS
 62
     5
 10
-328.06300299999992
 20
-194.03523100000001
 30
0.0
 11
-327.71735899999982
 21
-194.1407419999999
 31
0.0
  0
LINE
  5
14E7
  8
DETAIL
  6
CONTINUOUS
 62
     5
 10
-328.39265
 20
-193.88993499999981
 30
0.0
 11
-328.06300299999992
 21
-194.03523100000001
 31
0.0
  0
LINE
  5
14E8
  8
DETAIL
  6
CONTINUOUS
 62
     5
 10
-328.70393200000001
 20
-193.70557599999981
 30
0.0
 11
-328.39265
 21
-193.88993499999981
 31
0.0
  0
LINE
  5
14E9
  8
DETAIL
  6
CONTINUOUS
 62
     5
 10
-328.98977300000001
 20
-193.4859919999999
 30
0.0
 11
-328.70393200000001
 21
-193.70557599999981
 31
0.0
  0
LINE
  5
14EA
  8
DETAIL
  6
CONTINUOUS
 62
     5
 10
-329.24507399999999
 20
-193.23568999999981
 30
0.0
 11
-328.98977300000001
 21
-193.4859919999999
 31
0.0
  0
LINE
  5
14EB
  8
DETAIL
  6
CONTINUOUS
 62
     5
 10
-329.46907599999992
 20
-192.95540399999999
 30
0.0
 11
-329.24507399999999
 21
-193.23568999999981
 31
0.0
  0
LINE
  5
14EC
  8
DETAIL
  6
CONTINUOUS
 62
     5
 10
-329.65711599999992
 20
-192.650216
 30
0.0
 11
-329.46907599999992
 21
-192.95540399999999
 31
0.0
  0
LINE
  5
14ED
  8
DETAIL
  6
CONTINUOUS
 62
     5
 10
-329.80530199999993
 20
-192.32705699999991
 30
0.0
 11
-329.65711599999992
 21
-192.650216
 31
0.0
  0
LINE
  5
14EE
  8
DETAIL
  6
CONTINUOUS
 62
     5
 10
-329.91295000000002
 20
-191.9881059999999
 30
0.0
 11
-329.80530199999993
 21
-192.32705699999991
 31
0.0
  0
LINE
  5
14EF
  8
DETAIL
  6
CONTINUOUS
 62
     5
 10
-329.97827399999989
 20
-191.638035
 30
0.0
 11
-329.91295000000002
 21
-191.9881059999999
 31
0.0
  0
LINE
  5
14F0
  8
DETAIL
  6
CONTINUOUS
 62
     5
 10
-329.99277099999989
 20
-191.40225399999991
 30
0.0
 11
-329.97827399999989
 21
-191.638035
 31
0.0
  0
LINE
  5
14F1
  8
DETAIL
  6
CONTINUOUS
 62
     5
 10
-329.97827399999989
 20
-132.9282069999997
 30
0.0
 11
-330.0
 21
-132.57485199999991
 31
0.0
  0
LINE
  5
14F2
  8
DETAIL
  6
CONTINUOUS
 62
     5
 10
-329.91295000000002
 20
-133.278278
 30
0.0
 11
-329.97827399999989
 21
-132.9282069999997
 31
0.0
  0
LINE
  5
14F3
  8
DETAIL
  6
CONTINUOUS
 62
     5
 10
-329.80530199999993
 20
-133.61722900000001
 30
0.0
 11
-329.91295000000002
 21
-133.278278
 31
0.0
  0
LINE
  5
14F4
  8
DETAIL
  6
CONTINUOUS
 62
     5
 10
-329.65711599999992
 20
-133.9403879999997
 30
0.0
 11
-329.80530199999993
 21
-133.61722900000001
 31
0.0
  0
LINE
  5
14F5
  8
DETAIL
  6
CONTINUOUS
 62
     5
 10
-329.46907599999992
 20
-134.24557599999969
 30
0.0
 11
-329.65711599999992
 21
-133.9403879999997
 31
0.0
  0
LINE
  5
14F6
  8
DETAIL
  6
CONTINUOUS
 62
     5
 10
-329.24507399999999
 20
-134.52586199999979
 30
0.0
 11
-329.46907599999992
 21
-134.24557599999969
 31
0.0
  0
LINE
  5
14F7
  8
DETAIL
  6
CONTINUOUS
 62
     5
 10
-328.98977300000001
 20
-134.77616399999991
 30
0.0
 11
-329.24507399999999
 21
-134.52586199999979
 31
0.0
  0
LINE
  5
14F8
  8
DETAIL
  6
CONTINUOUS
 62
     5
 10
-328.70393200000001
 20
-134.99574799999999
 30
0.0
 11
-328.98977300000001
 21
-134.77616399999991
 31
0.0
  0
LINE
  5
14F9
  8
DETAIL
  6
CONTINUOUS
 62
     5
 10
-328.39265
 20
-135.18010699999999
 30
0.0
 11
-328.70393200000001
 21
-134.99574799999999
 31
0.0
  0
LINE
  5
14FA
  8
DETAIL
  6
CONTINUOUS
 62
     5
 10
-328.06300299999992
 20
-135.32540299999991
 30
0.0
 11
-328.39265
 21
-135.18010699999999
 31
0.0
  0
LINE
  5
14FB
  8
DETAIL
  6
CONTINUOUS
 62
     5
 10
-327.71735899999982
 20
-135.430914
 30
0.0
 11
-328.06300299999992
 21
-135.32540299999991
 31
0.0
  0
LINE
  5
14FC
  8
DETAIL
  6
CONTINUOUS
 62
     5
 10
-330.0
 20
-125.51551000000001
 30
0.0
 11
-330.0
 21
-132.57485199999991
 31
0.0
  0
LINE
  5
14FD
  8
DETAIL
  6
CONTINUOUS
 62
     5
 10
-328.06300299999992
 20
-135.20738399999991
 30
0.0
 11
-327.71735899999982
 21
-135.31289599999999
 31
0.0
  0
LINE
  5
14FE
  8
DETAIL
  6
CONTINUOUS
 62
     5
 10
-328.39265
 20
-135.0620879999999
 30
0.0
 11
-328.06300299999992
 21
-135.20738399999991
 31
0.0
  0
LINE
  5
14FF
  8
DETAIL
  6
CONTINUOUS
 62
     5
 10
-328.70393200000001
 20
-134.8777289999999
 30
0.0
 11
-328.39265
 21
-135.0620879999999
 31
0.0
  0
LINE
  5
1500
  8
DETAIL
  6
CONTINUOUS
 62
     5
 10
-328.98977300000001
 20
-134.65814499999991
 30
0.0
 11
-328.70393200000001
 21
-134.8777289999999
 31
0.0
  0
LINE
  5
1501
  8
DETAIL
  6
CONTINUOUS
 62
     5
 10
-329.24507399999999
 20
-134.40784400000001
 30
0.0
 11
-328.98977300000001
 21
-134.65814499999991
 31
0.0
  0
LINE
  5
1502
  8
DETAIL
  6
CONTINUOUS
 62
     5
 10
-329.46907599999992
 20
-134.127557
 30
0.0
 11
-329.24507399999999
 21
-134.40784400000001
 31
0.0
  0
LINE
  5
1503
  8
DETAIL
  6
CONTINUOUS
 62
     5
 10
-329.65711599999992
 20
-133.8223689999999
 30
0.0
 11
-329.46907599999992
 21
-134.127557
 31
0.0
  0
LINE
  5
1504
  8
DETAIL
  6
CONTINUOUS
 62
     5
 10
-329.80530199999993
 20
-133.49921000000001
 30
0.0
 11
-329.65711599999992
 21
-133.8223689999999
 31
0.0
  0
LINE
  5
1505
  8
DETAIL
  6
CONTINUOUS
 62
     5
 10
-329.91295000000002
 20
-133.16025899999991
 30
0.0
 11
-329.80530199999993
 21
-133.49921000000001
 31
0.0
  0
LINE
  5
1506
  8
DETAIL
  6
CONTINUOUS
 62
     5
 10
-329.97827399999989
 20
-132.8101879999999
 30
0.0
 11
-329.91295000000002
 21
-133.16025899999991
 31
0.0
  0
LINE
  5
1507
  8
DETAIL
  6
CONTINUOUS
 62
     5
 10
-329.99277099999989
 20
-132.57440700000001
 30
0.0
 11
-329.97827399999989
 21
-132.8101879999999
 31
0.0
  0
LINE
  5
1508
  8
DETAIL
  6
CONTINUOUS
 62
     5
 10
-327.0
 20
-150.223206
 30
0.0
 11
-327.36039099999982
 21
-150.20190500000001
 31
0.0
  0
LINE
  5
1509
  8
DETAIL
  6
CONTINUOUS
 62
     5
 10
-327.0
 20
-164.93016699999981
 30
0.0
 11
-327.36039099999982
 21
-164.90886599999979
 31
0.0
  0
LINE
  5
150A
  8
DETAIL
  6
CONTINUOUS
 62
     5
 10
-327.0
 20
-179.6371289999999
 30
0.0
 11
-327.36039099999982
 21
-179.61582799999999
 31
0.0
  0
LINE
  5
150B
  8
DETAIL
  6
CONTINUOUS
 62
     5
 10
-327.0
 20
-194.34409099999991
 30
0.0
 11
-327.36039099999982
 21
-194.32279
 31
0.0
  0
LINE
  5
150C
  8
DETAIL
  6
CONTINUOUS
 62
     5
 10
-327.0
 20
-150.223206
 30
0.0
 11
-327.0
 21
-150.10518699999969
 31
0.0
  0
LINE
  5
150D
  8
DETAIL
  6
CONTINUOUS
 62
     5
 10
-327.0
 20
-164.93016699999981
 30
0.0
 11
-327.0
 21
-164.81214900000001
 31
0.0
  0
LINE
  5
150E
  8
DETAIL
  6
CONTINUOUS
 62
     5
 10
-327.0
 20
-179.6371289999999
 30
0.0
 11
-327.0
 21
-179.51911000000001
 31
0.0
  0
LINE
  5
150F
  8
DETAIL
  6
CONTINUOUS
 62
     5
 10
-327.0
 20
-194.34409099999991
 30
0.0
 11
-327.0
 21
-194.2260719999999
 31
0.0
  0
LINE
  5
1510
  8
DETAIL
  6
CONTINUOUS
 62
     5
 10
-327.36039099999982
 20
-150.08388599999981
 30
0.0
 11
-327.0
 21
-150.10518699999969
 31
0.0
  0
LINE
  5
1511
  8
DETAIL
  6
CONTINUOUS
 62
     5
 10
-327.36039099999982
 20
-164.7908469999999
 30
0.0
 11
-327.0
 21
-164.81214900000001
 31
0.0
  0
LINE
  5
1512
  8
DETAIL
  6
CONTINUOUS
 62
     5
 10
-327.36039099999982
 20
-179.4978089999999
 30
0.0
 11
-327.0
 21
-179.51911000000001
 31
0.0
  0
LINE
  5
1513
  8
DETAIL
  6
CONTINUOUS
 62
     5
 10
-327.36039099999982
 20
-194.20477099999991
 30
0.0
 11
-327.0
 21
-194.2260719999999
 31
0.0
  0
LINE
  5
1514
  8
DETAIL
  6
CONTINUOUS
 62
     5
 10
-327.0
 20
-135.51624399999969
 30
0.0
 11
-327.36039099999982
 21
-135.49494300000001
 31
0.0
  0
LINE
  5
1515
  8
DETAIL
  6
CONTINUOUS
 62
     5
 10
-327.0
 20
-135.51624399999969
 30
0.0
 11
-327.0
 21
-135.398225
 31
0.0
  0
LINE
  5
1516
  8
DETAIL
  6
CONTINUOUS
 62
     5
 10
-327.36039099999982
 20
-135.376924
 30
0.0
 11
-327.0
 21
-135.398225
 31
0.0
  0
LINE
  5
1517
  8
DETAIL
  6
CONTINUOUS
 62
     5
 10
-157.0
 20
-238.34695699999989
 30
0.0
 11
-13.0
 21
-238.34695699999989
 31
0.0
  0
LINE
  5
1518
  8
DETAIL
  6
CONTINUOUS
 62
     5
 10
-157.0
 20
-238.46497600000001
 30
0.0
 11
-13.0
 21
-238.46497600000001
 31
0.0
  0
LINE
  5
1519
  8
DETAIL
  6
CONTINUOUS
 62
     5
 10
-157.0
 20
-135.398225
 30
0.0
 11
-13.0
 21
-135.398225
 31
0.0
  0
LINE
  5
151A
  8
DETAIL
  6
CONTINUOUS
 62
     5
 10
-157.0
 20
-135.51624399999969
 30
0.0
 11
-13.0
 21
-135.51624399999969
 31
0.0
  0
LINE
  5
151B
  8
DETAIL
  6
CONTINUOUS
 62
     5
 10
-157.0
 20
-150.10518699999969
 30
0.0
 11
-13.0
 21
-150.10518699999969
 31
0.0
  0
LINE
  5
151C
  8
DETAIL
  6
CONTINUOUS
 62
     5
 10
-157.0
 20
-150.223206
 30
0.0
 11
-13.0
 21
-150.223206
 31
0.0
  0
LINE
  5
151D
  8
DETAIL
  6
CONTINUOUS
 62
     5
 10
-157.0
 20
-164.81214900000001
 30
0.0
 11
-13.0
 21
-164.81214900000001
 31
0.0
  0
LINE
  5
151E
  8
DETAIL
  6
CONTINUOUS
 62
     5
 10
-157.0
 20
-164.93016699999981
 30
0.0
 11
-13.0
 21
-164.93016699999981
 31
0.0
  0
LINE
  5
151F
  8
DETAIL
  6
CONTINUOUS
 62
     5
 10
-157.0
 20
-179.51911000000001
 30
0.0
 11
-13.0
 21
-179.51911000000001
 31
0.0
  0
LINE
  5
1520
  8
DETAIL
  6
CONTINUOUS
 62
     5
 10
-157.0
 20
-179.6371289999999
 30
0.0
 11
-13.0
 21
-179.6371289999999
 31
0.0
  0
LINE
  5
1521
  8
DETAIL
  6
CONTINUOUS
 62
     5
 10
-157.0
 20
-194.2260719999999
 30
0.0
 11
-13.0
 21
-194.2260719999999
 31
0.0
  0
LINE
  5
1522
  8
DETAIL
  6
CONTINUOUS
 62
     5
 10
-157.0
 20
-194.34409099999991
 30
0.0
 11
-13.0
 21
-194.34409099999991
 31
0.0
  0
LINE
  5
1523
  8
DETAIL
  6
CONTINUOUS
 62
     5
 10
-157.0
 20
-208.93303399999999
 30
0.0
 11
-13.0
 21
-208.93303399999999
 31
0.0
  0
LINE
  5
1524
  8
DETAIL
  6
CONTINUOUS
 62
     5
 10
-157.0
 20
-209.051052
 30
0.0
 11
-13.0
 21
-209.051052
 31
0.0
  0
LINE
  5
1525
  8
DETAIL
  6
CONTINUOUS
 62
     5
 10
-157.0
 20
-223.639995
 30
0.0
 11
-13.0
 21
-223.639995
 31
0.0
  0
LINE
  5
1526
  8
DETAIL
  6
CONTINUOUS
 62
     5
 10
-157.0
 20
-223.75801399999989
 30
0.0
 11
-13.0
 21
-223.75801399999989
 31
0.0
  0
LINE
  5
1527
  8
DETAIL
  6
CONTINUOUS
 62
     5
 10
-160.0
 20
-199.050319
 30
0.0
 11
-160.0
 21
-206.10965999999991
 31
0.0
  0
LINE
  5
1528
  8
DETAIL
  6
CONTINUOUS
 62
     5
 10
-180.0
 20
-206.10965999999991
 30
0.0
 11
-180.0
 21
-199.050319
 31
0.0
  0
LINE
  5
1529
  8
DETAIL
  6
CONTINUOUS
 62
     5
 10
-159.978274
 20
-235.87693899999991
 30
0.0
 11
-160.0
 21
-235.5235839999998
 31
0.0
  0
LINE
  5
152A
  8
DETAIL
  6
CONTINUOUS
 62
     5
 10
-159.91295
 20
-236.22700999999989
 30
0.0
 11
-159.978274
 21
-235.87693899999991
 31
0.0
  0
LINE
  5
152B
  8
DETAIL
  6
CONTINUOUS
 62
     5
 10
-159.80530199999981
 20
-236.5659609999999
 30
0.0
 11
-159.91295
 21
-236.22700999999989
 31
0.0
  0
LINE
  5
152C
  8
DETAIL
  6
CONTINUOUS
 62
     5
 10
-159.6571159999998
 20
-236.88911999999991
 30
0.0
 11
-159.80530199999981
 21
-236.5659609999999
 31
0.0
  0
LINE
  5
152D
  8
DETAIL
  6
CONTINUOUS
 62
     5
 10
-159.46907599999969
 20
-237.19430800000001
 30
0.0
 11
-159.6571159999998
 21
-236.88911999999991
 31
0.0
  0
LINE
  5
152E
  8
DETAIL
  6
CONTINUOUS
 62
     5
 10
-159.24507399999979
 20
-237.47459399999991
 30
0.0
 11
-159.46907599999969
 21
-237.19430800000001
 31
0.0
  0
LINE
  5
152F
  8
DETAIL
  6
CONTINUOUS
 62
     5
 10
-158.98977300000001
 20
-237.724896
 30
0.0
 11
-159.24507399999979
 21
-237.47459399999991
 31
0.0
  0
LINE
  5
1530
  8
DETAIL
  6
CONTINUOUS
 62
     5
 10
-158.70393200000001
 20
-237.94447999999991
 30
0.0
 11
-158.98977300000001
 21
-237.724896
 31
0.0
  0
LINE
  5
1531
  8
DETAIL
  6
CONTINUOUS
 62
     5
 10
-158.39265
 20
-238.12883799999989
 30
0.0
 11
-158.70393200000001
 21
-237.94447999999991
 31
0.0
  0
LINE
  5
1532
  8
DETAIL
  6
CONTINUOUS
 62
     5
 10
-158.06300299999981
 20
-238.2741349999998
 30
0.0
 11
-158.39265
 21
-238.12883799999989
 31
0.0
  0
LINE
  5
1533
  8
DETAIL
  6
CONTINUOUS
 62
     5
 10
-157.7173589999999
 20
-238.37964600000001
 30
0.0
 11
-158.06300299999981
 21
-238.2741349999998
 31
0.0
  0
LINE
  5
1534
  8
DETAIL
  6
CONTINUOUS
 62
     5
 10
-157.36039099999991
 20
-238.44367500000001
 30
0.0
 11
-157.7173589999999
 21
-238.37964600000001
 31
0.0
  0
LINE
  5
1535
  8
DETAIL
  6
CONTINUOUS
 62
     5
 10
-157.0
 20
-238.46497600000001
 30
0.0
 11
-157.36039099999991
 21
-238.44367500000001
 31
0.0
  0
LINE
  5
1536
  8
DETAIL
  6
CONTINUOUS
 62
     5
 10
-157.0
 20
-238.46497600000001
 30
0.0
 11
-157.0
 21
-238.34695699999989
 31
0.0
  0
LINE
  5
1537
  8
DETAIL
  6
CONTINUOUS
 62
     5
 10
-160.0
 20
-228.4642419999999
 30
0.0
 11
-160.0
 21
-235.5235839999998
 31
0.0
  0
LINE
  5
1538
  8
DETAIL
  6
CONTINUOUS
 62
     5
 10
-157.36039099999991
 20
-238.3256559999999
 30
0.0
 11
-157.0
 21
-238.34695699999989
 31
0.0
  0
LINE
  5
1539
  8
DETAIL
  6
CONTINUOUS
 62
     5
 10
-157.7173589999999
 20
-238.2616279999998
 30
0.0
 11
-157.36039099999991
 21
-238.3256559999999
 31
0.0
  0
LINE
  5
153A
  8
DETAIL
  6
CONTINUOUS
 62
     5
 10
-158.06300299999981
 20
-238.15611599999991
 30
0.0
 11
-157.7173589999999
 21
-238.2616279999998
 31
0.0
  0
LINE
  5
153B
  8
DETAIL
  6
CONTINUOUS
 62
     5
 10
-158.39265
 20
-238.01082
 30
0.0
 11
-158.06300299999981
 21
-238.15611599999991
 31
0.0
  0
LINE
  5
153C
  8
DETAIL
  6
CONTINUOUS
 62
     5
 10
-158.70393200000001
 20
-237.82646099999999
 30
0.0
 11
-158.39265
 21
-238.01082
 31
0.0
  0
LINE
  5
153D
  8
DETAIL
  6
CONTINUOUS
 62
     5
 10
-158.98977300000001
 20
-237.60687699999991
 30
0.0
 11
-158.70393200000001
 21
-237.82646099999999
 31
0.0
  0
LINE
  5
153E
  8
DETAIL
  6
CONTINUOUS
 62
     5
 10
-159.24507399999979
 20
-237.3565759999999
 30
0.0
 11
-158.98977300000001
 21
-237.60687699999991
 31
0.0
  0
LINE
  5
153F
  8
DETAIL
  6
CONTINUOUS
 62
     5
 10
-159.46907599999969
 20
-237.07628899999989
 30
0.0
 11
-159.24507399999979
 21
-237.3565759999999
 31
0.0
  0
LINE
  5
1540
  8
DETAIL
  6
CONTINUOUS
 62
     5
 10
-159.6571159999998
 20
-236.7711009999999
 30
0.0
 11
-159.46907599999969
 21
-237.07628899999989
 31
0.0
  0
LINE
  5
1541
  8
DETAIL
  6
CONTINUOUS
 62
     5
 10
-159.80530199999981
 20
-236.4479419999999
 30
0.0
 11
-159.6571159999998
 21
-236.7711009999999
 31
0.0
  0
LINE
  5
1542
  8
DETAIL
  6
CONTINUOUS
 62
     5
 10
-159.91295
 20
-236.108991
 30
0.0
 11
-159.80530199999981
 21
-236.4479419999999
 31
0.0
  0
LINE
  5
1543
  8
DETAIL
  6
CONTINUOUS
 62
     5
 10
-159.978274
 20
-235.75891999999999
 30
0.0
 11
-159.91295
 21
-236.108991
 31
0.0
  0
LINE
  5
1544
  8
DETAIL
  6
CONTINUOUS
 62
     5
 10
-159.99277099999981
 20
-235.5231389999999
 30
0.0
 11
-159.978274
 21
-235.75891999999999
 31
0.0
  0
ARC
  5
1545
  8
DETAIL
  6
CONTINUOUS
 62
     5
 10
-180.0
 20
-229.69999999999999
 30
0.0
 40
3.0
 50
174.792509
 51
270.0
  0
LINE
  5
1546
  8
DETAIL
  6
CONTINUOUS
 62
     5
 10
-180.0217259999998
 20
-235.75891499999989
 30
0.0
 11
-180.00722899999991
 21
-235.5231389999999
 31
0.0
  0
LINE
  5
1547
  8
DETAIL
  6
CONTINUOUS
 62
     5
 10
-180.08702999999991
 20
-236.10891000000001
 30
0.0
 11
-180.0217259999998
 21
-235.75891499999989
 31
0.0
  0
LINE
  5
1548
  8
DETAIL
  6
CONTINUOUS
 62
     5
 10
-180.1946439999999
 20
-236.44780099999991
 30
0.0
 11
-180.08702999999991
 21
-236.10891000000001
 31
0.0
  0
LINE
  5
1549
  8
DETAIL
  6
CONTINUOUS
 62
     5
 10
-180.34283500000001
 20
-236.77100799999999
 30
0.0
 11
-180.1946439999999
 21
-236.44780099999991
 31
0.0
  0
LINE
  5
154A
  8
DETAIL
  6
CONTINUOUS
 62
     5
 10
-180.5308669999998
 20
-237.07620799999989
 30
0.0
 11
-180.34283500000001
 21
-236.77100799999999
 31
0.0
  0
LINE
  5
154B
  8
DETAIL
  6
CONTINUOUS
 62
     5
 10
-180.75482599999989
 20
-237.35646499999999
 30
0.0
 11
-180.5308669999998
 21
-237.07620799999989
 31
0.0
  0
LINE
  5
154C
  8
DETAIL
  6
CONTINUOUS
 62
     5
 10
-181.01011500000001
 20
-237.60677899999999
 30
0.0
 11
-180.75482599999989
 21
-237.35646499999999
 31
0.0
  0
LINE
  5
154D
  8
DETAIL
  6
CONTINUOUS
 62
     5
 10
-181.29598699999991
 20
-237.82640599999991
 30
0.0
 11
-181.01011500000001
 21
-237.60677899999999
 31
0.0
  0
LINE
  5
154E
  8
DETAIL
  6
CONTINUOUS
 62
     5
 10
-181.60725600000001
 20
-238.01077100000001
 30
0.0
 11
-181.29598699999991
 21
-237.82640599999991
 31
0.0
  0
LINE
  5
154F
  8
DETAIL
  6
CONTINUOUS
 62
     5
 10
-181.93685300000001
 20
-238.15606299999999
 30
0.0
 11
-181.60725600000001
 21
-238.01077100000001
 31
0.0
  0
LINE
  5
1550
  8
DETAIL
  6
CONTINUOUS
 62
     5
 10
-182.28255799999991
 20
-238.26160699999991
 30
0.0
 11
-181.93685300000001
 21
-238.15606299999999
 31
0.0
  0
LINE
  5
1551
  8
DETAIL
  6
CONTINUOUS
 62
     5
 10
-182.63960399999991
 20
-238.32565500000001
 30
0.0
 11
-182.28255799999991
 21
-238.26160699999991
 31
0.0
  0
LINE
  5
1552
  8
DETAIL
  6
CONTINUOUS
 62
     5
 10
-183.0
 20
-238.34695699999989
 30
0.0
 11
-182.63960399999991
 21
-238.32565500000001
 31
0.0
  0
LINE
  5
1553
  8
DETAIL
  6
CONTINUOUS
 62
     5
 10
-182.63960399999991
 20
-238.4436739999999
 30
0.0
 11
-183.0
 21
-238.46497600000001
 31
0.0
  0
LINE
  5
1554
  8
DETAIL
  6
CONTINUOUS
 62
     5
 10
-182.28255799999991
 20
-238.379626
 30
0.0
 11
-182.63960399999991
 21
-238.4436739999999
 31
0.0
  0
LINE
  5
1555
  8
DETAIL
  6
CONTINUOUS
 62
     5
 10
-181.93685300000001
 20
-238.274081
 30
0.0
 11
-182.28255799999991
 21
-238.379626
 31
0.0
  0
LINE
  5
1556
  8
DETAIL
  6
CONTINUOUS
 62
     5
 10
-181.60725600000001
 20
-238.1287899999999
 30
0.0
 11
-181.93685300000001
 21
-238.274081
 31
0.0
  0
LINE
  5
1557
  8
DETAIL
  6
CONTINUOUS
 62
     5
 10
-181.29598699999991
 20
-237.944424
 30
0.0
 11
-181.60725600000001
 21
-238.1287899999999
 31
0.0
  0
LINE
  5
1558
  8
DETAIL
  6
CONTINUOUS
 62
     5
 10
-181.01011500000001
 20
-237.72479799999991
 30
0.0
 11
-181.29598699999991
 21
-237.944424
 31
0.0
  0
LINE
  5
1559
  8
DETAIL
  6
CONTINUOUS
 62
     5
 10
-180.75482599999989
 20
-237.4744839999999
 30
0.0
 11
-181.01011500000001
 21
-237.72479799999991
 31
0.0
  0
LINE
  5
155A
  8
DETAIL
  6
CONTINUOUS
 62
     5
 10
-180.5308669999998
 20
-237.19422700000001
 30
0.0
 11
-180.75482599999989
 21
-237.4744839999999
 31
0.0
  0
LINE
  5
155B
  8
DETAIL
  6
CONTINUOUS
 62
     5
 10
-180.34283500000001
 20
-236.889027
 30
0.0
 11
-180.5308669999998
 21
-237.19422700000001
 31
0.0
  0
LINE
  5
155C
  8
DETAIL
  6
CONTINUOUS
 62
     5
 10
-180.1946439999999
 20
-236.56581999999989
 30
0.0
 11
-180.34283500000001
 21
-236.889027
 31
0.0
  0
LINE
  5
155D
  8
DETAIL
  6
CONTINUOUS
 62
     5
 10
-180.08702999999991
 20
-236.22692799999999
 30
0.0
 11
-180.1946439999999
 21
-236.56581999999989
 31
0.0
  0
LINE
  5
155E
  8
DETAIL
  6
CONTINUOUS
 62
     5
 10
-180.0217259999998
 20
-235.87693400000001
 30
0.0
 11
-180.08702999999991
 21
-236.22692799999999
 31
0.0
  0
LINE
  5
155F
  8
DETAIL
  6
CONTINUOUS
 62
     5
 10
-180.0
 20
-235.5235839999998
 30
0.0
 11
-180.0217259999998
 21
-235.87693400000001
 31
0.0
  0
LINE
  5
1560
  8
DETAIL
  6
CONTINUOUS
 62
     5
 10
-180.0
 20
-235.5235839999998
 30
0.0
 11
-180.0
 21
-228.4642419999999
 31
0.0
  0
LINE
  5
1561
  8
DETAIL
  6
CONTINUOUS
 62
     5
 10
-183.0
 20
-238.46497600000001
 30
0.0
 11
-183.0
 21
-238.34695699999989
 31
0.0
  0
LINE
  5
1562
  8
DETAIL
  6
CONTINUOUS
 62
     5
 10
-159.978274
 20
-206.4630149999999
 30
0.0
 11
-160.0
 21
-206.10965999999991
 31
0.0
  0
LINE
  5
1563
  8
DETAIL
  6
CONTINUOUS
 62
     5
 10
-159.91295
 20
-206.813087
 30
0.0
 11
-159.978274
 21
-206.4630149999999
 31
0.0
  0
LINE
  5
1564
  8
DETAIL
  6
CONTINUOUS
 62
     5
 10
-159.80530199999981
 20
-207.15203699999989
 30
0.0
 11
-159.91295
 21
-206.813087
 31
0.0
  0
LINE
  5
1565
  8
DETAIL
  6
CONTINUOUS
 62
     5
 10
-159.6571159999998
 20
-207.4751959999999
 30
0.0
 11
-159.80530199999981
 21
-207.15203699999989
 31
0.0
  0
LINE
  5
1566
  8
DETAIL
  6
CONTINUOUS
 62
     5
 10
-159.46907599999969
 20
-207.780384
 30
0.0
 11
-159.6571159999998
 21
-207.4751959999999
 31
0.0
  0
LINE
  5
1567
  8
DETAIL
  6
CONTINUOUS
 62
     5
 10
-159.24507399999979
 20
-208.06067100000001
 30
0.0
 11
-159.46907599999969
 21
-207.780384
 31
0.0
  0
LINE
  5
1568
  8
DETAIL
  6
CONTINUOUS
 62
     5
 10
-158.98977300000001
 20
-208.31097199999991
 30
0.0
 11
-159.24507399999979
 21
-208.06067100000001
 31
0.0
  0
LINE
  5
1569
  8
DETAIL
  6
CONTINUOUS
 62
     5
 10
-158.70393200000001
 20
-208.53055599999999
 30
0.0
 11
-158.98977300000001
 21
-208.31097199999991
 31
0.0
  0
LINE
  5
156A
  8
DETAIL
  6
CONTINUOUS
 62
     5
 10
-158.39265
 20
-208.71491499999999
 30
0.0
 11
-158.70393200000001
 21
-208.53055599999999
 31
0.0
  0
LINE
  5
156B
  8
DETAIL
  6
CONTINUOUS
 62
     5
 10
-158.06300299999981
 20
-208.86021099999999
 30
0.0
 11
-158.39265
 21
-208.71491499999999
 31
0.0
  0
LINE
  5
156C
  8
DETAIL
  6
CONTINUOUS
 62
     5
 10
-157.7173589999999
 20
-208.96572299999991
 30
0.0
 11
-158.06300299999981
 21
-208.86021099999999
 31
0.0
  0
LINE
  5
156D
  8
DETAIL
  6
CONTINUOUS
 62
     5
 10
-157.36039099999991
 20
-209.029751
 30
0.0
 11
-157.7173589999999
 21
-208.96572299999991
 31
0.0
  0
LINE
  5
156E
  8
DETAIL
  6
CONTINUOUS
 62
     5
 10
-157.0
 20
-209.051052
 30
0.0
 11
-157.36039099999991
 21
-209.029751
 31
0.0
  0
LINE
  5
156F
  8
DETAIL
  6
CONTINUOUS
 62
     5
 10
-159.978274
 20
-221.16997699999999
 30
0.0
 11
-160.0
 21
-220.8166219999998
 31
0.0
  0
LINE
  5
1570
  8
DETAIL
  6
CONTINUOUS
 62
     5
 10
-159.91295
 20
-221.520048
 30
0.0
 11
-159.978274
 21
-221.16997699999999
 31
0.0
  0
LINE
  5
1571
  8
DETAIL
  6
CONTINUOUS
 62
     5
 10
-159.80530199999981
 20
-221.85899900000001
 30
0.0
 11
-159.91295
 21
-221.520048
 31
0.0
  0
LINE
  5
1572
  8
DETAIL
  6
CONTINUOUS
 62
     5
 10
-159.6571159999998
 20
-222.1821579999999
 30
0.0
 11
-159.80530199999981
 21
-221.85899900000001
 31
0.0
  0
LINE
  5
1573
  8
DETAIL
  6
CONTINUOUS
 62
     5
 10
-159.46907599999969
 20
-222.48734599999989
 30
0.0
 11
-159.6571159999998
 21
-222.1821579999999
 31
0.0
  0
LINE
  5
1574
  8
DETAIL
  6
CONTINUOUS
 62
     5
 10
-159.24507399999979
 20
-222.7676329999999
 30
0.0
 11
-159.46907599999969
 21
-222.48734599999989
 31
0.0
  0
LINE
  5
1575
  8
DETAIL
  6
CONTINUOUS
 62
     5
 10
-158.98977300000001
 20
-223.0179339999998
 30
0.0
 11
-159.24507399999979
 21
-222.7676329999999
 31
0.0
  0
LINE
  5
1576
  8
DETAIL
  6
CONTINUOUS
 62
     5
 10
-158.70393200000001
 20
-223.23751799999999
 30
0.0
 11
-158.98977300000001
 21
-223.0179339999998
 31
0.0
  0
LINE
  5
1577
  8
DETAIL
  6
CONTINUOUS
 62
     5
 10
-158.39265
 20
-223.42187699999999
 30
0.0
 11
-158.70393200000001
 21
-223.23751799999999
 31
0.0
  0
LINE
  5
1578
  8
DETAIL
  6
CONTINUOUS
 62
     5
 10
-158.06300299999981
 20
-223.56717299999991
 30
0.0
 11
-158.39265
 21
-223.42187699999999
 31
0.0
  0
LINE
  5
1579
  8
DETAIL
  6
CONTINUOUS
 62
     5
 10
-157.7173589999999
 20
-223.672685
 30
0.0
 11
-158.06300299999981
 21
-223.56717299999991
 31
0.0
  0
LINE
  5
157A
  8
DETAIL
  6
CONTINUOUS
 62
     5
 10
-157.36039099999991
 20
-223.7367129999999
 30
0.0
 11
-157.7173589999999
 21
-223.672685
 31
0.0
  0
LINE
  5
157B
  8
DETAIL
  6
CONTINUOUS
 62
     5
 10
-157.0
 20
-223.75801399999989
 30
0.0
 11
-157.36039099999991
 21
-223.7367129999999
 31
0.0
  0
LINE
  5
157C
  8
DETAIL
  6
CONTINUOUS
 62
     5
 10
-157.0
 20
-209.051052
 30
0.0
 11
-157.0
 21
-208.93303399999999
 31
0.0
  0
LINE
  5
157D
  8
DETAIL
  6
CONTINUOUS
 62
     5
 10
-157.0
 20
-223.75801399999989
 30
0.0
 11
-157.0
 21
-223.639995
 31
0.0
  0
LINE
  5
157E
  8
DETAIL
  6
CONTINUOUS
 62
     5
 10
-160.0
 20
-213.75728000000001
 30
0.0
 11
-160.0
 21
-220.8166219999998
 31
0.0
  0
LINE
  5
157F
  8
DETAIL
  6
CONTINUOUS
 62
     5
 10
-157.36039099999991
 20
-208.911732
 30
0.0
 11
-157.0
 21
-208.93303399999999
 31
0.0
  0
LINE
  5
1580
  8
DETAIL
  6
CONTINUOUS
 62
     5
 10
-157.7173589999999
 20
-208.84770399999991
 30
0.0
 11
-157.36039099999991
 21
-208.911732
 31
0.0
  0
LINE
  5
1581
  8
DETAIL
  6
CONTINUOUS
 62
     5
 10
-158.06300299999981
 20
-208.74219299999999
 30
0.0
 11
-157.7173589999999
 21
-208.84770399999991
 31
0.0
  0
LINE
  5
1582
  8
DETAIL
  6
CONTINUOUS
 62
     5
 10
-158.39265
 20
-208.5968959999999
 30
0.0
 11
-158.06300299999981
 21
-208.74219299999999
 31
0.0
  0
LINE
  5
1583
  8
DETAIL
  6
CONTINUOUS
 62
     5
 10
-158.70393200000001
 20
-208.4125379999999
 30
0.0
 11
-158.39265
 21
-208.5968959999999
 31
0.0
  0
LINE
  5
1584
  8
DETAIL
  6
CONTINUOUS
 62
     5
 10
-158.98977300000001
 20
-208.1929539999999
 30
0.0
 11
-158.70393200000001
 21
-208.4125379999999
 31
0.0
  0
LINE
  5
1585
  8
DETAIL
  6
CONTINUOUS
 62
     5
 10
-159.24507399999979
 20
-207.94265200000001
 30
0.0
 11
-158.98977300000001
 21
-208.1929539999999
 31
0.0
  0
LINE
  5
1586
  8
DETAIL
  6
CONTINUOUS
 62
     5
 10
-159.46907599999969
 20
-207.66236499999999
 30
0.0
 11
-159.24507399999979
 21
-207.94265200000001
 31
0.0
  0
LINE
  5
1587
  8
DETAIL
  6
CONTINUOUS
 62
     5
 10
-159.6571159999998
 20
-207.35717700000001
 30
0.0
 11
-159.46907599999969
 21
-207.66236499999999
 31
0.0
  0
LINE
  5
1588
  8
DETAIL
  6
CONTINUOUS
 62
     5
 10
-159.80530199999981
 20
-207.034019
 30
0.0
 11
-159.6571159999998
 21
-207.35717700000001
 31
0.0
  0
LINE
  5
1589
  8
DETAIL
  6
CONTINUOUS
 62
     5
 10
-159.91295
 20
-206.69506799999999
 30
0.0
 11
-159.80530199999981
 21
-207.034019
 31
0.0
  0
LINE
  5
158A
  8
DETAIL
  6
CONTINUOUS
 62
     5
 10
-159.978274
 20
-206.34499700000001
 30
0.0
 11
-159.91295
 21
-206.69506799999999
 31
0.0
  0
LINE
  5
158B
  8
DETAIL
  6
CONTINUOUS
 62
     5
 10
-159.99277099999981
 20
-206.109216
 30
0.0
 11
-159.978274
 21
-206.34499700000001
 31
0.0
  0
LINE
  5
158C
  8
DETAIL
  6
CONTINUOUS
 62
     5
 10
-157.36039099999991
 20
-223.618694
 30
0.0
 11
-157.0
 21
-223.639995
 31
0.0
  0
LINE
  5
158D
  8
DETAIL
  6
CONTINUOUS
 62
     5
 10
-157.7173589999999
 20
-223.554666
 30
0.0
 11
-157.36039099999991
 21
-223.618694
 31
0.0
  0
LINE
  5
158E
  8
DETAIL
  6
CONTINUOUS
 62
     5
 10
-158.06300299999981
 20
-223.44915399999999
 30
0.0
 11
-157.7173589999999
 21
-223.554666
 31
0.0
  0
LINE
  5
158F
  8
DETAIL
  6
CONTINUOUS
 62
     5
 10
-158.39265
 20
-223.30385799999999
 30
0.0
 11
-158.06300299999981
 21
-223.44915399999999
 31
0.0
  0
LINE
  5
1590
  8
DETAIL
  6
CONTINUOUS
 62
     5
 10
-158.70393200000001
 20
-223.11949899999999
 30
0.0
 11
-158.39265
 21
-223.30385799999999
 31
0.0
  0
LINE
  5
1591
  8
DETAIL
  6
CONTINUOUS
 62
     5
 10
-158.98977300000001
 20
-222.89991499999991
 30
0.0
 11
-158.70393200000001
 21
-223.11949899999999
 31
0.0
  0
LINE
  5
1592
  8
DETAIL
  6
CONTINUOUS
 62
     5
 10
-159.24507399999979
 20
-222.64961400000001
 30
0.0
 11
-158.98977300000001
 21
-222.89991499999991
 31
0.0
  0
LINE
  5
1593
  8
DETAIL
  6
CONTINUOUS
 62
     5
 10
-159.46907599999969
 20
-222.369327
 30
0.0
 11
-159.24507399999979
 21
-222.64961400000001
 31
0.0
  0
LINE
  5
1594
  8
DETAIL
  6
CONTINUOUS
 62
     5
 10
-159.6571159999998
 20
-222.0641389999999
 30
0.0
 11
-159.46907599999969
 21
-222.369327
 31
0.0
  0
LINE
  5
1595
  8
DETAIL
  6
CONTINUOUS
 62
     5
 10
-159.80530199999981
 20
-221.74097999999989
 30
0.0
 11
-159.6571159999998
 21
-222.0641389999999
 31
0.0
  0
LINE
  5
1596
  8
DETAIL
  6
CONTINUOUS
 62
     5
 10
-159.91295
 20
-221.40202999999991
 30
0.0
 11
-159.80530199999981
 21
-221.74097999999989
 31
0.0
  0
LINE
  5
1597
  8
DETAIL
  6
CONTINUOUS
 62
     5
 10
-159.978274
 20
-221.05195800000001
 30
0.0
 11
-159.91295
 21
-221.40202999999991
 31
0.0
  0
LINE
  5
1598
  8
DETAIL
  6
CONTINUOUS
 62
     5
 10
-159.99277099999981
 20
-220.81617700000001
 30
0.0
 11
-159.978274
 21
-221.05195800000001
 31
0.0
  0
LINE
  5
1599
  8
DETAIL
  6
CONTINUOUS
 62
     5
 10
-180.0217259999998
 20
-206.34499199999999
 30
0.0
 11
-180.00722899999991
 21
-206.109216
 31
0.0
  0
LINE
  5
159A
  8
DETAIL
  6
CONTINUOUS
 62
     5
 10
-180.08702999999991
 20
-206.694986
 30
0.0
 11
-180.0217259999998
 21
-206.34499199999999
 31
0.0
  0
LINE
  5
159B
  8
DETAIL
  6
CONTINUOUS
 62
     5
 10
-180.1946439999999
 20
-207.0338779999999
 30
0.0
 11
-180.08702999999991
 21
-206.694986
 31
0.0
  0
LINE
  5
159C
  8
DETAIL
  6
CONTINUOUS
 62
     5
 10
-180.34283500000001
 20
-207.35708500000001
 30
0.0
 11
-180.1946439999999
 21
-207.0338779999999
 31
0.0
  0
LINE
  5
159D
  8
DETAIL
  6
CONTINUOUS
 62
     5
 10
-180.5308669999998
 20
-207.662285
 30
0.0
 11
-180.34283500000001
 21
-207.35708500000001
 31
0.0
  0
LINE
  5
159E
  8
DETAIL
  6
CONTINUOUS
 62
     5
 10
-180.75482599999989
 20
-207.942542
 30
0.0
 11
-180.5308669999998
 21
-207.662285
 31
0.0
  0
LINE
  5
159F
  8
DETAIL
  6
CONTINUOUS
 62
     5
 10
-181.01011500000001
 20
-208.19285600000001
 30
0.0
 11
-180.75482599999989
 21
-207.942542
 31
0.0
  0
LINE
  5
15A0
  8
DETAIL
  6
CONTINUOUS
 62
     5
 10
-181.29598699999991
 20
-208.4124819999999
 30
0.0
 11
-181.01011500000001
 21
-208.19285600000001
 31
0.0
  0
LINE
  5
15A1
  8
DETAIL
  6
CONTINUOUS
 62
     5
 10
-181.60725600000001
 20
-208.59684799999999
 30
0.0
 11
-181.29598699999991
 21
-208.4124819999999
 31
0.0
  0
LINE
  5
15A2
  8
DETAIL
  6
CONTINUOUS
 62
     5
 10
-181.93685300000001
 20
-208.7421389999999
 30
0.0
 11
-181.60725600000001
 21
-208.59684799999999
 31
0.0
  0
LINE
  5
15A3
  8
DETAIL
  6
CONTINUOUS
 62
     5
 10
-182.28255799999991
 20
-208.8476839999999
 30
0.0
 11
-181.93685300000001
 21
-208.7421389999999
 31
0.0
  0
LINE
  5
15A4
  8
DETAIL
  6
CONTINUOUS
 62
     5
 10
-182.63960399999991
 20
-208.911732
 30
0.0
 11
-182.28255799999991
 21
-208.8476839999999
 31
0.0
  0
LINE
  5
15A5
  8
DETAIL
  6
CONTINUOUS
 62
     5
 10
-183.0
 20
-208.93303399999999
 30
0.0
 11
-182.63960399999991
 21
-208.911732
 31
0.0
  0
LINE
  5
15A6
  8
DETAIL
  6
CONTINUOUS
 62
     5
 10
-180.0217259999998
 20
-221.05195299999991
 30
0.0
 11
-180.00722899999991
 21
-220.81617700000001
 31
0.0
  0
LINE
  5
15A7
  8
DETAIL
  6
CONTINUOUS
 62
     5
 10
-180.08702999999991
 20
-221.401948
 30
0.0
 11
-180.0217259999998
 21
-221.05195299999991
 31
0.0
  0
LINE
  5
15A8
  8
DETAIL
  6
CONTINUOUS
 62
     5
 10
-180.1946439999999
 20
-221.74083899999999
 30
0.0
 11
-180.08702999999991
 21
-221.401948
 31
0.0
  0
LINE
  5
15A9
  8
DETAIL
  6
CONTINUOUS
 62
     5
 10
-180.34283500000001
 20
-222.0640469999999
 30
0.0
 11
-180.1946439999999
 21
-221.74083899999999
 31
0.0
  0
LINE
  5
15AA
  8
DETAIL
  6
CONTINUOUS
 62
     5
 10
-180.5308669999998
 20
-222.369247
 30
0.0
 11
-180.34283500000001
 21
-222.0640469999999
 31
0.0
  0
LINE
  5
15AB
  8
DETAIL
  6
CONTINUOUS
 62
     5
 10
-180.75482599999989
 20
-222.64950400000001
 30
0.0
 11
-180.5308669999998
 21
-222.369247
 31
0.0
  0
LINE
  5
15AC
  8
DETAIL
  6
CONTINUOUS
 62
     5
 10
-181.01011500000001
 20
-222.89981800000001
 30
0.0
 11
-180.75482599999989
 21
-222.64950400000001
 31
0.0
  0
LINE
  5
15AD
  8
DETAIL
  6
CONTINUOUS
 62
     5
 10
-181.29598699999991
 20
-223.1194439999999
 30
0.0
 11
-181.01011500000001
 21
-222.89981800000001
 31
0.0
  0
LINE
  5
15AE
  8
DETAIL
  6
CONTINUOUS
 62
     5
 10
-181.60725600000001
 20
-223.30380899999989
 30
0.0
 11
-181.29598699999991
 21
-223.1194439999999
 31
0.0
  0
LINE
  5
15AF
  8
DETAIL
  6
CONTINUOUS
 62
     5
 10
-181.93685300000001
 20
-223.44910100000001
 30
0.0
 11
-181.60725600000001
 21
-223.30380899999989
 31
0.0
  0
LINE
  5
15B0
  8
DETAIL
  6
CONTINUOUS
 62
     5
 10
-182.28255799999991
 20
-223.55464599999999
 30
0.0
 11
-181.93685300000001
 21
-223.44910100000001
 31
0.0
  0
LINE
  5
15B1
  8
DETAIL
  6
CONTINUOUS
 62
     5
 10
-182.63960399999991
 20
-223.618694
 30
0.0
 11
-182.28255799999991
 21
-223.55464599999999
 31
0.0
  0
LINE
  5
15B2
  8
DETAIL
  6
CONTINUOUS
 62
     5
 10
-183.0
 20
-223.639995
 30
0.0
 11
-182.63960399999991
 21
-223.618694
 31
0.0
  0
LINE
  5
15B3
  8
DETAIL
  6
CONTINUOUS
 62
     5
 10
-182.63960399999991
 20
-223.73671200000001
 30
0.0
 11
-183.0
 21
-223.75801399999989
 31
0.0
  0
LINE
  5
15B4
  8
DETAIL
  6
CONTINUOUS
 62
     5
 10
-182.28255799999991
 20
-223.67266499999999
 30
0.0
 11
-182.63960399999991
 21
-223.73671200000001
 31
0.0
  0
LINE
  5
15B5
  8
DETAIL
  6
CONTINUOUS
 62
     5
 10
-181.93685300000001
 20
-223.56711999999999
 30
0.0
 11
-182.28255799999991
 21
-223.67266499999999
 31
0.0
  0
LINE
  5
15B6
  8
DETAIL
  6
CONTINUOUS
 62
     5
 10
-181.60725600000001
 20
-223.42182799999989
 30
0.0
 11
-181.93685300000001
 21
-223.56711999999999
 31
0.0
  0
LINE
  5
15B7
  8
DETAIL
  6
CONTINUOUS
 62
     5
 10
-181.29598699999991
 20
-223.23746299999991
 30
0.0
 11
-181.60725600000001
 21
-223.42182799999989
 31
0.0
  0
LINE
  5
15B8
  8
DETAIL
  6
CONTINUOUS
 62
     5
 10
-181.01011500000001
 20
-223.01783599999999
 30
0.0
 11
-181.29598699999991
 21
-223.23746299999991
 31
0.0
  0
LINE
  5
15B9
  8
DETAIL
  6
CONTINUOUS
 62
     5
 10
-180.75482599999989
 20
-222.76752300000001
 30
0.0
 11
-181.01011500000001
 21
-223.01783599999999
 31
0.0
  0
LINE
  5
15BA
  8
DETAIL
  6
CONTINUOUS
 62
     5
 10
-180.5308669999998
 20
-222.48726599999989
 30
0.0
 11
-180.75482599999989
 21
-222.76752300000001
 31
0.0
  0
LINE
  5
15BB
  8
DETAIL
  6
CONTINUOUS
 62
     5
 10
-180.34283500000001
 20
-222.18206499999999
 30
0.0
 11
-180.5308669999998
 21
-222.48726599999989
 31
0.0
  0
LINE
  5
15BC
  8
DETAIL
  6
CONTINUOUS
 62
     5
 10
-180.1946439999999
 20
-221.858858
 30
0.0
 11
-180.34283500000001
 21
-222.18206499999999
 31
0.0
  0
LINE
  5
15BD
  8
DETAIL
  6
CONTINUOUS
 62
     5
 10
-180.08702999999991
 20
-221.51996700000001
 30
0.0
 11
-180.1946439999999
 21
-221.858858
 31
0.0
  0
LINE
  5
15BE
  8
DETAIL
  6
CONTINUOUS
 62
     5
 10
-180.0217259999998
 20
-221.16997199999989
 30
0.0
 11
-180.08702999999991
 21
-221.51996700000001
 31
0.0
  0
LINE
  5
15BF
  8
DETAIL
  6
CONTINUOUS
 62
     5
 10
-180.0
 20
-220.8166219999998
 30
0.0
 11
-180.0217259999998
 21
-221.16997199999989
 31
0.0
  0
LINE
  5
15C0
  8
DETAIL
  6
CONTINUOUS
 62
     5
 10
-182.63960399999991
 20
-209.029751
 30
0.0
 11
-183.0
 21
-209.051052
 31
0.0
  0
LINE
  5
15C1
  8
DETAIL
  6
CONTINUOUS
 62
     5
 10
-182.28255799999991
 20
-208.96570299999999
 30
0.0
 11
-182.63960399999991
 21
-209.029751
 31
0.0
  0
LINE
  5
15C2
  8
DETAIL
  6
CONTINUOUS
 62
     5
 10
-181.93685300000001
 20
-208.86015800000001
 30
0.0
 11
-182.28255799999991
 21
-208.96570299999999
 31
0.0
  0
LINE
  5
15C3
  8
DETAIL
  6
CONTINUOUS
 62
     5
 10
-181.60725600000001
 20
-208.71486699999991
 30
0.0
 11
-181.93685300000001
 21
-208.86015800000001
 31
0.0
  0
LINE
  5
15C4
  8
DETAIL
  6
CONTINUOUS
 62
     5
 10
-181.29598699999991
 20
-208.5305009999999
 30
0.0
 11
-181.60725600000001
 21
-208.71486699999991
 31
0.0
  0
LINE
  5
15C5
  8
DETAIL
  6
CONTINUOUS
 62
     5
 10
-181.01011500000001
 20
-208.31087500000001
 30
0.0
 11
-181.29598699999991
 21
-208.5305009999999
 31
0.0
  0
LINE
  5
15C6
  8
DETAIL
  6
CONTINUOUS
 62
     5
 10
-180.75482599999989
 20
-208.06056100000001
 30
0.0
 11
-181.01011500000001
 21
-208.31087500000001
 31
0.0
  0
LINE
  5
15C7
  8
DETAIL
  6
CONTINUOUS
 62
     5
 10
-180.5308669999998
 20
-207.780304
 30
0.0
 11
-180.75482599999989
 21
-208.06056100000001
 31
0.0
  0
LINE
  5
15C8
  8
DETAIL
  6
CONTINUOUS
 62
     5
 10
-180.34283500000001
 20
-207.4751039999999
 30
0.0
 11
-180.5308669999998
 21
-207.780304
 31
0.0
  0
LINE
  5
15C9
  8
DETAIL
  6
CONTINUOUS
 62
     5
 10
-180.1946439999999
 20
-207.15189699999999
 30
0.0
 11
-180.34283500000001
 21
-207.4751039999999
 31
0.0
  0
LINE
  5
15CA
  8
DETAIL
  6
CONTINUOUS
 62
     5
 10
-180.08702999999991
 20
-206.813005
 30
0.0
 11
-180.1946439999999
 21
-207.15189699999999
 31
0.0
  0
LINE
  5
15CB
  8
DETAIL
  6
CONTINUOUS
 62
     5
 10
-180.0217259999998
 20
-206.46301099999991
 30
0.0
 11
-180.08702999999991
 21
-206.813005
 31
0.0
  0
LINE
  5
15CC
  8
DETAIL
  6
CONTINUOUS
 62
     5
 10
-180.0
 20
-206.10965999999991
 30
0.0
 11
-180.0217259999998
 21
-206.46301099999991
 31
0.0
  0
LINE
  5
15CD
  8
DETAIL
  6
CONTINUOUS
 62
     5
 10
-180.0
 20
-220.8166219999998
 30
0.0
 11
-180.0
 21
-213.75728000000001
 31
0.0
  0
LINE
  5
15CE
  8
DETAIL
  6
CONTINUOUS
 62
     5
 10
-183.0
 20
-209.051052
 30
0.0
 11
-183.0
 21
-208.93303399999999
 31
0.0
  0
LINE
  5
15CF
  8
DETAIL
  6
CONTINUOUS
 62
     5
 10
-183.0
 20
-223.75801399999989
 30
0.0
 11
-183.0
 21
-223.639995
 31
0.0
  0
LINE
  5
15D0
  8
DETAIL
  6
CONTINUOUS
 62
     5
 10
-160.0
 20
-140.2224719999999
 30
0.0
 11
-160.0
 21
-147.281813
 31
0.0
  0
LINE
  5
15D1
  8
DETAIL
  6
CONTINUOUS
 62
     5
 10
-180.0
 20
-147.281813
 30
0.0
 11
-180.0
 21
-140.2224719999999
 31
0.0
  0
LINE
  5
15D2
  8
DETAIL
  6
CONTINUOUS
 62
     5
 10
-159.978274
 20
-147.63516899999991
 30
0.0
 11
-160.0
 21
-147.281813
 31
0.0
  0
LINE
  5
15D3
  8
DETAIL
  6
CONTINUOUS
 62
     5
 10
-159.91295
 20
-147.98523999999981
 30
0.0
 11
-159.978274
 21
-147.63516899999991
 31
0.0
  0
LINE
  5
15D4
  8
DETAIL
  6
CONTINUOUS
 62
     5
 10
-159.80530199999981
 20
-148.32419099999979
 30
0.0
 11
-159.91295
 21
-147.98523999999981
 31
0.0
  0
LINE
  5
15D5
  8
DETAIL
  6
CONTINUOUS
 62
     5
 10
-159.6571159999998
 20
-148.64734899999991
 30
0.0
 11
-159.80530199999981
 21
-148.32419099999979
 31
0.0
  0
LINE
  5
15D6
  8
DETAIL
  6
CONTINUOUS
 62
     5
 10
-159.46907599999969
 20
-148.95253700000001
 30
0.0
 11
-159.6571159999998
 21
-148.64734899999991
 31
0.0
  0
LINE
  5
15D7
  8
DETAIL
  6
CONTINUOUS
 62
     5
 10
-159.24507399999979
 20
-149.23282399999991
 30
0.0
 11
-159.46907599999969
 21
-148.95253700000001
 31
0.0
  0
LINE
  5
15D8
  8
DETAIL
  6
CONTINUOUS
 62
     5
 10
-158.98977300000001
 20
-149.48312599999991
 30
0.0
 11
-159.24507399999979
 21
-149.23282399999991
 31
0.0
  0
LINE
  5
15D9
  8
DETAIL
  6
CONTINUOUS
 62
     5
 10
-158.70393200000001
 20
-149.70270999999991
 30
0.0
 11
-158.98977300000001
 21
-149.48312599999991
 31
0.0
  0
LINE
  5
15DA
  8
DETAIL
  6
CONTINUOUS
 62
     5
 10
-158.39265
 20
-149.887068
 30
0.0
 11
-158.70393200000001
 21
-149.70270999999991
 31
0.0
  0
LINE
  5
15DB
  8
DETAIL
  6
CONTINUOUS
 62
     5
 10
-158.06300299999981
 20
-150.03236499999991
 30
0.0
 11
-158.39265
 21
-149.887068
 31
0.0
  0
LINE
  5
15DC
  8
DETAIL
  6
CONTINUOUS
 62
     5
 10
-157.7173589999999
 20
-150.13787600000001
 30
0.0
 11
-158.06300299999981
 21
-150.03236499999991
 31
0.0
  0
LINE
  5
15DD
  8
DETAIL
  6
CONTINUOUS
 62
     5
 10
-157.36039099999991
 20
-150.20190500000001
 30
0.0
 11
-157.7173589999999
 21
-150.13787600000001
 31
0.0
  0
LINE
  5
15DE
  8
DETAIL
  6
CONTINUOUS
 62
     5
 10
-157.0
 20
-150.223206
 30
0.0
 11
-157.36039099999991
 21
-150.20190500000001
 31
0.0
  0
LINE
  5
15DF
  8
DETAIL
  6
CONTINUOUS
 62
     5
 10
-159.978274
 20
-162.34212999999991
 30
0.0
 11
-160.0
 21
-161.988775
 31
0.0
  0
LINE
  5
15E0
  8
DETAIL
  6
CONTINUOUS
 62
     5
 10
-159.91295
 20
-162.69220200000001
 30
0.0
 11
-159.978274
 21
-162.34212999999991
 31
0.0
  0
LINE
  5
15E1
  8
DETAIL
  6
CONTINUOUS
 62
     5
 10
-159.80530199999981
 20
-163.03115199999999
 30
0.0
 11
-159.91295
 21
-162.69220200000001
 31
0.0
  0
LINE
  5
15E2
  8
DETAIL
  6
CONTINUOUS
 62
     5
 10
-159.6571159999998
 20
-163.35431099999991
 30
0.0
 11
-159.80530199999981
 21
-163.03115199999999
 31
0.0
  0
LINE
  5
15E3
  8
DETAIL
  6
CONTINUOUS
 62
     5
 10
-159.46907599999969
 20
-163.65949899999981
 30
0.0
 11
-159.6571159999998
 21
-163.35431099999991
 31
0.0
  0
LINE
  5
15E4
  8
DETAIL
  6
CONTINUOUS
 62
     5
 10
-159.24507399999979
 20
-163.939786
 30
0.0
 11
-159.46907599999969
 21
-163.65949899999981
 31
0.0
  0
LINE
  5
15E5
  8
DETAIL
  6
CONTINUOUS
 62
     5
 10
-158.98977300000001
 20
-164.19008700000001
 30
0.0
 11
-159.24507399999979
 21
-163.939786
 31
0.0
  0
LINE
  5
15E6
  8
DETAIL
  6
CONTINUOUS
 62
     5
 10
-158.70393200000001
 20
-164.409671
 30
0.0
 11
-158.98977300000001
 21
-164.19008700000001
 31
0.0
  0
LINE
  5
15E7
  8
DETAIL
  6
CONTINUOUS
 62
     5
 10
-158.39265
 20
-164.59403
 30
0.0
 11
-158.70393200000001
 21
-164.409671
 31
0.0
  0
LINE
  5
15E8
  8
DETAIL
  6
CONTINUOUS
 62
     5
 10
-158.06300299999981
 20
-164.73932600000001
 30
0.0
 11
-158.39265
 21
-164.59403
 31
0.0
  0
LINE
  5
15E9
  8
DETAIL
  6
CONTINUOUS
 62
     5
 10
-157.7173589999999
 20
-164.84483799999981
 30
0.0
 11
-158.06300299999981
 21
-164.73932600000001
 31
0.0
  0
LINE
  5
15EA
  8
DETAIL
  6
CONTINUOUS
 62
     5
 10
-157.36039099999991
 20
-164.90886599999979
 30
0.0
 11
-157.7173589999999
 21
-164.84483799999981
 31
0.0
  0
LINE
  5
15EB
  8
DETAIL
  6
CONTINUOUS
 62
     5
 10
-157.0
 20
-164.93016699999981
 30
0.0
 11
-157.36039099999991
 21
-164.90886599999979
 31
0.0
  0
LINE
  5
15EC
  8
DETAIL
  6
CONTINUOUS
 62
     5
 10
-159.978274
 20
-177.049092
 30
0.0
 11
-160.0
 21
-176.69573700000001
 31
0.0
  0
LINE
  5
15ED
  8
DETAIL
  6
CONTINUOUS
 62
     5
 10
-159.91295
 20
-177.3991629999999
 30
0.0
 11
-159.978274
 21
-177.049092
 31
0.0
  0
LINE
  5
15EE
  8
DETAIL
  6
CONTINUOUS
 62
     5
 10
-159.80530199999981
 20
-177.73811399999991
 30
0.0
 11
-159.91295
 21
-177.3991629999999
 31
0.0
  0
LINE
  5
15EF
  8
DETAIL
  6
CONTINUOUS
 62
     5
 10
-159.6571159999998
 20
-178.061273
 30
0.0
 11
-159.80530199999981
 21
-177.73811399999991
 31
0.0
  0
LINE
  5
15F0
  8
DETAIL
  6
CONTINUOUS
 62
     5
 10
-159.46907599999969
 20
-178.3664609999999
 30
0.0
 11
-159.6571159999998
 21
-178.061273
 31
0.0
  0
LINE
  5
15F1
  8
DETAIL
  6
CONTINUOUS
 62
     5
 10
-159.24507399999979
 20
-178.64674799999969
 30
0.0
 11
-159.46907599999969
 21
-178.3664609999999
 31
0.0
  0
LINE
  5
15F2
  8
DETAIL
  6
CONTINUOUS
 62
     5
 10
-158.98977300000001
 20
-178.89704900000001
 30
0.0
 11
-159.24507399999979
 21
-178.64674799999969
 31
0.0
  0
LINE
  5
15F3
  8
DETAIL
  6
CONTINUOUS
 62
     5
 10
-158.70393200000001
 20
-179.11663300000001
 30
0.0
 11
-158.98977300000001
 21
-178.89704900000001
 31
0.0
  0
LINE
  5
15F4
  8
DETAIL
  6
CONTINUOUS
 62
     5
 10
-158.39265
 20
-179.30099199999981
 30
0.0
 11
-158.70393200000001
 21
-179.11663300000001
 31
0.0
  0
LINE
  5
15F5
  8
DETAIL
  6
CONTINUOUS
 62
     5
 10
-158.06300299999981
 20
-179.4462879999999
 30
0.0
 11
-158.39265
 21
-179.30099199999981
 31
0.0
  0
LINE
  5
15F6
  8
DETAIL
  6
CONTINUOUS
 62
     5
 10
-157.7173589999999
 20
-179.5517999999999
 30
0.0
 11
-158.06300299999981
 21
-179.4462879999999
 31
0.0
  0
LINE
  5
15F7
  8
DETAIL
  6
CONTINUOUS
 62
     5
 10
-157.36039099999991
 20
-179.61582799999999
 30
0.0
 11
-157.7173589999999
 21
-179.5517999999999
 31
0.0
  0
LINE
  5
15F8
  8
DETAIL
  6
CONTINUOUS
 62
     5
 10
-157.0
 20
-179.6371289999999
 30
0.0
 11
-157.36039099999991
 21
-179.61582799999999
 31
0.0
  0
LINE
  5
15F9
  8
DETAIL
  6
CONTINUOUS
 62
     5
 10
-159.978274
 20
-191.75605400000001
 30
0.0
 11
-160.0
 21
-191.4026979999999
 31
0.0
  0
LINE
  5
15FA
  8
DETAIL
  6
CONTINUOUS
 62
     5
 10
-159.91295
 20
-192.10612499999991
 30
0.0
 11
-159.978274
 21
-191.75605400000001
 31
0.0
  0
LINE
  5
15FB
  8
DETAIL
  6
CONTINUOUS
 62
     5
 10
-159.80530199999981
 20
-192.445076
 30
0.0
 11
-159.91295
 21
-192.10612499999991
 31
0.0
  0
LINE
  5
15FC
  8
DETAIL
  6
CONTINUOUS
 62
     5
 10
-159.6571159999998
 20
-192.76823400000001
 30
0.0
 11
-159.80530199999981
 21
-192.445076
 31
0.0
  0
LINE
  5
15FD
  8
DETAIL
  6
CONTINUOUS
 62
     5
 10
-159.46907599999969
 20
-193.07342199999991
 30
0.0
 11
-159.6571159999998
 21
-192.76823400000001
 31
0.0
  0
LINE
  5
15FE
  8
DETAIL
  6
CONTINUOUS
 62
     5
 10
-159.24507399999979
 20
-193.35370900000001
 30
0.0
 11
-159.46907599999969
 21
-193.07342199999991
 31
0.0
  0
LINE
  5
15FF
  8
DETAIL
  6
CONTINUOUS
 62
     5
 10
-158.98977300000001
 20
-193.60401100000001
 30
0.0
 11
-159.24507399999979
 21
-193.35370900000001
 31
0.0
  0
LINE
  5
1600
  8
DETAIL
  6
CONTINUOUS
 62
     5
 10
-158.70393200000001
 20
-193.8235949999999
 30
0.0
 11
-158.98977300000001
 21
-193.60401100000001
 31
0.0
  0
LINE
  5
1601
  8
DETAIL
  6
CONTINUOUS
 62
     5
 10
-158.39265
 20
-194.00795299999999
 30
0.0
 11
-158.70393200000001
 21
-193.8235949999999
 31
0.0
  0
LINE
  5
1602
  8
DETAIL
  6
CONTINUOUS
 62
     5
 10
-158.06300299999981
 20
-194.15325000000001
 30
0.0
 11
-158.39265
 21
-194.00795299999999
 31
0.0
  0
LINE
  5
1603
  8
DETAIL
  6
CONTINUOUS
 62
     5
 10
-157.7173589999999
 20
-194.25876099999991
 30
0.0
 11
-158.06300299999981
 21
-194.15325000000001
 31
0.0
  0
LINE
  5
1604
  8
DETAIL
  6
CONTINUOUS
 62
     5
 10
-157.36039099999991
 20
-194.32279
 30
0.0
 11
-157.7173589999999
 21
-194.25876099999991
 31
0.0
  0
LINE
  5
1605
  8
DETAIL
  6
CONTINUOUS
 62
     5
 10
-157.0
 20
-194.34409099999991
 30
0.0
 11
-157.36039099999991
 21
-194.32279
 31
0.0
  0
LINE
  5
1606
  8
DETAIL
  6
CONTINUOUS
 62
     5
 10
-157.0
 20
-150.223206
 30
0.0
 11
-157.0
 21
-150.10518699999969
 31
0.0
  0
LINE
  5
1607
  8
DETAIL
  6
CONTINUOUS
 62
     5
 10
-157.0
 20
-164.93016699999981
 30
0.0
 11
-157.0
 21
-164.81214900000001
 31
0.0
  0
LINE
  5
1608
  8
DETAIL
  6
CONTINUOUS
 62
     5
 10
-157.0
 20
-179.6371289999999
 30
0.0
 11
-157.0
 21
-179.51911000000001
 31
0.0
  0
LINE
  5
1609
  8
DETAIL
  6
CONTINUOUS
 62
     5
 10
-157.0
 20
-194.34409099999991
 30
0.0
 11
-157.0
 21
-194.2260719999999
 31
0.0
  0
LINE
  5
160A
  8
DETAIL
  6
CONTINUOUS
 62
     5
 10
-160.0
 20
-184.343357
 30
0.0
 11
-160.0
 21
-191.4026979999999
 31
0.0
  0
LINE
  5
160B
  8
DETAIL
  6
CONTINUOUS
 62
     5
 10
-160.0
 20
-169.63639499999999
 30
0.0
 11
-160.0
 21
-176.69573700000001
 31
0.0
  0
LINE
  5
160C
  8
DETAIL
  6
CONTINUOUS
 62
     5
 10
-160.0
 20
-154.9294329999999
 30
0.0
 11
-160.0
 21
-161.988775
 31
0.0
  0
LINE
  5
160D
  8
DETAIL
  6
CONTINUOUS
 62
     5
 10
-157.36039099999991
 20
-150.08388599999981
 30
0.0
 11
-157.0
 21
-150.10518699999969
 31
0.0
  0
LINE
  5
160E
  8
DETAIL
  6
CONTINUOUS
 62
     5
 10
-157.7173589999999
 20
-150.019857
 30
0.0
 11
-157.36039099999991
 21
-150.08388599999981
 31
0.0
  0
LINE
  5
160F
  8
DETAIL
  6
CONTINUOUS
 62
     5
 10
-158.06300299999981
 20
-149.91434599999991
 30
0.0
 11
-157.7173589999999
 21
-150.019857
 31
0.0
  0
LINE
  5
1610
  8
DETAIL
  6
CONTINUOUS
 62
     5
 10
-158.39265
 20
-149.769049
 30
0.0
 11
-158.06300299999981
 21
-149.91434599999991
 31
0.0
  0
LINE
  5
1611
  8
DETAIL
  6
CONTINUOUS
 62
     5
 10
-158.70393200000001
 20
-149.58469099999999
 30
0.0
 11
-158.39265
 21
-149.769049
 31
0.0
  0
LINE
  5
1612
  8
DETAIL
  6
CONTINUOUS
 62
     5
 10
-158.98977300000001
 20
-149.36510699999999
 30
0.0
 11
-158.70393200000001
 21
-149.58469099999999
 31
0.0
  0
LINE
  5
1613
  8
DETAIL
  6
CONTINUOUS
 62
     5
 10
-159.24507399999979
 20
-149.1148049999999
 30
0.0
 11
-158.98977300000001
 21
-149.36510699999999
 31
0.0
  0
LINE
  5
1614
  8
DETAIL
  6
CONTINUOUS
 62
     5
 10
-159.46907599999969
 20
-148.83451899999969
 30
0.0
 11
-159.24507399999979
 21
-149.1148049999999
 31
0.0
  0
LINE
  5
1615
  8
DETAIL
  6
CONTINUOUS
 62
     5
 10
-159.6571159999998
 20
-148.5293299999999
 30
0.0
 11
-159.46907599999969
 21
-148.83451899999969
 31
0.0
  0
LINE
  5
1616
  8
DETAIL
  6
CONTINUOUS
 62
     5
 10
-159.80530199999981
 20
-148.2061719999999
 30
0.0
 11
-159.6571159999998
 21
-148.5293299999999
 31
0.0
  0
LINE
  5
1617
  8
DETAIL
  6
CONTINUOUS
 62
     5
 10
-159.91295
 20
-147.867221
 30
0.0
 11
-159.80530199999981
 21
-148.2061719999999
 31
0.0
  0
LINE
  5
1618
  8
DETAIL
  6
CONTINUOUS
 62
     5
 10
-159.978274
 20
-147.5171499999999
 30
0.0
 11
-159.91295
 21
-147.867221
 31
0.0
  0
LINE
  5
1619
  8
DETAIL
  6
CONTINUOUS
 62
     5
 10
-159.99277099999981
 20
-147.2813689999999
 30
0.0
 11
-159.978274
 21
-147.5171499999999
 31
0.0
  0
LINE
  5
161A
  8
DETAIL
  6
CONTINUOUS
 62
     5
 10
-157.36039099999991
 20
-164.7908469999999
 30
0.0
 11
-157.0
 21
-164.81214900000001
 31
0.0
  0
LINE
  5
161B
  8
DETAIL
  6
CONTINUOUS
 62
     5
 10
-157.7173589999999
 20
-164.72681899999981
 30
0.0
 11
-157.36039099999991
 21
-164.7908469999999
 31
0.0
  0
LINE
  5
161C
  8
DETAIL
  6
CONTINUOUS
 62
     5
 10
-158.06300299999981
 20
-164.6213069999998
 30
0.0
 11
-157.7173589999999
 21
-164.72681899999981
 31
0.0
  0
LINE
  5
161D
  8
DETAIL
  6
CONTINUOUS
 62
     5
 10
-158.39265
 20
-164.4760109999998
 30
0.0
 11
-158.06300299999981
 21
-164.6213069999998
 31
0.0
  0
LINE
  5
161E
  8
DETAIL
  6
CONTINUOUS
 62
     5
 10
-158.70393200000001
 20
-164.29165199999991
 30
0.0
 11
-158.39265
 21
-164.4760109999998
 31
0.0
  0
LINE
  5
161F
  8
DETAIL
  6
CONTINUOUS
 62
     5
 10
-158.98977300000001
 20
-164.072068
 30
0.0
 11
-158.70393200000001
 21
-164.29165199999991
 31
0.0
  0
LINE
  5
1620
  8
DETAIL
  6
CONTINUOUS
 62
     5
 10
-159.24507399999979
 20
-163.82176699999991
 30
0.0
 11
-158.98977300000001
 21
-164.072068
 31
0.0
  0
LINE
  5
1621
  8
DETAIL
  6
CONTINUOUS
 62
     5
 10
-159.46907599999969
 20
-163.54148000000001
 30
0.0
 11
-159.24507399999979
 21
-163.82176699999991
 31
0.0
  0
LINE
  5
1622
  8
DETAIL
  6
CONTINUOUS
 62
     5
 10
-159.6571159999998
 20
-163.23629199999999
 30
0.0
 11
-159.46907599999969
 21
-163.54148000000001
 31
0.0
  0
LINE
  5
1623
  8
DETAIL
  6
CONTINUOUS
 62
     5
 10
-159.80530199999981
 20
-162.91313400000001
 30
0.0
 11
-159.6571159999998
 21
-163.23629199999999
 31
0.0
  0
LINE
  5
1624
  8
DETAIL
  6
CONTINUOUS
 62
     5
 10
-159.91295
 20
-162.574183
 30
0.0
 11
-159.80530199999981
 21
-162.91313400000001
 31
0.0
  0
LINE
  5
1625
  8
DETAIL
  6
CONTINUOUS
 62
     5
 10
-159.978274
 20
-162.22411199999991
 30
0.0
 11
-159.91295
 21
-162.574183
 31
0.0
  0
LINE
  5
1626
  8
DETAIL
  6
CONTINUOUS
 62
     5
 10
-159.99277099999981
 20
-161.98833099999979
 30
0.0
 11
-159.978274
 21
-162.22411199999991
 31
0.0
  0
LINE
  5
1627
  8
DETAIL
  6
CONTINUOUS
 62
     5
 10
-157.36039099999991
 20
-179.4978089999999
 30
0.0
 11
-157.0
 21
-179.51911000000001
 31
0.0
  0
LINE
  5
1628
  8
DETAIL
  6
CONTINUOUS
 62
     5
 10
-157.7173589999999
 20
-179.43378100000001
 30
0.0
 11
-157.36039099999991
 21
-179.4978089999999
 31
0.0
  0
LINE
  5
1629
  8
DETAIL
  6
CONTINUOUS
 62
     5
 10
-158.06300299999981
 20
-179.32826900000001
 30
0.0
 11
-157.7173589999999
 21
-179.43378100000001
 31
0.0
  0
LINE
  5
162A
  8
DETAIL
  6
CONTINUOUS
 62
     5
 10
-158.39265
 20
-179.182973
 30
0.0
 11
-158.06300299999981
 21
-179.32826900000001
 31
0.0
  0
LINE
  5
162B
  8
DETAIL
  6
CONTINUOUS
 62
     5
 10
-158.70393200000001
 20
-178.998614
 30
0.0
 11
-158.39265
 21
-179.182973
 31
0.0
  0
LINE
  5
162C
  8
DETAIL
  6
CONTINUOUS
 62
     5
 10
-158.98977300000001
 20
-178.77903000000001
 30
0.0
 11
-158.70393200000001
 21
-178.998614
 31
0.0
  0
LINE
  5
162D
  8
DETAIL
  6
CONTINUOUS
 62
     5
 10
-159.24507399999979
 20
-178.528729
 30
0.0
 11
-158.98977300000001
 21
-178.77903000000001
 31
0.0
  0
LINE
  5
162E
  8
DETAIL
  6
CONTINUOUS
 62
     5
 10
-159.46907599999969
 20
-178.2484419999999
 30
0.0
 11
-159.24507399999979
 21
-178.528729
 31
0.0
  0
LINE
  5
162F
  8
DETAIL
  6
CONTINUOUS
 62
     5
 10
-159.6571159999998
 20
-177.94325399999991
 30
0.0
 11
-159.46907599999969
 21
-178.2484419999999
 31
0.0
  0
LINE
  5
1630
  8
DETAIL
  6
CONTINUOUS
 62
     5
 10
-159.80530199999981
 20
-177.62009499999991
 30
0.0
 11
-159.6571159999998
 21
-177.94325399999991
 31
0.0
  0
LINE
  5
1631
  8
DETAIL
  6
CONTINUOUS
 62
     5
 10
-159.91295
 20
-177.2811439999999
 30
0.0
 11
-159.80530199999981
 21
-177.62009499999991
 31
0.0
  0
LINE
  5
1632
  8
DETAIL
  6
CONTINUOUS
 62
     5
 10
-159.978274
 20
-176.93107299999991
 30
0.0
 11
-159.91295
 21
-177.2811439999999
 31
0.0
  0
LINE
  5
1633
  8
DETAIL
  6
CONTINUOUS
 62
     5
 10
-159.99277099999981
 20
-176.69529199999999
 30
0.0
 11
-159.978274
 21
-176.93107299999991
 31
0.0
  0
LINE
  5
1634
  8
DETAIL
  6
CONTINUOUS
 62
     5
 10
-157.36039099999991
 20
-194.20477099999991
 30
0.0
 11
-157.0
 21
-194.2260719999999
 31
0.0
  0
LINE
  5
1635
  8
DETAIL
  6
CONTINUOUS
 62
     5
 10
-157.7173589999999
 20
-194.1407419999999
 30
0.0
 11
-157.36039099999991
 21
-194.20477099999991
 31
0.0
  0
LINE
  5
1636
  8
DETAIL
  6
CONTINUOUS
 62
     5
 10
-158.06300299999981
 20
-194.03523100000001
 30
0.0
 11
-157.7173589999999
 21
-194.1407419999999
 31
0.0
  0
LINE
  5
1637
  8
DETAIL
  6
CONTINUOUS
 62
     5
 10
-158.39265
 20
-193.88993499999981
 30
0.0
 11
-158.06300299999981
 21
-194.03523100000001
 31
0.0
  0
LINE
  5
1638
  8
DETAIL
  6
CONTINUOUS
 62
     5
 10
-158.70393200000001
 20
-193.70557599999981
 30
0.0
 11
-158.39265
 21
-193.88993499999981
 31
0.0
  0
LINE
  5
1639
  8
DETAIL
  6
CONTINUOUS
 62
     5
 10
-158.98977300000001
 20
-193.4859919999999
 30
0.0
 11
-158.70393200000001
 21
-193.70557599999981
 31
0.0
  0
LINE
  5
163A
  8
DETAIL
  6
CONTINUOUS
 62
     5
 10
-159.24507399999979
 20
-193.23568999999981
 30
0.0
 11
-158.98977300000001
 21
-193.4859919999999
 31
0.0
  0
LINE
  5
163B
  8
DETAIL
  6
CONTINUOUS
 62
     5
 10
-159.46907599999969
 20
-192.95540399999999
 30
0.0
 11
-159.24507399999979
 21
-193.23568999999981
 31
0.0
  0
LINE
  5
163C
  8
DETAIL
  6
CONTINUOUS
 62
     5
 10
-159.6571159999998
 20
-192.650216
 30
0.0
 11
-159.46907599999969
 21
-192.95540399999999
 31
0.0
  0
LINE
  5
163D
  8
DETAIL
  6
CONTINUOUS
 62
     5
 10
-159.80530199999981
 20
-192.32705699999991
 30
0.0
 11
-159.6571159999998
 21
-192.650216
 31
0.0
  0
LINE
  5
163E
  8
DETAIL
  6
CONTINUOUS
 62
     5
 10
-159.91295
 20
-191.9881059999999
 30
0.0
 11
-159.80530199999981
 21
-192.32705699999991
 31
0.0
  0
LINE
  5
163F
  8
DETAIL
  6
CONTINUOUS
 62
     5
 10
-159.978274
 20
-191.638035
 30
0.0
 11
-159.91295
 21
-191.9881059999999
 31
0.0
  0
LINE
  5
1640
  8
DETAIL
  6
CONTINUOUS
 62
     5
 10
-159.99277099999981
 20
-191.40225399999991
 30
0.0
 11
-159.978274
 21
-191.638035
 31
0.0
  0
LINE
  5
1641
  8
DETAIL
  6
CONTINUOUS
 62
     5
 10
-180.0217259999998
 20
-147.51714499999991
 30
0.0
 11
-180.00722899999991
 21
-147.2813689999999
 31
0.0
  0
LINE
  5
1642
  8
DETAIL
  6
CONTINUOUS
 62
     5
 10
-180.08702999999991
 20
-147.86713900000001
 30
0.0
 11
-180.0217259999998
 21
-147.51714499999991
 31
0.0
  0
LINE
  5
1643
  8
DETAIL
  6
CONTINUOUS
 62
     5
 10
-180.1946439999999
 20
-148.206031
 30
0.0
 11
-180.08702999999991
 21
-147.86713900000001
 31
0.0
  0
LINE
  5
1644
  8
DETAIL
  6
CONTINUOUS
 62
     5
 10
-180.34283500000001
 20
-148.52923799999991
 30
0.0
 11
-180.1946439999999
 21
-148.206031
 31
0.0
  0
LINE
  5
1645
  8
DETAIL
  6
CONTINUOUS
 62
     5
 10
-180.5308669999998
 20
-148.83443799999981
 30
0.0
 11
-180.34283500000001
 21
-148.52923799999991
 31
0.0
  0
LINE
  5
1646
  8
DETAIL
  6
CONTINUOUS
 62
     5
 10
-180.75482599999989
 20
-149.1146949999999
 30
0.0
 11
-180.5308669999998
 21
-148.83443799999981
 31
0.0
  0
LINE
  5
1647
  8
DETAIL
  6
CONTINUOUS
 62
     5
 10
-181.01011500000001
 20
-149.3650089999999
 30
0.0
 11
-180.75482599999989
 21
-149.1146949999999
 31
0.0
  0
LINE
  5
1648
  8
DETAIL
  6
CONTINUOUS
 62
     5
 10
-181.29598699999991
 20
-149.58463499999979
 30
0.0
 11
-181.01011500000001
 21
-149.3650089999999
 31
0.0
  0
LINE
  5
1649
  8
DETAIL
  6
CONTINUOUS
 62
     5
 10
-181.60725600000001
 20
-149.769001
 30
0.0
 11
-181.29598699999991
 21
-149.58463499999979
 31
0.0
  0
LINE
  5
164A
  8
DETAIL
  6
CONTINUOUS
 62
     5
 10
-181.93685300000001
 20
-149.9142919999999
 30
0.0
 11
-181.60725600000001
 21
-149.769001
 31
0.0
  0
LINE
  5
164B
  8
DETAIL
  6
CONTINUOUS
 62
     5
 10
-182.28255799999991
 20
-150.01983699999991
 30
0.0
 11
-181.93685300000001
 21
-149.9142919999999
 31
0.0
  0
LINE
  5
164C
  8
DETAIL
  6
CONTINUOUS
 62
     5
 10
-182.63960399999991
 20
-150.08388500000001
 30
0.0
 11
-182.28255799999991
 21
-150.01983699999991
 31
0.0
  0
LINE
  5
164D
  8
DETAIL
  6
CONTINUOUS
 62
     5
 10
-183.0
 20
-150.10518699999969
 30
0.0
 11
-182.63960399999991
 21
-150.08388500000001
 31
0.0
  0
LINE
  5
164E
  8
DETAIL
  6
CONTINUOUS
 62
     5
 10
-180.0217259999998
 20
-162.224107
 30
0.0
 11
-180.00722899999991
 21
-161.98833099999979
 31
0.0
  0
LINE
  5
164F
  8
DETAIL
  6
CONTINUOUS
 62
     5
 10
-180.08702999999991
 20
-162.57410099999981
 30
0.0
 11
-180.0217259999998
 21
-162.224107
 31
0.0
  0
LINE
  5
1650
  8
DETAIL
  6
CONTINUOUS
 62
     5
 10
-180.1946439999999
 20
-162.91299299999969
 30
0.0
 11
-180.08702999999991
 21
-162.57410099999981
 31
0.0
  0
LINE
  5
1651
  8
DETAIL
  6
CONTINUOUS
 62
     5
 10
-180.34283500000001
 20
-163.2362
 30
0.0
 11
-180.1946439999999
 21
-162.91299299999969
 31
0.0
  0
LINE
  5
1652
  8
DETAIL
  6
CONTINUOUS
 62
     5
 10
-180.5308669999998
 20
-163.54140000000001
 30
0.0
 11
-180.34283500000001
 21
-163.2362
 31
0.0
  0
LINE
  5
1653
  8
DETAIL
  6
CONTINUOUS
 62
     5
 10
-180.75482599999989
 20
-163.8216569999999
 30
0.0
 11
-180.5308669999998
 21
-163.54140000000001
 31
0.0
  0
LINE
  5
1654
  8
DETAIL
  6
CONTINUOUS
 62
     5
 10
-181.01011500000001
 20
-164.07197099999991
 30
0.0
 11
-180.75482599999989
 21
-163.8216569999999
 31
0.0
  0
LINE
  5
1655
  8
DETAIL
  6
CONTINUOUS
 62
     5
 10
-181.29598699999991
 20
-164.29159699999991
 30
0.0
 11
-181.01011500000001
 21
-164.07197099999991
 31
0.0
  0
LINE
  5
1656
  8
DETAIL
  6
CONTINUOUS
 62
     5
 10
-181.60725600000001
 20
-164.47596299999981
 30
0.0
 11
-181.29598699999991
 21
-164.29159699999991
 31
0.0
  0
LINE
  5
1657
  8
DETAIL
  6
CONTINUOUS
 62
     5
 10
-181.93685300000001
 20
-164.62125399999999
 30
0.0
 11
-181.60725600000001
 21
-164.47596299999981
 31
0.0
  0
LINE
  5
1658
  8
DETAIL
  6
CONTINUOUS
 62
     5
 10
-182.28255799999991
 20
-164.726799
 30
0.0
 11
-181.93685300000001
 21
-164.62125399999999
 31
0.0
  0
LINE
  5
1659
  8
DETAIL
  6
CONTINUOUS
 62
     5
 10
-182.63960399999991
 20
-164.7908469999999
 30
0.0
 11
-182.28255799999991
 21
-164.726799
 31
0.0
  0
LINE
  5
165A
  8
DETAIL
  6
CONTINUOUS
 62
     5
 10
-183.0
 20
-164.81214900000001
 30
0.0
 11
-182.63960399999991
 21
-164.7908469999999
 31
0.0
  0
LINE
  5
165B
  8
DETAIL
  6
CONTINUOUS
 62
     5
 10
-180.0217259999998
 20
-176.9310679999999
 30
0.0
 11
-180.00722899999991
 21
-176.69529199999999
 31
0.0
  0
LINE
  5
165C
  8
DETAIL
  6
CONTINUOUS
 62
     5
 10
-180.08702999999991
 20
-177.2810629999999
 30
0.0
 11
-180.0217259999998
 21
-176.9310679999999
 31
0.0
  0
LINE
  5
165D
  8
DETAIL
  6
CONTINUOUS
 62
     5
 10
-180.1946439999999
 20
-177.61995400000001
 30
0.0
 11
-180.08702999999991
 21
-177.2810629999999
 31
0.0
  0
LINE
  5
165E
  8
DETAIL
  6
CONTINUOUS
 62
     5
 10
-180.34283500000001
 20
-177.943161
 30
0.0
 11
-180.1946439999999
 21
-177.61995400000001
 31
0.0
  0
LINE
  5
165F
  8
DETAIL
  6
CONTINUOUS
 62
     5
 10
-180.5308669999998
 20
-178.2483619999999
 30
0.0
 11
-180.34283500000001
 21
-177.943161
 31
0.0
  0
LINE
  5
1660
  8
DETAIL
  6
CONTINUOUS
 62
     5
 10
-180.75482599999989
 20
-178.52861899999991
 30
0.0
 11
-180.5308669999998
 21
-178.2483619999999
 31
0.0
  0
LINE
  5
1661
  8
DETAIL
  6
CONTINUOUS
 62
     5
 10
-181.01011500000001
 20
-178.77893199999991
 30
0.0
 11
-180.75482599999989
 21
-178.52861899999991
 31
0.0
  0
LINE
  5
1662
  8
DETAIL
  6
CONTINUOUS
 62
     5
 10
-181.29598699999991
 20
-178.998559
 30
0.0
 11
-181.01011500000001
 21
-178.77893199999991
 31
0.0
  0
LINE
  5
1663
  8
DETAIL
  6
CONTINUOUS
 62
     5
 10
-181.60725600000001
 20
-179.18292400000001
 30
0.0
 11
-181.29598699999991
 21
-178.998559
 31
0.0
  0
LINE
  5
1664
  8
DETAIL
  6
CONTINUOUS
 62
     5
 10
-181.93685300000001
 20
-179.32821599999991
 30
0.0
 11
-181.60725600000001
 21
-179.18292400000001
 31
0.0
  0
LINE
  5
1665
  8
DETAIL
  6
CONTINUOUS
 62
     5
 10
-182.28255799999991
 20
-179.433761
 30
0.0
 11
-181.93685300000001
 21
-179.32821599999991
 31
0.0
  0
LINE
  5
1666
  8
DETAIL
  6
CONTINUOUS
 62
     5
 10
-182.63960399999991
 20
-179.49780799999991
 30
0.0
 11
-182.28255799999991
 21
-179.433761
 31
0.0
  0
LINE
  5
1667
  8
DETAIL
  6
CONTINUOUS
 62
     5
 10
-183.0
 20
-179.51911000000001
 30
0.0
 11
-182.63960399999991
 21
-179.49780799999991
 31
0.0
  0
LINE
  5
1668
  8
DETAIL
  6
CONTINUOUS
 62
     5
 10
-180.0217259999998
 20
-191.6380299999999
 30
0.0
 11
-180.00722899999991
 21
-191.40225399999991
 31
0.0
  0
LINE
  5
1669
  8
DETAIL
  6
CONTINUOUS
 62
     5
 10
-180.08702999999991
 20
-191.98802399999991
 30
0.0
 11
-180.0217259999998
 21
-191.6380299999999
 31
0.0
  0
LINE
  5
166A
  8
DETAIL
  6
CONTINUOUS
 62
     5
 10
-180.1946439999999
 20
-192.3269159999999
 30
0.0
 11
-180.08702999999991
 21
-191.98802399999991
 31
0.0
  0
LINE
  5
166B
  8
DETAIL
  6
CONTINUOUS
 62
     5
 10
-180.34283500000001
 20
-192.65012300000001
 30
0.0
 11
-180.1946439999999
 21
-192.3269159999999
 31
0.0
  0
LINE
  5
166C
  8
DETAIL
  6
CONTINUOUS
 62
     5
 10
-180.5308669999998
 20
-192.95532299999991
 30
0.0
 11
-180.34283500000001
 21
-192.65012300000001
 31
0.0
  0
LINE
  5
166D
  8
DETAIL
  6
CONTINUOUS
 62
     5
 10
-180.75482599999989
 20
-193.23558
 30
0.0
 11
-180.5308669999998
 21
-192.95532299999991
 31
0.0
  0
LINE
  5
166E
  8
DETAIL
  6
CONTINUOUS
 62
     5
 10
-181.01011500000001
 20
-193.4858939999998
 30
0.0
 11
-180.75482599999989
 21
-193.23558
 31
0.0
  0
LINE
  5
166F
  8
DETAIL
  6
CONTINUOUS
 62
     5
 10
-181.29598699999991
 20
-193.70551999999981
 30
0.0
 11
-181.01011500000001
 21
-193.4858939999998
 31
0.0
  0
LINE
  5
1670
  8
DETAIL
  6
CONTINUOUS
 62
     5
 10
-181.60725600000001
 20
-193.8898859999999
 30
0.0
 11
-181.29598699999991
 21
-193.70551999999981
 31
0.0
  0
LINE
  5
1671
  8
DETAIL
  6
CONTINUOUS
 62
     5
 10
-181.93685300000001
 20
-194.035177
 30
0.0
 11
-181.60725600000001
 21
-193.8898859999999
 31
0.0
  0
LINE
  5
1672
  8
DETAIL
  6
CONTINUOUS
 62
     5
 10
-182.28255799999991
 20
-194.14072200000001
 30
0.0
 11
-181.93685300000001
 21
-194.035177
 31
0.0
  0
LINE
  5
1673
  8
DETAIL
  6
CONTINUOUS
 62
     5
 10
-182.63960399999991
 20
-194.20476999999991
 30
0.0
 11
-182.28255799999991
 21
-194.14072200000001
 31
0.0
  0
LINE
  5
1674
  8
DETAIL
  6
CONTINUOUS
 62
     5
 10
-183.0
 20
-194.2260719999999
 30
0.0
 11
-182.63960399999991
 21
-194.20476999999991
 31
0.0
  0
LINE
  5
1675
  8
DETAIL
  6
CONTINUOUS
 62
     5
 10
-182.63960399999991
 20
-194.322789
 30
0.0
 11
-183.0
 21
-194.34409099999991
 31
0.0
  0
LINE
  5
1676
  8
DETAIL
  6
CONTINUOUS
 62
     5
 10
-182.28255799999991
 20
-194.2587409999999
 30
0.0
 11
-182.63960399999991
 21
-194.322789
 31
0.0
  0
LINE
  5
1677
  8
DETAIL
  6
CONTINUOUS
 62
     5
 10
-181.93685300000001
 20
-194.15319600000001
 30
0.0
 11
-182.28255799999991
 21
-194.2587409999999
 31
0.0
  0
LINE
  5
1678
  8
DETAIL
  6
CONTINUOUS
 62
     5
 10
-181.60725600000001
 20
-194.00790499999991
 30
0.0
 11
-181.93685300000001
 21
-194.15319600000001
 31
0.0
  0
LINE
  5
1679
  8
DETAIL
  6
CONTINUOUS
 62
     5
 10
-181.29598699999991
 20
-193.8235389999999
 30
0.0
 11
-181.60725600000001
 21
-194.00790499999991
 31
0.0
  0
LINE
  5
167A
  8
DETAIL
  6
CONTINUOUS
 62
     5
 10
-181.01011500000001
 20
-193.60391299999989
 30
0.0
 11
-181.29598699999991
 21
-193.8235389999999
 31
0.0
  0
LINE
  5
167B
  8
DETAIL
  6
CONTINUOUS
 62
     5
 10
-180.75482599999989
 20
-193.353599
 30
0.0
 11
-181.01011500000001
 21
-193.60391299999989
 31
0.0
  0
LINE
  5
167C
  8
DETAIL
  6
CONTINUOUS
 62
     5
 10
-180.5308669999998
 20
-193.07334199999991
 30
0.0
 11
-180.75482599999989
 21
-193.353599
 31
0.0
  0
LINE
  5
167D
  8
DETAIL
  6
CONTINUOUS
 62
     5
 10
-180.34283500000001
 20
-192.7681419999999
 30
0.0
 11
-180.5308669999998
 21
-193.07334199999991
 31
0.0
  0
LINE
  5
167E
  8
DETAIL
  6
CONTINUOUS
 62
     5
 10
-180.1946439999999
 20
-192.4449349999999
 30
0.0
 11
-180.34283500000001
 21
-192.7681419999999
 31
0.0
  0
LINE
  5
167F
  8
DETAIL
  6
CONTINUOUS
 62
     5
 10
-180.08702999999991
 20
-192.1060429999998
 30
0.0
 11
-180.1946439999999
 21
-192.4449349999999
 31
0.0
  0
LINE
  5
1680
  8
DETAIL
  6
CONTINUOUS
 62
     5
 10
-180.0217259999998
 20
-191.7560489999999
 30
0.0
 11
-180.08702999999991
 21
-192.1060429999998
 31
0.0
  0
LINE
  5
1681
  8
DETAIL
  6
CONTINUOUS
 62
     5
 10
-180.0
 20
-191.4026979999999
 30
0.0
 11
-180.0217259999998
 21
-191.7560489999999
 31
0.0
  0
LINE
  5
1682
  8
DETAIL
  6
CONTINUOUS
 62
     5
 10
-182.63960399999991
 20
-179.615827
 30
0.0
 11
-183.0
 21
-179.6371289999999
 31
0.0
  0
LINE
  5
1683
  8
DETAIL
  6
CONTINUOUS
 62
     5
 10
-182.28255799999991
 20
-179.55177900000001
 30
0.0
 11
-182.63960399999991
 21
-179.615827
 31
0.0
  0
LINE
  5
1684
  8
DETAIL
  6
CONTINUOUS
 62
     5
 10
-181.93685300000001
 20
-179.446235
 30
0.0
 11
-182.28255799999991
 21
-179.55177900000001
 31
0.0
  0
LINE
  5
1685
  8
DETAIL
  6
CONTINUOUS
 62
     5
 10
-181.60725600000001
 20
-179.3009429999999
 30
0.0
 11
-181.93685300000001
 21
-179.446235
 31
0.0
  0
LINE
  5
1686
  8
DETAIL
  6
CONTINUOUS
 62
     5
 10
-181.29598699999991
 20
-179.116578
 30
0.0
 11
-181.60725600000001
 21
-179.3009429999999
 31
0.0
  0
LINE
  5
1687
  8
DETAIL
  6
CONTINUOUS
 62
     5
 10
-181.01011500000001
 20
-178.896951
 30
0.0
 11
-181.29598699999991
 21
-179.116578
 31
0.0
  0
LINE
  5
1688
  8
DETAIL
  6
CONTINUOUS
 62
     5
 10
-180.75482599999989
 20
-178.646637
 30
0.0
 11
-181.01011500000001
 21
-178.896951
 31
0.0
  0
LINE
  5
1689
  8
DETAIL
  6
CONTINUOUS
 62
     5
 10
-180.5308669999998
 20
-178.36637999999999
 30
0.0
 11
-180.75482599999989
 21
-178.646637
 31
0.0
  0
LINE
  5
168A
  8
DETAIL
  6
CONTINUOUS
 62
     5
 10
-180.34283500000001
 20
-178.06118000000001
 30
0.0
 11
-180.5308669999998
 21
-178.36637999999999
 31
0.0
  0
LINE
  5
168B
  8
DETAIL
  6
CONTINUOUS
 62
     5
 10
-180.1946439999999
 20
-177.73797300000001
 30
0.0
 11
-180.34283500000001
 21
-178.06118000000001
 31
0.0
  0
LINE
  5
168C
  8
DETAIL
  6
CONTINUOUS
 62
     5
 10
-180.08702999999991
 20
-177.39908199999991
 30
0.0
 11
-180.1946439999999
 21
-177.73797300000001
 31
0.0
  0
LINE
  5
168D
  8
DETAIL
  6
CONTINUOUS
 62
     5
 10
-180.0217259999998
 20
-177.0490869999999
 30
0.0
 11
-180.08702999999991
 21
-177.39908199999991
 31
0.0
  0
LINE
  5
168E
  8
DETAIL
  6
CONTINUOUS
 62
     5
 10
-180.0
 20
-176.69573700000001
 30
0.0
 11
-180.0217259999998
 21
-177.0490869999999
 31
0.0
  0
LINE
  5
168F
  8
DETAIL
  6
CONTINUOUS
 62
     5
 10
-182.63960399999991
 20
-164.90886599999979
 30
0.0
 11
-183.0
 21
-164.93016699999981
 31
0.0
  0
LINE
  5
1690
  8
DETAIL
  6
CONTINUOUS
 62
     5
 10
-182.28255799999991
 20
-164.8448179999998
 30
0.0
 11
-182.63960399999991
 21
-164.90886599999979
 31
0.0
  0
LINE
  5
1691
  8
DETAIL
  6
CONTINUOUS
 62
     5
 10
-181.93685300000001
 20
-164.73927299999991
 30
0.0
 11
-182.28255799999991
 21
-164.8448179999998
 31
0.0
  0
LINE
  5
1692
  8
DETAIL
  6
CONTINUOUS
 62
     5
 10
-181.60725600000001
 20
-164.5939809999999
 30
0.0
 11
-181.93685300000001
 21
-164.73927299999991
 31
0.0
  0
LINE
  5
1693
  8
DETAIL
  6
CONTINUOUS
 62
     5
 10
-181.29598699999991
 20
-164.4096159999998
 30
0.0
 11
-181.60725600000001
 21
-164.5939809999999
 31
0.0
  0
LINE
  5
1694
  8
DETAIL
  6
CONTINUOUS
 62
     5
 10
-181.01011500000001
 20
-164.18998999999999
 30
0.0
 11
-181.29598699999991
 21
-164.4096159999998
 31
0.0
  0
LINE
  5
1695
  8
DETAIL
  6
CONTINUOUS
 62
     5
 10
-180.75482599999989
 20
-163.93967599999991
 30
0.0
 11
-181.01011500000001
 21
-164.18998999999999
 31
0.0
  0
LINE
  5
1696
  8
DETAIL
  6
CONTINUOUS
 62
     5
 10
-180.5308669999998
 20
-163.65941900000001
 30
0.0
 11
-180.75482599999989
 21
-163.93967599999991
 31
0.0
  0
LINE
  5
1697
  8
DETAIL
  6
CONTINUOUS
 62
     5
 10
-180.34283500000001
 20
-163.354219
 30
0.0
 11
-180.5308669999998
 21
-163.65941900000001
 31
0.0
  0
LINE
  5
1698
  8
DETAIL
  6
CONTINUOUS
 62
     5
 10
-180.1946439999999
 20
-163.03101100000001
 30
0.0
 11
-180.34283500000001
 21
-163.354219
 31
0.0
  0
LINE
  5
1699
  8
DETAIL
  6
CONTINUOUS
 62
     5
 10
-180.08702999999991
 20
-162.6921199999999
 30
0.0
 11
-180.1946439999999
 21
-163.03101100000001
 31
0.0
  0
LINE
  5
169A
  8
DETAIL
  6
CONTINUOUS
 62
     5
 10
-180.0217259999998
 20
-162.34212499999981
 30
0.0
 11
-180.08702999999991
 21
-162.6921199999999
 31
0.0
  0
LINE
  5
169B
  8
DETAIL
  6
CONTINUOUS
 62
     5
 10
-180.0
 20
-161.988775
 30
0.0
 11
-180.0217259999998
 21
-162.34212499999981
 31
0.0
  0
LINE
  5
169C
  8
DETAIL
  6
CONTINUOUS
 62
     5
 10
-182.63960399999991
 20
-150.20190400000001
 30
0.0
 11
-183.0
 21
-150.223206
 31
0.0
  0
LINE
  5
169D
  8
DETAIL
  6
CONTINUOUS
 62
     5
 10
-182.28255799999991
 20
-150.137856
 30
0.0
 11
-182.63960399999991
 21
-150.20190400000001
 31
0.0
  0
LINE
  5
169E
  8
DETAIL
  6
CONTINUOUS
 62
     5
 10
-181.93685300000001
 20
-150.03231099999999
 30
0.0
 11
-182.28255799999991
 21
-150.137856
 31
0.0
  0
LINE
  5
169F
  8
DETAIL
  6
CONTINUOUS
 62
     5
 10
-181.60725600000001
 20
-149.88701999999981
 30
0.0
 11
-181.93685300000001
 21
-150.03231099999999
 31
0.0
  0
LINE
  5
16A0
  8
DETAIL
  6
CONTINUOUS
 62
     5
 10
-181.29598699999991
 20
-149.702654
 30
0.0
 11
-181.60725600000001
 21
-149.88701999999981
 31
0.0
  0
LINE
  5
16A1
  8
DETAIL
  6
CONTINUOUS
 62
     5
 10
-181.01011500000001
 20
-149.4830279999999
 30
0.0
 11
-181.29598699999991
 21
-149.702654
 31
0.0
  0
LINE
  5
16A2
  8
DETAIL
  6
CONTINUOUS
 62
     5
 10
-180.75482599999989
 20
-149.2327139999999
 30
0.0
 11
-181.01011500000001
 21
-149.4830279999999
 31
0.0
  0
LINE
  5
16A3
  8
DETAIL
  6
CONTINUOUS
 62
     5
 10
-180.5308669999998
 20
-148.95245700000001
 30
0.0
 11
-180.75482599999989
 21
-149.2327139999999
 31
0.0
  0
LINE
  5
16A4
  8
DETAIL
  6
CONTINUOUS
 62
     5
 10
-180.34283500000001
 20
-148.64725699999991
 30
0.0
 11
-180.5308669999998
 21
-148.95245700000001
 31
0.0
  0
LINE
  5
16A5
  8
DETAIL
  6
CONTINUOUS
 62
     5
 10
-180.1946439999999
 20
-148.3240499999998
 30
0.0
 11
-180.34283500000001
 21
-148.64725699999991
 31
0.0
  0
LINE
  5
16A6
  8
DETAIL
  6
CONTINUOUS
 62
     5
 10
-180.08702999999991
 20
-147.98515800000001
 30
0.0
 11
-180.1946439999999
 21
-148.3240499999998
 31
0.0
  0
LINE
  5
16A7
  8
DETAIL
  6
CONTINUOUS
 62
     5
 10
-180.0217259999998
 20
-147.6351639999998
 30
0.0
 11
-180.08702999999991
 21
-147.98515800000001
 31
0.0
  0
LINE
  5
16A8
  8
DETAIL
  6
CONTINUOUS
 62
     5
 10
-180.0
 20
-147.281813
 30
0.0
 11
-180.0217259999998
 21
-147.6351639999998
 31
0.0
  0
LINE
  5
16A9
  8
DETAIL
  6
CONTINUOUS
 62
     5
 10
-180.0
 20
-161.988775
 30
0.0
 11
-180.0
 21
-154.9294329999999
 31
0.0
  0
LINE
  5
16AA
  8
DETAIL
  6
CONTINUOUS
 62
     5
 10
-180.0
 20
-176.69573700000001
 30
0.0
 11
-180.0
 21
-169.63639499999999
 31
0.0
  0
LINE
  5
16AB
  8
DETAIL
  6
CONTINUOUS
 62
     5
 10
-180.0
 20
-191.4026979999999
 30
0.0
 11
-180.0
 21
-184.343357
 31
0.0
  0
LINE
  5
16AC
  8
DETAIL
  6
CONTINUOUS
 62
     5
 10
-183.0
 20
-150.223206
 30
0.0
 11
-183.0
 21
-150.10518699999969
 31
0.0
  0
LINE
  5
16AD
  8
DETAIL
  6
CONTINUOUS
 62
     5
 10
-183.0
 20
-164.93016699999981
 30
0.0
 11
-183.0
 21
-164.81214900000001
 31
0.0
  0
LINE
  5
16AE
  8
DETAIL
  6
CONTINUOUS
 62
     5
 10
-183.0
 20
-179.6371289999999
 30
0.0
 11
-183.0
 21
-179.51911000000001
 31
0.0
  0
LINE
  5
16AF
  8
DETAIL
  6
CONTINUOUS
 62
     5
 10
-183.0
 20
-194.34409099999991
 30
0.0
 11
-183.0
 21
-194.2260719999999
 31
0.0
  0
LINE
  5
16B0
  8
DETAIL
  6
CONTINUOUS
 62
     5
 10
-159.978274
 20
-132.9282069999997
 30
0.0
 11
-160.0
 21
-132.57485199999991
 31
0.0
  0
LINE
  5
16B1
  8
DETAIL
  6
CONTINUOUS
 62
     5
 10
-159.91295
 20
-133.278278
 30
0.0
 11
-159.978274
 21
-132.9282069999997
 31
0.0
  0
LINE
  5
16B2
  8
DETAIL
  6
CONTINUOUS
 62
     5
 10
-159.80530199999981
 20
-133.61722900000001
 30
0.0
 11
-159.91295
 21
-133.278278
 31
0.0
  0
LINE
  5
16B3
  8
DETAIL
  6
CONTINUOUS
 62
     5
 10
-159.6571159999998
 20
-133.9403879999997
 30
0.0
 11
-159.80530199999981
 21
-133.61722900000001
 31
0.0
  0
LINE
  5
16B4
  8
DETAIL
  6
CONTINUOUS
 62
     5
 10
-159.46907599999969
 20
-134.24557599999969
 30
0.0
 11
-159.6571159999998
 21
-133.9403879999997
 31
0.0
  0
LINE
  5
16B5
  8
DETAIL
  6
CONTINUOUS
 62
     5
 10
-159.24507399999979
 20
-134.52586199999979
 30
0.0
 11
-159.46907599999969
 21
-134.24557599999969
 31
0.0
  0
LINE
  5
16B6
  8
DETAIL
  6
CONTINUOUS
 62
     5
 10
-158.98977300000001
 20
-134.77616399999991
 30
0.0
 11
-159.24507399999979
 21
-134.52586199999979
 31
0.0
  0
LINE
  5
16B7
  8
DETAIL
  6
CONTINUOUS
 62
     5
 10
-158.70393200000001
 20
-134.99574799999999
 30
0.0
 11
-158.98977300000001
 21
-134.77616399999991
 31
0.0
  0
LINE
  5
16B8
  8
DETAIL
  6
CONTINUOUS
 62
     5
 10
-158.39265
 20
-135.18010699999999
 30
0.0
 11
-158.70393200000001
 21
-134.99574799999999
 31
0.0
  0
LINE
  5
16B9
  8
DETAIL
  6
CONTINUOUS
 62
     5
 10
-158.06300299999981
 20
-135.32540299999991
 30
0.0
 11
-158.39265
 21
-135.18010699999999
 31
0.0
  0
LINE
  5
16BA
  8
DETAIL
  6
CONTINUOUS
 62
     5
 10
-157.7173589999999
 20
-135.430914
 30
0.0
 11
-158.06300299999981
 21
-135.32540299999991
 31
0.0
  0
LINE
  5
16BB
  8
DETAIL
  6
CONTINUOUS
 62
     5
 10
-157.36039099999991
 20
-135.49494300000001
 30
0.0
 11
-157.7173589999999
 21
-135.430914
 31
0.0
  0
LINE
  5
16BC
  8
DETAIL
  6
CONTINUOUS
 62
     5
 10
-157.0
 20
-135.51624399999969
 30
0.0
 11
-157.36039099999991
 21
-135.49494300000001
 31
0.0
  0
LINE
  5
16BD
  8
DETAIL
  6
CONTINUOUS
 62
     5
 10
-157.0
 20
-135.51624399999969
 30
0.0
 11
-157.0
 21
-135.398225
 31
0.0
  0
LINE
  5
16BE
  8
DETAIL
  6
CONTINUOUS
 62
     5
 10
-160.0
 20
-125.51551000000001
 30
0.0
 11
-160.0
 21
-132.57485199999991
 31
0.0
  0
LINE
  5
16BF
  8
DETAIL
  6
CONTINUOUS
 62
     5
 10
-157.36039099999991
 20
-135.376924
 30
0.0
 11
-157.0
 21
-135.398225
 31
0.0
  0
LINE
  5
16C0
  8
DETAIL
  6
CONTINUOUS
 62
     5
 10
-157.7173589999999
 20
-135.31289599999999
 30
0.0
 11
-157.36039099999991
 21
-135.376924
 31
0.0
  0
LINE
  5
16C1
  8
DETAIL
  6
CONTINUOUS
 62
     5
 10
-158.06300299999981
 20
-135.20738399999991
 30
0.0
 11
-157.7173589999999
 21
-135.31289599999999
 31
0.0
  0
LINE
  5
16C2
  8
DETAIL
  6
CONTINUOUS
 62
     5
 10
-158.39265
 20
-135.0620879999999
 30
0.0
 11
-158.06300299999981
 21
-135.20738399999991
 31
0.0
  0
LINE
  5
16C3
  8
DETAIL
  6
CONTINUOUS
 62
     5
 10
-158.70393200000001
 20
-134.8777289999999
 30
0.0
 11
-158.39265
 21
-135.0620879999999
 31
0.0
  0
LINE
  5
16C4
  8
DETAIL
  6
CONTINUOUS
 62
     5
 10
-158.98977300000001
 20
-134.65814499999991
 30
0.0
 11
-158.70393200000001
 21
-134.8777289999999
 31
0.0
  0
LINE
  5
16C5
  8
DETAIL
  6
CONTINUOUS
 62
     5
 10
-159.24507399999979
 20
-134.40784400000001
 30
0.0
 11
-158.98977300000001
 21
-134.65814499999991
 31
0.0
  0
LINE
  5
16C6
  8
DETAIL
  6
CONTINUOUS
 62
     5
 10
-159.46907599999969
 20
-134.127557
 30
0.0
 11
-159.24507399999979
 21
-134.40784400000001
 31
0.0
  0
LINE
  5
16C7
  8
DETAIL
  6
CONTINUOUS
 62
     5
 10
-159.6571159999998
 20
-133.8223689999999
 30
0.0
 11
-159.46907599999969
 21
-134.127557
 31
0.0
  0
LINE
  5
16C8
  8
DETAIL
  6
CONTINUOUS
 62
     5
 10
-159.80530199999981
 20
-133.49921000000001
 30
0.0
 11
-159.6571159999998
 21
-133.8223689999999
 31
0.0
  0
LINE
  5
16C9
  8
DETAIL
  6
CONTINUOUS
 62
     5
 10
-159.91295
 20
-133.16025899999991
 30
0.0
 11
-159.80530199999981
 21
-133.49921000000001
 31
0.0
  0
LINE
  5
16CA
  8
DETAIL
  6
CONTINUOUS
 62
     5
 10
-159.978274
 20
-132.8101879999999
 30
0.0
 11
-159.91295
 21
-133.16025899999991
 31
0.0
  0
LINE
  5
16CB
  8
DETAIL
  6
CONTINUOUS
 62
     5
 10
-159.99277099999981
 20
-132.57440700000001
 30
0.0
 11
-159.978274
 21
-132.8101879999999
 31
0.0
  0
LINE
  5
16CC
  8
DETAIL
  6
CONTINUOUS
 62
     5
 10
-180.0217259999998
 20
-132.81018299999999
 30
0.0
 11
-180.00722899999991
 21
-132.57440700000001
 31
0.0
  0
LINE
  5
16CD
  8
DETAIL
  6
CONTINUOUS
 62
     5
 10
-180.08702999999991
 20
-133.16017799999969
 30
0.0
 11
-180.0217259999998
 21
-132.81018299999999
 31
0.0
  0
LINE
  5
16CE
  8
DETAIL
  6
CONTINUOUS
 62
     5
 10
-180.1946439999999
 20
-133.49906899999991
 30
0.0
 11
-180.08702999999991
 21
-133.16017799999969
 31
0.0
  0
LINE
  5
16CF
  8
DETAIL
  6
CONTINUOUS
 62
     5
 10
-180.34283500000001
 20
-133.8222759999997
 30
0.0
 11
-180.1946439999999
 21
-133.49906899999991
 31
0.0
  0
LINE
  5
16D0
  8
DETAIL
  6
CONTINUOUS
 62
     5
 10
-180.5308669999998
 20
-134.127477
 30
0.0
 11
-180.34283500000001
 21
-133.8222759999997
 31
0.0
  0
LINE
  5
16D1
  8
DETAIL
  6
CONTINUOUS
 62
     5
 10
-180.75482599999989
 20
-134.40773300000001
 30
0.0
 11
-180.5308669999998
 21
-134.127477
 31
0.0
  0
LINE
  5
16D2
  8
DETAIL
  6
CONTINUOUS
 62
     5
 10
-181.01011500000001
 20
-134.65804700000001
 30
0.0
 11
-180.75482599999989
 21
-134.40773300000001
 31
0.0
  0
LINE
  5
16D3
  8
DETAIL
  6
CONTINUOUS
 62
     5
 10
-181.29598699999991
 20
-134.87767400000001
 30
0.0
 11
-181.01011500000001
 21
-134.65804700000001
 31
0.0
  0
LINE
  5
16D4
  8
DETAIL
  6
CONTINUOUS
 62
     5
 10
-181.60725600000001
 20
-135.062039
 30
0.0
 11
-181.29598699999991
 21
-134.87767400000001
 31
0.0
  0
LINE
  5
16D5
  8
DETAIL
  6
CONTINUOUS
 62
     5
 10
-181.93685300000001
 20
-135.20733100000001
 30
0.0
 11
-181.60725600000001
 21
-135.062039
 31
0.0
  0
LINE
  5
16D6
  8
DETAIL
  6
CONTINUOUS
 62
     5
 10
-182.28255799999991
 20
-135.3128759999999
 30
0.0
 11
-181.93685300000001
 21
-135.20733100000001
 31
0.0
  0
LINE
  5
16D7
  8
DETAIL
  6
CONTINUOUS
 62
     5
 10
-182.63960399999991
 20
-135.37692300000001
 30
0.0
 11
-182.28255799999991
 21
-135.3128759999999
 31
0.0
  0
LINE
  5
16D8
  8
DETAIL
  6
CONTINUOUS
 62
     5
 10
-183.0
 20
-135.398225
 30
0.0
 11
-182.63960399999991
 21
-135.37692300000001
 31
0.0
  0
LINE
  5
16D9
  8
DETAIL
  6
CONTINUOUS
 62
     5
 10
-182.63960399999991
 20
-135.49494200000001
 30
0.0
 11
-183.0
 21
-135.51624399999969
 31
0.0
  0
LINE
  5
16DA
  8
DETAIL
  6
CONTINUOUS
 62
     5
 10
-182.28255799999991
 20
-135.43089399999991
 30
0.0
 11
-182.63960399999991
 21
-135.49494200000001
 31
0.0
  0
LINE
  5
16DB
  8
DETAIL
  6
CONTINUOUS
 62
     5
 10
-181.93685300000001
 20
-135.3253489999999
 30
0.0
 11
-182.28255799999991
 21
-135.43089399999991
 31
0.0
  0
LINE
  5
16DC
  8
DETAIL
  6
CONTINUOUS
 62
     5
 10
-181.60725600000001
 20
-135.180058
 30
0.0
 11
-181.93685300000001
 21
-135.3253489999999
 31
0.0
  0
LINE
  5
16DD
  8
DETAIL
  6
CONTINUOUS
 62
     5
 10
-181.29598699999991
 20
-134.99569199999991
 30
0.0
 11
-181.60725600000001
 21
-135.180058
 31
0.0
  0
LINE
  5
16DE
  8
DETAIL
  6
CONTINUOUS
 62
     5
 10
-181.01011500000001
 20
-134.77606599999979
 30
0.0
 11
-181.29598699999991
 21
-134.99569199999991
 31
0.0
  0
LINE
  5
16DF
  8
DETAIL
  6
CONTINUOUS
 62
     5
 10
-180.75482599999989
 20
-134.52575200000001
 30
0.0
 11
-181.01011500000001
 21
-134.77606599999979
 31
0.0
  0
LINE
  5
16E0
  8
DETAIL
  6
CONTINUOUS
 62
     5
 10
-180.5308669999998
 20
-134.24549500000001
 30
0.0
 11
-180.75482599999989
 21
-134.52575200000001
 31
0.0
  0
LINE
  5
16E1
  8
DETAIL
  6
CONTINUOUS
 62
     5
 10
-180.34283500000001
 20
-133.94029499999991
 30
0.0
 11
-180.5308669999998
 21
-134.24549500000001
 31
0.0
  0
LINE
  5
16E2
  8
DETAIL
  6
CONTINUOUS
 62
     5
 10
-180.1946439999999
 20
-133.617088
 30
0.0
 11
-180.34283500000001
 21
-133.94029499999991
 31
0.0
  0
LINE
  5
16E3
  8
DETAIL
  6
CONTINUOUS
 62
     5
 10
-180.08702999999991
 20
-133.2781959999997
 30
0.0
 11
-180.1946439999999
 21
-133.617088
 31
0.0
  0
LINE
  5
16E4
  8
DETAIL
  6
CONTINUOUS
 62
     5
 10
-180.0217259999998
 20
-132.92820199999991
 30
0.0
 11
-180.08702999999991
 21
-133.2781959999997
 31
0.0
  0
LINE
  5
16E5
  8
DETAIL
  6
CONTINUOUS
 62
     5
 10
-180.0
 20
-132.57485199999991
 30
0.0
 11
-180.0217259999998
 21
-132.92820199999991
 31
0.0
  0
LINE
  5
16E6
  8
DETAIL
  6
CONTINUOUS
 62
     5
 10
-180.0
 20
-132.57485199999991
 30
0.0
 11
-180.0
 21
-125.51551000000001
 31
0.0
  0
LINE
  5
16E7
  8
DETAIL
  6
CONTINUOUS
 62
     5
 10
-183.0
 20
-135.51624399999969
 30
0.0
 11
-183.0
 21
-135.398225
 31
0.0
  0
LINE
  5
16E8
  8
DETAIL
  6
CONTINUOUS
 62
     5
 10
-12.63960399999999
 20
-238.4436739999999
 30
0.0
 11
-13.0
 21
-238.46497600000001
 31
0.0
  0
LINE
  5
16E9
  8
DETAIL
  6
CONTINUOUS
 62
     5
 10
-12.28255799999998
 20
-238.379626
 30
0.0
 11
-12.63960399999999
 21
-238.4436739999999
 31
0.0
  0
LINE
  5
16EA
  8
DETAIL
  6
CONTINUOUS
 62
     5
 10
-11.93685299999998
 20
-238.274081
 30
0.0
 11
-12.28255799999998
 21
-238.379626
 31
0.0
  0
LINE
  5
16EB
  8
DETAIL
  6
CONTINUOUS
 62
     5
 10
-13.0
 20
-238.46497600000001
 30
0.0
 11
-13.0
 21
-238.34695699999989
 31
0.0
  0
LINE
  5
16EC
  8
DETAIL
  6
CONTINUOUS
 62
     5
 10
-12.28255799999998
 20
-238.26160699999991
 30
0.0
 11
-11.93685299999998
 21
-238.15606299999999
 31
0.0
  0
LINE
  5
16ED
  8
DETAIL
  6
CONTINUOUS
 62
     5
 10
-12.63960399999999
 20
-238.32565500000001
 30
0.0
 11
-12.28255799999998
 21
-238.26160699999991
 31
0.0
  0
LINE
  5
16EE
  8
DETAIL
  6
CONTINUOUS
 62
     5
 10
-13.0
 20
-238.34695699999989
 30
0.0
 11
-12.63960399999999
 21
-238.32565500000001
 31
0.0
  0
LINE
  5
16EF
  8
DETAIL
  6
CONTINUOUS
 62
     5
 10
-12.63960399999999
 20
-223.73671200000001
 30
0.0
 11
-13.0
 21
-223.75801399999989
 31
0.0
  0
LINE
  5
16F0
  8
DETAIL
  6
CONTINUOUS
 62
     5
 10
-12.28255799999998
 20
-223.67266499999999
 30
0.0
 11
-12.63960399999999
 21
-223.73671200000001
 31
0.0
  0
LINE
  5
16F1
  8
DETAIL
  6
CONTINUOUS
 62
     5
 10
-11.93685299999998
 20
-223.56711999999999
 30
0.0
 11
-12.28255799999998
 21
-223.67266499999999
 31
0.0
  0
LINE
  5
16F2
  8
DETAIL
  6
CONTINUOUS
 62
     5
 10
-12.63960399999999
 20
-209.029751
 30
0.0
 11
-13.0
 21
-209.051052
 31
0.0
  0
LINE
  5
16F3
  8
DETAIL
  6
CONTINUOUS
 62
     5
 10
-12.28255799999998
 20
-208.96570299999999
 30
0.0
 11
-12.63960399999999
 21
-209.029751
 31
0.0
  0
LINE
  5
16F4
  8
DETAIL
  6
CONTINUOUS
 62
     5
 10
-11.93685299999998
 20
-208.86015800000001
 30
0.0
 11
-12.28255799999998
 21
-208.96570299999999
 31
0.0
  0
LINE
  5
16F5
  8
DETAIL
  6
CONTINUOUS
 62
     5
 10
-13.0
 20
-209.051052
 30
0.0
 11
-13.0
 21
-208.93303399999999
 31
0.0
  0
LINE
  5
16F6
  8
DETAIL
  6
CONTINUOUS
 62
     5
 10
-13.0
 20
-223.75801399999989
 30
0.0
 11
-13.0
 21
-223.639995
 31
0.0
  0
LINE
  5
16F7
  8
DETAIL
  6
CONTINUOUS
 62
     5
 10
-12.28255799999998
 20
-208.8476839999999
 30
0.0
 11
-11.93685299999998
 21
-208.7421389999999
 31
0.0
  0
LINE
  5
16F8
  8
DETAIL
  6
CONTINUOUS
 62
     5
 10
-12.63960399999999
 20
-208.911732
 30
0.0
 11
-12.28255799999998
 21
-208.8476839999999
 31
0.0
  0
LINE
  5
16F9
  8
DETAIL
  6
CONTINUOUS
 62
     5
 10
-13.0
 20
-208.93303399999999
 30
0.0
 11
-12.63960399999999
 21
-208.911732
 31
0.0
  0
LINE
  5
16FA
  8
DETAIL
  6
CONTINUOUS
 62
     5
 10
-12.28255799999998
 20
-223.55464599999999
 30
0.0
 11
-11.93685299999998
 21
-223.44910100000001
 31
0.0
  0
LINE
  5
16FB
  8
DETAIL
  6
CONTINUOUS
 62
     5
 10
-12.63960399999999
 20
-223.618694
 30
0.0
 11
-12.28255799999998
 21
-223.55464599999999
 31
0.0
  0
LINE
  5
16FC
  8
DETAIL
  6
CONTINUOUS
 62
     5
 10
-13.0
 20
-223.639995
 30
0.0
 11
-12.63960399999999
 21
-223.618694
 31
0.0
  0
LINE
  5
16FD
  8
DETAIL
  6
CONTINUOUS
 62
     5
 10
-12.63960399999999
 20
-194.322789
 30
0.0
 11
-13.0
 21
-194.34409099999991
 31
0.0
  0
LINE
  5
16FE
  8
DETAIL
  6
CONTINUOUS
 62
     5
 10
-12.28255799999998
 20
-194.2587409999999
 30
0.0
 11
-12.63960399999999
 21
-194.322789
 31
0.0
  0
LINE
  5
16FF
  8
DETAIL
  6
CONTINUOUS
 62
     5
 10
-11.93685299999998
 20
-194.15319600000001
 30
0.0
 11
-12.28255799999998
 21
-194.2587409999999
 31
0.0
  0
LINE
  5
1700
  8
DETAIL
  6
CONTINUOUS
 62
     5
 10
-12.63960399999999
 20
-179.615827
 30
0.0
 11
-13.0
 21
-179.6371289999999
 31
0.0
  0
LINE
  5
1701
  8
DETAIL
  6
CONTINUOUS
 62
     5
 10
-12.28255799999998
 20
-179.55177900000001
 30
0.0
 11
-12.63960399999999
 21
-179.615827
 31
0.0
  0
LINE
  5
1702
  8
DETAIL
  6
CONTINUOUS
 62
     5
 10
-11.93685299999998
 20
-179.446235
 30
0.0
 11
-12.28255799999998
 21
-179.55177900000001
 31
0.0
  0
LINE
  5
1703
  8
DETAIL
  6
CONTINUOUS
 62
     5
 10
-12.63960399999999
 20
-164.90886599999979
 30
0.0
 11
-13.0
 21
-164.93016699999981
 31
0.0
  0
LINE
  5
1704
  8
DETAIL
  6
CONTINUOUS
 62
     5
 10
-12.28255799999998
 20
-164.8448179999998
 30
0.0
 11
-12.63960399999999
 21
-164.90886599999979
 31
0.0
  0
LINE
  5
1705
  8
DETAIL
  6
CONTINUOUS
 62
     5
 10
-11.93685299999998
 20
-164.73927299999991
 30
0.0
 11
-12.28255799999998
 21
-164.8448179999998
 31
0.0
  0
LINE
  5
1706
  8
DETAIL
  6
CONTINUOUS
 62
     5
 10
-12.63960399999999
 20
-150.20190400000001
 30
0.0
 11
-13.0
 21
-150.223206
 31
0.0
  0
LINE
  5
1707
  8
DETAIL
  6
CONTINUOUS
 62
     5
 10
-12.28255799999998
 20
-150.137856
 30
0.0
 11
-12.63960399999999
 21
-150.20190400000001
 31
0.0
  0
LINE
  5
1708
  8
DETAIL
  6
CONTINUOUS
 62
     5
 10
-11.93685299999998
 20
-150.03231099999999
 30
0.0
 11
-12.28255799999998
 21
-150.137856
 31
0.0
  0
LINE
  5
1709
  8
DETAIL
  6
CONTINUOUS
 62
     5
 10
-13.0
 20
-150.223206
 30
0.0
 11
-13.0
 21
-150.10518699999969
 31
0.0
  0
LINE
  5
170A
  8
DETAIL
  6
CONTINUOUS
 62
     5
 10
-13.0
 20
-164.93016699999981
 30
0.0
 11
-13.0
 21
-164.81214900000001
 31
0.0
  0
LINE
  5
170B
  8
DETAIL
  6
CONTINUOUS
 62
     5
 10
-13.0
 20
-179.6371289999999
 30
0.0
 11
-13.0
 21
-179.51911000000001
 31
0.0
  0
LINE
  5
170C
  8
DETAIL
  6
CONTINUOUS
 62
     5
 10
-13.0
 20
-194.34409099999991
 30
0.0
 11
-13.0
 21
-194.2260719999999
 31
0.0
  0
LINE
  5
170D
  8
DETAIL
  6
CONTINUOUS
 62
     5
 10
-12.28255799999998
 20
-150.01983699999991
 30
0.0
 11
-11.93685299999998
 21
-149.9142919999999
 31
0.0
  0
LINE
  5
170E
  8
DETAIL
  6
CONTINUOUS
 62
     5
 10
-12.63960399999999
 20
-150.08388500000001
 30
0.0
 11
-12.28255799999998
 21
-150.01983699999991
 31
0.0
  0
LINE
  5
170F
  8
DETAIL
  6
CONTINUOUS
 62
     5
 10
-13.0
 20
-150.10518699999969
 30
0.0
 11
-12.63960399999999
 21
-150.08388500000001
 31
0.0
  0
LINE
  5
1710
  8
DETAIL
  6
CONTINUOUS
 62
     5
 10
-12.28255799999998
 20
-164.726799
 30
0.0
 11
-11.93685299999998
 21
-164.62125399999999
 31
0.0
  0
LINE
  5
1711
  8
DETAIL
  6
CONTINUOUS
 62
     5
 10
-12.63960399999999
 20
-164.7908469999999
 30
0.0
 11
-12.28255799999998
 21
-164.726799
 31
0.0
  0
LINE
  5
1712
  8
DETAIL
  6
CONTINUOUS
 62
     5
 10
-13.0
 20
-164.81214900000001
 30
0.0
 11
-12.63960399999999
 21
-164.7908469999999
 31
0.0
  0
LINE
  5
1713
  8
DETAIL
  6
CONTINUOUS
 62
     5
 10
-12.28255799999998
 20
-179.433761
 30
0.0
 11
-11.93685299999998
 21
-179.32821599999991
 31
0.0
  0
LINE
  5
1714
  8
DETAIL
  6
CONTINUOUS
 62
     5
 10
-12.63960399999999
 20
-179.49780799999991
 30
0.0
 11
-12.28255799999998
 21
-179.433761
 31
0.0
  0
LINE
  5
1715
  8
DETAIL
  6
CONTINUOUS
 62
     5
 10
-13.0
 20
-179.51911000000001
 30
0.0
 11
-12.63960399999999
 21
-179.49780799999991
 31
0.0
  0
LINE
  5
1716
  8
DETAIL
  6
CONTINUOUS
 62
     5
 10
-12.28255799999998
 20
-194.14072200000001
 30
0.0
 11
-11.93685299999998
 21
-194.035177
 31
0.0
  0
LINE
  5
1717
  8
DETAIL
  6
CONTINUOUS
 62
     5
 10
-12.63960399999999
 20
-194.20476999999991
 30
0.0
 11
-12.28255799999998
 21
-194.14072200000001
 31
0.0
  0
LINE
  5
1718
  8
DETAIL
  6
CONTINUOUS
 62
     5
 10
-13.0
 20
-194.2260719999999
 30
0.0
 11
-12.63960399999999
 21
-194.20476999999991
 31
0.0
  0
LINE
  5
1719
  8
DETAIL
  6
CONTINUOUS
 62
     5
 10
-12.28255799999998
 20
-135.3128759999999
 30
0.0
 11
-11.93685299999998
 21
-135.20733100000001
 31
0.0
  0
LINE
  5
171A
  8
DETAIL
  6
CONTINUOUS
 62
     5
 10
-12.63960399999999
 20
-135.37692300000001
 30
0.0
 11
-12.28255799999998
 21
-135.3128759999999
 31
0.0
  0
LINE
  5
171B
  8
DETAIL
  6
CONTINUOUS
 62
     5
 10
-13.0
 20
-135.398225
 30
0.0
 11
-12.63960399999999
 21
-135.37692300000001
 31
0.0
  0
LINE
  5
171C
  8
DETAIL
  6
CONTINUOUS
 62
     5
 10
-12.63960399999999
 20
-135.49494200000001
 30
0.0
 11
-13.0
 21
-135.51624399999969
 31
0.0
  0
LINE
  5
171D
  8
DETAIL
  6
CONTINUOUS
 62
     5
 10
-12.28255799999998
 20
-135.43089399999991
 30
0.0
 11
-12.63960399999999
 21
-135.49494200000001
 31
0.0
  0
LINE
  5
171E
  8
DETAIL
  6
CONTINUOUS
 62
     5
 10
-11.93685299999998
 20
-135.3253489999999
 30
0.0
 11
-12.28255799999998
 21
-135.43089399999991
 31
0.0
  0
LINE
  5
171F
  8
DETAIL
  6
CONTINUOUS
 62
     5
 10
-13.0
 20
-135.51624399999969
 30
0.0
 11
-13.0
 21
-135.398225
 31
0.0
  0
LINE
  5
1720
  8
DETAIL
  6
CONTINUOUS
 62
     5
 10
330.0
 20
-125.51551000000001
 30
0.0
 11
180.0
 21
-125.51551000000001
 31
0.0
  0
LINE
  5
1721
  8
DETAIL
  6
CONTINUOUS
 62
     5
 10
330.0
 20
-126.4794719999999
 30
0.0
 11
180.0
 21
-126.4794719999999
 31
0.0
  0
LINE
  5
1722
  8
DETAIL
  6
CONTINUOUS
 62
     5
 10
183.0
 20
-135.398225
 30
0.0
 11
327.0
 21
-135.398225
 31
0.0
  0
LINE
  5
1723
  8
DETAIL
  6
CONTINUOUS
 62
     5
 10
183.0
 20
-135.51624399999969
 30
0.0
 11
327.0
 21
-135.51624399999969
 31
0.0
  0
LINE
  5
1724
  8
DETAIL
  6
CONTINUOUS
 62
     5
 10
330.0
 20
-140.2224719999999
 30
0.0
 11
180.0
 21
-140.2224719999999
 31
0.0
  0
LINE
  5
1725
  8
DETAIL
  6
CONTINUOUS
 62
     5
 10
330.0
 20
-141.18643399999991
 30
0.0
 11
180.0
 21
-141.18643399999991
 31
0.0
  0
LINE
  5
1726
  8
DETAIL
  6
CONTINUOUS
 62
     5
 10
183.0
 20
-150.10518699999969
 30
0.0
 11
327.0
 21
-150.10518699999969
 31
0.0
  0
LINE
  5
1727
  8
DETAIL
  6
CONTINUOUS
 62
     5
 10
183.0
 20
-150.223206
 30
0.0
 11
327.0
 21
-150.223206
 31
0.0
  0
LINE
  5
1728
  8
DETAIL
  6
CONTINUOUS
 62
     5
 10
330.0
 20
-154.9294329999999
 30
0.0
 11
180.0
 21
-154.9294329999999
 31
0.0
  0
LINE
  5
1729
  8
DETAIL
  6
CONTINUOUS
 62
     5
 10
330.0
 20
-155.893396
 30
0.0
 11
180.0
 21
-155.893396
 31
0.0
  0
LINE
  5
172A
  8
DETAIL
  6
CONTINUOUS
 62
     5
 10
183.0
 20
-164.81214900000001
 30
0.0
 11
327.0
 21
-164.81214900000001
 31
0.0
  0
LINE
  5
172B
  8
DETAIL
  6
CONTINUOUS
 62
     5
 10
183.0
 20
-164.93016699999981
 30
0.0
 11
327.0
 21
-164.93016699999981
 31
0.0
  0
LINE
  5
172C
  8
DETAIL
  6
CONTINUOUS
 62
     5
 10
330.0
 20
-169.63639499999999
 30
0.0
 11
180.0
 21
-169.63639499999999
 31
0.0
  0
LINE
  5
172D
  8
DETAIL
  6
CONTINUOUS
 62
     5
 10
330.0
 20
-170.600357
 30
0.0
 11
180.0
 21
-170.600357
 31
0.0
  0
LINE
  5
172E
  8
DETAIL
  6
CONTINUOUS
 62
     5
 10
183.0
 20
-179.51911000000001
 30
0.0
 11
327.0
 21
-179.51911000000001
 31
0.0
  0
LINE
  5
172F
  8
DETAIL
  6
CONTINUOUS
 62
     5
 10
183.0
 20
-179.6371289999999
 30
0.0
 11
327.0
 21
-179.6371289999999
 31
0.0
  0
LINE
  5
1730
  8
DETAIL
  6
CONTINUOUS
 62
     5
 10
330.0
 20
-184.343357
 30
0.0
 11
180.0
 21
-184.343357
 31
0.0
  0
LINE
  5
1731
  8
DETAIL
  6
CONTINUOUS
 62
     5
 10
330.0
 20
-185.30731900000001
 30
0.0
 11
180.0
 21
-185.30731900000001
 31
0.0
  0
LINE
  5
1732
  8
DETAIL
  6
CONTINUOUS
 62
     5
 10
183.0
 20
-194.2260719999999
 30
0.0
 11
327.0
 21
-194.2260719999999
 31
0.0
  0
LINE
  5
1733
  8
DETAIL
  6
CONTINUOUS
 62
     5
 10
183.0
 20
-194.34409099999991
 30
0.0
 11
327.0
 21
-194.34409099999991
 31
0.0
  0
LINE
  5
1734
  8
DETAIL
  6
CONTINUOUS
 62
     5
 10
330.0
 20
-199.050319
 30
0.0
 11
180.0
 21
-199.050319
 31
0.0
  0
LINE
  5
1735
  8
DETAIL
  6
CONTINUOUS
 62
     5
 10
330.0
 20
-200.01428100000001
 30
0.0
 11
180.0
 21
-200.01428100000001
 31
0.0
  0
LINE
  5
1736
  8
DETAIL
  6
CONTINUOUS
 62
     5
 10
183.0
 20
-208.93303399999999
 30
0.0
 11
327.0
 21
-208.93303399999999
 31
0.0
  0
LINE
  5
1737
  8
DETAIL
  6
CONTINUOUS
 62
     5
 10
183.0
 20
-209.051052
 30
0.0
 11
327.0
 21
-209.051052
 31
0.0
  0
LINE
  5
1738
  8
DETAIL
  6
CONTINUOUS
 62
     5
 10
180.0
 20
-213.75728000000001
 30
0.0
 11
330.0
 21
-213.75728000000001
 31
0.0
  0
LINE
  5
1739
  8
DETAIL
  6
CONTINUOUS
 62
     5
 10
330.0
 20
-214.7212429999999
 30
0.0
 11
180.0
 21
-214.7212429999999
 31
0.0
  0
LINE
  5
173A
  8
DETAIL
  6
CONTINUOUS
 62
     5
 10
183.0
 20
-223.639995
 30
0.0
 11
327.0
 21
-223.639995
 31
0.0
  0
LINE
  5
173B
  8
DETAIL
  6
CONTINUOUS
 62
     5
 10
183.0
 20
-223.75801399999989
 30
0.0
 11
327.0
 21
-223.75801399999989
 31
0.0
  0
LINE
  5
173C
  8
DETAIL
  6
CONTINUOUS
 62
     5
 10
180.0
 20
-228.4642419999999
 30
0.0
 11
330.0
 21
-228.4642419999999
 31
0.0
  0
LINE
  5
173D
  8
DETAIL
  6
CONTINUOUS
 62
     5
 10
330.0
 20
-229.42820399999999
 30
0.0
 11
180.0
 21
-229.42820399999999
 31
0.0
  0
LINE
  5
173E
  8
DETAIL
  6
CONTINUOUS
 62
     5
 10
183.0
 20
-238.34695699999989
 30
0.0
 11
327.0
 21
-238.34695699999989
 31
0.0
  0
LINE
  5
173F
  8
DETAIL
  6
CONTINUOUS
 62
     5
 10
183.0
 20
-238.46497600000001
 30
0.0
 11
327.0
 21
-238.46497600000001
 31
0.0
  0
LINE
  5
1740
  8
DETAIL
  6
CONTINUOUS
 62
     5
 10
160.0
 20
-125.51551000000001
 30
0.0
 11
10.0
 21
-125.51551000000001
 31
0.0
  0
LINE
  5
1741
  8
DETAIL
  6
CONTINUOUS
 62
     5
 10
160.0
 20
-126.4794719999999
 30
0.0
 11
10.0
 21
-126.4794719999999
 31
0.0
  0
LINE
  5
1742
  8
DETAIL
  6
CONTINUOUS
 62
     5
 10
13.0
 20
-135.398225
 30
0.0
 11
157.0
 21
-135.398225
 31
0.0
  0
LINE
  5
1743
  8
DETAIL
  6
CONTINUOUS
 62
     5
 10
13.0
 20
-135.51624399999969
 30
0.0
 11
157.0
 21
-135.51624399999969
 31
0.0
  0
LINE
  5
1744
  8
DETAIL
  6
CONTINUOUS
 62
     5
 10
160.0
 20
-140.2224719999999
 30
0.0
 11
10.0
 21
-140.2224719999999
 31
0.0
  0
LINE
  5
1745
  8
DETAIL
  6
CONTINUOUS
 62
     5
 10
160.0
 20
-141.18643399999991
 30
0.0
 11
10.0
 21
-141.18643399999991
 31
0.0
  0
LINE
  5
1746
  8
DETAIL
  6
CONTINUOUS
 62
     5
 10
13.0
 20
-150.10518699999969
 30
0.0
 11
157.0
 21
-150.10518699999969
 31
0.0
  0
LINE
  5
1747
  8
DETAIL
  6
CONTINUOUS
 62
     5
 10
13.0
 20
-150.223206
 30
0.0
 11
157.0
 21
-150.223206
 31
0.0
  0
LINE
  5
1748
  8
DETAIL
  6
CONTINUOUS
 62
     5
 10
160.0
 20
-154.9294329999999
 30
0.0
 11
10.0
 21
-154.9294329999999
 31
0.0
  0
LINE
  5
1749
  8
DETAIL
  6
CONTINUOUS
 62
     5
 10
160.0
 20
-155.893396
 30
0.0
 11
10.0
 21
-155.893396
 31
0.0
  0
LINE
  5
174A
  8
DETAIL
  6
CONTINUOUS
 62
     5
 10
13.0
 20
-164.81214900000001
 30
0.0
 11
157.0
 21
-164.81214900000001
 31
0.0
  0
LINE
  5
174B
  8
DETAIL
  6
CONTINUOUS
 62
     5
 10
13.0
 20
-164.93016699999981
 30
0.0
 11
157.0
 21
-164.93016699999981
 31
0.0
  0
LINE
  5
174C
  8
DETAIL
  6
CONTINUOUS
 62
     5
 10
160.0
 20
-169.63639499999999
 30
0.0
 11
10.0
 21
-169.63639499999999
 31
0.0
  0
LINE
  5
174D
  8
DETAIL
  6
CONTINUOUS
 62
     5
 10
160.0
 20
-170.600357
 30
0.0
 11
10.0
 21
-170.600357
 31
0.0
  0
LINE
  5
174E
  8
DETAIL
  6
CONTINUOUS
 62
     5
 10
13.0
 20
-179.51911000000001
 30
0.0
 11
157.0
 21
-179.51911000000001
 31
0.0
  0
LINE
  5
174F
  8
DETAIL
  6
CONTINUOUS
 62
     5
 10
13.0
 20
-179.6371289999999
 30
0.0
 11
157.0
 21
-179.6371289999999
 31
0.0
  0
LINE
  5
1750
  8
DETAIL
  6
CONTINUOUS
 62
     5
 10
160.0
 20
-184.343357
 30
0.0
 11
10.0
 21
-184.343357
 31
0.0
  0
LINE
  5
1751
  8
DETAIL
  6
CONTINUOUS
 62
     5
 10
160.0
 20
-185.30731900000001
 30
0.0
 11
10.0
 21
-185.30731900000001
 31
0.0
  0
LINE
  5
1752
  8
DETAIL
  6
CONTINUOUS
 62
     5
 10
13.0
 20
-194.2260719999999
 30
0.0
 11
157.0
 21
-194.2260719999999
 31
0.0
  0
LINE
  5
1753
  8
DETAIL
  6
CONTINUOUS
 62
     5
 10
13.0
 20
-194.34409099999991
 30
0.0
 11
157.0
 21
-194.34409099999991
 31
0.0
  0
LINE
  5
1754
  8
DETAIL
  6
CONTINUOUS
 62
     5
 10
160.0
 20
-199.050319
 30
0.0
 11
10.0
 21
-199.050319
 31
0.0
  0
LINE
  5
1755
  8
DETAIL
  6
CONTINUOUS
 62
     5
 10
160.0
 20
-200.01428100000001
 30
0.0
 11
10.0
 21
-200.01428100000001
 31
0.0
  0
LINE
  5
1756
  8
DETAIL
  6
CONTINUOUS
 62
     5
 10
13.0
 20
-208.93303399999999
 30
0.0
 11
157.0
 21
-208.93303399999999
 31
0.0
  0
LINE
  5
1757
  8
DETAIL
  6
CONTINUOUS
 62
     5
 10
13.0
 20
-209.051052
 30
0.0
 11
157.0
 21
-209.051052
 31
0.0
  0
LINE
  5
1758
  8
DETAIL
  6
CONTINUOUS
 62
     5
 10
160.0
 20
-213.75728000000001
 30
0.0
 11
10.0
 21
-213.75728000000001
 31
0.0
  0
LINE
  5
1759
  8
DETAIL
  6
CONTINUOUS
 62
     5
 10
160.0
 20
-214.7212429999999
 30
0.0
 11
10.0
 21
-214.7212429999999
 31
0.0
  0
LINE
  5
175A
  8
DETAIL
  6
CONTINUOUS
 62
     5
 10
13.0
 20
-223.639995
 30
0.0
 11
157.0
 21
-223.639995
 31
0.0
  0
LINE
  5
175B
  8
DETAIL
  6
CONTINUOUS
 62
     5
 10
13.0
 20
-223.75801399999989
 30
0.0
 11
157.0
 21
-223.75801399999989
 31
0.0
  0
LINE
  5
175C
  8
DETAIL
  6
CONTINUOUS
 62
     5
 10
160.0
 20
-228.4642419999999
 30
0.0
 11
10.0
 21
-228.4642419999999
 31
0.0
  0
LINE
  5
175D
  8
DETAIL
  6
CONTINUOUS
 62
     5
 10
160.0
 20
-229.42820399999999
 30
0.0
 11
10.0
 21
-229.42820399999999
 31
0.0
  0
LINE
  5
175E
  8
DETAIL
  6
CONTINUOUS
 62
     5
 10
13.0
 20
-238.34695699999989
 30
0.0
 11
157.0
 21
-238.34695699999989
 31
0.0
  0
LINE
  5
175F
  8
DETAIL
  6
CONTINUOUS
 62
     5
 10
13.0
 20
-238.46497600000001
 30
0.0
 11
157.0
 21
-238.46497600000001
 31
0.0
  0
LINE
  5
1760
  8
DETAIL
  6
CONTINUOUS
 62
     5
 10
10.0
 20
-199.050319
 30
0.0
 11
10.0
 21
-206.10965999999991
 31
0.0
  0
LINE
  5
1761
  8
DETAIL
  6
CONTINUOUS
 62
     5
 10
-10.0
 20
-206.10965999999991
 30
0.0
 11
-10.0
 21
-199.050319
 31
0.0
  0
LINE
  5
1762
  8
DETAIL
  6
CONTINUOUS
 62
     5
 10
13.0
 20
-238.46497600000001
 30
0.0
 11
13.0
 21
-238.34695699999989
 31
0.0
  0
LINE
  5
1763
  8
DETAIL
  6
CONTINUOUS
 62
     5
 10
10.0
 20
-228.4642419999999
 30
0.0
 11
10.0
 21
-235.5235839999998
 31
0.0
  0
LINE
  5
1764
  8
DETAIL
  6
CONTINUOUS
 62
     5
 10
12.639609
 20
-238.3256559999999
 30
0.0
 11
13.0
 21
-238.34695699999989
 31
0.0
  0
LINE
  5
1765
  8
DETAIL
  6
CONTINUOUS
 62
     5
 10
12.282641000000011
 20
-238.2616279999998
 30
0.0
 11
12.639609
 21
-238.3256559999999
 31
0.0
  0
LINE
  5
1766
  8
DETAIL
  6
CONTINUOUS
 62
     5
 10
11.936997000000019
 20
-238.15611599999991
 30
0.0
 11
12.282641000000011
 21
-238.2616279999998
 31
0.0
  0
LINE
  5
1767
  8
DETAIL
  6
CONTINUOUS
 62
     5
 10
11.607349999999981
 20
-238.01082
 30
0.0
 11
11.936997000000019
 21
-238.15611599999991
 31
0.0
  0
LINE
  5
1768
  8
DETAIL
  6
CONTINUOUS
 62
     5
 10
11.29606799999998
 20
-237.82646099999999
 30
0.0
 11
11.607349999999981
 21
-238.01082
 31
0.0
  0
LINE
  5
1769
  8
DETAIL
  6
CONTINUOUS
 62
     5
 10
11.010226999999979
 20
-237.60687699999991
 30
0.0
 11
11.29606799999998
 21
-237.82646099999999
 31
0.0
  0
LINE
  5
176A
  8
DETAIL
  6
CONTINUOUS
 62
     5
 10
10.75492600000001
 20
-237.3565759999999
 30
0.0
 11
11.010226999999979
 21
-237.60687699999991
 31
0.0
  0
LINE
  5
176B
  8
DETAIL
  6
CONTINUOUS
 62
     5
 10
10.530924000000001
 20
-237.07628899999989
 30
0.0
 11
10.75492600000001
 21
-237.3565759999999
 31
0.0
  0
LINE
  5
176C
  8
DETAIL
  6
CONTINUOUS
 62
     5
 10
10.342884
 20
-236.7711009999999
 30
0.0
 11
10.530924000000001
 21
-237.07628899999989
 31
0.0
  0
LINE
  5
176D
  8
DETAIL
  6
CONTINUOUS
 62
     5
 10
10.19469800000001
 20
-236.4479419999999
 30
0.0
 11
10.342884
 21
-236.7711009999999
 31
0.0
  0
LINE
  5
176E
  8
DETAIL
  6
CONTINUOUS
 62
     5
 10
10.087049999999961
 20
-236.108991
 30
0.0
 11
10.19469800000001
 21
-236.4479419999999
 31
0.0
  0
LINE
  5
176F
  8
DETAIL
  6
CONTINUOUS
 62
     5
 10
10.02172599999999
 20
-235.75891999999999
 30
0.0
 11
10.087049999999961
 21
-236.108991
 31
0.0
  0
LINE
  5
1770
  8
DETAIL
  6
CONTINUOUS
 62
     5
 10
10.00722899999999
 20
-235.5231389999999
 30
0.0
 11
10.02172599999999
 21
-235.75891999999999
 31
0.0
  0
LINE
  5
1771
  8
DETAIL
  6
CONTINUOUS
 62
     5
 10
10.02172599999999
 20
-235.87693899999991
 30
0.0
 11
10.0
 21
-235.5235839999998
 31
0.0
  0
LINE
  5
1772
  8
DETAIL
  6
CONTINUOUS
 62
     5
 10
10.087049999999961
 20
-236.22700999999989
 30
0.0
 11
10.02172599999999
 21
-235.87693899999991
 31
0.0
  0
LINE
  5
1773
  8
DETAIL
  6
CONTINUOUS
 62
     5
 10
10.19469800000001
 20
-236.5659609999999
 30
0.0
 11
10.087049999999961
 21
-236.22700999999989
 31
0.0
  0
LINE
  5
1774
  8
DETAIL
  6
CONTINUOUS
 62
     5
 10
10.342884
 20
-236.88911999999991
 30
0.0
 11
10.19469800000001
 21
-236.5659609999999
 31
0.0
  0
LINE
  5
1775
  8
DETAIL
  6
CONTINUOUS
 62
     5
 10
10.530924000000001
 20
-237.19430800000001
 30
0.0
 11
10.342884
 21
-236.88911999999991
 31
0.0
  0
LINE
  5
1776
  8
DETAIL
  6
CONTINUOUS
 62
     5
 10
10.75492600000001
 20
-237.47459399999991
 30
0.0
 11
10.530924000000001
 21
-237.19430800000001
 31
0.0
  0
LINE
  5
1777
  8
DETAIL
  6
CONTINUOUS
 62
     5
 10
11.010226999999979
 20
-237.724896
 30
0.0
 11
10.75492600000001
 21
-237.47459399999991
 31
0.0
  0
LINE
  5
1778
  8
DETAIL
  6
CONTINUOUS
 62
     5
 10
11.29606799999998
 20
-237.94447999999991
 30
0.0
 11
11.010226999999979
 21
-237.724896
 31
0.0
  0
LINE
  5
1779
  8
DETAIL
  6
CONTINUOUS
 62
     5
 10
11.607349999999981
 20
-238.12883799999989
 30
0.0
 11
11.29606799999998
 21
-237.94447999999991
 31
0.0
  0
LINE
  5
177A
  8
DETAIL
  6
CONTINUOUS
 62
     5
 10
11.936997000000019
 20
-238.2741349999998
 30
0.0
 11
11.607349999999981
 21
-238.12883799999989
 31
0.0
  0
LINE
  5
177B
  8
DETAIL
  6
CONTINUOUS
 62
     5
 10
12.282641000000011
 20
-238.37964600000001
 30
0.0
 11
11.936997000000019
 21
-238.2741349999998
 31
0.0
  0
LINE
  5
177C
  8
DETAIL
  6
CONTINUOUS
 62
     5
 10
12.639609
 20
-238.44367500000001
 30
0.0
 11
12.282641000000011
 21
-238.37964600000001
 31
0.0
  0
LINE
  5
177D
  8
DETAIL
  6
CONTINUOUS
 62
     5
 10
13.0
 20
-238.46497600000001
 30
0.0
 11
12.639609
 21
-238.44367500000001
 31
0.0
  0
LINE
  5
177E
  8
DETAIL
  6
CONTINUOUS
 62
     5
 10
-11.29598700000002
 20
-237.944424
 30
0.0
 11
-11.607255999999991
 21
-238.1287899999999
 31
0.0
  0
LINE
  5
177F
  8
DETAIL
  6
CONTINUOUS
 62
     5
 10
-11.010114999999979
 20
-237.72479799999991
 30
0.0
 11
-11.29598700000002
 21
-237.944424
 31
0.0
  0
LINE
  5
1780
  8
DETAIL
  6
CONTINUOUS
 62
     5
 10
-10.75482599999996
 20
-237.4744839999999
 30
0.0
 11
-11.010114999999979
 21
-237.72479799999991
 31
0.0
  0
LINE
  5
1781
  8
DETAIL
  6
CONTINUOUS
 62
     5
 10
-10.530867000000001
 20
-237.19422700000001
 30
0.0
 11
-10.75482599999996
 21
-237.4744839999999
 31
0.0
  0
LINE
  5
1782
  8
DETAIL
  6
CONTINUOUS
 62
     5
 10
-10.342834999999971
 20
-236.889027
 30
0.0
 11
-10.530867000000001
 21
-237.19422700000001
 31
0.0
  0
LINE
  5
1783
  8
DETAIL
  6
CONTINUOUS
 62
     5
 10
-10.194643999999981
 20
-236.56581999999989
 30
0.0
 11
-10.342834999999971
 21
-236.889027
 31
0.0
  0
LINE
  5
1784
  8
DETAIL
  6
CONTINUOUS
 62
     5
 10
-10.08703000000002
 20
-236.22692799999999
 30
0.0
 11
-10.194643999999981
 21
-236.56581999999989
 31
0.0
  0
LINE
  5
1785
  8
DETAIL
  6
CONTINUOUS
 62
     5
 10
-10.02172599999999
 20
-235.87693400000001
 30
0.0
 11
-10.08703000000002
 21
-236.22692799999999
 31
0.0
  0
LINE
  5
1786
  8
DETAIL
  6
CONTINUOUS
 62
     5
 10
-10.0
 20
-235.5235839999998
 30
0.0
 11
-10.02172599999999
 21
-235.87693400000001
 31
0.0
  0
LINE
  5
1787
  8
DETAIL
  6
CONTINUOUS
 62
     5
 10
-10.0
 20
-235.5235839999998
 30
0.0
 11
-10.0
 21
-228.4642419999999
 31
0.0
  0
LINE
  5
1788
  8
DETAIL
  6
CONTINUOUS
 62
     5
 10
-10.02172599999999
 20
-235.75891499999989
 30
0.0
 11
-10.00722899999999
 21
-235.5231389999999
 31
0.0
  0
LINE
  5
1789
  8
DETAIL
  6
CONTINUOUS
 62
     5
 10
-10.08703000000002
 20
-236.10891000000001
 30
0.0
 11
-10.02172599999999
 21
-235.75891499999989
 31
0.0
  0
LINE
  5
178A
  8
DETAIL
  6
CONTINUOUS
 62
     5
 10
-10.194643999999981
 20
-236.44780099999991
 30
0.0
 11
-10.08703000000002
 21
-236.10891000000001
 31
0.0
  0
LINE
  5
178B
  8
DETAIL
  6
CONTINUOUS
 62
     5
 10
-10.342834999999971
 20
-236.77100799999999
 30
0.0
 11
-10.194643999999981
 21
-236.44780099999991
 31
0.0
  0
LINE
  5
178C
  8
DETAIL
  6
CONTINUOUS
 62
     5
 10
-10.530867000000001
 20
-237.07620799999989
 30
0.0
 11
-10.342834999999971
 21
-236.77100799999999
 31
0.0
  0
LINE
  5
178D
  8
DETAIL
  6
CONTINUOUS
 62
     5
 10
-10.75482599999996
 20
-237.35646499999999
 30
0.0
 11
-10.530867000000001
 21
-237.07620799999989
 31
0.0
  0
LINE
  5
178E
  8
DETAIL
  6
CONTINUOUS
 62
     5
 10
-11.010114999999979
 20
-237.60677899999999
 30
0.0
 11
-10.75482599999996
 21
-237.35646499999999
 31
0.0
  0
LINE
  5
178F
  8
DETAIL
  6
CONTINUOUS
 62
     5
 10
-11.29598700000002
 20
-237.82640599999991
 30
0.0
 11
-11.010114999999979
 21
-237.60677899999999
 31
0.0
  0
LINE
  5
1790
  8
DETAIL
  6
CONTINUOUS
 62
     5
 10
-11.607255999999991
 20
-238.01077100000001
 30
0.0
 11
-11.29598700000002
 21
-237.82640599999991
 31
0.0
  0
LINE
  5
1791
  8
DETAIL
  6
CONTINUOUS
 62
     5
 10
13.0
 20
-209.051052
 30
0.0
 11
13.0
 21
-208.93303399999999
 31
0.0
  0
LINE
  5
1792
  8
DETAIL
  6
CONTINUOUS
 62
     5
 10
13.0
 20
-223.75801399999989
 30
0.0
 11
13.0
 21
-223.639995
 31
0.0
  0
LINE
  5
1793
  8
DETAIL
  6
CONTINUOUS
 62
     5
 10
10.0
 20
-213.75728000000001
 30
0.0
 11
10.0
 21
-220.8166219999998
 31
0.0
  0
LINE
  5
1794
  8
DETAIL
  6
CONTINUOUS
 62
     5
 10
12.639609
 20
-208.911732
 30
0.0
 11
13.0
 21
-208.93303399999999
 31
0.0
  0
LINE
  5
1795
  8
DETAIL
  6
CONTINUOUS
 62
     5
 10
12.282641000000011
 20
-208.84770399999991
 30
0.0
 11
12.639609
 21
-208.911732
 31
0.0
  0
LINE
  5
1796
  8
DETAIL
  6
CONTINUOUS
 62
     5
 10
11.936997000000019
 20
-208.74219299999999
 30
0.0
 11
12.282641000000011
 21
-208.84770399999991
 31
0.0
  0
LINE
  5
1797
  8
DETAIL
  6
CONTINUOUS
 62
     5
 10
11.607349999999981
 20
-208.5968959999999
 30
0.0
 11
11.936997000000019
 21
-208.74219299999999
 31
0.0
  0
LINE
  5
1798
  8
DETAIL
  6
CONTINUOUS
 62
     5
 10
11.29606799999998
 20
-208.4125379999999
 30
0.0
 11
11.607349999999981
 21
-208.5968959999999
 31
0.0
  0
LINE
  5
1799
  8
DETAIL
  6
CONTINUOUS
 62
     5
 10
11.010226999999979
 20
-208.1929539999999
 30
0.0
 11
11.29606799999998
 21
-208.4125379999999
 31
0.0
  0
LINE
  5
179A
  8
DETAIL
  6
CONTINUOUS
 62
     5
 10
10.75492600000001
 20
-207.94265200000001
 30
0.0
 11
11.010226999999979
 21
-208.1929539999999
 31
0.0
  0
LINE
  5
179B
  8
DETAIL
  6
CONTINUOUS
 62
     5
 10
10.530924000000001
 20
-207.66236499999999
 30
0.0
 11
10.75492600000001
 21
-207.94265200000001
 31
0.0
  0
LINE
  5
179C
  8
DETAIL
  6
CONTINUOUS
 62
     5
 10
10.342884
 20
-207.35717700000001
 30
0.0
 11
10.530924000000001
 21
-207.66236499999999
 31
0.0
  0
LINE
  5
179D
  8
DETAIL
  6
CONTINUOUS
 62
     5
 10
10.19469800000001
 20
-207.034019
 30
0.0
 11
10.342884
 21
-207.35717700000001
 31
0.0
  0
LINE
  5
179E
  8
DETAIL
  6
CONTINUOUS
 62
     5
 10
10.087049999999961
 20
-206.69506799999999
 30
0.0
 11
10.19469800000001
 21
-207.034019
 31
0.0
  0
LINE
  5
179F
  8
DETAIL
  6
CONTINUOUS
 62
     5
 10
10.02172599999999
 20
-206.34499700000001
 30
0.0
 11
10.087049999999961
 21
-206.69506799999999
 31
0.0
  0
LINE
  5
17A0
  8
DETAIL
  6
CONTINUOUS
 62
     5
 10
10.00722899999999
 20
-206.109216
 30
0.0
 11
10.02172599999999
 21
-206.34499700000001
 31
0.0
  0
LINE
  5
17A1
  8
DETAIL
  6
CONTINUOUS
 62
     5
 10
12.639609
 20
-223.618694
 30
0.0
 11
13.0
 21
-223.639995
 31
0.0
  0
LINE
  5
17A2
  8
DETAIL
  6
CONTINUOUS
 62
     5
 10
12.282641000000011
 20
-223.554666
 30
0.0
 11
12.639609
 21
-223.618694
 31
0.0
  0
LINE
  5
17A3
  8
DETAIL
  6
CONTINUOUS
 62
     5
 10
11.936997000000019
 20
-223.44915399999999
 30
0.0
 11
12.282641000000011
 21
-223.554666
 31
0.0
  0
LINE
  5
17A4
  8
DETAIL
  6
CONTINUOUS
 62
     5
 10
11.607349999999981
 20
-223.30385799999999
 30
0.0
 11
11.936997000000019
 21
-223.44915399999999
 31
0.0
  0
LINE
  5
17A5
  8
DETAIL
  6
CONTINUOUS
 62
     5
 10
11.29606799999998
 20
-223.11949899999999
 30
0.0
 11
11.607349999999981
 21
-223.30385799999999
 31
0.0
  0
LINE
  5
17A6
  8
DETAIL
  6
CONTINUOUS
 62
     5
 10
11.010226999999979
 20
-222.89991499999991
 30
0.0
 11
11.29606799999998
 21
-223.11949899999999
 31
0.0
  0
LINE
  5
17A7
  8
DETAIL
  6
CONTINUOUS
 62
     5
 10
10.75492600000001
 20
-222.64961400000001
 30
0.0
 11
11.010226999999979
 21
-222.89991499999991
 31
0.0
  0
LINE
  5
17A8
  8
DETAIL
  6
CONTINUOUS
 62
     5
 10
10.530924000000001
 20
-222.369327
 30
0.0
 11
10.75492600000001
 21
-222.64961400000001
 31
0.0
  0
LINE
  5
17A9
  8
DETAIL
  6
CONTINUOUS
 62
     5
 10
10.342884
 20
-222.0641389999999
 30
0.0
 11
10.530924000000001
 21
-222.369327
 31
0.0
  0
LINE
  5
17AA
  8
DETAIL
  6
CONTINUOUS
 62
     5
 10
10.19469800000001
 20
-221.74097999999989
 30
0.0
 11
10.342884
 21
-222.0641389999999
 31
0.0
  0
LINE
  5
17AB
  8
DETAIL
  6
CONTINUOUS
 62
     5
 10
10.087049999999961
 20
-221.40202999999991
 30
0.0
 11
10.19469800000001
 21
-221.74097999999989
 31
0.0
  0
LINE
  5
17AC
  8
DETAIL
  6
CONTINUOUS
 62
     5
 10
10.02172599999999
 20
-221.05195800000001
 30
0.0
 11
10.087049999999961
 21
-221.40202999999991
 31
0.0
  0
LINE
  5
17AD
  8
DETAIL
  6
CONTINUOUS
 62
     5
 10
10.00722899999999
 20
-220.81617700000001
 30
0.0
 11
10.02172599999999
 21
-221.05195800000001
 31
0.0
  0
LINE
  5
17AE
  8
DETAIL
  6
CONTINUOUS
 62
     5
 10
10.02172599999999
 20
-206.4630149999999
 30
0.0
 11
10.0
 21
-206.10965999999991
 31
0.0
  0
LINE
  5
17AF
  8
DETAIL
  6
CONTINUOUS
 62
     5
 10
10.087049999999961
 20
-206.813087
 30
0.0
 11
10.02172599999999
 21
-206.4630149999999
 31
0.0
  0
LINE
  5
17B0
  8
DETAIL
  6
CONTINUOUS
 62
     5
 10
10.19469800000001
 20
-207.15203699999989
 30
0.0
 11
10.087049999999961
 21
-206.813087
 31
0.0
  0
LINE
  5
17B1
  8
DETAIL
  6
CONTINUOUS
 62
     5
 10
10.342884
 20
-207.4751959999999
 30
0.0
 11
10.19469800000001
 21
-207.15203699999989
 31
0.0
  0
LINE
  5
17B2
  8
DETAIL
  6
CONTINUOUS
 62
     5
 10
10.530924000000001
 20
-207.780384
 30
0.0
 11
10.342884
 21
-207.4751959999999
 31
0.0
  0
LINE
  5
17B3
  8
DETAIL
  6
CONTINUOUS
 62
     5
 10
10.75492600000001
 20
-208.06067100000001
 30
0.0
 11
10.530924000000001
 21
-207.780384
 31
0.0
  0
LINE
  5
17B4
  8
DETAIL
  6
CONTINUOUS
 62
     5
 10
11.010226999999979
 20
-208.31097199999991
 30
0.0
 11
10.75492600000001
 21
-208.06067100000001
 31
0.0
  0
LINE
  5
17B5
  8
DETAIL
  6
CONTINUOUS
 62
     5
 10
11.29606799999998
 20
-208.53055599999999
 30
0.0
 11
11.010226999999979
 21
-208.31097199999991
 31
0.0
  0
LINE
  5
17B6
  8
DETAIL
  6
CONTINUOUS
 62
     5
 10
11.607349999999981
 20
-208.71491499999999
 30
0.0
 11
11.29606799999998
 21
-208.53055599999999
 31
0.0
  0
LINE
  5
17B7
  8
DETAIL
  6
CONTINUOUS
 62
     5
 10
11.936997000000019
 20
-208.86021099999999
 30
0.0
 11
11.607349999999981
 21
-208.71491499999999
 31
0.0
  0
LINE
  5
17B8
  8
DETAIL
  6
CONTINUOUS
 62
     5
 10
12.282641000000011
 20
-208.96572299999991
 30
0.0
 11
11.936997000000019
 21
-208.86021099999999
 31
0.0
  0
LINE
  5
17B9
  8
DETAIL
  6
CONTINUOUS
 62
     5
 10
12.639609
 20
-209.029751
 30
0.0
 11
12.282641000000011
 21
-208.96572299999991
 31
0.0
  0
LINE
  5
17BA
  8
DETAIL
  6
CONTINUOUS
 62
     5
 10
13.0
 20
-209.051052
 30
0.0
 11
12.639609
 21
-209.029751
 31
0.0
  0
LINE
  5
17BB
  8
DETAIL
  6
CONTINUOUS
 62
     5
 10
10.02172599999999
 20
-221.16997699999999
 30
0.0
 11
10.0
 21
-220.8166219999998
 31
0.0
  0
LINE
  5
17BC
  8
DETAIL
  6
CONTINUOUS
 62
     5
 10
10.087049999999961
 20
-221.520048
 30
0.0
 11
10.02172599999999
 21
-221.16997699999999
 31
0.0
  0
LINE
  5
17BD
  8
DETAIL
  6
CONTINUOUS
 62
     5
 10
10.19469800000001
 20
-221.85899900000001
 30
0.0
 11
10.087049999999961
 21
-221.520048
 31
0.0
  0
LINE
  5
17BE
  8
DETAIL
  6
CONTINUOUS
 62
     5
 10
10.342884
 20
-222.1821579999999
 30
0.0
 11
10.19469800000001
 21
-221.85899900000001
 31
0.0
  0
LINE
  5
17BF
  8
DETAIL
  6
CONTINUOUS
 62
     5
 10
10.530924000000001
 20
-222.48734599999989
 30
0.0
 11
10.342884
 21
-222.1821579999999
 31
0.0
  0
LINE
  5
17C0
  8
DETAIL
  6
CONTINUOUS
 62
     5
 10
10.75492600000001
 20
-222.7676329999999
 30
0.0
 11
10.530924000000001
 21
-222.48734599999989
 31
0.0
  0
LINE
  5
17C1
  8
DETAIL
  6
CONTINUOUS
 62
     5
 10
11.010226999999979
 20
-223.0179339999998
 30
0.0
 11
10.75492600000001
 21
-222.7676329999999
 31
0.0
  0
LINE
  5
17C2
  8
DETAIL
  6
CONTINUOUS
 62
     5
 10
11.29606799999998
 20
-223.23751799999999
 30
0.0
 11
11.010226999999979
 21
-223.0179339999998
 31
0.0
  0
LINE
  5
17C3
  8
DETAIL
  6
CONTINUOUS
 62
     5
 10
11.607349999999981
 20
-223.42187699999999
 30
0.0
 11
11.29606799999998
 21
-223.23751799999999
 31
0.0
  0
LINE
  5
17C4
  8
DETAIL
  6
CONTINUOUS
 62
     5
 10
11.936997000000019
 20
-223.56717299999991
 30
0.0
 11
11.607349999999981
 21
-223.42187699999999
 31
0.0
  0
LINE
  5
17C5
  8
DETAIL
  6
CONTINUOUS
 62
     5
 10
12.282641000000011
 20
-223.672685
 30
0.0
 11
11.936997000000019
 21
-223.56717299999991
 31
0.0
  0
LINE
  5
17C6
  8
DETAIL
  6
CONTINUOUS
 62
     5
 10
12.639609
 20
-223.7367129999999
 30
0.0
 11
12.282641000000011
 21
-223.672685
 31
0.0
  0
LINE
  5
17C7
  8
DETAIL
  6
CONTINUOUS
 62
     5
 10
13.0
 20
-223.75801399999989
 30
0.0
 11
12.639609
 21
-223.7367129999999
 31
0.0
  0
LINE
  5
17C8
  8
DETAIL
  6
CONTINUOUS
 62
     5
 10
-11.29598700000002
 20
-223.23746299999991
 30
0.0
 11
-11.607255999999991
 21
-223.42182799999989
 31
0.0
  0
LINE
  5
17C9
  8
DETAIL
  6
CONTINUOUS
 62
     5
 10
-11.010114999999979
 20
-223.01783599999999
 30
0.0
 11
-11.29598700000002
 21
-223.23746299999991
 31
0.0
  0
LINE
  5
17CA
  8
DETAIL
  6
CONTINUOUS
 62
     5
 10
-10.75482599999996
 20
-222.76752300000001
 30
0.0
 11
-11.010114999999979
 21
-223.01783599999999
 31
0.0
  0
LINE
  5
17CB
  8
DETAIL
  6
CONTINUOUS
 62
     5
 10
-10.530867000000001
 20
-222.48726599999989
 30
0.0
 11
-10.75482599999996
 21
-222.76752300000001
 31
0.0
  0
LINE
  5
17CC
  8
DETAIL
  6
CONTINUOUS
 62
     5
 10
-10.342834999999971
 20
-222.18206499999999
 30
0.0
 11
-10.530867000000001
 21
-222.48726599999989
 31
0.0
  0
LINE
  5
17CD
  8
DETAIL
  6
CONTINUOUS
 62
     5
 10
-10.194643999999981
 20
-221.858858
 30
0.0
 11
-10.342834999999971
 21
-222.18206499999999
 31
0.0
  0
LINE
  5
17CE
  8
DETAIL
  6
CONTINUOUS
 62
     5
 10
-10.08703000000002
 20
-221.51996700000001
 30
0.0
 11
-10.194643999999981
 21
-221.858858
 31
0.0
  0
LINE
  5
17CF
  8
DETAIL
  6
CONTINUOUS
 62
     5
 10
-10.02172599999999
 20
-221.16997199999989
 30
0.0
 11
-10.08703000000002
 21
-221.51996700000001
 31
0.0
  0
LINE
  5
17D0
  8
DETAIL
  6
CONTINUOUS
 62
     5
 10
-10.0
 20
-220.8166219999998
 30
0.0
 11
-10.02172599999999
 21
-221.16997199999989
 31
0.0
  0
LINE
  5
17D1
  8
DETAIL
  6
CONTINUOUS
 62
     5
 10
-11.29598700000002
 20
-208.5305009999999
 30
0.0
 11
-11.607255999999991
 21
-208.71486699999991
 31
0.0
  0
LINE
  5
17D2
  8
DETAIL
  6
CONTINUOUS
 62
     5
 10
-11.010114999999979
 20
-208.31087500000001
 30
0.0
 11
-11.29598700000002
 21
-208.5305009999999
 31
0.0
  0
LINE
  5
17D3
  8
DETAIL
  6
CONTINUOUS
 62
     5
 10
-10.75482599999996
 20
-208.06056100000001
 30
0.0
 11
-11.010114999999979
 21
-208.31087500000001
 31
0.0
  0
LINE
  5
17D4
  8
DETAIL
  6
CONTINUOUS
 62
     5
 10
-10.530867000000001
 20
-207.780304
 30
0.0
 11
-10.75482599999996
 21
-208.06056100000001
 31
0.0
  0
LINE
  5
17D5
  8
DETAIL
  6
CONTINUOUS
 62
     5
 10
-10.342834999999971
 20
-207.4751039999999
 30
0.0
 11
-10.530867000000001
 21
-207.780304
 31
0.0
  0
LINE
  5
17D6
  8
DETAIL
  6
CONTINUOUS
 62
     5
 10
-10.194643999999981
 20
-207.15189699999999
 30
0.0
 11
-10.342834999999971
 21
-207.4751039999999
 31
0.0
  0
LINE
  5
17D7
  8
DETAIL
  6
CONTINUOUS
 62
     5
 10
-10.08703000000002
 20
-206.813005
 30
0.0
 11
-10.194643999999981
 21
-207.15189699999999
 31
0.0
  0
LINE
  5
17D8
  8
DETAIL
  6
CONTINUOUS
 62
     5
 10
-10.02172599999999
 20
-206.46301099999991
 30
0.0
 11
-10.08703000000002
 21
-206.813005
 31
0.0
  0
LINE
  5
17D9
  8
DETAIL
  6
CONTINUOUS
 62
     5
 10
-10.0
 20
-206.10965999999991
 30
0.0
 11
-10.02172599999999
 21
-206.46301099999991
 31
0.0
  0
LINE
  5
17DA
  8
DETAIL
  6
CONTINUOUS
 62
     5
 10
-10.0
 20
-220.8166219999998
 30
0.0
 11
-10.0
 21
-213.75728000000001
 31
0.0
  0
LINE
  5
17DB
  8
DETAIL
  6
CONTINUOUS
 62
     5
 10
-10.02172599999999
 20
-206.34499199999999
 30
0.0
 11
-10.00722899999999
 21
-206.109216
 31
0.0
  0
LINE
  5
17DC
  8
DETAIL
  6
CONTINUOUS
 62
     5
 10
-10.08703000000002
 20
-206.694986
 30
0.0
 11
-10.02172599999999
 21
-206.34499199999999
 31
0.0
  0
LINE
  5
17DD
  8
DETAIL
  6
CONTINUOUS
 62
     5
 10
-10.194643999999981
 20
-207.0338779999999
 30
0.0
 11
-10.08703000000002
 21
-206.694986
 31
0.0
  0
LINE
  5
17DE
  8
DETAIL
  6
CONTINUOUS
 62
     5
 10
-10.342834999999971
 20
-207.35708500000001
 30
0.0
 11
-10.194643999999981
 21
-207.0338779999999
 31
0.0
  0
LINE
  5
17DF
  8
DETAIL
  6
CONTINUOUS
 62
     5
 10
-10.530867000000001
 20
-207.662285
 30
0.0
 11
-10.342834999999971
 21
-207.35708500000001
 31
0.0
  0
LINE
  5
17E0
  8
DETAIL
  6
CONTINUOUS
 62
     5
 10
-10.75482599999996
 20
-207.942542
 30
0.0
 11
-10.530867000000001
 21
-207.662285
 31
0.0
  0
LINE
  5
17E1
  8
DETAIL
  6
CONTINUOUS
 62
     5
 10
-11.010114999999979
 20
-208.19285600000001
 30
0.0
 11
-10.75482599999996
 21
-207.942542
 31
0.0
  0
LINE
  5
17E2
  8
DETAIL
  6
CONTINUOUS
 62
     5
 10
-11.29598700000002
 20
-208.4124819999999
 30
0.0
 11
-11.010114999999979
 21
-208.19285600000001
 31
0.0
  0
LINE
  5
17E3
  8
DETAIL
  6
CONTINUOUS
 62
     5
 10
-11.607255999999991
 20
-208.59684799999999
 30
0.0
 11
-11.29598700000002
 21
-208.4124819999999
 31
0.0
  0
LINE
  5
17E4
  8
DETAIL
  6
CONTINUOUS
 62
     5
 10
-10.02172599999999
 20
-221.05195299999991
 30
0.0
 11
-10.00722899999999
 21
-220.81617700000001
 31
0.0
  0
LINE
  5
17E5
  8
DETAIL
  6
CONTINUOUS
 62
     5
 10
-10.08703000000002
 20
-221.401948
 30
0.0
 11
-10.02172599999999
 21
-221.05195299999991
 31
0.0
  0
LINE
  5
17E6
  8
DETAIL
  6
CONTINUOUS
 62
     5
 10
-10.194643999999981
 20
-221.74083899999999
 30
0.0
 11
-10.08703000000002
 21
-221.401948
 31
0.0
  0
LINE
  5
17E7
  8
DETAIL
  6
CONTINUOUS
 62
     5
 10
-10.342834999999971
 20
-222.0640469999999
 30
0.0
 11
-10.194643999999981
 21
-221.74083899999999
 31
0.0
  0
LINE
  5
17E8
  8
DETAIL
  6
CONTINUOUS
 62
     5
 10
-10.530867000000001
 20
-222.369247
 30
0.0
 11
-10.342834999999971
 21
-222.0640469999999
 31
0.0
  0
LINE
  5
17E9
  8
DETAIL
  6
CONTINUOUS
 62
     5
 10
-10.75482599999996
 20
-222.64950400000001
 30
0.0
 11
-10.530867000000001
 21
-222.369247
 31
0.0
  0
LINE
  5
17EA
  8
DETAIL
  6
CONTINUOUS
 62
     5
 10
-11.010114999999979
 20
-222.89981800000001
 30
0.0
 11
-10.75482599999996
 21
-222.64950400000001
 31
0.0
  0
LINE
  5
17EB
  8
DETAIL
  6
CONTINUOUS
 62
     5
 10
-11.29598700000002
 20
-223.1194439999999
 30
0.0
 11
-11.010114999999979
 21
-222.89981800000001
 31
0.0
  0
LINE
  5
17EC
  8
DETAIL
  6
CONTINUOUS
 62
     5
 10
-11.607255999999991
 20
-223.30380899999989
 30
0.0
 11
-11.29598700000002
 21
-223.1194439999999
 31
0.0
  0
LINE
  5
17ED
  8
DETAIL
  6
CONTINUOUS
 62
     5
 10
10.0
 20
-140.2224719999999
 30
0.0
 11
10.0
 21
-147.281813
 31
0.0
  0
LINE
  5
17EE
  8
DETAIL
  6
CONTINUOUS
 62
     5
 10
-10.0
 20
-147.281813
 30
0.0
 11
-10.0
 21
-140.2224719999999
 31
0.0
  0
LINE
  5
17EF
  8
DETAIL
  6
CONTINUOUS
 62
     5
 10
13.0
 20
-150.223206
 30
0.0
 11
13.0
 21
-150.10518699999969
 31
0.0
  0
LINE
  5
17F0
  8
DETAIL
  6
CONTINUOUS
 62
     5
 10
13.0
 20
-164.93016699999981
 30
0.0
 11
13.0
 21
-164.81214900000001
 31
0.0
  0
LINE
  5
17F1
  8
DETAIL
  6
CONTINUOUS
 62
     5
 10
13.0
 20
-179.6371289999999
 30
0.0
 11
13.0
 21
-179.51911000000001
 31
0.0
  0
LINE
  5
17F2
  8
DETAIL
  6
CONTINUOUS
 62
     5
 10
13.0
 20
-194.34409099999991
 30
0.0
 11
13.0
 21
-194.2260719999999
 31
0.0
  0
LINE
  5
17F3
  8
DETAIL
  6
CONTINUOUS
 62
     5
 10
10.0
 20
-184.343357
 30
0.0
 11
10.0
 21
-191.4026979999999
 31
0.0
  0
LINE
  5
17F4
  8
DETAIL
  6
CONTINUOUS
 62
     5
 10
10.0
 20
-169.63639499999999
 30
0.0
 11
10.0
 21
-176.69573700000001
 31
0.0
  0
LINE
  5
17F5
  8
DETAIL
  6
CONTINUOUS
 62
     5
 10
10.0
 20
-154.9294329999999
 30
0.0
 11
10.0
 21
-161.988775
 31
0.0
  0
LINE
  5
17F6
  8
DETAIL
  6
CONTINUOUS
 62
     5
 10
12.639609
 20
-150.08388599999981
 30
0.0
 11
13.0
 21
-150.10518699999969
 31
0.0
  0
LINE
  5
17F7
  8
DETAIL
  6
CONTINUOUS
 62
     5
 10
12.282641000000011
 20
-150.019857
 30
0.0
 11
12.639609
 21
-150.08388599999981
 31
0.0
  0
LINE
  5
17F8
  8
DETAIL
  6
CONTINUOUS
 62
     5
 10
11.936997000000019
 20
-149.91434599999991
 30
0.0
 11
12.282641000000011
 21
-150.019857
 31
0.0
  0
LINE
  5
17F9
  8
DETAIL
  6
CONTINUOUS
 62
     5
 10
11.607349999999981
 20
-149.769049
 30
0.0
 11
11.936997000000019
 21
-149.91434599999991
 31
0.0
  0
LINE
  5
17FA
  8
DETAIL
  6
CONTINUOUS
 62
     5
 10
11.29606799999998
 20
-149.58469099999999
 30
0.0
 11
11.607349999999981
 21
-149.769049
 31
0.0
  0
LINE
  5
17FB
  8
DETAIL
  6
CONTINUOUS
 62
     5
 10
11.010226999999979
 20
-149.36510699999999
 30
0.0
 11
11.29606799999998
 21
-149.58469099999999
 31
0.0
  0
LINE
  5
17FC
  8
DETAIL
  6
CONTINUOUS
 62
     5
 10
10.75492600000001
 20
-149.1148049999999
 30
0.0
 11
11.010226999999979
 21
-149.36510699999999
 31
0.0
  0
LINE
  5
17FD
  8
DETAIL
  6
CONTINUOUS
 62
     5
 10
10.530924000000001
 20
-148.83451899999969
 30
0.0
 11
10.75492600000001
 21
-149.1148049999999
 31
0.0
  0
LINE
  5
17FE
  8
DETAIL
  6
CONTINUOUS
 62
     5
 10
10.342884
 20
-148.5293299999999
 30
0.0
 11
10.530924000000001
 21
-148.83451899999969
 31
0.0
  0
LINE
  5
17FF
  8
DETAIL
  6
CONTINUOUS
 62
     5
 10
10.19469800000001
 20
-148.2061719999999
 30
0.0
 11
10.342884
 21
-148.5293299999999
 31
0.0
  0
LINE
  5
1800
  8
DETAIL
  6
CONTINUOUS
 62
     5
 10
10.087049999999961
 20
-147.867221
 30
0.0
 11
10.19469800000001
 21
-148.2061719999999
 31
0.0
  0
LINE
  5
1801
  8
DETAIL
  6
CONTINUOUS
 62
     5
 10
10.02172599999999
 20
-147.5171499999999
 30
0.0
 11
10.087049999999961
 21
-147.867221
 31
0.0
  0
LINE
  5
1802
  8
DETAIL
  6
CONTINUOUS
 62
     5
 10
10.00722899999999
 20
-147.2813689999999
 30
0.0
 11
10.02172599999999
 21
-147.5171499999999
 31
0.0
  0
LINE
  5
1803
  8
DETAIL
  6
CONTINUOUS
 62
     5
 10
12.639609
 20
-164.7908469999999
 30
0.0
 11
13.0
 21
-164.81214900000001
 31
0.0
  0
LINE
  5
1804
  8
DETAIL
  6
CONTINUOUS
 62
     5
 10
12.282641000000011
 20
-164.72681899999981
 30
0.0
 11
12.639609
 21
-164.7908469999999
 31
0.0
  0
LINE
  5
1805
  8
DETAIL
  6
CONTINUOUS
 62
     5
 10
11.936997000000019
 20
-164.6213069999998
 30
0.0
 11
12.282641000000011
 21
-164.72681899999981
 31
0.0
  0
LINE
  5
1806
  8
DETAIL
  6
CONTINUOUS
 62
     5
 10
11.607349999999981
 20
-164.4760109999998
 30
0.0
 11
11.936997000000019
 21
-164.6213069999998
 31
0.0
  0
LINE
  5
1807
  8
DETAIL
  6
CONTINUOUS
 62
     5
 10
11.29606799999998
 20
-164.29165199999991
 30
0.0
 11
11.607349999999981
 21
-164.4760109999998
 31
0.0
  0
LINE
  5
1808
  8
DETAIL
  6
CONTINUOUS
 62
     5
 10
11.010226999999979
 20
-164.072068
 30
0.0
 11
11.29606799999998
 21
-164.29165199999991
 31
0.0
  0
LINE
  5
1809
  8
DETAIL
  6
CONTINUOUS
 62
     5
 10
10.75492600000001
 20
-163.82176699999991
 30
0.0
 11
11.010226999999979
 21
-164.072068
 31
0.0
  0
LINE
  5
180A
  8
DETAIL
  6
CONTINUOUS
 62
     5
 10
10.530924000000001
 20
-163.54148000000001
 30
0.0
 11
10.75492600000001
 21
-163.82176699999991
 31
0.0
  0
LINE
  5
180B
  8
DETAIL
  6
CONTINUOUS
 62
     5
 10
10.342884
 20
-163.23629199999999
 30
0.0
 11
10.530924000000001
 21
-163.54148000000001
 31
0.0
  0
LINE
  5
180C
  8
DETAIL
  6
CONTINUOUS
 62
     5
 10
10.19469800000001
 20
-162.91313400000001
 30
0.0
 11
10.342884
 21
-163.23629199999999
 31
0.0
  0
LINE
  5
180D
  8
DETAIL
  6
CONTINUOUS
 62
     5
 10
10.087049999999961
 20
-162.574183
 30
0.0
 11
10.19469800000001
 21
-162.91313400000001
 31
0.0
  0
LINE
  5
180E
  8
DETAIL
  6
CONTINUOUS
 62
     5
 10
10.02172599999999
 20
-162.22411199999991
 30
0.0
 11
10.087049999999961
 21
-162.574183
 31
0.0
  0
LINE
  5
180F
  8
DETAIL
  6
CONTINUOUS
 62
     5
 10
10.00722899999999
 20
-161.98833099999979
 30
0.0
 11
10.02172599999999
 21
-162.22411199999991
 31
0.0
  0
LINE
  5
1810
  8
DETAIL
  6
CONTINUOUS
 62
     5
 10
12.639609
 20
-179.4978089999999
 30
0.0
 11
13.0
 21
-179.51911000000001
 31
0.0
  0
LINE
  5
1811
  8
DETAIL
  6
CONTINUOUS
 62
     5
 10
12.282641000000011
 20
-179.43378100000001
 30
0.0
 11
12.639609
 21
-179.4978089999999
 31
0.0
  0
LINE
  5
1812
  8
DETAIL
  6
CONTINUOUS
 62
     5
 10
11.936997000000019
 20
-179.32826900000001
 30
0.0
 11
12.282641000000011
 21
-179.43378100000001
 31
0.0
  0
LINE
  5
1813
  8
DETAIL
  6
CONTINUOUS
 62
     5
 10
11.607349999999981
 20
-179.182973
 30
0.0
 11
11.936997000000019
 21
-179.32826900000001
 31
0.0
  0
LINE
  5
1814
  8
DETAIL
  6
CONTINUOUS
 62
     5
 10
11.29606799999998
 20
-178.998614
 30
0.0
 11
11.607349999999981
 21
-179.182973
 31
0.0
  0
LINE
  5
1815
  8
DETAIL
  6
CONTINUOUS
 62
     5
 10
11.010226999999979
 20
-178.77903000000001
 30
0.0
 11
11.29606799999998
 21
-178.998614
 31
0.0
  0
LINE
  5
1816
  8
DETAIL
  6
CONTINUOUS
 62
     5
 10
10.75492600000001
 20
-178.528729
 30
0.0
 11
11.010226999999979
 21
-178.77903000000001
 31
0.0
  0
LINE
  5
1817
  8
DETAIL
  6
CONTINUOUS
 62
     5
 10
10.530924000000001
 20
-178.2484419999999
 30
0.0
 11
10.75492600000001
 21
-178.528729
 31
0.0
  0
LINE
  5
1818
  8
DETAIL
  6
CONTINUOUS
 62
     5
 10
10.342884
 20
-177.94325399999991
 30
0.0
 11
10.530924000000001
 21
-178.2484419999999
 31
0.0
  0
LINE
  5
1819
  8
DETAIL
  6
CONTINUOUS
 62
     5
 10
10.19469800000001
 20
-177.62009499999991
 30
0.0
 11
10.342884
 21
-177.94325399999991
 31
0.0
  0
LINE
  5
181A
  8
DETAIL
  6
CONTINUOUS
 62
     5
 10
10.087049999999961
 20
-177.2811439999999
 30
0.0
 11
10.19469800000001
 21
-177.62009499999991
 31
0.0
  0
LINE
  5
181B
  8
DETAIL
  6
CONTINUOUS
 62
     5
 10
10.02172599999999
 20
-176.93107299999991
 30
0.0
 11
10.087049999999961
 21
-177.2811439999999
 31
0.0
  0
LINE
  5
181C
  8
DETAIL
  6
CONTINUOUS
 62
     5
 10
10.00722899999999
 20
-176.69529199999999
 30
0.0
 11
10.02172599999999
 21
-176.93107299999991
 31
0.0
  0
LINE
  5
181D
  8
DETAIL
  6
CONTINUOUS
 62
     5
 10
12.639609
 20
-194.20477099999991
 30
0.0
 11
13.0
 21
-194.2260719999999
 31
0.0
  0
LINE
  5
181E
  8
DETAIL
  6
CONTINUOUS
 62
     5
 10
12.282641000000011
 20
-194.1407419999999
 30
0.0
 11
12.639609
 21
-194.20477099999991
 31
0.0
  0
LINE
  5
181F
  8
DETAIL
  6
CONTINUOUS
 62
     5
 10
11.936997000000019
 20
-194.03523100000001
 30
0.0
 11
12.282641000000011
 21
-194.1407419999999
 31
0.0
  0
LINE
  5
1820
  8
DETAIL
  6
CONTINUOUS
 62
     5
 10
11.607349999999981
 20
-193.88993499999981
 30
0.0
 11
11.936997000000019
 21
-194.03523100000001
 31
0.0
  0
LINE
  5
1821
  8
DETAIL
  6
CONTINUOUS
 62
     5
 10
11.29606799999998
 20
-193.70557599999981
 30
0.0
 11
11.607349999999981
 21
-193.88993499999981
 31
0.0
  0
LINE
  5
1822
  8
DETAIL
  6
CONTINUOUS
 62
     5
 10
11.010226999999979
 20
-193.4859919999999
 30
0.0
 11
11.29606799999998
 21
-193.70557599999981
 31
0.0
  0
LINE
  5
1823
  8
DETAIL
  6
CONTINUOUS
 62
     5
 10
10.75492600000001
 20
-193.23568999999981
 30
0.0
 11
11.010226999999979
 21
-193.4859919999999
 31
0.0
  0
LINE
  5
1824
  8
DETAIL
  6
CONTINUOUS
 62
     5
 10
10.530924000000001
 20
-192.95540399999999
 30
0.0
 11
10.75492600000001
 21
-193.23568999999981
 31
0.0
  0
LINE
  5
1825
  8
DETAIL
  6
CONTINUOUS
 62
     5
 10
10.342884
 20
-192.650216
 30
0.0
 11
10.530924000000001
 21
-192.95540399999999
 31
0.0
  0
LINE
  5
1826
  8
DETAIL
  6
CONTINUOUS
 62
     5
 10
10.19469800000001
 20
-192.32705699999991
 30
0.0
 11
10.342884
 21
-192.650216
 31
0.0
  0
LINE
  5
1827
  8
DETAIL
  6
CONTINUOUS
 62
     5
 10
10.087049999999961
 20
-191.9881059999999
 30
0.0
 11
10.19469800000001
 21
-192.32705699999991
 31
0.0
  0
LINE
  5
1828
  8
DETAIL
  6
CONTINUOUS
 62
     5
 10
10.02172599999999
 20
-191.638035
 30
0.0
 11
10.087049999999961
 21
-191.9881059999999
 31
0.0
  0
LINE
  5
1829
  8
DETAIL
  6
CONTINUOUS
 62
     5
 10
10.00722899999999
 20
-191.40225399999991
 30
0.0
 11
10.02172599999999
 21
-191.638035
 31
0.0
  0
LINE
  5
182A
  8
DETAIL
  6
CONTINUOUS
 62
     5
 10
10.02172599999999
 20
-147.63516899999991
 30
0.0
 11
10.0
 21
-147.281813
 31
0.0
  0
LINE
  5
182B
  8
DETAIL
  6
CONTINUOUS
 62
     5
 10
10.087049999999961
 20
-147.98523999999981
 30
0.0
 11
10.02172599999999
 21
-147.63516899999991
 31
0.0
  0
LINE
  5
182C
  8
DETAIL
  6
CONTINUOUS
 62
     5
 10
10.19469800000001
 20
-148.32419099999979
 30
0.0
 11
10.087049999999961
 21
-147.98523999999981
 31
0.0
  0
LINE
  5
182D
  8
DETAIL
  6
CONTINUOUS
 62
     5
 10
10.342884
 20
-148.64734899999991
 30
0.0
 11
10.19469800000001
 21
-148.32419099999979
 31
0.0
  0
LINE
  5
182E
  8
DETAIL
  6
CONTINUOUS
 62
     5
 10
10.530924000000001
 20
-148.95253700000001
 30
0.0
 11
10.342884
 21
-148.64734899999991
 31
0.0
  0
LINE
  5
182F
  8
DETAIL
  6
CONTINUOUS
 62
     5
 10
10.75492600000001
 20
-149.23282399999991
 30
0.0
 11
10.530924000000001
 21
-148.95253700000001
 31
0.0
  0
LINE
  5
1830
  8
DETAIL
  6
CONTINUOUS
 62
     5
 10
11.010226999999979
 20
-149.48312599999991
 30
0.0
 11
10.75492600000001
 21
-149.23282399999991
 31
0.0
  0
LINE
  5
1831
  8
DETAIL
  6
CONTINUOUS
 62
     5
 10
11.29606799999998
 20
-149.70270999999991
 30
0.0
 11
11.010226999999979
 21
-149.48312599999991
 31
0.0
  0
LINE
  5
1832
  8
DETAIL
  6
CONTINUOUS
 62
     5
 10
11.607349999999981
 20
-149.887068
 30
0.0
 11
11.29606799999998
 21
-149.70270999999991
 31
0.0
  0
LINE
  5
1833
  8
DETAIL
  6
CONTINUOUS
 62
     5
 10
11.936997000000019
 20
-150.03236499999991
 30
0.0
 11
11.607349999999981
 21
-149.887068
 31
0.0
  0
LINE
  5
1834
  8
DETAIL
  6
CONTINUOUS
 62
     5
 10
12.282641000000011
 20
-150.13787600000001
 30
0.0
 11
11.936997000000019
 21
-150.03236499999991
 31
0.0
  0
LINE
  5
1835
  8
DETAIL
  6
CONTINUOUS
 62
     5
 10
12.639609
 20
-150.20190500000001
 30
0.0
 11
12.282641000000011
 21
-150.13787600000001
 31
0.0
  0
LINE
  5
1836
  8
DETAIL
  6
CONTINUOUS
 62
     5
 10
13.0
 20
-150.223206
 30
0.0
 11
12.639609
 21
-150.20190500000001
 31
0.0
  0
LINE
  5
1837
  8
DETAIL
  6
CONTINUOUS
 62
     5
 10
10.02172599999999
 20
-162.34212999999991
 30
0.0
 11
10.0
 21
-161.988775
 31
0.0
  0
LINE
  5
1838
  8
DETAIL
  6
CONTINUOUS
 62
     5
 10
10.087049999999961
 20
-162.69220200000001
 30
0.0
 11
10.02172599999999
 21
-162.34212999999991
 31
0.0
  0
LINE
  5
1839
  8
DETAIL
  6
CONTINUOUS
 62
     5
 10
10.19469800000001
 20
-163.03115199999999
 30
0.0
 11
10.087049999999961
 21
-162.69220200000001
 31
0.0
  0
LINE
  5
183A
  8
DETAIL
  6
CONTINUOUS
 62
     5
 10
10.342884
 20
-163.35431099999991
 30
0.0
 11
10.19469800000001
 21
-163.03115199999999
 31
0.0
  0
LINE
  5
183B
  8
DETAIL
  6
CONTINUOUS
 62
     5
 10
10.530924000000001
 20
-163.65949899999981
 30
0.0
 11
10.342884
 21
-163.35431099999991
 31
0.0
  0
LINE
  5
183C
  8
DETAIL
  6
CONTINUOUS
 62
     5
 10
10.75492600000001
 20
-163.939786
 30
0.0
 11
10.530924000000001
 21
-163.65949899999981
 31
0.0
  0
LINE
  5
183D
  8
DETAIL
  6
CONTINUOUS
 62
     5
 10
11.010226999999979
 20
-164.19008700000001
 30
0.0
 11
10.75492600000001
 21
-163.939786
 31
0.0
  0
LINE
  5
183E
  8
DETAIL
  6
CONTINUOUS
 62
     5
 10
11.29606799999998
 20
-164.409671
 30
0.0
 11
11.010226999999979
 21
-164.19008700000001
 31
0.0
  0
LINE
  5
183F
  8
DETAIL
  6
CONTINUOUS
 62
     5
 10
11.607349999999981
 20
-164.59403
 30
0.0
 11
11.29606799999998
 21
-164.409671
 31
0.0
  0
LINE
  5
1840
  8
DETAIL
  6
CONTINUOUS
 62
     5
 10
11.936997000000019
 20
-164.73932600000001
 30
0.0
 11
11.607349999999981
 21
-164.59403
 31
0.0
  0
LINE
  5
1841
  8
DETAIL
  6
CONTINUOUS
 62
     5
 10
12.282641000000011
 20
-164.84483799999981
 30
0.0
 11
11.936997000000019
 21
-164.73932600000001
 31
0.0
  0
LINE
  5
1842
  8
DETAIL
  6
CONTINUOUS
 62
     5
 10
12.639609
 20
-164.90886599999979
 30
0.0
 11
12.282641000000011
 21
-164.84483799999981
 31
0.0
  0
LINE
  5
1843
  8
DETAIL
  6
CONTINUOUS
 62
     5
 10
13.0
 20
-164.93016699999981
 30
0.0
 11
12.639609
 21
-164.90886599999979
 31
0.0
  0
LINE
  5
1844
  8
DETAIL
  6
CONTINUOUS
 62
     5
 10
10.02172599999999
 20
-177.049092
 30
0.0
 11
10.0
 21
-176.69573700000001
 31
0.0
  0
LINE
  5
1845
  8
DETAIL
  6
CONTINUOUS
 62
     5
 10
10.087049999999961
 20
-177.3991629999999
 30
0.0
 11
10.02172599999999
 21
-177.049092
 31
0.0
  0
LINE
  5
1846
  8
DETAIL
  6
CONTINUOUS
 62
     5
 10
10.19469800000001
 20
-177.73811399999991
 30
0.0
 11
10.087049999999961
 21
-177.3991629999999
 31
0.0
  0
LINE
  5
1847
  8
DETAIL
  6
CONTINUOUS
 62
     5
 10
10.342884
 20
-178.061273
 30
0.0
 11
10.19469800000001
 21
-177.73811399999991
 31
0.0
  0
LINE
  5
1848
  8
DETAIL
  6
CONTINUOUS
 62
     5
 10
10.530924000000001
 20
-178.3664609999999
 30
0.0
 11
10.342884
 21
-178.061273
 31
0.0
  0
LINE
  5
1849
  8
DETAIL
  6
CONTINUOUS
 62
     5
 10
10.75492600000001
 20
-178.64674799999969
 30
0.0
 11
10.530924000000001
 21
-178.3664609999999
 31
0.0
  0
LINE
  5
184A
  8
DETAIL
  6
CONTINUOUS
 62
     5
 10
11.010226999999979
 20
-178.89704900000001
 30
0.0
 11
10.75492600000001
 21
-178.64674799999969
 31
0.0
  0
LINE
  5
184B
  8
DETAIL
  6
CONTINUOUS
 62
     5
 10
11.29606799999998
 20
-179.11663300000001
 30
0.0
 11
11.010226999999979
 21
-178.89704900000001
 31
0.0
  0
LINE
  5
184C
  8
DETAIL
  6
CONTINUOUS
 62
     5
 10
11.607349999999981
 20
-179.30099199999981
 30
0.0
 11
11.29606799999998
 21
-179.11663300000001
 31
0.0
  0
LINE
  5
184D
  8
DETAIL
  6
CONTINUOUS
 62
     5
 10
11.936997000000019
 20
-179.4462879999999
 30
0.0
 11
11.607349999999981
 21
-179.30099199999981
 31
0.0
  0
LINE
  5
184E
  8
DETAIL
  6
CONTINUOUS
 62
     5
 10
12.282641000000011
 20
-179.5517999999999
 30
0.0
 11
11.936997000000019
 21
-179.4462879999999
 31
0.0
  0
LINE
  5
184F
  8
DETAIL
  6
CONTINUOUS
 62
     5
 10
12.639609
 20
-179.61582799999999
 30
0.0
 11
12.282641000000011
 21
-179.5517999999999
 31
0.0
  0
LINE
  5
1850
  8
DETAIL
  6
CONTINUOUS
 62
     5
 10
13.0
 20
-179.6371289999999
 30
0.0
 11
12.639609
 21
-179.61582799999999
 31
0.0
  0
LINE
  5
1851
  8
DETAIL
  6
CONTINUOUS
 62
     5
 10
10.02172599999999
 20
-191.75605400000001
 30
0.0
 11
10.0
 21
-191.4026979999999
 31
0.0
  0
LINE
  5
1852
  8
DETAIL
  6
CONTINUOUS
 62
     5
 10
10.087049999999961
 20
-192.10612499999991
 30
0.0
 11
10.02172599999999
 21
-191.75605400000001
 31
0.0
  0
LINE
  5
1853
  8
DETAIL
  6
CONTINUOUS
 62
     5
 10
10.19469800000001
 20
-192.445076
 30
0.0
 11
10.087049999999961
 21
-192.10612499999991
 31
0.0
  0
LINE
  5
1854
  8
DETAIL
  6
CONTINUOUS
 62
     5
 10
10.342884
 20
-192.76823400000001
 30
0.0
 11
10.19469800000001
 21
-192.445076
 31
0.0
  0
LINE
  5
1855
  8
DETAIL
  6
CONTINUOUS
 62
     5
 10
10.530924000000001
 20
-193.07342199999991
 30
0.0
 11
10.342884
 21
-192.76823400000001
 31
0.0
  0
LINE
  5
1856
  8
DETAIL
  6
CONTINUOUS
 62
     5
 10
10.75492600000001
 20
-193.35370900000001
 30
0.0
 11
10.530924000000001
 21
-193.07342199999991
 31
0.0
  0
LINE
  5
1857
  8
DETAIL
  6
CONTINUOUS
 62
     5
 10
11.010226999999979
 20
-193.60401100000001
 30
0.0
 11
10.75492600000001
 21
-193.35370900000001
 31
0.0
  0
LINE
  5
1858
  8
DETAIL
  6
CONTINUOUS
 62
     5
 10
11.29606799999998
 20
-193.8235949999999
 30
0.0
 11
11.010226999999979
 21
-193.60401100000001
 31
0.0
  0
LINE
  5
1859
  8
DETAIL
  6
CONTINUOUS
 62
     5
 10
11.607349999999981
 20
-194.00795299999999
 30
0.0
 11
11.29606799999998
 21
-193.8235949999999
 31
0.0
  0
LINE
  5
185A
  8
DETAIL
  6
CONTINUOUS
 62
     5
 10
11.936997000000019
 20
-194.15325000000001
 30
0.0
 11
11.607349999999981
 21
-194.00795299999999
 31
0.0
  0
LINE
  5
185B
  8
DETAIL
  6
CONTINUOUS
 62
     5
 10
12.282641000000011
 20
-194.25876099999991
 30
0.0
 11
11.936997000000019
 21
-194.15325000000001
 31
0.0
  0
LINE
  5
185C
  8
DETAIL
  6
CONTINUOUS
 62
     5
 10
12.639609
 20
-194.32279
 30
0.0
 11
12.282641000000011
 21
-194.25876099999991
 31
0.0
  0
LINE
  5
185D
  8
DETAIL
  6
CONTINUOUS
 62
     5
 10
13.0
 20
-194.34409099999991
 30
0.0
 11
12.639609
 21
-194.32279
 31
0.0
  0
LINE
  5
185E
  8
DETAIL
  6
CONTINUOUS
 62
     5
 10
-11.29598700000002
 20
-193.8235389999999
 30
0.0
 11
-11.607255999999991
 21
-194.00790499999991
 31
0.0
  0
LINE
  5
185F
  8
DETAIL
  6
CONTINUOUS
 62
     5
 10
-11.010114999999979
 20
-193.60391299999989
 30
0.0
 11
-11.29598700000002
 21
-193.8235389999999
 31
0.0
  0
LINE
  5
1860
  8
DETAIL
  6
CONTINUOUS
 62
     5
 10
-10.75482599999996
 20
-193.353599
 30
0.0
 11
-11.010114999999979
 21
-193.60391299999989
 31
0.0
  0
LINE
  5
1861
  8
DETAIL
  6
CONTINUOUS
 62
     5
 10
-10.530867000000001
 20
-193.07334199999991
 30
0.0
 11
-10.75482599999996
 21
-193.353599
 31
0.0
  0
LINE
  5
1862
  8
DETAIL
  6
CONTINUOUS
 62
     5
 10
-10.342834999999971
 20
-192.7681419999999
 30
0.0
 11
-10.530867000000001
 21
-193.07334199999991
 31
0.0
  0
LINE
  5
1863
  8
DETAIL
  6
CONTINUOUS
 62
     5
 10
-10.194643999999981
 20
-192.4449349999999
 30
0.0
 11
-10.342834999999971
 21
-192.7681419999999
 31
0.0
  0
LINE
  5
1864
  8
DETAIL
  6
CONTINUOUS
 62
     5
 10
-10.08703000000002
 20
-192.1060429999998
 30
0.0
 11
-10.194643999999981
 21
-192.4449349999999
 31
0.0
  0
LINE
  5
1865
  8
DETAIL
  6
CONTINUOUS
 62
     5
 10
-10.02172599999999
 20
-191.7560489999999
 30
0.0
 11
-10.08703000000002
 21
-192.1060429999998
 31
0.0
  0
LINE
  5
1866
  8
DETAIL
  6
CONTINUOUS
 62
     5
 10
-10.0
 20
-191.4026979999999
 30
0.0
 11
-10.02172599999999
 21
-191.7560489999999
 31
0.0
  0
LINE
  5
1867
  8
DETAIL
  6
CONTINUOUS
 62
     5
 10
-11.29598700000002
 20
-179.116578
 30
0.0
 11
-11.607255999999991
 21
-179.3009429999999
 31
0.0
  0
LINE
  5
1868
  8
DETAIL
  6
CONTINUOUS
 62
     5
 10
-11.010114999999979
 20
-178.896951
 30
0.0
 11
-11.29598700000002
 21
-179.116578
 31
0.0
  0
LINE
  5
1869
  8
DETAIL
  6
CONTINUOUS
 62
     5
 10
-10.75482599999996
 20
-178.646637
 30
0.0
 11
-11.010114999999979
 21
-178.896951
 31
0.0
  0
LINE
  5
186A
  8
DETAIL
  6
CONTINUOUS
 62
     5
 10
-10.530867000000001
 20
-178.36637999999999
 30
0.0
 11
-10.75482599999996
 21
-178.646637
 31
0.0
  0
LINE
  5
186B
  8
DETAIL
  6
CONTINUOUS
 62
     5
 10
-10.342834999999971
 20
-178.06118000000001
 30
0.0
 11
-10.530867000000001
 21
-178.36637999999999
 31
0.0
  0
LINE
  5
186C
  8
DETAIL
  6
CONTINUOUS
 62
     5
 10
-10.194643999999981
 20
-177.73797300000001
 30
0.0
 11
-10.342834999999971
 21
-178.06118000000001
 31
0.0
  0
LINE
  5
186D
  8
DETAIL
  6
CONTINUOUS
 62
     5
 10
-10.08703000000002
 20
-177.39908199999991
 30
0.0
 11
-10.194643999999981
 21
-177.73797300000001
 31
0.0
  0
LINE
  5
186E
  8
DETAIL
  6
CONTINUOUS
 62
     5
 10
-10.02172599999999
 20
-177.0490869999999
 30
0.0
 11
-10.08703000000002
 21
-177.39908199999991
 31
0.0
  0
LINE
  5
186F
  8
DETAIL
  6
CONTINUOUS
 62
     5
 10
-10.0
 20
-176.69573700000001
 30
0.0
 11
-10.02172599999999
 21
-177.0490869999999
 31
0.0
  0
LINE
  5
1870
  8
DETAIL
  6
CONTINUOUS
 62
     5
 10
-11.29598700000002
 20
-164.4096159999998
 30
0.0
 11
-11.607255999999991
 21
-164.5939809999999
 31
0.0
  0
LINE
  5
1871
  8
DETAIL
  6
CONTINUOUS
 62
     5
 10
-11.010114999999979
 20
-164.18998999999999
 30
0.0
 11
-11.29598700000002
 21
-164.4096159999998
 31
0.0
  0
LINE
  5
1872
  8
DETAIL
  6
CONTINUOUS
 62
     5
 10
-10.75482599999996
 20
-163.93967599999991
 30
0.0
 11
-11.010114999999979
 21
-164.18998999999999
 31
0.0
  0
LINE
  5
1873
  8
DETAIL
  6
CONTINUOUS
 62
     5
 10
-10.530867000000001
 20
-163.65941900000001
 30
0.0
 11
-10.75482599999996
 21
-163.93967599999991
 31
0.0
  0
LINE
  5
1874
  8
DETAIL
  6
CONTINUOUS
 62
     5
 10
-10.342834999999971
 20
-163.354219
 30
0.0
 11
-10.530867000000001
 21
-163.65941900000001
 31
0.0
  0
LINE
  5
1875
  8
DETAIL
  6
CONTINUOUS
 62
     5
 10
-10.194643999999981
 20
-163.03101100000001
 30
0.0
 11
-10.342834999999971
 21
-163.354219
 31
0.0
  0
LINE
  5
1876
  8
DETAIL
  6
CONTINUOUS
 62
     5
 10
-10.08703000000002
 20
-162.6921199999999
 30
0.0
 11
-10.194643999999981
 21
-163.03101100000001
 31
0.0
  0
LINE
  5
1877
  8
DETAIL
  6
CONTINUOUS
 62
     5
 10
-10.02172599999999
 20
-162.34212499999981
 30
0.0
 11
-10.08703000000002
 21
-162.6921199999999
 31
0.0
  0
LINE
  5
1878
  8
DETAIL
  6
CONTINUOUS
 62
     5
 10
-10.0
 20
-161.988775
 30
0.0
 11
-10.02172599999999
 21
-162.34212499999981
 31
0.0
  0
LINE
  5
1879
  8
DETAIL
  6
CONTINUOUS
 62
     5
 10
-11.29598700000002
 20
-149.702654
 30
0.0
 11
-11.607255999999991
 21
-149.88701999999981
 31
0.0
  0
LINE
  5
187A
  8
DETAIL
  6
CONTINUOUS
 62
     5
 10
-11.010114999999979
 20
-149.4830279999999
 30
0.0
 11
-11.29598700000002
 21
-149.702654
 31
0.0
  0
LINE
  5
187B
  8
DETAIL
  6
CONTINUOUS
 62
     5
 10
-10.75482599999996
 20
-149.2327139999999
 30
0.0
 11
-11.010114999999979
 21
-149.4830279999999
 31
0.0
  0
LINE
  5
187C
  8
DETAIL
  6
CONTINUOUS
 62
     5
 10
-10.530867000000001
 20
-148.95245700000001
 30
0.0
 11
-10.75482599999996
 21
-149.2327139999999
 31
0.0
  0
LINE
  5
187D
  8
DETAIL
  6
CONTINUOUS
 62
     5
 10
-10.342834999999971
 20
-148.64725699999991
 30
0.0
 11
-10.530867000000001
 21
-148.95245700000001
 31
0.0
  0
LINE
  5
187E
  8
DETAIL
  6
CONTINUOUS
 62
     5
 10
-10.194643999999981
 20
-148.3240499999998
 30
0.0
 11
-10.342834999999971
 21
-148.64725699999991
 31
0.0
  0
LINE
  5
187F
  8
DETAIL
  6
CONTINUOUS
 62
     5
 10
-10.08703000000002
 20
-147.98515800000001
 30
0.0
 11
-10.194643999999981
 21
-148.3240499999998
 31
0.0
  0
LINE
  5
1880
  8
DETAIL
  6
CONTINUOUS
 62
     5
 10
-10.02172599999999
 20
-147.6351639999998
 30
0.0
 11
-10.08703000000002
 21
-147.98515800000001
 31
0.0
  0
LINE
  5
1881
  8
DETAIL
  6
CONTINUOUS
 62
     5
 10
-10.0
 20
-147.281813
 30
0.0
 11
-10.02172599999999
 21
-147.6351639999998
 31
0.0
  0
LINE
  5
1882
  8
DETAIL
  6
CONTINUOUS
 62
     5
 10
-10.0
 20
-161.988775
 30
0.0
 11
-10.0
 21
-154.9294329999999
 31
0.0
  0
LINE
  5
1883
  8
DETAIL
  6
CONTINUOUS
 62
     5
 10
-10.0
 20
-176.69573700000001
 30
0.0
 11
-10.0
 21
-169.63639499999999
 31
0.0
  0
LINE
  5
1884
  8
DETAIL
  6
CONTINUOUS
 62
     5
 10
-10.0
 20
-191.4026979999999
 30
0.0
 11
-10.0
 21
-184.343357
 31
0.0
  0
LINE
  5
1885
  8
DETAIL
  6
CONTINUOUS
 62
     5
 10
-10.02172599999999
 20
-147.51714499999991
 30
0.0
 11
-10.00722899999999
 21
-147.2813689999999
 31
0.0
  0
LINE
  5
1886
  8
DETAIL
  6
CONTINUOUS
 62
     5
 10
-10.08703000000002
 20
-147.86713900000001
 30
0.0
 11
-10.02172599999999
 21
-147.51714499999991
 31
0.0
  0
LINE
  5
1887
  8
DETAIL
  6
CONTINUOUS
 62
     5
 10
-10.194643999999981
 20
-148.206031
 30
0.0
 11
-10.08703000000002
 21
-147.86713900000001
 31
0.0
  0
LINE
  5
1888
  8
DETAIL
  6
CONTINUOUS
 62
     5
 10
-10.342834999999971
 20
-148.52923799999991
 30
0.0
 11
-10.194643999999981
 21
-148.206031
 31
0.0
  0
LINE
  5
1889
  8
DETAIL
  6
CONTINUOUS
 62
     5
 10
-10.530867000000001
 20
-148.83443799999981
 30
0.0
 11
-10.342834999999971
 21
-148.52923799999991
 31
0.0
  0
LINE
  5
188A
  8
DETAIL
  6
CONTINUOUS
 62
     5
 10
-10.75482599999996
 20
-149.1146949999999
 30
0.0
 11
-10.530867000000001
 21
-148.83443799999981
 31
0.0
  0
LINE
  5
188B
  8
DETAIL
  6
CONTINUOUS
 62
     5
 10
-11.010114999999979
 20
-149.3650089999999
 30
0.0
 11
-10.75482599999996
 21
-149.1146949999999
 31
0.0
  0
LINE
  5
188C
  8
DETAIL
  6
CONTINUOUS
 62
     5
 10
-11.29598700000002
 20
-149.58463499999979
 30
0.0
 11
-11.010114999999979
 21
-149.3650089999999
 31
0.0
  0
LINE
  5
188D
  8
DETAIL
  6
CONTINUOUS
 62
     5
 10
-11.607255999999991
 20
-149.769001
 30
0.0
 11
-11.29598700000002
 21
-149.58463499999979
 31
0.0
  0
LINE
  5
188E
  8
DETAIL
  6
CONTINUOUS
 62
     5
 10
-10.02172599999999
 20
-162.224107
 30
0.0
 11
-10.00722899999999
 21
-161.98833099999979
 31
0.0
  0
LINE
  5
188F
  8
DETAIL
  6
CONTINUOUS
 62
     5
 10
-10.08703000000002
 20
-162.57410099999981
 30
0.0
 11
-10.02172599999999
 21
-162.224107
 31
0.0
  0
LINE
  5
1890
  8
DETAIL
  6
CONTINUOUS
 62
     5
 10
-10.194643999999981
 20
-162.91299299999969
 30
0.0
 11
-10.08703000000002
 21
-162.57410099999981
 31
0.0
  0
LINE
  5
1891
  8
DETAIL
  6
CONTINUOUS
 62
     5
 10
-10.342834999999971
 20
-163.2362
 30
0.0
 11
-10.194643999999981
 21
-162.91299299999969
 31
0.0
  0
LINE
  5
1892
  8
DETAIL
  6
CONTINUOUS
 62
     5
 10
-10.530867000000001
 20
-163.54140000000001
 30
0.0
 11
-10.342834999999971
 21
-163.2362
 31
0.0
  0
LINE
  5
1893
  8
DETAIL
  6
CONTINUOUS
 62
     5
 10
-10.75482599999996
 20
-163.8216569999999
 30
0.0
 11
-10.530867000000001
 21
-163.54140000000001
 31
0.0
  0
LINE
  5
1894
  8
DETAIL
  6
CONTINUOUS
 62
     5
 10
-11.010114999999979
 20
-164.07197099999991
 30
0.0
 11
-10.75482599999996
 21
-163.8216569999999
 31
0.0
  0
LINE
  5
1895
  8
DETAIL
  6
CONTINUOUS
 62
     5
 10
-11.29598700000002
 20
-164.29159699999991
 30
0.0
 11
-11.010114999999979
 21
-164.07197099999991
 31
0.0
  0
LINE
  5
1896
  8
DETAIL
  6
CONTINUOUS
 62
     5
 10
-11.607255999999991
 20
-164.47596299999981
 30
0.0
 11
-11.29598700000002
 21
-164.29159699999991
 31
0.0
  0
LINE
  5
1897
  8
DETAIL
  6
CONTINUOUS
 62
     5
 10
-10.02172599999999
 20
-176.9310679999999
 30
0.0
 11
-10.00722899999999
 21
-176.69529199999999
 31
0.0
  0
LINE
  5
1898
  8
DETAIL
  6
CONTINUOUS
 62
     5
 10
-10.08703000000002
 20
-177.2810629999999
 30
0.0
 11
-10.02172599999999
 21
-176.9310679999999
 31
0.0
  0
LINE
  5
1899
  8
DETAIL
  6
CONTINUOUS
 62
     5
 10
-10.194643999999981
 20
-177.61995400000001
 30
0.0
 11
-10.08703000000002
 21
-177.2810629999999
 31
0.0
  0
LINE
  5
189A
  8
DETAIL
  6
CONTINUOUS
 62
     5
 10
-10.342834999999971
 20
-177.943161
 30
0.0
 11
-10.194643999999981
 21
-177.61995400000001
 31
0.0
  0
LINE
  5
189B
  8
DETAIL
  6
CONTINUOUS
 62
     5
 10
-10.530867000000001
 20
-178.2483619999999
 30
0.0
 11
-10.342834999999971
 21
-177.943161
 31
0.0
  0
LINE
  5
189C
  8
DETAIL
  6
CONTINUOUS
 62
     5
 10
-10.75482599999996
 20
-178.52861899999991
 30
0.0
 11
-10.530867000000001
 21
-178.2483619999999
 31
0.0
  0
LINE
  5
189D
  8
DETAIL
  6
CONTINUOUS
 62
     5
 10
-11.010114999999979
 20
-178.77893199999991
 30
0.0
 11
-10.75482599999996
 21
-178.52861899999991
 31
0.0
  0
LINE
  5
189E
  8
DETAIL
  6
CONTINUOUS
 62
     5
 10
-11.29598700000002
 20
-178.998559
 30
0.0
 11
-11.010114999999979
 21
-178.77893199999991
 31
0.0
  0
LINE
  5
189F
  8
DETAIL
  6
CONTINUOUS
 62
     5
 10
-11.607255999999991
 20
-179.18292400000001
 30
0.0
 11
-11.29598700000002
 21
-178.998559
 31
0.0
  0
LINE
  5
18A0
  8
DETAIL
  6
CONTINUOUS
 62
     5
 10
-10.02172599999999
 20
-191.6380299999999
 30
0.0
 11
-10.00722899999999
 21
-191.40225399999991
 31
0.0
  0
LINE
  5
18A1
  8
DETAIL
  6
CONTINUOUS
 62
     5
 10
-10.08703000000002
 20
-191.98802399999991
 30
0.0
 11
-10.02172599999999
 21
-191.6380299999999
 31
0.0
  0
LINE
  5
18A2
  8
DETAIL
  6
CONTINUOUS
 62
     5
 10
-10.194643999999981
 20
-192.3269159999999
 30
0.0
 11
-10.08703000000002
 21
-191.98802399999991
 31
0.0
  0
LINE
  5
18A3
  8
DETAIL
  6
CONTINUOUS
 62
     5
 10
-10.342834999999971
 20
-192.65012300000001
 30
0.0
 11
-10.194643999999981
 21
-192.3269159999999
 31
0.0
  0
LINE
  5
18A4
  8
DETAIL
  6
CONTINUOUS
 62
     5
 10
-10.530867000000001
 20
-192.95532299999991
 30
0.0
 11
-10.342834999999971
 21
-192.65012300000001
 31
0.0
  0
LINE
  5
18A5
  8
DETAIL
  6
CONTINUOUS
 62
     5
 10
-10.75482599999996
 20
-193.23558
 30
0.0
 11
-10.530867000000001
 21
-192.95532299999991
 31
0.0
  0
LINE
  5
18A6
  8
DETAIL
  6
CONTINUOUS
 62
     5
 10
-11.010114999999979
 20
-193.4858939999998
 30
0.0
 11
-10.75482599999996
 21
-193.23558
 31
0.0
  0
LINE
  5
18A7
  8
DETAIL
  6
CONTINUOUS
 62
     5
 10
-11.29598700000002
 20
-193.70551999999981
 30
0.0
 11
-11.010114999999979
 21
-193.4858939999998
 31
0.0
  0
LINE
  5
18A8
  8
DETAIL
  6
CONTINUOUS
 62
     5
 10
-11.607255999999991
 20
-193.8898859999999
 30
0.0
 11
-11.29598700000002
 21
-193.70551999999981
 31
0.0
  0
LINE
  5
18A9
  8
DETAIL
  6
CONTINUOUS
 62
     5
 10
13.0
 20
-135.51624399999969
 30
0.0
 11
13.0
 21
-135.398225
 31
0.0
  0
LINE
  5
18AA
  8
DETAIL
  6
CONTINUOUS
 62
     5
 10
10.0
 20
-125.51551000000001
 30
0.0
 11
10.0
 21
-132.57485199999991
 31
0.0
  0
LINE
  5
18AB
  8
DETAIL
  6
CONTINUOUS
 62
     5
 10
12.639609
 20
-135.376924
 30
0.0
 11
13.0
 21
-135.398225
 31
0.0
  0
LINE
  5
18AC
  8
DETAIL
  6
CONTINUOUS
 62
     5
 10
12.282641000000011
 20
-135.31289599999999
 30
0.0
 11
12.639609
 21
-135.376924
 31
0.0
  0
LINE
  5
18AD
  8
DETAIL
  6
CONTINUOUS
 62
     5
 10
11.936997000000019
 20
-135.20738399999991
 30
0.0
 11
12.282641000000011
 21
-135.31289599999999
 31
0.0
  0
LINE
  5
18AE
  8
DETAIL
  6
CONTINUOUS
 62
     5
 10
11.607349999999981
 20
-135.0620879999999
 30
0.0
 11
11.936997000000019
 21
-135.20738399999991
 31
0.0
  0
LINE
  5
18AF
  8
DETAIL
  6
CONTINUOUS
 62
     5
 10
11.29606799999998
 20
-134.8777289999999
 30
0.0
 11
11.607349999999981
 21
-135.0620879999999
 31
0.0
  0
LINE
  5
18B0
  8
DETAIL
  6
CONTINUOUS
 62
     5
 10
11.010226999999979
 20
-134.65814499999991
 30
0.0
 11
11.29606799999998
 21
-134.8777289999999
 31
0.0
  0
LINE
  5
18B1
  8
DETAIL
  6
CONTINUOUS
 62
     5
 10
10.75492600000001
 20
-134.40784400000001
 30
0.0
 11
11.010226999999979
 21
-134.65814499999991
 31
0.0
  0
LINE
  5
18B2
  8
DETAIL
  6
CONTINUOUS
 62
     5
 10
10.530924000000001
 20
-134.127557
 30
0.0
 11
10.75492600000001
 21
-134.40784400000001
 31
0.0
  0
LINE
  5
18B3
  8
DETAIL
  6
CONTINUOUS
 62
     5
 10
10.342884
 20
-133.8223689999999
 30
0.0
 11
10.530924000000001
 21
-134.127557
 31
0.0
  0
LINE
  5
18B4
  8
DETAIL
  6
CONTINUOUS
 62
     5
 10
10.19469800000001
 20
-133.49921000000001
 30
0.0
 11
10.342884
 21
-133.8223689999999
 31
0.0
  0
LINE
  5
18B5
  8
DETAIL
  6
CONTINUOUS
 62
     5
 10
10.087049999999961
 20
-133.16025899999991
 30
0.0
 11
10.19469800000001
 21
-133.49921000000001
 31
0.0
  0
LINE
  5
18B6
  8
DETAIL
  6
CONTINUOUS
 62
     5
 10
10.02172599999999
 20
-132.8101879999999
 30
0.0
 11
10.087049999999961
 21
-133.16025899999991
 31
0.0
  0
LINE
  5
18B7
  8
DETAIL
  6
CONTINUOUS
 62
     5
 10
10.00722899999999
 20
-132.57440700000001
 30
0.0
 11
10.02172599999999
 21
-132.8101879999999
 31
0.0
  0
LINE
  5
18B8
  8
DETAIL
  6
CONTINUOUS
 62
     5
 10
10.02172599999999
 20
-132.9282069999997
 30
0.0
 11
10.0
 21
-132.57485199999991
 31
0.0
  0
LINE
  5
18B9
  8
DETAIL
  6
CONTINUOUS
 62
     5
 10
10.087049999999961
 20
-133.278278
 30
0.0
 11
10.02172599999999
 21
-132.9282069999997
 31
0.0
  0
LINE
  5
18BA
  8
DETAIL
  6
CONTINUOUS
 62
     5
 10
10.19469800000001
 20
-133.61722900000001
 30
0.0
 11
10.087049999999961
 21
-133.278278
 31
0.0
  0
LINE
  5
18BB
  8
DETAIL
  6
CONTINUOUS
 62
     5
 10
10.342884
 20
-133.9403879999997
 30
0.0
 11
10.19469800000001
 21
-133.61722900000001
 31
0.0
  0
LINE
  5
18BC
  8
DETAIL
  6
CONTINUOUS
 62
     5
 10
10.530924000000001
 20
-134.24557599999969
 30
0.0
 11
10.342884
 21
-133.9403879999997
 31
0.0
  0
LINE
  5
18BD
  8
DETAIL
  6
CONTINUOUS
 62
     5
 10
10.75492600000001
 20
-134.52586199999979
 30
0.0
 11
10.530924000000001
 21
-134.24557599999969
 31
0.0
  0
LINE
  5
18BE
  8
DETAIL
  6
CONTINUOUS
 62
     5
 10
11.010226999999979
 20
-134.77616399999991
 30
0.0
 11
10.75492600000001
 21
-134.52586199999979
 31
0.0
  0
LINE
  5
18BF
  8
DETAIL
  6
CONTINUOUS
 62
     5
 10
11.29606799999998
 20
-134.99574799999999
 30
0.0
 11
11.010226999999979
 21
-134.77616399999991
 31
0.0
  0
LINE
  5
18C0
  8
DETAIL
  6
CONTINUOUS
 62
     5
 10
11.607349999999981
 20
-135.18010699999999
 30
0.0
 11
11.29606799999998
 21
-134.99574799999999
 31
0.0
  0
LINE
  5
18C1
  8
DETAIL
  6
CONTINUOUS
 62
     5
 10
11.936997000000019
 20
-135.32540299999991
 30
0.0
 11
11.607349999999981
 21
-135.18010699999999
 31
0.0
  0
LINE
  5
18C2
  8
DETAIL
  6
CONTINUOUS
 62
     5
 10
12.282641000000011
 20
-135.430914
 30
0.0
 11
11.936997000000019
 21
-135.32540299999991
 31
0.0
  0
LINE
  5
18C3
  8
DETAIL
  6
CONTINUOUS
 62
     5
 10
12.639609
 20
-135.49494300000001
 30
0.0
 11
12.282641000000011
 21
-135.430914
 31
0.0
  0
LINE
  5
18C4
  8
DETAIL
  6
CONTINUOUS
 62
     5
 10
13.0
 20
-135.51624399999969
 30
0.0
 11
12.639609
 21
-135.49494300000001
 31
0.0
  0
LINE
  5
18C5
  8
DETAIL
  6
CONTINUOUS
 62
     5
 10
-10.02172599999999
 20
-132.81018299999999
 30
0.0
 11
-10.00722899999999
 21
-132.57440700000001
 31
0.0
  0
LINE
  5
18C6
  8
DETAIL
  6
CONTINUOUS
 62
     5
 10
-10.08703000000002
 20
-133.16017799999969
 30
0.0
 11
-10.02172599999999
 21
-132.81018299999999
 31
0.0
  0
LINE
  5
18C7
  8
DETAIL
  6
CONTINUOUS
 62
     5
 10
-10.194643999999981
 20
-133.49906899999991
 30
0.0
 11
-10.08703000000002
 21
-133.16017799999969
 31
0.0
  0
LINE
  5
18C8
  8
DETAIL
  6
CONTINUOUS
 62
     5
 10
-10.342834999999971
 20
-133.8222759999997
 30
0.0
 11
-10.194643999999981
 21
-133.49906899999991
 31
0.0
  0
LINE
  5
18C9
  8
DETAIL
  6
CONTINUOUS
 62
     5
 10
-10.530867000000001
 20
-134.127477
 30
0.0
 11
-10.342834999999971
 21
-133.8222759999997
 31
0.0
  0
LINE
  5
18CA
  8
DETAIL
  6
CONTINUOUS
 62
     5
 10
-10.75482599999996
 20
-134.40773300000001
 30
0.0
 11
-10.530867000000001
 21
-134.127477
 31
0.0
  0
LINE
  5
18CB
  8
DETAIL
  6
CONTINUOUS
 62
     5
 10
-11.010114999999979
 20
-134.65804700000001
 30
0.0
 11
-10.75482599999996
 21
-134.40773300000001
 31
0.0
  0
LINE
  5
18CC
  8
DETAIL
  6
CONTINUOUS
 62
     5
 10
-11.29598700000002
 20
-134.87767400000001
 30
0.0
 11
-11.010114999999979
 21
-134.65804700000001
 31
0.0
  0
LINE
  5
18CD
  8
DETAIL
  6
CONTINUOUS
 62
     5
 10
-11.607255999999991
 20
-135.062039
 30
0.0
 11
-11.29598700000002
 21
-134.87767400000001
 31
0.0
  0
LINE
  5
18CE
  8
DETAIL
  6
CONTINUOUS
 62
     5
 10
-11.29598700000002
 20
-134.99569199999991
 30
0.0
 11
-11.607255999999991
 21
-135.180058
 31
0.0
  0
LINE
  5
18CF
  8
DETAIL
  6
CONTINUOUS
 62
     5
 10
-11.010114999999979
 20
-134.77606599999979
 30
0.0
 11
-11.29598700000002
 21
-134.99569199999991
 31
0.0
  0
LINE
  5
18D0
  8
DETAIL
  6
CONTINUOUS
 62
     5
 10
-10.75482599999996
 20
-134.52575200000001
 30
0.0
 11
-11.010114999999979
 21
-134.77606599999979
 31
0.0
  0
LINE
  5
18D1
  8
DETAIL
  6
CONTINUOUS
 62
     5
 10
-10.530867000000001
 20
-134.24549500000001
 30
0.0
 11
-10.75482599999996
 21
-134.52575200000001
 31
0.0
  0
LINE
  5
18D2
  8
DETAIL
  6
CONTINUOUS
 62
     5
 10
-10.342834999999971
 20
-133.94029499999991
 30
0.0
 11
-10.530867000000001
 21
-134.24549500000001
 31
0.0
  0
LINE
  5
18D3
  8
DETAIL
  6
CONTINUOUS
 62
     5
 10
-10.194643999999981
 20
-133.617088
 30
0.0
 11
-10.342834999999971
 21
-133.94029499999991
 31
0.0
  0
LINE
  5
18D4
  8
DETAIL
  6
CONTINUOUS
 62
     5
 10
-10.08703000000002
 20
-133.2781959999997
 30
0.0
 11
-10.194643999999981
 21
-133.617088
 31
0.0
  0
LINE
  5
18D5
  8
DETAIL
  6
CONTINUOUS
 62
     5
 10
-10.02172599999999
 20
-132.92820199999991
 30
0.0
 11
-10.08703000000002
 21
-133.2781959999997
 31
0.0
  0
LINE
  5
18D6
  8
DETAIL
  6
CONTINUOUS
 62
     5
 10
-10.0
 20
-132.57485199999991
 30
0.0
 11
-10.02172599999999
 21
-132.92820199999991
 31
0.0
  0
LINE
  5
18D7
  8
DETAIL
  6
CONTINUOUS
 62
     5
 10
-10.0
 20
-132.57485199999991
 30
0.0
 11
-10.0
 21
-125.51551000000001
 31
0.0
  0
LINE
  5
18D8
  8
DETAIL
  6
CONTINUOUS
 62
     5
 10
180.0
 20
-199.050319
 30
0.0
 11
180.0
 21
-206.10965999999991
 31
0.0
  0
LINE
  5
18D9
  8
DETAIL
  6
CONTINUOUS
 62
     5
 10
160.0
 20
-206.10965999999991
 30
0.0
 11
160.0
 21
-199.050319
 31
0.0
  0
LINE
  5
18DA
  8
DETAIL
  6
CONTINUOUS
 62
     5
 10
157.36039599999981
 20
-238.4436739999999
 30
0.0
 11
157.0
 21
-238.46497600000001
 31
0.0
  0
LINE
  5
18DB
  8
DETAIL
  6
CONTINUOUS
 62
     5
 10
157.71744200000001
 20
-238.379626
 30
0.0
 11
157.36039599999981
 21
-238.4436739999999
 31
0.0
  0
LINE
  5
18DC
  8
DETAIL
  6
CONTINUOUS
 62
     5
 10
158.0631469999999
 20
-238.274081
 30
0.0
 11
157.71744200000001
 21
-238.379626
 31
0.0
  0
LINE
  5
18DD
  8
DETAIL
  6
CONTINUOUS
 62
     5
 10
158.39274399999999
 20
-238.1287899999999
 30
0.0
 11
158.0631469999999
 21
-238.274081
 31
0.0
  0
LINE
  5
18DE
  8
DETAIL
  6
CONTINUOUS
 62
     5
 10
158.7040129999998
 20
-237.944424
 30
0.0
 11
158.39274399999999
 21
-238.1287899999999
 31
0.0
  0
LINE
  5
18DF
  8
DETAIL
  6
CONTINUOUS
 62
     5
 10
158.9898849999999
 20
-237.72479799999991
 30
0.0
 11
158.7040129999998
 21
-237.944424
 31
0.0
  0
LINE
  5
18E0
  8
DETAIL
  6
CONTINUOUS
 62
     5
 10
159.24517399999999
 20
-237.4744839999999
 30
0.0
 11
158.9898849999999
 21
-237.72479799999991
 31
0.0
  0
LINE
  5
18E1
  8
DETAIL
  6
CONTINUOUS
 62
     5
 10
159.469133
 20
-237.19422700000001
 30
0.0
 11
159.24517399999999
 21
-237.4744839999999
 31
0.0
  0
LINE
  5
18E2
  8
DETAIL
  6
CONTINUOUS
 62
     5
 10
159.65716499999991
 20
-236.889027
 30
0.0
 11
159.469133
 21
-237.19422700000001
 31
0.0
  0
LINE
  5
18E3
  8
DETAIL
  6
CONTINUOUS
 62
     5
 10
159.80535599999979
 20
-236.56581999999989
 30
0.0
 11
159.65716499999991
 21
-236.889027
 31
0.0
  0
LINE
  5
18E4
  8
DETAIL
  6
CONTINUOUS
 62
     5
 10
159.91296999999969
 20
-236.22692799999999
 30
0.0
 11
159.80535599999979
 21
-236.56581999999989
 31
0.0
  0
LINE
  5
18E5
  8
DETAIL
  6
CONTINUOUS
 62
     5
 10
159.978274
 20
-235.87693400000001
 30
0.0
 11
159.91296999999969
 21
-236.22692799999999
 31
0.0
  0
LINE
  5
18E6
  8
DETAIL
  6
CONTINUOUS
 62
     5
 10
160.0
 20
-235.5235839999998
 30
0.0
 11
159.978274
 21
-235.87693400000001
 31
0.0
  0
LINE
  5
18E7
  8
DETAIL
  6
CONTINUOUS
 62
     5
 10
160.0
 20
-235.5235839999998
 30
0.0
 11
160.0
 21
-228.4642419999999
 31
0.0
  0
LINE
  5
18E8
  8
DETAIL
  6
CONTINUOUS
 62
     5
 10
157.0
 20
-238.46497600000001
 30
0.0
 11
157.0
 21
-238.34695699999989
 31
0.0
  0
LINE
  5
18E9
  8
DETAIL
  6
CONTINUOUS
 62
     5
 10
159.978274
 20
-235.75891499999989
 30
0.0
 11
159.992771
 21
-235.5231389999999
 31
0.0
  0
LINE
  5
18EA
  8
DETAIL
  6
CONTINUOUS
 62
     5
 10
159.91296999999969
 20
-236.10891000000001
 30
0.0
 11
159.978274
 21
-235.75891499999989
 31
0.0
  0
LINE
  5
18EB
  8
DETAIL
  6
CONTINUOUS
 62
     5
 10
159.80535599999979
 20
-236.44780099999991
 30
0.0
 11
159.91296999999969
 21
-236.10891000000001
 31
0.0
  0
LINE
  5
18EC
  8
DETAIL
  6
CONTINUOUS
 62
     5
 10
159.65716499999991
 20
-236.77100799999999
 30
0.0
 11
159.80535599999979
 21
-236.44780099999991
 31
0.0
  0
LINE
  5
18ED
  8
DETAIL
  6
CONTINUOUS
 62
     5
 10
159.469133
 20
-237.07620799999989
 30
0.0
 11
159.65716499999991
 21
-236.77100799999999
 31
0.0
  0
LINE
  5
18EE
  8
DETAIL
  6
CONTINUOUS
 62
     5
 10
159.24517399999999
 20
-237.35646499999999
 30
0.0
 11
159.469133
 21
-237.07620799999989
 31
0.0
  0
LINE
  5
18EF
  8
DETAIL
  6
CONTINUOUS
 62
     5
 10
158.9898849999999
 20
-237.60677899999999
 30
0.0
 11
159.24517399999999
 21
-237.35646499999999
 31
0.0
  0
LINE
  5
18F0
  8
DETAIL
  6
CONTINUOUS
 62
     5
 10
158.7040129999998
 20
-237.82640599999991
 30
0.0
 11
158.9898849999999
 21
-237.60677899999999
 31
0.0
  0
LINE
  5
18F1
  8
DETAIL
  6
CONTINUOUS
 62
     5
 10
158.39274399999999
 20
-238.01077100000001
 30
0.0
 11
158.7040129999998
 21
-237.82640599999991
 31
0.0
  0
LINE
  5
18F2
  8
DETAIL
  6
CONTINUOUS
 62
     5
 10
158.0631469999999
 20
-238.15606299999999
 30
0.0
 11
158.39274399999999
 21
-238.01077100000001
 31
0.0
  0
LINE
  5
18F3
  8
DETAIL
  6
CONTINUOUS
 62
     5
 10
157.71744200000001
 20
-238.26160699999991
 30
0.0
 11
158.0631469999999
 21
-238.15606299999999
 31
0.0
  0
LINE
  5
18F4
  8
DETAIL
  6
CONTINUOUS
 62
     5
 10
157.36039599999981
 20
-238.32565500000001
 30
0.0
 11
157.71744200000001
 21
-238.26160699999991
 31
0.0
  0
LINE
  5
18F5
  8
DETAIL
  6
CONTINUOUS
 62
     5
 10
157.0
 20
-238.34695699999989
 30
0.0
 11
157.36039599999981
 21
-238.32565500000001
 31
0.0
  0
LINE
  5
18F6
  8
DETAIL
  6
CONTINUOUS
 62
     5
 10
157.36039599999981
 20
-223.73671200000001
 30
0.0
 11
157.0
 21
-223.75801399999989
 31
0.0
  0
LINE
  5
18F7
  8
DETAIL
  6
CONTINUOUS
 62
     5
 10
157.71744200000001
 20
-223.67266499999999
 30
0.0
 11
157.36039599999981
 21
-223.73671200000001
 31
0.0
  0
LINE
  5
18F8
  8
DETAIL
  6
CONTINUOUS
 62
     5
 10
158.0631469999999
 20
-223.56711999999999
 30
0.0
 11
157.71744200000001
 21
-223.67266499999999
 31
0.0
  0
LINE
  5
18F9
  8
DETAIL
  6
CONTINUOUS
 62
     5
 10
158.39274399999999
 20
-223.42182799999989
 30
0.0
 11
158.0631469999999
 21
-223.56711999999999
 31
0.0
  0
LINE
  5
18FA
  8
DETAIL
  6
CONTINUOUS
 62
     5
 10
158.7040129999998
 20
-223.23746299999991
 30
0.0
 11
158.39274399999999
 21
-223.42182799999989
 31
0.0
  0
LINE
  5
18FB
  8
DETAIL
  6
CONTINUOUS
 62
     5
 10
158.9898849999999
 20
-223.01783599999999
 30
0.0
 11
158.7040129999998
 21
-223.23746299999991
 31
0.0
  0
LINE
  5
18FC
  8
DETAIL
  6
CONTINUOUS
 62
     5
 10
159.24517399999999
 20
-222.76752300000001
 30
0.0
 11
158.9898849999999
 21
-223.01783599999999
 31
0.0
  0
LINE
  5
18FD
  8
DETAIL
  6
CONTINUOUS
 62
     5
 10
159.469133
 20
-222.48726599999989
 30
0.0
 11
159.24517399999999
 21
-222.76752300000001
 31
0.0
  0
LINE
  5
18FE
  8
DETAIL
  6
CONTINUOUS
 62
     5
 10
159.65716499999991
 20
-222.18206499999999
 30
0.0
 11
159.469133
 21
-222.48726599999989
 31
0.0
  0
LINE
  5
18FF
  8
DETAIL
  6
CONTINUOUS
 62
     5
 10
159.80535599999979
 20
-221.858858
 30
0.0
 11
159.65716499999991
 21
-222.18206499999999
 31
0.0
  0
LINE
  5
1900
  8
DETAIL
  6
CONTINUOUS
 62
     5
 10
159.91296999999969
 20
-221.51996700000001
 30
0.0
 11
159.80535599999979
 21
-221.858858
 31
0.0
  0
LINE
  5
1901
  8
DETAIL
  6
CONTINUOUS
 62
     5
 10
159.978274
 20
-221.16997199999989
 30
0.0
 11
159.91296999999969
 21
-221.51996700000001
 31
0.0
  0
LINE
  5
1902
  8
DETAIL
  6
CONTINUOUS
 62
     5
 10
160.0
 20
-220.8166219999998
 30
0.0
 11
159.978274
 21
-221.16997199999989
 31
0.0
  0
LINE
  5
1903
  8
DETAIL
  6
CONTINUOUS
 62
     5
 10
157.36039599999981
 20
-209.029751
 30
0.0
 11
157.0
 21
-209.051052
 31
0.0
  0
LINE
  5
1904
  8
DETAIL
  6
CONTINUOUS
 62
     5
 10
157.71744200000001
 20
-208.96570299999999
 30
0.0
 11
157.36039599999981
 21
-209.029751
 31
0.0
  0
LINE
  5
1905
  8
DETAIL
  6
CONTINUOUS
 62
     5
 10
158.0631469999999
 20
-208.86015800000001
 30
0.0
 11
157.71744200000001
 21
-208.96570299999999
 31
0.0
  0
LINE
  5
1906
  8
DETAIL
  6
CONTINUOUS
 62
     5
 10
158.39274399999999
 20
-208.71486699999991
 30
0.0
 11
158.0631469999999
 21
-208.86015800000001
 31
0.0
  0
LINE
  5
1907
  8
DETAIL
  6
CONTINUOUS
 62
     5
 10
158.7040129999998
 20
-208.5305009999999
 30
0.0
 11
158.39274399999999
 21
-208.71486699999991
 31
0.0
  0
LINE
  5
1908
  8
DETAIL
  6
CONTINUOUS
 62
     5
 10
158.9898849999999
 20
-208.31087500000001
 30
0.0
 11
158.7040129999998
 21
-208.5305009999999
 31
0.0
  0
LINE
  5
1909
  8
DETAIL
  6
CONTINUOUS
 62
     5
 10
159.24517399999999
 20
-208.06056100000001
 30
0.0
 11
158.9898849999999
 21
-208.31087500000001
 31
0.0
  0
LINE
  5
190A
  8
DETAIL
  6
CONTINUOUS
 62
     5
 10
159.469133
 20
-207.780304
 30
0.0
 11
159.24517399999999
 21
-208.06056100000001
 31
0.0
  0
LINE
  5
190B
  8
DETAIL
  6
CONTINUOUS
 62
     5
 10
159.65716499999991
 20
-207.4751039999999
 30
0.0
 11
159.469133
 21
-207.780304
 31
0.0
  0
LINE
  5
190C
  8
DETAIL
  6
CONTINUOUS
 62
     5
 10
159.80535599999979
 20
-207.15189699999999
 30
0.0
 11
159.65716499999991
 21
-207.4751039999999
 31
0.0
  0
LINE
  5
190D
  8
DETAIL
  6
CONTINUOUS
 62
     5
 10
159.91296999999969
 20
-206.813005
 30
0.0
 11
159.80535599999979
 21
-207.15189699999999
 31
0.0
  0
LINE
  5
190E
  8
DETAIL
  6
CONTINUOUS
 62
     5
 10
159.978274
 20
-206.46301099999991
 30
0.0
 11
159.91296999999969
 21
-206.813005
 31
0.0
  0
LINE
  5
190F
  8
DETAIL
  6
CONTINUOUS
 62
     5
 10
160.0
 20
-206.10965999999991
 30
0.0
 11
159.978274
 21
-206.46301099999991
 31
0.0
  0
LINE
  5
1910
  8
DETAIL
  6
CONTINUOUS
 62
     5
 10
160.0
 20
-220.8166219999998
 30
0.0
 11
160.0
 21
-213.75728000000001
 31
0.0
  0
LINE
  5
1911
  8
DETAIL
  6
CONTINUOUS
 62
     5
 10
157.0
 20
-209.051052
 30
0.0
 11
157.0
 21
-208.93303399999999
 31
0.0
  0
LINE
  5
1912
  8
DETAIL
  6
CONTINUOUS
 62
     5
 10
157.0
 20
-223.75801399999989
 30
0.0
 11
157.0
 21
-223.639995
 31
0.0
  0
LINE
  5
1913
  8
DETAIL
  6
CONTINUOUS
 62
     5
 10
159.978274
 20
-206.34499199999999
 30
0.0
 11
159.992771
 21
-206.109216
 31
0.0
  0
LINE
  5
1914
  8
DETAIL
  6
CONTINUOUS
 62
     5
 10
159.91296999999969
 20
-206.694986
 30
0.0
 11
159.978274
 21
-206.34499199999999
 31
0.0
  0
LINE
  5
1915
  8
DETAIL
  6
CONTINUOUS
 62
     5
 10
159.80535599999979
 20
-207.0338779999999
 30
0.0
 11
159.91296999999969
 21
-206.694986
 31
0.0
  0
LINE
  5
1916
  8
DETAIL
  6
CONTINUOUS
 62
     5
 10
159.65716499999991
 20
-207.35708500000001
 30
0.0
 11
159.80535599999979
 21
-207.0338779999999
 31
0.0
  0
LINE
  5
1917
  8
DETAIL
  6
CONTINUOUS
 62
     5
 10
159.469133
 20
-207.662285
 30
0.0
 11
159.65716499999991
 21
-207.35708500000001
 31
0.0
  0
LINE
  5
1918
  8
DETAIL
  6
CONTINUOUS
 62
     5
 10
159.24517399999999
 20
-207.942542
 30
0.0
 11
159.469133
 21
-207.662285
 31
0.0
  0
LINE
  5
1919
  8
DETAIL
  6
CONTINUOUS
 62
     5
 10
158.9898849999999
 20
-208.19285600000001
 30
0.0
 11
159.24517399999999
 21
-207.942542
 31
0.0
  0
LINE
  5
191A
  8
DETAIL
  6
CONTINUOUS
 62
     5
 10
158.7040129999998
 20
-208.4124819999999
 30
0.0
 11
158.9898849999999
 21
-208.19285600000001
 31
0.0
  0
LINE
  5
191B
  8
DETAIL
  6
CONTINUOUS
 62
     5
 10
158.39274399999999
 20
-208.59684799999999
 30
0.0
 11
158.7040129999998
 21
-208.4124819999999
 31
0.0
  0
LINE
  5
191C
  8
DETAIL
  6
CONTINUOUS
 62
     5
 10
158.0631469999999
 20
-208.7421389999999
 30
0.0
 11
158.39274399999999
 21
-208.59684799999999
 31
0.0
  0
LINE
  5
191D
  8
DETAIL
  6
CONTINUOUS
 62
     5
 10
157.71744200000001
 20
-208.8476839999999
 30
0.0
 11
158.0631469999999
 21
-208.7421389999999
 31
0.0
  0
LINE
  5
191E
  8
DETAIL
  6
CONTINUOUS
 62
     5
 10
157.36039599999981
 20
-208.911732
 30
0.0
 11
157.71744200000001
 21
-208.8476839999999
 31
0.0
  0
LINE
  5
191F
  8
DETAIL
  6
CONTINUOUS
 62
     5
 10
157.0
 20
-208.93303399999999
 30
0.0
 11
157.36039599999981
 21
-208.911732
 31
0.0
  0
LINE
  5
1920
  8
DETAIL
  6
CONTINUOUS
 62
     5
 10
159.978274
 20
-221.05195299999991
 30
0.0
 11
159.992771
 21
-220.81617700000001
 31
0.0
  0
LINE
  5
1921
  8
DETAIL
  6
CONTINUOUS
 62
     5
 10
159.91296999999969
 20
-221.401948
 30
0.0
 11
159.978274
 21
-221.05195299999991
 31
0.0
  0
LINE
  5
1922
  8
DETAIL
  6
CONTINUOUS
 62
     5
 10
159.80535599999979
 20
-221.74083899999999
 30
0.0
 11
159.91296999999969
 21
-221.401948
 31
0.0
  0
LINE
  5
1923
  8
DETAIL
  6
CONTINUOUS
 62
     5
 10
159.65716499999991
 20
-222.0640469999999
 30
0.0
 11
159.80535599999979
 21
-221.74083899999999
 31
0.0
  0
LINE
  5
1924
  8
DETAIL
  6
CONTINUOUS
 62
     5
 10
159.469133
 20
-222.369247
 30
0.0
 11
159.65716499999991
 21
-222.0640469999999
 31
0.0
  0
LINE
  5
1925
  8
DETAIL
  6
CONTINUOUS
 62
     5
 10
159.24517399999999
 20
-222.64950400000001
 30
0.0
 11
159.469133
 21
-222.369247
 31
0.0
  0
LINE
  5
1926
  8
DETAIL
  6
CONTINUOUS
 62
     5
 10
158.9898849999999
 20
-222.89981800000001
 30
0.0
 11
159.24517399999999
 21
-222.64950400000001
 31
0.0
  0
LINE
  5
1927
  8
DETAIL
  6
CONTINUOUS
 62
     5
 10
158.7040129999998
 20
-223.1194439999999
 30
0.0
 11
158.9898849999999
 21
-222.89981800000001
 31
0.0
  0
LINE
  5
1928
  8
DETAIL
  6
CONTINUOUS
 62
     5
 10
158.39274399999999
 20
-223.30380899999989
 30
0.0
 11
158.7040129999998
 21
-223.1194439999999
 31
0.0
  0
LINE
  5
1929
  8
DETAIL
  6
CONTINUOUS
 62
     5
 10
158.0631469999999
 20
-223.44910100000001
 30
0.0
 11
158.39274399999999
 21
-223.30380899999989
 31
0.0
  0
LINE
  5
192A
  8
DETAIL
  6
CONTINUOUS
 62
     5
 10
157.71744200000001
 20
-223.55464599999999
 30
0.0
 11
158.0631469999999
 21
-223.44910100000001
 31
0.0
  0
LINE
  5
192B
  8
DETAIL
  6
CONTINUOUS
 62
     5
 10
157.36039599999981
 20
-223.618694
 30
0.0
 11
157.71744200000001
 21
-223.55464599999999
 31
0.0
  0
LINE
  5
192C
  8
DETAIL
  6
CONTINUOUS
 62
     5
 10
157.0
 20
-223.639995
 30
0.0
 11
157.36039599999981
 21
-223.618694
 31
0.0
  0
LINE
  5
192D
  8
DETAIL
  6
CONTINUOUS
 62
     5
 10
183.0
 20
-238.46497600000001
 30
0.0
 11
183.0
 21
-238.34695699999989
 31
0.0
  0
LINE
  5
192E
  8
DETAIL
  6
CONTINUOUS
 62
     5
 10
180.0
 20
-228.4642419999999
 30
0.0
 11
180.0
 21
-235.5235839999998
 31
0.0
  0
LINE
  5
192F
  8
DETAIL
  6
CONTINUOUS
 62
     5
 10
182.63960900000001
 20
-238.3256559999999
 30
0.0
 11
183.0
 21
-238.34695699999989
 31
0.0
  0
LINE
  5
1930
  8
DETAIL
  6
CONTINUOUS
 62
     5
 10
182.28264100000001
 20
-238.2616279999998
 30
0.0
 11
182.63960900000001
 21
-238.3256559999999
 31
0.0
  0
LINE
  5
1931
  8
DETAIL
  6
CONTINUOUS
 62
     5
 10
181.93699699999991
 20
-238.15611599999991
 30
0.0
 11
182.28264100000001
 21
-238.2616279999998
 31
0.0
  0
LINE
  5
1932
  8
DETAIL
  6
CONTINUOUS
 62
     5
 10
181.60734999999991
 20
-238.01082
 30
0.0
 11
181.93699699999991
 21
-238.15611599999991
 31
0.0
  0
LINE
  5
1933
  8
DETAIL
  6
CONTINUOUS
 62
     5
 10
181.29606799999991
 20
-237.82646099999999
 30
0.0
 11
181.60734999999991
 21
-238.01082
 31
0.0
  0
LINE
  5
1934
  8
DETAIL
  6
CONTINUOUS
 62
     5
 10
181.0102269999999
 20
-237.60687699999991
 30
0.0
 11
181.29606799999991
 21
-237.82646099999999
 31
0.0
  0
LINE
  5
1935
  8
DETAIL
  6
CONTINUOUS
 62
     5
 10
180.75492600000001
 20
-237.3565759999999
 30
0.0
 11
181.0102269999999
 21
-237.60687699999991
 31
0.0
  0
LINE
  5
1936
  8
DETAIL
  6
CONTINUOUS
 62
     5
 10
180.53092399999991
 20
-237.07628899999989
 30
0.0
 11
180.75492600000001
 21
-237.3565759999999
 31
0.0
  0
LINE
  5
1937
  8
DETAIL
  6
CONTINUOUS
 62
     5
 10
180.342884
 20
-236.7711009999999
 30
0.0
 11
180.53092399999991
 21
-237.07628899999989
 31
0.0
  0
LINE
  5
1938
  8
DETAIL
  6
CONTINUOUS
 62
     5
 10
180.1946979999999
 20
-236.4479419999999
 30
0.0
 11
180.342884
 21
-236.7711009999999
 31
0.0
  0
LINE
  5
1939
  8
DETAIL
  6
CONTINUOUS
 62
     5
 10
180.08704999999981
 20
-236.108991
 30
0.0
 11
180.1946979999999
 21
-236.4479419999999
 31
0.0
  0
LINE
  5
193A
  8
DETAIL
  6
CONTINUOUS
 62
     5
 10
180.021726
 20
-235.75891999999999
 30
0.0
 11
180.08704999999981
 21
-236.108991
 31
0.0
  0
LINE
  5
193B
  8
DETAIL
  6
CONTINUOUS
 62
     5
 10
180.00722899999991
 20
-235.5231389999999
 30
0.0
 11
180.021726
 21
-235.75891999999999
 31
0.0
  0
LINE
  5
193C
  8
DETAIL
  6
CONTINUOUS
 62
     5
 10
180.021726
 20
-235.87693899999991
 30
0.0
 11
180.0
 21
-235.5235839999998
 31
0.0
  0
LINE
  5
193D
  8
DETAIL
  6
CONTINUOUS
 62
     5
 10
180.08704999999981
 20
-236.22700999999989
 30
0.0
 11
180.021726
 21
-235.87693899999991
 31
0.0
  0
LINE
  5
193E
  8
DETAIL
  6
CONTINUOUS
 62
     5
 10
180.1946979999999
 20
-236.5659609999999
 30
0.0
 11
180.08704999999981
 21
-236.22700999999989
 31
0.0
  0
LINE
  5
193F
  8
DETAIL
  6
CONTINUOUS
 62
     5
 10
180.342884
 20
-236.88911999999991
 30
0.0
 11
180.1946979999999
 21
-236.5659609999999
 31
0.0
  0
LINE
  5
1940
  8
DETAIL
  6
CONTINUOUS
 62
     5
 10
180.53092399999991
 20
-237.19430800000001
 30
0.0
 11
180.342884
 21
-236.88911999999991
 31
0.0
  0
LINE
  5
1941
  8
DETAIL
  6
CONTINUOUS
 62
     5
 10
180.75492600000001
 20
-237.47459399999991
 30
0.0
 11
180.53092399999991
 21
-237.19430800000001
 31
0.0
  0
LINE
  5
1942
  8
DETAIL
  6
CONTINUOUS
 62
     5
 10
181.0102269999999
 20
-237.724896
 30
0.0
 11
180.75492600000001
 21
-237.47459399999991
 31
0.0
  0
LINE
  5
1943
  8
DETAIL
  6
CONTINUOUS
 62
     5
 10
181.29606799999991
 20
-237.94447999999991
 30
0.0
 11
181.0102269999999
 21
-237.724896
 31
0.0
  0
LINE
  5
1944
  8
DETAIL
  6
CONTINUOUS
 62
     5
 10
181.60734999999991
 20
-238.12883799999989
 30
0.0
 11
181.29606799999991
 21
-237.94447999999991
 31
0.0
  0
LINE
  5
1945
  8
DETAIL
  6
CONTINUOUS
 62
     5
 10
181.93699699999991
 20
-238.2741349999998
 30
0.0
 11
181.60734999999991
 21
-238.12883799999989
 31
0.0
  0
LINE
  5
1946
  8
DETAIL
  6
CONTINUOUS
 62
     5
 10
182.28264100000001
 20
-238.37964600000001
 30
0.0
 11
181.93699699999991
 21
-238.2741349999998
 31
0.0
  0
LINE
  5
1947
  8
DETAIL
  6
CONTINUOUS
 62
     5
 10
182.63960900000001
 20
-238.44367500000001
 30
0.0
 11
182.28264100000001
 21
-238.37964600000001
 31
0.0
  0
LINE
  5
1948
  8
DETAIL
  6
CONTINUOUS
 62
     5
 10
183.0
 20
-238.46497600000001
 30
0.0
 11
182.63960900000001
 21
-238.44367500000001
 31
0.0
  0
LINE
  5
1949
  8
DETAIL
  6
CONTINUOUS
 62
     5
 10
183.0
 20
-209.051052
 30
0.0
 11
183.0
 21
-208.93303399999999
 31
0.0
  0
LINE
  5
194A
  8
DETAIL
  6
CONTINUOUS
 62
     5
 10
183.0
 20
-223.75801399999989
 30
0.0
 11
183.0
 21
-223.639995
 31
0.0
  0
LINE
  5
194B
  8
DETAIL
  6
CONTINUOUS
 62
     5
 10
180.0
 20
-213.75728000000001
 30
0.0
 11
180.0
 21
-220.8166219999998
 31
0.0
  0
LINE
  5
194C
  8
DETAIL
  6
CONTINUOUS
 62
     5
 10
182.63960900000001
 20
-208.911732
 30
0.0
 11
183.0
 21
-208.93303399999999
 31
0.0
  0
LINE
  5
194D
  8
DETAIL
  6
CONTINUOUS
 62
     5
 10
182.28264100000001
 20
-208.84770399999991
 30
0.0
 11
182.63960900000001
 21
-208.911732
 31
0.0
  0
LINE
  5
194E
  8
DETAIL
  6
CONTINUOUS
 62
     5
 10
181.93699699999991
 20
-208.74219299999999
 30
0.0
 11
182.28264100000001
 21
-208.84770399999991
 31
0.0
  0
LINE
  5
194F
  8
DETAIL
  6
CONTINUOUS
 62
     5
 10
181.60734999999991
 20
-208.5968959999999
 30
0.0
 11
181.93699699999991
 21
-208.74219299999999
 31
0.0
  0
LINE
  5
1950
  8
DETAIL
  6
CONTINUOUS
 62
     5
 10
181.29606799999991
 20
-208.4125379999999
 30
0.0
 11
181.60734999999991
 21
-208.5968959999999
 31
0.0
  0
LINE
  5
1951
  8
DETAIL
  6
CONTINUOUS
 62
     5
 10
181.0102269999999
 20
-208.1929539999999
 30
0.0
 11
181.29606799999991
 21
-208.4125379999999
 31
0.0
  0
LINE
  5
1952
  8
DETAIL
  6
CONTINUOUS
 62
     5
 10
180.75492600000001
 20
-207.94265200000001
 30
0.0
 11
181.0102269999999
 21
-208.1929539999999
 31
0.0
  0
LINE
  5
1953
  8
DETAIL
  6
CONTINUOUS
 62
     5
 10
180.53092399999991
 20
-207.66236499999999
 30
0.0
 11
180.75492600000001
 21
-207.94265200000001
 31
0.0
  0
LINE
  5
1954
  8
DETAIL
  6
CONTINUOUS
 62
     5
 10
180.342884
 20
-207.35717700000001
 30
0.0
 11
180.53092399999991
 21
-207.66236499999999
 31
0.0
  0
LINE
  5
1955
  8
DETAIL
  6
CONTINUOUS
 62
     5
 10
180.1946979999999
 20
-207.034019
 30
0.0
 11
180.342884
 21
-207.35717700000001
 31
0.0
  0
LINE
  5
1956
  8
DETAIL
  6
CONTINUOUS
 62
     5
 10
180.08704999999981
 20
-206.69506799999999
 30
0.0
 11
180.1946979999999
 21
-207.034019
 31
0.0
  0
LINE
  5
1957
  8
DETAIL
  6
CONTINUOUS
 62
     5
 10
180.021726
 20
-206.34499700000001
 30
0.0
 11
180.08704999999981
 21
-206.69506799999999
 31
0.0
  0
LINE
  5
1958
  8
DETAIL
  6
CONTINUOUS
 62
     5
 10
180.00722899999991
 20
-206.109216
 30
0.0
 11
180.021726
 21
-206.34499700000001
 31
0.0
  0
LINE
  5
1959
  8
DETAIL
  6
CONTINUOUS
 62
     5
 10
182.63960900000001
 20
-223.618694
 30
0.0
 11
183.0
 21
-223.639995
 31
0.0
  0
LINE
  5
195A
  8
DETAIL
  6
CONTINUOUS
 62
     5
 10
182.28264100000001
 20
-223.554666
 30
0.0
 11
182.63960900000001
 21
-223.618694
 31
0.0
  0
LINE
  5
195B
  8
DETAIL
  6
CONTINUOUS
 62
     5
 10
181.93699699999991
 20
-223.44915399999999
 30
0.0
 11
182.28264100000001
 21
-223.554666
 31
0.0
  0
LINE
  5
195C
  8
DETAIL
  6
CONTINUOUS
 62
     5
 10
181.60734999999991
 20
-223.30385799999999
 30
0.0
 11
181.93699699999991
 21
-223.44915399999999
 31
0.0
  0
LINE
  5
195D
  8
DETAIL
  6
CONTINUOUS
 62
     5
 10
181.29606799999991
 20
-223.11949899999999
 30
0.0
 11
181.60734999999991
 21
-223.30385799999999
 31
0.0
  0
LINE
  5
195E
  8
DETAIL
  6
CONTINUOUS
 62
     5
 10
181.0102269999999
 20
-222.89991499999991
 30
0.0
 11
181.29606799999991
 21
-223.11949899999999
 31
0.0
  0
LINE
  5
195F
  8
DETAIL
  6
CONTINUOUS
 62
     5
 10
180.75492600000001
 20
-222.64961400000001
 30
0.0
 11
181.0102269999999
 21
-222.89991499999991
 31
0.0
  0
LINE
  5
1960
  8
DETAIL
  6
CONTINUOUS
 62
     5
 10
180.53092399999991
 20
-222.369327
 30
0.0
 11
180.75492600000001
 21
-222.64961400000001
 31
0.0
  0
LINE
  5
1961
  8
DETAIL
  6
CONTINUOUS
 62
     5
 10
180.342884
 20
-222.0641389999999
 30
0.0
 11
180.53092399999991
 21
-222.369327
 31
0.0
  0
LINE
  5
1962
  8
DETAIL
  6
CONTINUOUS
 62
     5
 10
180.1946979999999
 20
-221.74097999999989
 30
0.0
 11
180.342884
 21
-222.0641389999999
 31
0.0
  0
LINE
  5
1963
  8
DETAIL
  6
CONTINUOUS
 62
     5
 10
180.08704999999981
 20
-221.40202999999991
 30
0.0
 11
180.1946979999999
 21
-221.74097999999989
 31
0.0
  0
LINE
  5
1964
  8
DETAIL
  6
CONTINUOUS
 62
     5
 10
180.021726
 20
-221.05195800000001
 30
0.0
 11
180.08704999999981
 21
-221.40202999999991
 31
0.0
  0
LINE
  5
1965
  8
DETAIL
  6
CONTINUOUS
 62
     5
 10
180.00722899999991
 20
-220.81617700000001
 30
0.0
 11
180.021726
 21
-221.05195800000001
 31
0.0
  0
LINE
  5
1966
  8
DETAIL
  6
CONTINUOUS
 62
     5
 10
180.021726
 20
-206.4630149999999
 30
0.0
 11
180.0
 21
-206.10965999999991
 31
0.0
  0
LINE
  5
1967
  8
DETAIL
  6
CONTINUOUS
 62
     5
 10
180.08704999999981
 20
-206.813087
 30
0.0
 11
180.021726
 21
-206.4630149999999
 31
0.0
  0
LINE
  5
1968
  8
DETAIL
  6
CONTINUOUS
 62
     5
 10
180.1946979999999
 20
-207.15203699999989
 30
0.0
 11
180.08704999999981
 21
-206.813087
 31
0.0
  0
LINE
  5
1969
  8
DETAIL
  6
CONTINUOUS
 62
     5
 10
180.342884
 20
-207.4751959999999
 30
0.0
 11
180.1946979999999
 21
-207.15203699999989
 31
0.0
  0
LINE
  5
196A
  8
DETAIL
  6
CONTINUOUS
 62
     5
 10
180.53092399999991
 20
-207.780384
 30
0.0
 11
180.342884
 21
-207.4751959999999
 31
0.0
  0
LINE
  5
196B
  8
DETAIL
  6
CONTINUOUS
 62
     5
 10
180.75492600000001
 20
-208.06067100000001
 30
0.0
 11
180.53092399999991
 21
-207.780384
 31
0.0
  0
LINE
  5
196C
  8
DETAIL
  6
CONTINUOUS
 62
     5
 10
181.0102269999999
 20
-208.31097199999991
 30
0.0
 11
180.75492600000001
 21
-208.06067100000001
 31
0.0
  0
LINE
  5
196D
  8
DETAIL
  6
CONTINUOUS
 62
     5
 10
181.29606799999991
 20
-208.53055599999999
 30
0.0
 11
181.0102269999999
 21
-208.31097199999991
 31
0.0
  0
LINE
  5
196E
  8
DETAIL
  6
CONTINUOUS
 62
     5
 10
181.60734999999991
 20
-208.71491499999999
 30
0.0
 11
181.29606799999991
 21
-208.53055599999999
 31
0.0
  0
LINE
  5
196F
  8
DETAIL
  6
CONTINUOUS
 62
     5
 10
181.93699699999991
 20
-208.86021099999999
 30
0.0
 11
181.60734999999991
 21
-208.71491499999999
 31
0.0
  0
LINE
  5
1970
  8
DETAIL
  6
CONTINUOUS
 62
     5
 10
182.28264100000001
 20
-208.96572299999991
 30
0.0
 11
181.93699699999991
 21
-208.86021099999999
 31
0.0
  0
LINE
  5
1971
  8
DETAIL
  6
CONTINUOUS
 62
     5
 10
182.63960900000001
 20
-209.029751
 30
0.0
 11
182.28264100000001
 21
-208.96572299999991
 31
0.0
  0
LINE
  5
1972
  8
DETAIL
  6
CONTINUOUS
 62
     5
 10
183.0
 20
-209.051052
 30
0.0
 11
182.63960900000001
 21
-209.029751
 31
0.0
  0
LINE
  5
1973
  8
DETAIL
  6
CONTINUOUS
 62
     5
 10
180.021726
 20
-221.16997699999999
 30
0.0
 11
180.0
 21
-220.8166219999998
 31
0.0
  0
LINE
  5
1974
  8
DETAIL
  6
CONTINUOUS
 62
     5
 10
180.08704999999981
 20
-221.520048
 30
0.0
 11
180.021726
 21
-221.16997699999999
 31
0.0
  0
LINE
  5
1975
  8
DETAIL
  6
CONTINUOUS
 62
     5
 10
180.1946979999999
 20
-221.85899900000001
 30
0.0
 11
180.08704999999981
 21
-221.520048
 31
0.0
  0
LINE
  5
1976
  8
DETAIL
  6
CONTINUOUS
 62
     5
 10
180.342884
 20
-222.1821579999999
 30
0.0
 11
180.1946979999999
 21
-221.85899900000001
 31
0.0
  0
LINE
  5
1977
  8
DETAIL
  6
CONTINUOUS
 62
     5
 10
180.53092399999991
 20
-222.48734599999989
 30
0.0
 11
180.342884
 21
-222.1821579999999
 31
0.0
  0
LINE
  5
1978
  8
DETAIL
  6
CONTINUOUS
 62
     5
 10
180.75492600000001
 20
-222.7676329999999
 30
0.0
 11
180.53092399999991
 21
-222.48734599999989
 31
0.0
  0
LINE
  5
1979
  8
DETAIL
  6
CONTINUOUS
 62
     5
 10
181.0102269999999
 20
-223.0179339999998
 30
0.0
 11
180.75492600000001
 21
-222.7676329999999
 31
0.0
  0
LINE
  5
197A
  8
DETAIL
  6
CONTINUOUS
 62
     5
 10
181.29606799999991
 20
-223.23751799999999
 30
0.0
 11
181.0102269999999
 21
-223.0179339999998
 31
0.0
  0
LINE
  5
197B
  8
DETAIL
  6
CONTINUOUS
 62
     5
 10
181.60734999999991
 20
-223.42187699999999
 30
0.0
 11
181.29606799999991
 21
-223.23751799999999
 31
0.0
  0
LINE
  5
197C
  8
DETAIL
  6
CONTINUOUS
 62
     5
 10
181.93699699999991
 20
-223.56717299999991
 30
0.0
 11
181.60734999999991
 21
-223.42187699999999
 31
0.0
  0
LINE
  5
197D
  8
DETAIL
  6
CONTINUOUS
 62
     5
 10
182.28264100000001
 20
-223.672685
 30
0.0
 11
181.93699699999991
 21
-223.56717299999991
 31
0.0
  0
LINE
  5
197E
  8
DETAIL
  6
CONTINUOUS
 62
     5
 10
182.63960900000001
 20
-223.7367129999999
 30
0.0
 11
182.28264100000001
 21
-223.672685
 31
0.0
  0
LINE
  5
197F
  8
DETAIL
  6
CONTINUOUS
 62
     5
 10
183.0
 20
-223.75801399999989
 30
0.0
 11
182.63960900000001
 21
-223.7367129999999
 31
0.0
  0
LINE
  5
1980
  8
DETAIL
  6
CONTINUOUS
 62
     5
 10
160.0
 20
-147.281813
 30
0.0
 11
160.0
 21
-140.2224719999999
 31
0.0
  0
LINE
  5
1981
  8
DETAIL
  6
CONTINUOUS
 62
     5
 10
157.36039599999981
 20
-194.322789
 30
0.0
 11
157.0
 21
-194.34409099999991
 31
0.0
  0
LINE
  5
1982
  8
DETAIL
  6
CONTINUOUS
 62
     5
 10
157.71744200000001
 20
-194.2587409999999
 30
0.0
 11
157.36039599999981
 21
-194.322789
 31
0.0
  0
LINE
  5
1983
  8
DETAIL
  6
CONTINUOUS
 62
     5
 10
158.0631469999999
 20
-194.15319600000001
 30
0.0
 11
157.71744200000001
 21
-194.2587409999999
 31
0.0
  0
LINE
  5
1984
  8
DETAIL
  6
CONTINUOUS
 62
     5
 10
158.39274399999999
 20
-194.00790499999991
 30
0.0
 11
158.0631469999999
 21
-194.15319600000001
 31
0.0
  0
LINE
  5
1985
  8
DETAIL
  6
CONTINUOUS
 62
     5
 10
158.7040129999998
 20
-193.8235389999999
 30
0.0
 11
158.39274399999999
 21
-194.00790499999991
 31
0.0
  0
LINE
  5
1986
  8
DETAIL
  6
CONTINUOUS
 62
     5
 10
158.9898849999999
 20
-193.60391299999989
 30
0.0
 11
158.7040129999998
 21
-193.8235389999999
 31
0.0
  0
LINE
  5
1987
  8
DETAIL
  6
CONTINUOUS
 62
     5
 10
159.24517399999999
 20
-193.353599
 30
0.0
 11
158.9898849999999
 21
-193.60391299999989
 31
0.0
  0
LINE
  5
1988
  8
DETAIL
  6
CONTINUOUS
 62
     5
 10
159.469133
 20
-193.07334199999991
 30
0.0
 11
159.24517399999999
 21
-193.353599
 31
0.0
  0
LINE
  5
1989
  8
DETAIL
  6
CONTINUOUS
 62
     5
 10
159.65716499999991
 20
-192.7681419999999
 30
0.0
 11
159.469133
 21
-193.07334199999991
 31
0.0
  0
LINE
  5
198A
  8
DETAIL
  6
CONTINUOUS
 62
     5
 10
159.80535599999979
 20
-192.4449349999999
 30
0.0
 11
159.65716499999991
 21
-192.7681419999999
 31
0.0
  0
LINE
  5
198B
  8
DETAIL
  6
CONTINUOUS
 62
     5
 10
159.91296999999969
 20
-192.1060429999998
 30
0.0
 11
159.80535599999979
 21
-192.4449349999999
 31
0.0
  0
LINE
  5
198C
  8
DETAIL
  6
CONTINUOUS
 62
     5
 10
159.978274
 20
-191.7560489999999
 30
0.0
 11
159.91296999999969
 21
-192.1060429999998
 31
0.0
  0
LINE
  5
198D
  8
DETAIL
  6
CONTINUOUS
 62
     5
 10
160.0
 20
-191.4026979999999
 30
0.0
 11
159.978274
 21
-191.7560489999999
 31
0.0
  0
LINE
  5
198E
  8
DETAIL
  6
CONTINUOUS
 62
     5
 10
157.36039599999981
 20
-179.615827
 30
0.0
 11
157.0
 21
-179.6371289999999
 31
0.0
  0
LINE
  5
198F
  8
DETAIL
  6
CONTINUOUS
 62
     5
 10
157.71744200000001
 20
-179.55177900000001
 30
0.0
 11
157.36039599999981
 21
-179.615827
 31
0.0
  0
LINE
  5
1990
  8
DETAIL
  6
CONTINUOUS
 62
     5
 10
158.0631469999999
 20
-179.446235
 30
0.0
 11
157.71744200000001
 21
-179.55177900000001
 31
0.0
  0
LINE
  5
1991
  8
DETAIL
  6
CONTINUOUS
 62
     5
 10
158.39274399999999
 20
-179.3009429999999
 30
0.0
 11
158.0631469999999
 21
-179.446235
 31
0.0
  0
LINE
  5
1992
  8
DETAIL
  6
CONTINUOUS
 62
     5
 10
158.7040129999998
 20
-179.116578
 30
0.0
 11
158.39274399999999
 21
-179.3009429999999
 31
0.0
  0
LINE
  5
1993
  8
DETAIL
  6
CONTINUOUS
 62
     5
 10
158.9898849999999
 20
-178.896951
 30
0.0
 11
158.7040129999998
 21
-179.116578
 31
0.0
  0
LINE
  5
1994
  8
DETAIL
  6
CONTINUOUS
 62
     5
 10
159.24517399999999
 20
-178.646637
 30
0.0
 11
158.9898849999999
 21
-178.896951
 31
0.0
  0
LINE
  5
1995
  8
DETAIL
  6
CONTINUOUS
 62
     5
 10
159.469133
 20
-178.36637999999999
 30
0.0
 11
159.24517399999999
 21
-178.646637
 31
0.0
  0
LINE
  5
1996
  8
DETAIL
  6
CONTINUOUS
 62
     5
 10
159.65716499999991
 20
-178.06118000000001
 30
0.0
 11
159.469133
 21
-178.36637999999999
 31
0.0
  0
LINE
  5
1997
  8
DETAIL
  6
CONTINUOUS
 62
     5
 10
159.80535599999979
 20
-177.73797300000001
 30
0.0
 11
159.65716499999991
 21
-178.06118000000001
 31
0.0
  0
LINE
  5
1998
  8
DETAIL
  6
CONTINUOUS
 62
     5
 10
159.91296999999969
 20
-177.39908199999991
 30
0.0
 11
159.80535599999979
 21
-177.73797300000001
 31
0.0
  0
LINE
  5
1999
  8
DETAIL
  6
CONTINUOUS
 62
     5
 10
159.978274
 20
-177.0490869999999
 30
0.0
 11
159.91296999999969
 21
-177.39908199999991
 31
0.0
  0
LINE
  5
199A
  8
DETAIL
  6
CONTINUOUS
 62
     5
 10
160.0
 20
-176.69573700000001
 30
0.0
 11
159.978274
 21
-177.0490869999999
 31
0.0
  0
LINE
  5
199B
  8
DETAIL
  6
CONTINUOUS
 62
     5
 10
157.36039599999981
 20
-164.90886599999979
 30
0.0
 11
157.0
 21
-164.93016699999981
 31
0.0
  0
LINE
  5
199C
  8
DETAIL
  6
CONTINUOUS
 62
     5
 10
157.71744200000001
 20
-164.8448179999998
 30
0.0
 11
157.36039599999981
 21
-164.90886599999979
 31
0.0
  0
LINE
  5
199D
  8
DETAIL
  6
CONTINUOUS
 62
     5
 10
158.0631469999999
 20
-164.73927299999991
 30
0.0
 11
157.71744200000001
 21
-164.8448179999998
 31
0.0
  0
LINE
  5
199E
  8
DETAIL
  6
CONTINUOUS
 62
     5
 10
158.39274399999999
 20
-164.5939809999999
 30
0.0
 11
158.0631469999999
 21
-164.73927299999991
 31
0.0
  0
LINE
  5
199F
  8
DETAIL
  6
CONTINUOUS
 62
     5
 10
158.7040129999998
 20
-164.4096159999998
 30
0.0
 11
158.39274399999999
 21
-164.5939809999999
 31
0.0
  0
LINE
  5
19A0
  8
DETAIL
  6
CONTINUOUS
 62
     5
 10
158.9898849999999
 20
-164.18998999999999
 30
0.0
 11
158.7040129999998
 21
-164.4096159999998
 31
0.0
  0
LINE
  5
19A1
  8
DETAIL
  6
CONTINUOUS
 62
     5
 10
159.24517399999999
 20
-163.93967599999991
 30
0.0
 11
158.9898849999999
 21
-164.18998999999999
 31
0.0
  0
LINE
  5
19A2
  8
DETAIL
  6
CONTINUOUS
 62
     5
 10
159.469133
 20
-163.65941900000001
 30
0.0
 11
159.24517399999999
 21
-163.93967599999991
 31
0.0
  0
LINE
  5
19A3
  8
DETAIL
  6
CONTINUOUS
 62
     5
 10
159.65716499999991
 20
-163.354219
 30
0.0
 11
159.469133
 21
-163.65941900000001
 31
0.0
  0
LINE
  5
19A4
  8
DETAIL
  6
CONTINUOUS
 62
     5
 10
159.80535599999979
 20
-163.03101100000001
 30
0.0
 11
159.65716499999991
 21
-163.354219
 31
0.0
  0
LINE
  5
19A5
  8
DETAIL
  6
CONTINUOUS
 62
     5
 10
159.91296999999969
 20
-162.6921199999999
 30
0.0
 11
159.80535599999979
 21
-163.03101100000001
 31
0.0
  0
LINE
  5
19A6
  8
DETAIL
  6
CONTINUOUS
 62
     5
 10
159.978274
 20
-162.34212499999981
 30
0.0
 11
159.91296999999969
 21
-162.6921199999999
 31
0.0
  0
LINE
  5
19A7
  8
DETAIL
  6
CONTINUOUS
 62
     5
 10
160.0
 20
-161.988775
 30
0.0
 11
159.978274
 21
-162.34212499999981
 31
0.0
  0
LINE
  5
19A8
  8
DETAIL
  6
CONTINUOUS
 62
     5
 10
157.36039599999981
 20
-150.20190400000001
 30
0.0
 11
157.0
 21
-150.223206
 31
0.0
  0
LINE
  5
19A9
  8
DETAIL
  6
CONTINUOUS
 62
     5
 10
157.71744200000001
 20
-150.137856
 30
0.0
 11
157.36039599999981
 21
-150.20190400000001
 31
0.0
  0
LINE
  5
19AA
  8
DETAIL
  6
CONTINUOUS
 62
     5
 10
158.0631469999999
 20
-150.03231099999999
 30
0.0
 11
157.71744200000001
 21
-150.137856
 31
0.0
  0
LINE
  5
19AB
  8
DETAIL
  6
CONTINUOUS
 62
     5
 10
158.39274399999999
 20
-149.88701999999981
 30
0.0
 11
158.0631469999999
 21
-150.03231099999999
 31
0.0
  0
LINE
  5
19AC
  8
DETAIL
  6
CONTINUOUS
 62
     5
 10
158.7040129999998
 20
-149.702654
 30
0.0
 11
158.39274399999999
 21
-149.88701999999981
 31
0.0
  0
LINE
  5
19AD
  8
DETAIL
  6
CONTINUOUS
 62
     5
 10
158.9898849999999
 20
-149.4830279999999
 30
0.0
 11
158.7040129999998
 21
-149.702654
 31
0.0
  0
LINE
  5
19AE
  8
DETAIL
  6
CONTINUOUS
 62
     5
 10
159.24517399999999
 20
-149.2327139999999
 30
0.0
 11
158.9898849999999
 21
-149.4830279999999
 31
0.0
  0
LINE
  5
19AF
  8
DETAIL
  6
CONTINUOUS
 62
     5
 10
159.469133
 20
-148.95245700000001
 30
0.0
 11
159.24517399999999
 21
-149.2327139999999
 31
0.0
  0
LINE
  5
19B0
  8
DETAIL
  6
CONTINUOUS
 62
     5
 10
159.65716499999991
 20
-148.64725699999991
 30
0.0
 11
159.469133
 21
-148.95245700000001
 31
0.0
  0
LINE
  5
19B1
  8
DETAIL
  6
CONTINUOUS
 62
     5
 10
159.80535599999979
 20
-148.3240499999998
 30
0.0
 11
159.65716499999991
 21
-148.64725699999991
 31
0.0
  0
LINE
  5
19B2
  8
DETAIL
  6
CONTINUOUS
 62
     5
 10
159.91296999999969
 20
-147.98515800000001
 30
0.0
 11
159.80535599999979
 21
-148.3240499999998
 31
0.0
  0
LINE
  5
19B3
  8
DETAIL
  6
CONTINUOUS
 62
     5
 10
159.978274
 20
-147.6351639999998
 30
0.0
 11
159.91296999999969
 21
-147.98515800000001
 31
0.0
  0
LINE
  5
19B4
  8
DETAIL
  6
CONTINUOUS
 62
     5
 10
160.0
 20
-147.281813
 30
0.0
 11
159.978274
 21
-147.6351639999998
 31
0.0
  0
LINE
  5
19B5
  8
DETAIL
  6
CONTINUOUS
 62
     5
 10
160.0
 20
-161.988775
 30
0.0
 11
160.0
 21
-154.9294329999999
 31
0.0
  0
LINE
  5
19B6
  8
DETAIL
  6
CONTINUOUS
 62
     5
 10
160.0
 20
-176.69573700000001
 30
0.0
 11
160.0
 21
-169.63639499999999
 31
0.0
  0
LINE
  5
19B7
  8
DETAIL
  6
CONTINUOUS
 62
     5
 10
160.0
 20
-191.4026979999999
 30
0.0
 11
160.0
 21
-184.343357
 31
0.0
  0
LINE
  5
19B8
  8
DETAIL
  6
CONTINUOUS
 62
     5
 10
157.0
 20
-150.223206
 30
0.0
 11
157.0
 21
-150.10518699999969
 31
0.0
  0
LINE
  5
19B9
  8
DETAIL
  6
CONTINUOUS
 62
     5
 10
157.0
 20
-164.93016699999981
 30
0.0
 11
157.0
 21
-164.81214900000001
 31
0.0
  0
LINE
  5
19BA
  8
DETAIL
  6
CONTINUOUS
 62
     5
 10
157.0
 20
-179.6371289999999
 30
0.0
 11
157.0
 21
-179.51911000000001
 31
0.0
  0
LINE
  5
19BB
  8
DETAIL
  6
CONTINUOUS
 62
     5
 10
157.0
 20
-194.34409099999991
 30
0.0
 11
157.0
 21
-194.2260719999999
 31
0.0
  0
LINE
  5
19BC
  8
DETAIL
  6
CONTINUOUS
 62
     5
 10
159.978274
 20
-147.51714499999991
 30
0.0
 11
159.992771
 21
-147.2813689999999
 31
0.0
  0
LINE
  5
19BD
  8
DETAIL
  6
CONTINUOUS
 62
     5
 10
159.91296999999969
 20
-147.86713900000001
 30
0.0
 11
159.978274
 21
-147.51714499999991
 31
0.0
  0
LINE
  5
19BE
  8
DETAIL
  6
CONTINUOUS
 62
     5
 10
159.80535599999979
 20
-148.206031
 30
0.0
 11
159.91296999999969
 21
-147.86713900000001
 31
0.0
  0
LINE
  5
19BF
  8
DETAIL
  6
CONTINUOUS
 62
     5
 10
159.65716499999991
 20
-148.52923799999991
 30
0.0
 11
159.80535599999979
 21
-148.206031
 31
0.0
  0
LINE
  5
19C0
  8
DETAIL
  6
CONTINUOUS
 62
     5
 10
159.469133
 20
-148.83443799999981
 30
0.0
 11
159.65716499999991
 21
-148.52923799999991
 31
0.0
  0
LINE
  5
19C1
  8
DETAIL
  6
CONTINUOUS
 62
     5
 10
159.24517399999999
 20
-149.1146949999999
 30
0.0
 11
159.469133
 21
-148.83443799999981
 31
0.0
  0
LINE
  5
19C2
  8
DETAIL
  6
CONTINUOUS
 62
     5
 10
158.9898849999999
 20
-149.3650089999999
 30
0.0
 11
159.24517399999999
 21
-149.1146949999999
 31
0.0
  0
LINE
  5
19C3
  8
DETAIL
  6
CONTINUOUS
 62
     5
 10
158.7040129999998
 20
-149.58463499999979
 30
0.0
 11
158.9898849999999
 21
-149.3650089999999
 31
0.0
  0
LINE
  5
19C4
  8
DETAIL
  6
CONTINUOUS
 62
     5
 10
158.39274399999999
 20
-149.769001
 30
0.0
 11
158.7040129999998
 21
-149.58463499999979
 31
0.0
  0
LINE
  5
19C5
  8
DETAIL
  6
CONTINUOUS
 62
     5
 10
158.0631469999999
 20
-149.9142919999999
 30
0.0
 11
158.39274399999999
 21
-149.769001
 31
0.0
  0
LINE
  5
19C6
  8
DETAIL
  6
CONTINUOUS
 62
     5
 10
157.71744200000001
 20
-150.01983699999991
 30
0.0
 11
158.0631469999999
 21
-149.9142919999999
 31
0.0
  0
LINE
  5
19C7
  8
DETAIL
  6
CONTINUOUS
 62
     5
 10
157.36039599999981
 20
-150.08388500000001
 30
0.0
 11
157.71744200000001
 21
-150.01983699999991
 31
0.0
  0
LINE
  5
19C8
  8
DETAIL
  6
CONTINUOUS
 62
     5
 10
157.0
 20
-150.10518699999969
 30
0.0
 11
157.36039599999981
 21
-150.08388500000001
 31
0.0
  0
LINE
  5
19C9
  8
DETAIL
  6
CONTINUOUS
 62
     5
 10
159.978274
 20
-162.224107
 30
0.0
 11
159.992771
 21
-161.98833099999979
 31
0.0
  0
LINE
  5
19CA
  8
DETAIL
  6
CONTINUOUS
 62
     5
 10
159.91296999999969
 20
-162.57410099999981
 30
0.0
 11
159.978274
 21
-162.224107
 31
0.0
  0
LINE
  5
19CB
  8
DETAIL
  6
CONTINUOUS
 62
     5
 10
159.80535599999979
 20
-162.91299299999969
 30
0.0
 11
159.91296999999969
 21
-162.57410099999981
 31
0.0
  0
LINE
  5
19CC
  8
DETAIL
  6
CONTINUOUS
 62
     5
 10
159.65716499999991
 20
-163.2362
 30
0.0
 11
159.80535599999979
 21
-162.91299299999969
 31
0.0
  0
LINE
  5
19CD
  8
DETAIL
  6
CONTINUOUS
 62
     5
 10
159.469133
 20
-163.54140000000001
 30
0.0
 11
159.65716499999991
 21
-163.2362
 31
0.0
  0
LINE
  5
19CE
  8
DETAIL
  6
CONTINUOUS
 62
     5
 10
159.24517399999999
 20
-163.8216569999999
 30
0.0
 11
159.469133
 21
-163.54140000000001
 31
0.0
  0
LINE
  5
19CF
  8
DETAIL
  6
CONTINUOUS
 62
     5
 10
158.9898849999999
 20
-164.07197099999991
 30
0.0
 11
159.24517399999999
 21
-163.8216569999999
 31
0.0
  0
LINE
  5
19D0
  8
DETAIL
  6
CONTINUOUS
 62
     5
 10
158.7040129999998
 20
-164.29159699999991
 30
0.0
 11
158.9898849999999
 21
-164.07197099999991
 31
0.0
  0
LINE
  5
19D1
  8
DETAIL
  6
CONTINUOUS
 62
     5
 10
158.39274399999999
 20
-164.47596299999981
 30
0.0
 11
158.7040129999998
 21
-164.29159699999991
 31
0.0
  0
LINE
  5
19D2
  8
DETAIL
  6
CONTINUOUS
 62
     5
 10
158.0631469999999
 20
-164.62125399999999
 30
0.0
 11
158.39274399999999
 21
-164.47596299999981
 31
0.0
  0
LINE
  5
19D3
  8
DETAIL
  6
CONTINUOUS
 62
     5
 10
157.71744200000001
 20
-164.726799
 30
0.0
 11
158.0631469999999
 21
-164.62125399999999
 31
0.0
  0
LINE
  5
19D4
  8
DETAIL
  6
CONTINUOUS
 62
     5
 10
157.36039599999981
 20
-164.7908469999999
 30
0.0
 11
157.71744200000001
 21
-164.726799
 31
0.0
  0
LINE
  5
19D5
  8
DETAIL
  6
CONTINUOUS
 62
     5
 10
157.0
 20
-164.81214900000001
 30
0.0
 11
157.36039599999981
 21
-164.7908469999999
 31
0.0
  0
LINE
  5
19D6
  8
DETAIL
  6
CONTINUOUS
 62
     5
 10
159.978274
 20
-176.9310679999999
 30
0.0
 11
159.992771
 21
-176.69529199999999
 31
0.0
  0
LINE
  5
19D7
  8
DETAIL
  6
CONTINUOUS
 62
     5
 10
159.91296999999969
 20
-177.2810629999999
 30
0.0
 11
159.978274
 21
-176.9310679999999
 31
0.0
  0
LINE
  5
19D8
  8
DETAIL
  6
CONTINUOUS
 62
     5
 10
159.80535599999979
 20
-177.61995400000001
 30
0.0
 11
159.91296999999969
 21
-177.2810629999999
 31
0.0
  0
LINE
  5
19D9
  8
DETAIL
  6
CONTINUOUS
 62
     5
 10
159.65716499999991
 20
-177.943161
 30
0.0
 11
159.80535599999979
 21
-177.61995400000001
 31
0.0
  0
LINE
  5
19DA
  8
DETAIL
  6
CONTINUOUS
 62
     5
 10
159.469133
 20
-178.2483619999999
 30
0.0
 11
159.65716499999991
 21
-177.943161
 31
0.0
  0
LINE
  5
19DB
  8
DETAIL
  6
CONTINUOUS
 62
     5
 10
159.24517399999999
 20
-178.52861899999991
 30
0.0
 11
159.469133
 21
-178.2483619999999
 31
0.0
  0
LINE
  5
19DC
  8
DETAIL
  6
CONTINUOUS
 62
     5
 10
158.9898849999999
 20
-178.77893199999991
 30
0.0
 11
159.24517399999999
 21
-178.52861899999991
 31
0.0
  0
LINE
  5
19DD
  8
DETAIL
  6
CONTINUOUS
 62
     5
 10
158.7040129999998
 20
-178.998559
 30
0.0
 11
158.9898849999999
 21
-178.77893199999991
 31
0.0
  0
LINE
  5
19DE
  8
DETAIL
  6
CONTINUOUS
 62
     5
 10
158.39274399999999
 20
-179.18292400000001
 30
0.0
 11
158.7040129999998
 21
-178.998559
 31
0.0
  0
LINE
  5
19DF
  8
DETAIL
  6
CONTINUOUS
 62
     5
 10
158.0631469999999
 20
-179.32821599999991
 30
0.0
 11
158.39274399999999
 21
-179.18292400000001
 31
0.0
  0
LINE
  5
19E0
  8
DETAIL
  6
CONTINUOUS
 62
     5
 10
157.71744200000001
 20
-179.433761
 30
0.0
 11
158.0631469999999
 21
-179.32821599999991
 31
0.0
  0
LINE
  5
19E1
  8
DETAIL
  6
CONTINUOUS
 62
     5
 10
157.36039599999981
 20
-179.49780799999991
 30
0.0
 11
157.71744200000001
 21
-179.433761
 31
0.0
  0
LINE
  5
19E2
  8
DETAIL
  6
CONTINUOUS
 62
     5
 10
157.0
 20
-179.51911000000001
 30
0.0
 11
157.36039599999981
 21
-179.49780799999991
 31
0.0
  0
LINE
  5
19E3
  8
DETAIL
  6
CONTINUOUS
 62
     5
 10
159.978274
 20
-191.6380299999999
 30
0.0
 11
159.992771
 21
-191.40225399999991
 31
0.0
  0
LINE
  5
19E4
  8
DETAIL
  6
CONTINUOUS
 62
     5
 10
159.91296999999969
 20
-191.98802399999991
 30
0.0
 11
159.978274
 21
-191.6380299999999
 31
0.0
  0
LINE
  5
19E5
  8
DETAIL
  6
CONTINUOUS
 62
     5
 10
159.80535599999979
 20
-192.3269159999999
 30
0.0
 11
159.91296999999969
 21
-191.98802399999991
 31
0.0
  0
LINE
  5
19E6
  8
DETAIL
  6
CONTINUOUS
 62
     5
 10
159.65716499999991
 20
-192.65012300000001
 30
0.0
 11
159.80535599999979
 21
-192.3269159999999
 31
0.0
  0
LINE
  5
19E7
  8
DETAIL
  6
CONTINUOUS
 62
     5
 10
159.469133
 20
-192.95532299999991
 30
0.0
 11
159.65716499999991
 21
-192.65012300000001
 31
0.0
  0
LINE
  5
19E8
  8
DETAIL
  6
CONTINUOUS
 62
     5
 10
159.24517399999999
 20
-193.23558
 30
0.0
 11
159.469133
 21
-192.95532299999991
 31
0.0
  0
LINE
  5
19E9
  8
DETAIL
  6
CONTINUOUS
 62
     5
 10
158.9898849999999
 20
-193.4858939999998
 30
0.0
 11
159.24517399999999
 21
-193.23558
 31
0.0
  0
LINE
  5
19EA
  8
DETAIL
  6
CONTINUOUS
 62
     5
 10
158.7040129999998
 20
-193.70551999999981
 30
0.0
 11
158.9898849999999
 21
-193.4858939999998
 31
0.0
  0
LINE
  5
19EB
  8
DETAIL
  6
CONTINUOUS
 62
     5
 10
158.39274399999999
 20
-193.8898859999999
 30
0.0
 11
158.7040129999998
 21
-193.70551999999981
 31
0.0
  0
LINE
  5
19EC
  8
DETAIL
  6
CONTINUOUS
 62
     5
 10
158.0631469999999
 20
-194.035177
 30
0.0
 11
158.39274399999999
 21
-193.8898859999999
 31
0.0
  0
LINE
  5
19ED
  8
DETAIL
  6
CONTINUOUS
 62
     5
 10
157.71744200000001
 20
-194.14072200000001
 30
0.0
 11
158.0631469999999
 21
-194.035177
 31
0.0
  0
LINE
  5
19EE
  8
DETAIL
  6
CONTINUOUS
 62
     5
 10
157.36039599999981
 20
-194.20476999999991
 30
0.0
 11
157.71744200000001
 21
-194.14072200000001
 31
0.0
  0
LINE
  5
19EF
  8
DETAIL
  6
CONTINUOUS
 62
     5
 10
157.0
 20
-194.2260719999999
 30
0.0
 11
157.36039599999981
 21
-194.20476999999991
 31
0.0
  0
LINE
  5
19F0
  8
DETAIL
  6
CONTINUOUS
 62
     5
 10
157.36039599999981
 20
-135.49494200000001
 30
0.0
 11
157.0
 21
-135.51624399999969
 31
0.0
  0
LINE
  5
19F1
  8
DETAIL
  6
CONTINUOUS
 62
     5
 10
157.71744200000001
 20
-135.43089399999991
 30
0.0
 11
157.36039599999981
 21
-135.49494200000001
 31
0.0
  0
LINE
  5
19F2
  8
DETAIL
  6
CONTINUOUS
 62
     5
 10
158.0631469999999
 20
-135.3253489999999
 30
0.0
 11
157.71744200000001
 21
-135.43089399999991
 31
0.0
  0
LINE
  5
19F3
  8
DETAIL
  6
CONTINUOUS
 62
     5
 10
158.39274399999999
 20
-135.180058
 30
0.0
 11
158.0631469999999
 21
-135.3253489999999
 31
0.0
  0
LINE
  5
19F4
  8
DETAIL
  6
CONTINUOUS
 62
     5
 10
158.7040129999998
 20
-134.99569199999991
 30
0.0
 11
158.39274399999999
 21
-135.180058
 31
0.0
  0
LINE
  5
19F5
  8
DETAIL
  6
CONTINUOUS
 62
     5
 10
158.9898849999999
 20
-134.77606599999979
 30
0.0
 11
158.7040129999998
 21
-134.99569199999991
 31
0.0
  0
LINE
  5
19F6
  8
DETAIL
  6
CONTINUOUS
 62
     5
 10
159.24517399999999
 20
-134.52575200000001
 30
0.0
 11
158.9898849999999
 21
-134.77606599999979
 31
0.0
  0
LINE
  5
19F7
  8
DETAIL
  6
CONTINUOUS
 62
     5
 10
159.469133
 20
-134.24549500000001
 30
0.0
 11
159.24517399999999
 21
-134.52575200000001
 31
0.0
  0
LINE
  5
19F8
  8
DETAIL
  6
CONTINUOUS
 62
     5
 10
159.65716499999991
 20
-133.94029499999991
 30
0.0
 11
159.469133
 21
-134.24549500000001
 31
0.0
  0
LINE
  5
19F9
  8
DETAIL
  6
CONTINUOUS
 62
     5
 10
159.80535599999979
 20
-133.617088
 30
0.0
 11
159.65716499999991
 21
-133.94029499999991
 31
0.0
  0
LINE
  5
19FA
  8
DETAIL
  6
CONTINUOUS
 62
     5
 10
159.91296999999969
 20
-133.2781959999997
 30
0.0
 11
159.80535599999979
 21
-133.617088
 31
0.0
  0
LINE
  5
19FB
  8
DETAIL
  6
CONTINUOUS
 62
     5
 10
159.978274
 20
-132.92820199999991
 30
0.0
 11
159.91296999999969
 21
-133.2781959999997
 31
0.0
  0
LINE
  5
19FC
  8
DETAIL
  6
CONTINUOUS
 62
     5
 10
160.0
 20
-132.57485199999991
 30
0.0
 11
159.978274
 21
-132.92820199999991
 31
0.0
  0
LINE
  5
19FD
  8
DETAIL
  6
CONTINUOUS
 62
     5
 10
160.0
 20
-132.57485199999991
 30
0.0
 11
160.0
 21
-125.51551000000001
 31
0.0
  0
LINE
  5
19FE
  8
DETAIL
  6
CONTINUOUS
 62
     5
 10
157.0
 20
-135.51624399999969
 30
0.0
 11
157.0
 21
-135.398225
 31
0.0
  0
LINE
  5
19FF
  8
DETAIL
  6
CONTINUOUS
 62
     5
 10
159.978274
 20
-132.81018299999999
 30
0.0
 11
159.992771
 21
-132.57440700000001
 31
0.0
  0
LINE
  5
1A00
  8
DETAIL
  6
CONTINUOUS
 62
     5
 10
159.91296999999969
 20
-133.16017799999969
 30
0.0
 11
159.978274
 21
-132.81018299999999
 31
0.0
  0
LINE
  5
1A01
  8
DETAIL
  6
CONTINUOUS
 62
     5
 10
159.80535599999979
 20
-133.49906899999991
 30
0.0
 11
159.91296999999969
 21
-133.16017799999969
 31
0.0
  0
LINE
  5
1A02
  8
DETAIL
  6
CONTINUOUS
 62
     5
 10
159.65716499999991
 20
-133.8222759999997
 30
0.0
 11
159.80535599999979
 21
-133.49906899999991
 31
0.0
  0
LINE
  5
1A03
  8
DETAIL
  6
CONTINUOUS
 62
     5
 10
159.469133
 20
-134.127477
 30
0.0
 11
159.65716499999991
 21
-133.8222759999997
 31
0.0
  0
LINE
  5
1A04
  8
DETAIL
  6
CONTINUOUS
 62
     5
 10
159.24517399999999
 20
-134.40773300000001
 30
0.0
 11
159.469133
 21
-134.127477
 31
0.0
  0
LINE
  5
1A05
  8
DETAIL
  6
CONTINUOUS
 62
     5
 10
158.9898849999999
 20
-134.65804700000001
 30
0.0
 11
159.24517399999999
 21
-134.40773300000001
 31
0.0
  0
LINE
  5
1A06
  8
DETAIL
  6
CONTINUOUS
 62
     5
 10
158.7040129999998
 20
-134.87767400000001
 30
0.0
 11
158.9898849999999
 21
-134.65804700000001
 31
0.0
  0
LINE
  5
1A07
  8
DETAIL
  6
CONTINUOUS
 62
     5
 10
158.39274399999999
 20
-135.062039
 30
0.0
 11
158.7040129999998
 21
-134.87767400000001
 31
0.0
  0
LINE
  5
1A08
  8
DETAIL
  6
CONTINUOUS
 62
     5
 10
158.0631469999999
 20
-135.20733100000001
 30
0.0
 11
158.39274399999999
 21
-135.062039
 31
0.0
  0
LINE
  5
1A09
  8
DETAIL
  6
CONTINUOUS
 62
     5
 10
157.71744200000001
 20
-135.3128759999999
 30
0.0
 11
158.0631469999999
 21
-135.20733100000001
 31
0.0
  0
LINE
  5
1A0A
  8
DETAIL
  6
CONTINUOUS
 62
     5
 10
157.36039599999981
 20
-135.37692300000001
 30
0.0
 11
157.71744200000001
 21
-135.3128759999999
 31
0.0
  0
LINE
  5
1A0B
  8
DETAIL
  6
CONTINUOUS
 62
     5
 10
157.0
 20
-135.398225
 30
0.0
 11
157.36039599999981
 21
-135.37692300000001
 31
0.0
  0
LINE
  5
1A0C
  8
DETAIL
  6
CONTINUOUS
 62
     5
 10
180.0
 20
-140.2224719999999
 30
0.0
 11
180.0
 21
-147.281813
 31
0.0
  0
LINE
  5
1A0D
  8
DETAIL
  6
CONTINUOUS
 62
     5
 10
183.0
 20
-150.223206
 30
0.0
 11
183.0
 21
-150.10518699999969
 31
0.0
  0
LINE
  5
1A0E
  8
DETAIL
  6
CONTINUOUS
 62
     5
 10
183.0
 20
-164.93016699999981
 30
0.0
 11
183.0
 21
-164.81214900000001
 31
0.0
  0
LINE
  5
1A0F
  8
DETAIL
  6
CONTINUOUS
 62
     5
 10
183.0
 20
-179.6371289999999
 30
0.0
 11
183.0
 21
-179.51911000000001
 31
0.0
  0
LINE
  5
1A10
  8
DETAIL
  6
CONTINUOUS
 62
     5
 10
183.0
 20
-194.34409099999991
 30
0.0
 11
183.0
 21
-194.2260719999999
 31
0.0
  0
LINE
  5
1A11
  8
DETAIL
  6
CONTINUOUS
 62
     5
 10
180.0
 20
-184.343357
 30
0.0
 11
180.0
 21
-191.4026979999999
 31
0.0
  0
LINE
  5
1A12
  8
DETAIL
  6
CONTINUOUS
 62
     5
 10
180.0
 20
-169.63639499999999
 30
0.0
 11
180.0
 21
-176.69573700000001
 31
0.0
  0
LINE
  5
1A13
  8
DETAIL
  6
CONTINUOUS
 62
     5
 10
180.0
 20
-154.9294329999999
 30
0.0
 11
180.0
 21
-161.988775
 31
0.0
  0
LINE
  5
1A14
  8
DETAIL
  6
CONTINUOUS
 62
     5
 10
182.63960900000001
 20
-150.08388599999981
 30
0.0
 11
183.0
 21
-150.10518699999969
 31
0.0
  0
LINE
  5
1A15
  8
DETAIL
  6
CONTINUOUS
 62
     5
 10
182.28264100000001
 20
-150.019857
 30
0.0
 11
182.63960900000001
 21
-150.08388599999981
 31
0.0
  0
LINE
  5
1A16
  8
DETAIL
  6
CONTINUOUS
 62
     5
 10
181.93699699999991
 20
-149.91434599999991
 30
0.0
 11
182.28264100000001
 21
-150.019857
 31
0.0
  0
LINE
  5
1A17
  8
DETAIL
  6
CONTINUOUS
 62
     5
 10
181.60734999999991
 20
-149.769049
 30
0.0
 11
181.93699699999991
 21
-149.91434599999991
 31
0.0
  0
LINE
  5
1A18
  8
DETAIL
  6
CONTINUOUS
 62
     5
 10
181.29606799999991
 20
-149.58469099999999
 30
0.0
 11
181.60734999999991
 21
-149.769049
 31
0.0
  0
LINE
  5
1A19
  8
DETAIL
  6
CONTINUOUS
 62
     5
 10
181.0102269999999
 20
-149.36510699999999
 30
0.0
 11
181.29606799999991
 21
-149.58469099999999
 31
0.0
  0
LINE
  5
1A1A
  8
DETAIL
  6
CONTINUOUS
 62
     5
 10
180.75492600000001
 20
-149.1148049999999
 30
0.0
 11
181.0102269999999
 21
-149.36510699999999
 31
0.0
  0
LINE
  5
1A1B
  8
DETAIL
  6
CONTINUOUS
 62
     5
 10
180.53092399999991
 20
-148.83451899999969
 30
0.0
 11
180.75492600000001
 21
-149.1148049999999
 31
0.0
  0
LINE
  5
1A1C
  8
DETAIL
  6
CONTINUOUS
 62
     5
 10
180.342884
 20
-148.5293299999999
 30
0.0
 11
180.53092399999991
 21
-148.83451899999969
 31
0.0
  0
LINE
  5
1A1D
  8
DETAIL
  6
CONTINUOUS
 62
     5
 10
180.1946979999999
 20
-148.2061719999999
 30
0.0
 11
180.342884
 21
-148.5293299999999
 31
0.0
  0
LINE
  5
1A1E
  8
DETAIL
  6
CONTINUOUS
 62
     5
 10
180.08704999999981
 20
-147.867221
 30
0.0
 11
180.1946979999999
 21
-148.2061719999999
 31
0.0
  0
LINE
  5
1A1F
  8
DETAIL
  6
CONTINUOUS
 62
     5
 10
180.021726
 20
-147.5171499999999
 30
0.0
 11
180.08704999999981
 21
-147.867221
 31
0.0
  0
LINE
  5
1A20
  8
DETAIL
  6
CONTINUOUS
 62
     5
 10
180.00722899999991
 20
-147.2813689999999
 30
0.0
 11
180.021726
 21
-147.5171499999999
 31
0.0
  0
LINE
  5
1A21
  8
DETAIL
  6
CONTINUOUS
 62
     5
 10
182.63960900000001
 20
-164.7908469999999
 30
0.0
 11
183.0
 21
-164.81214900000001
 31
0.0
  0
LINE
  5
1A22
  8
DETAIL
  6
CONTINUOUS
 62
     5
 10
182.28264100000001
 20
-164.72681899999981
 30
0.0
 11
182.63960900000001
 21
-164.7908469999999
 31
0.0
  0
LINE
  5
1A23
  8
DETAIL
  6
CONTINUOUS
 62
     5
 10
181.93699699999991
 20
-164.6213069999998
 30
0.0
 11
182.28264100000001
 21
-164.72681899999981
 31
0.0
  0
LINE
  5
1A24
  8
DETAIL
  6
CONTINUOUS
 62
     5
 10
181.60734999999991
 20
-164.4760109999998
 30
0.0
 11
181.93699699999991
 21
-164.6213069999998
 31
0.0
  0
LINE
  5
1A25
  8
DETAIL
  6
CONTINUOUS
 62
     5
 10
181.29606799999991
 20
-164.29165199999991
 30
0.0
 11
181.60734999999991
 21
-164.4760109999998
 31
0.0
  0
LINE
  5
1A26
  8
DETAIL
  6
CONTINUOUS
 62
     5
 10
181.0102269999999
 20
-164.072068
 30
0.0
 11
181.29606799999991
 21
-164.29165199999991
 31
0.0
  0
LINE
  5
1A27
  8
DETAIL
  6
CONTINUOUS
 62
     5
 10
180.75492600000001
 20
-163.82176699999991
 30
0.0
 11
181.0102269999999
 21
-164.072068
 31
0.0
  0
LINE
  5
1A28
  8
DETAIL
  6
CONTINUOUS
 62
     5
 10
180.53092399999991
 20
-163.54148000000001
 30
0.0
 11
180.75492600000001
 21
-163.82176699999991
 31
0.0
  0
LINE
  5
1A29
  8
DETAIL
  6
CONTINUOUS
 62
     5
 10
180.342884
 20
-163.23629199999999
 30
0.0
 11
180.53092399999991
 21
-163.54148000000001
 31
0.0
  0
LINE
  5
1A2A
  8
DETAIL
  6
CONTINUOUS
 62
     5
 10
180.1946979999999
 20
-162.91313400000001
 30
0.0
 11
180.342884
 21
-163.23629199999999
 31
0.0
  0
LINE
  5
1A2B
  8
DETAIL
  6
CONTINUOUS
 62
     5
 10
180.08704999999981
 20
-162.574183
 30
0.0
 11
180.1946979999999
 21
-162.91313400000001
 31
0.0
  0
LINE
  5
1A2C
  8
DETAIL
  6
CONTINUOUS
 62
     5
 10
180.021726
 20
-162.22411199999991
 30
0.0
 11
180.08704999999981
 21
-162.574183
 31
0.0
  0
LINE
  5
1A2D
  8
DETAIL
  6
CONTINUOUS
 62
     5
 10
180.00722899999991
 20
-161.98833099999979
 30
0.0
 11
180.021726
 21
-162.22411199999991
 31
0.0
  0
LINE
  5
1A2E
  8
DETAIL
  6
CONTINUOUS
 62
     5
 10
182.63960900000001
 20
-179.4978089999999
 30
0.0
 11
183.0
 21
-179.51911000000001
 31
0.0
  0
LINE
  5
1A2F
  8
DETAIL
  6
CONTINUOUS
 62
     5
 10
182.28264100000001
 20
-179.43378100000001
 30
0.0
 11
182.63960900000001
 21
-179.4978089999999
 31
0.0
  0
LINE
  5
1A30
  8
DETAIL
  6
CONTINUOUS
 62
     5
 10
181.93699699999991
 20
-179.32826900000001
 30
0.0
 11
182.28264100000001
 21
-179.43378100000001
 31
0.0
  0
LINE
  5
1A31
  8
DETAIL
  6
CONTINUOUS
 62
     5
 10
181.60734999999991
 20
-179.182973
 30
0.0
 11
181.93699699999991
 21
-179.32826900000001
 31
0.0
  0
LINE
  5
1A32
  8
DETAIL
  6
CONTINUOUS
 62
     5
 10
181.29606799999991
 20
-178.998614
 30
0.0
 11
181.60734999999991
 21
-179.182973
 31
0.0
  0
LINE
  5
1A33
  8
DETAIL
  6
CONTINUOUS
 62
     5
 10
181.0102269999999
 20
-178.77903000000001
 30
0.0
 11
181.29606799999991
 21
-178.998614
 31
0.0
  0
LINE
  5
1A34
  8
DETAIL
  6
CONTINUOUS
 62
     5
 10
180.75492600000001
 20
-178.528729
 30
0.0
 11
181.0102269999999
 21
-178.77903000000001
 31
0.0
  0
LINE
  5
1A35
  8
DETAIL
  6
CONTINUOUS
 62
     5
 10
180.53092399999991
 20
-178.2484419999999
 30
0.0
 11
180.75492600000001
 21
-178.528729
 31
0.0
  0
LINE
  5
1A36
  8
DETAIL
  6
CONTINUOUS
 62
     5
 10
180.342884
 20
-177.94325399999991
 30
0.0
 11
180.53092399999991
 21
-178.2484419999999
 31
0.0
  0
LINE
  5
1A37
  8
DETAIL
  6
CONTINUOUS
 62
     5
 10
180.1946979999999
 20
-177.62009499999991
 30
0.0
 11
180.342884
 21
-177.94325399999991
 31
0.0
  0
LINE
  5
1A38
  8
DETAIL
  6
CONTINUOUS
 62
     5
 10
180.08704999999981
 20
-177.2811439999999
 30
0.0
 11
180.1946979999999
 21
-177.62009499999991
 31
0.0
  0
LINE
  5
1A39
  8
DETAIL
  6
CONTINUOUS
 62
     5
 10
180.021726
 20
-176.93107299999991
 30
0.0
 11
180.08704999999981
 21
-177.2811439999999
 31
0.0
  0
LINE
  5
1A3A
  8
DETAIL
  6
CONTINUOUS
 62
     5
 10
180.00722899999991
 20
-176.69529199999999
 30
0.0
 11
180.021726
 21
-176.93107299999991
 31
0.0
  0
LINE
  5
1A3B
  8
DETAIL
  6
CONTINUOUS
 62
     5
 10
182.63960900000001
 20
-194.20477099999991
 30
0.0
 11
183.0
 21
-194.2260719999999
 31
0.0
  0
LINE
  5
1A3C
  8
DETAIL
  6
CONTINUOUS
 62
     5
 10
182.28264100000001
 20
-194.1407419999999
 30
0.0
 11
182.63960900000001
 21
-194.20477099999991
 31
0.0
  0
LINE
  5
1A3D
  8
DETAIL
  6
CONTINUOUS
 62
     5
 10
181.93699699999991
 20
-194.03523100000001
 30
0.0
 11
182.28264100000001
 21
-194.1407419999999
 31
0.0
  0
LINE
  5
1A3E
  8
DETAIL
  6
CONTINUOUS
 62
     5
 10
181.60734999999991
 20
-193.88993499999981
 30
0.0
 11
181.93699699999991
 21
-194.03523100000001
 31
0.0
  0
LINE
  5
1A3F
  8
DETAIL
  6
CONTINUOUS
 62
     5
 10
181.29606799999991
 20
-193.70557599999981
 30
0.0
 11
181.60734999999991
 21
-193.88993499999981
 31
0.0
  0
LINE
  5
1A40
  8
DETAIL
  6
CONTINUOUS
 62
     5
 10
181.0102269999999
 20
-193.4859919999999
 30
0.0
 11
181.29606799999991
 21
-193.70557599999981
 31
0.0
  0
LINE
  5
1A41
  8
DETAIL
  6
CONTINUOUS
 62
     5
 10
180.75492600000001
 20
-193.23568999999981
 30
0.0
 11
181.0102269999999
 21
-193.4859919999999
 31
0.0
  0
LINE
  5
1A42
  8
DETAIL
  6
CONTINUOUS
 62
     5
 10
180.53092399999991
 20
-192.95540399999999
 30
0.0
 11
180.75492600000001
 21
-193.23568999999981
 31
0.0
  0
LINE
  5
1A43
  8
DETAIL
  6
CONTINUOUS
 62
     5
 10
180.342884
 20
-192.650216
 30
0.0
 11
180.53092399999991
 21
-192.95540399999999
 31
0.0
  0
LINE
  5
1A44
  8
DETAIL
  6
CONTINUOUS
 62
     5
 10
180.1946979999999
 20
-192.32705699999991
 30
0.0
 11
180.342884
 21
-192.650216
 31
0.0
  0
LINE
  5
1A45
  8
DETAIL
  6
CONTINUOUS
 62
     5
 10
180.08704999999981
 20
-191.9881059999999
 30
0.0
 11
180.1946979999999
 21
-192.32705699999991
 31
0.0
  0
LINE
  5
1A46
  8
DETAIL
  6
CONTINUOUS
 62
     5
 10
180.021726
 20
-191.638035
 30
0.0
 11
180.08704999999981
 21
-191.9881059999999
 31
0.0
  0
LINE
  5
1A47
  8
DETAIL
  6
CONTINUOUS
 62
     5
 10
180.00722899999991
 20
-191.40225399999991
 30
0.0
 11
180.021726
 21
-191.638035
 31
0.0
  0
LINE
  5
1A48
  8
DETAIL
  6
CONTINUOUS
 62
     5
 10
180.021726
 20
-147.63516899999991
 30
0.0
 11
180.0
 21
-147.281813
 31
0.0
  0
LINE
  5
1A49
  8
DETAIL
  6
CONTINUOUS
 62
     5
 10
180.08704999999981
 20
-147.98523999999981
 30
0.0
 11
180.021726
 21
-147.63516899999991
 31
0.0
  0
LINE
  5
1A4A
  8
DETAIL
  6
CONTINUOUS
 62
     5
 10
180.1946979999999
 20
-148.32419099999979
 30
0.0
 11
180.08704999999981
 21
-147.98523999999981
 31
0.0
  0
LINE
  5
1A4B
  8
DETAIL
  6
CONTINUOUS
 62
     5
 10
180.342884
 20
-148.64734899999991
 30
0.0
 11
180.1946979999999
 21
-148.32419099999979
 31
0.0
  0
LINE
  5
1A4C
  8
DETAIL
  6
CONTINUOUS
 62
     5
 10
180.53092399999991
 20
-148.95253700000001
 30
0.0
 11
180.342884
 21
-148.64734899999991
 31
0.0
  0
LINE
  5
1A4D
  8
DETAIL
  6
CONTINUOUS
 62
     5
 10
180.75492600000001
 20
-149.23282399999991
 30
0.0
 11
180.53092399999991
 21
-148.95253700000001
 31
0.0
  0
LINE
  5
1A4E
  8
DETAIL
  6
CONTINUOUS
 62
     5
 10
181.0102269999999
 20
-149.48312599999991
 30
0.0
 11
180.75492600000001
 21
-149.23282399999991
 31
0.0
  0
LINE
  5
1A4F
  8
DETAIL
  6
CONTINUOUS
 62
     5
 10
181.29606799999991
 20
-149.70270999999991
 30
0.0
 11
181.0102269999999
 21
-149.48312599999991
 31
0.0
  0
LINE
  5
1A50
  8
DETAIL
  6
CONTINUOUS
 62
     5
 10
181.60734999999991
 20
-149.887068
 30
0.0
 11
181.29606799999991
 21
-149.70270999999991
 31
0.0
  0
LINE
  5
1A51
  8
DETAIL
  6
CONTINUOUS
 62
     5
 10
181.93699699999991
 20
-150.03236499999991
 30
0.0
 11
181.60734999999991
 21
-149.887068
 31
0.0
  0
LINE
  5
1A52
  8
DETAIL
  6
CONTINUOUS
 62
     5
 10
182.28264100000001
 20
-150.13787600000001
 30
0.0
 11
181.93699699999991
 21
-150.03236499999991
 31
0.0
  0
LINE
  5
1A53
  8
DETAIL
  6
CONTINUOUS
 62
     5
 10
182.63960900000001
 20
-150.20190500000001
 30
0.0
 11
182.28264100000001
 21
-150.13787600000001
 31
0.0
  0
LINE
  5
1A54
  8
DETAIL
  6
CONTINUOUS
 62
     5
 10
183.0
 20
-150.223206
 30
0.0
 11
182.63960900000001
 21
-150.20190500000001
 31
0.0
  0
LINE
  5
1A55
  8
DETAIL
  6
CONTINUOUS
 62
     5
 10
180.021726
 20
-162.34212999999991
 30
0.0
 11
180.0
 21
-161.988775
 31
0.0
  0
LINE
  5
1A56
  8
DETAIL
  6
CONTINUOUS
 62
     5
 10
180.08704999999981
 20
-162.69220200000001
 30
0.0
 11
180.021726
 21
-162.34212999999991
 31
0.0
  0
LINE
  5
1A57
  8
DETAIL
  6
CONTINUOUS
 62
     5
 10
180.1946979999999
 20
-163.03115199999999
 30
0.0
 11
180.08704999999981
 21
-162.69220200000001
 31
0.0
  0
LINE
  5
1A58
  8
DETAIL
  6
CONTINUOUS
 62
     5
 10
180.342884
 20
-163.35431099999991
 30
0.0
 11
180.1946979999999
 21
-163.03115199999999
 31
0.0
  0
LINE
  5
1A59
  8
DETAIL
  6
CONTINUOUS
 62
     5
 10
180.53092399999991
 20
-163.65949899999981
 30
0.0
 11
180.342884
 21
-163.35431099999991
 31
0.0
  0
LINE
  5
1A5A
  8
DETAIL
  6
CONTINUOUS
 62
     5
 10
180.75492600000001
 20
-163.939786
 30
0.0
 11
180.53092399999991
 21
-163.65949899999981
 31
0.0
  0
LINE
  5
1A5B
  8
DETAIL
  6
CONTINUOUS
 62
     5
 10
181.0102269999999
 20
-164.19008700000001
 30
0.0
 11
180.75492600000001
 21
-163.939786
 31
0.0
  0
LINE
  5
1A5C
  8
DETAIL
  6
CONTINUOUS
 62
     5
 10
181.29606799999991
 20
-164.409671
 30
0.0
 11
181.0102269999999
 21
-164.19008700000001
 31
0.0
  0
LINE
  5
1A5D
  8
DETAIL
  6
CONTINUOUS
 62
     5
 10
181.60734999999991
 20
-164.59403
 30
0.0
 11
181.29606799999991
 21
-164.409671
 31
0.0
  0
LINE
  5
1A5E
  8
DETAIL
  6
CONTINUOUS
 62
     5
 10
181.93699699999991
 20
-164.73932600000001
 30
0.0
 11
181.60734999999991
 21
-164.59403
 31
0.0
  0
LINE
  5
1A5F
  8
DETAIL
  6
CONTINUOUS
 62
     5
 10
182.28264100000001
 20
-164.84483799999981
 30
0.0
 11
181.93699699999991
 21
-164.73932600000001
 31
0.0
  0
LINE
  5
1A60
  8
DETAIL
  6
CONTINUOUS
 62
     5
 10
182.63960900000001
 20
-164.90886599999979
 30
0.0
 11
182.28264100000001
 21
-164.84483799999981
 31
0.0
  0
LINE
  5
1A61
  8
DETAIL
  6
CONTINUOUS
 62
     5
 10
183.0
 20
-164.93016699999981
 30
0.0
 11
182.63960900000001
 21
-164.90886599999979
 31
0.0
  0
LINE
  5
1A62
  8
DETAIL
  6
CONTINUOUS
 62
     5
 10
180.021726
 20
-177.049092
 30
0.0
 11
180.0
 21
-176.69573700000001
 31
0.0
  0
LINE
  5
1A63
  8
DETAIL
  6
CONTINUOUS
 62
     5
 10
180.08704999999981
 20
-177.3991629999999
 30
0.0
 11
180.021726
 21
-177.049092
 31
0.0
  0
LINE
  5
1A64
  8
DETAIL
  6
CONTINUOUS
 62
     5
 10
180.1946979999999
 20
-177.73811399999991
 30
0.0
 11
180.08704999999981
 21
-177.3991629999999
 31
0.0
  0
LINE
  5
1A65
  8
DETAIL
  6
CONTINUOUS
 62
     5
 10
180.342884
 20
-178.061273
 30
0.0
 11
180.1946979999999
 21
-177.73811399999991
 31
0.0
  0
LINE
  5
1A66
  8
DETAIL
  6
CONTINUOUS
 62
     5
 10
180.53092399999991
 20
-178.3664609999999
 30
0.0
 11
180.342884
 21
-178.061273
 31
0.0
  0
LINE
  5
1A67
  8
DETAIL
  6
CONTINUOUS
 62
     5
 10
180.75492600000001
 20
-178.64674799999969
 30
0.0
 11
180.53092399999991
 21
-178.3664609999999
 31
0.0
  0
LINE
  5
1A68
  8
DETAIL
  6
CONTINUOUS
 62
     5
 10
181.0102269999999
 20
-178.89704900000001
 30
0.0
 11
180.75492600000001
 21
-178.64674799999969
 31
0.0
  0
LINE
  5
1A69
  8
DETAIL
  6
CONTINUOUS
 62
     5
 10
181.29606799999991
 20
-179.11663300000001
 30
0.0
 11
181.0102269999999
 21
-178.89704900000001
 31
0.0
  0
LINE
  5
1A6A
  8
DETAIL
  6
CONTINUOUS
 62
     5
 10
181.60734999999991
 20
-179.30099199999981
 30
0.0
 11
181.29606799999991
 21
-179.11663300000001
 31
0.0
  0
LINE
  5
1A6B
  8
DETAIL
  6
CONTINUOUS
 62
     5
 10
181.93699699999991
 20
-179.4462879999999
 30
0.0
 11
181.60734999999991
 21
-179.30099199999981
 31
0.0
  0
LINE
  5
1A6C
  8
DETAIL
  6
CONTINUOUS
 62
     5
 10
182.28264100000001
 20
-179.5517999999999
 30
0.0
 11
181.93699699999991
 21
-179.4462879999999
 31
0.0
  0
LINE
  5
1A6D
  8
DETAIL
  6
CONTINUOUS
 62
     5
 10
182.63960900000001
 20
-179.61582799999999
 30
0.0
 11
182.28264100000001
 21
-179.5517999999999
 31
0.0
  0
LINE
  5
1A6E
  8
DETAIL
  6
CONTINUOUS
 62
     5
 10
183.0
 20
-179.6371289999999
 30
0.0
 11
182.63960900000001
 21
-179.61582799999999
 31
0.0
  0
LINE
  5
1A6F
  8
DETAIL
  6
CONTINUOUS
 62
     5
 10
180.021726
 20
-191.75605400000001
 30
0.0
 11
180.0
 21
-191.4026979999999
 31
0.0
  0
LINE
  5
1A70
  8
DETAIL
  6
CONTINUOUS
 62
     5
 10
180.08704999999981
 20
-192.10612499999991
 30
0.0
 11
180.021726
 21
-191.75605400000001
 31
0.0
  0
LINE
  5
1A71
  8
DETAIL
  6
CONTINUOUS
 62
     5
 10
180.1946979999999
 20
-192.445076
 30
0.0
 11
180.08704999999981
 21
-192.10612499999991
 31
0.0
  0
LINE
  5
1A72
  8
DETAIL
  6
CONTINUOUS
 62
     5
 10
180.342884
 20
-192.76823400000001
 30
0.0
 11
180.1946979999999
 21
-192.445076
 31
0.0
  0
LINE
  5
1A73
  8
DETAIL
  6
CONTINUOUS
 62
     5
 10
180.53092399999991
 20
-193.07342199999991
 30
0.0
 11
180.342884
 21
-192.76823400000001
 31
0.0
  0
LINE
  5
1A74
  8
DETAIL
  6
CONTINUOUS
 62
     5
 10
180.75492600000001
 20
-193.35370900000001
 30
0.0
 11
180.53092399999991
 21
-193.07342199999991
 31
0.0
  0
LINE
  5
1A75
  8
DETAIL
  6
CONTINUOUS
 62
     5
 10
181.0102269999999
 20
-193.60401100000001
 30
0.0
 11
180.75492600000001
 21
-193.35370900000001
 31
0.0
  0
LINE
  5
1A76
  8
DETAIL
  6
CONTINUOUS
 62
     5
 10
181.29606799999991
 20
-193.8235949999999
 30
0.0
 11
181.0102269999999
 21
-193.60401100000001
 31
0.0
  0
LINE
  5
1A77
  8
DETAIL
  6
CONTINUOUS
 62
     5
 10
181.60734999999991
 20
-194.00795299999999
 30
0.0
 11
181.29606799999991
 21
-193.8235949999999
 31
0.0
  0
LINE
  5
1A78
  8
DETAIL
  6
CONTINUOUS
 62
     5
 10
181.93699699999991
 20
-194.15325000000001
 30
0.0
 11
181.60734999999991
 21
-194.00795299999999
 31
0.0
  0
LINE
  5
1A79
  8
DETAIL
  6
CONTINUOUS
 62
     5
 10
182.28264100000001
 20
-194.25876099999991
 30
0.0
 11
181.93699699999991
 21
-194.15325000000001
 31
0.0
  0
LINE
  5
1A7A
  8
DETAIL
  6
CONTINUOUS
 62
     5
 10
182.63960900000001
 20
-194.32279
 30
0.0
 11
182.28264100000001
 21
-194.25876099999991
 31
0.0
  0
LINE
  5
1A7B
  8
DETAIL
  6
CONTINUOUS
 62
     5
 10
183.0
 20
-194.34409099999991
 30
0.0
 11
182.63960900000001
 21
-194.32279
 31
0.0
  0
LINE
  5
1A7C
  8
DETAIL
  6
CONTINUOUS
 62
     5
 10
183.0
 20
-135.51624399999969
 30
0.0
 11
183.0
 21
-135.398225
 31
0.0
  0
LINE
  5
1A7D
  8
DETAIL
  6
CONTINUOUS
 62
     5
 10
180.0
 20
-125.51551000000001
 30
0.0
 11
180.0
 21
-132.57485199999991
 31
0.0
  0
LINE
  5
1A7E
  8
DETAIL
  6
CONTINUOUS
 62
     5
 10
182.63960900000001
 20
-135.376924
 30
0.0
 11
183.0
 21
-135.398225
 31
0.0
  0
LINE
  5
1A7F
  8
DETAIL
  6
CONTINUOUS
 62
     5
 10
182.28264100000001
 20
-135.31289599999999
 30
0.0
 11
182.63960900000001
 21
-135.376924
 31
0.0
  0
LINE
  5
1A80
  8
DETAIL
  6
CONTINUOUS
 62
     5
 10
181.93699699999991
 20
-135.20738399999991
 30
0.0
 11
182.28264100000001
 21
-135.31289599999999
 31
0.0
  0
LINE
  5
1A81
  8
DETAIL
  6
CONTINUOUS
 62
     5
 10
181.60734999999991
 20
-135.0620879999999
 30
0.0
 11
181.93699699999991
 21
-135.20738399999991
 31
0.0
  0
LINE
  5
1A82
  8
DETAIL
  6
CONTINUOUS
 62
     5
 10
181.29606799999991
 20
-134.8777289999999
 30
0.0
 11
181.60734999999991
 21
-135.0620879999999
 31
0.0
  0
LINE
  5
1A83
  8
DETAIL
  6
CONTINUOUS
 62
     5
 10
181.0102269999999
 20
-134.65814499999991
 30
0.0
 11
181.29606799999991
 21
-134.8777289999999
 31
0.0
  0
LINE
  5
1A84
  8
DETAIL
  6
CONTINUOUS
 62
     5
 10
180.75492600000001
 20
-134.40784400000001
 30
0.0
 11
181.0102269999999
 21
-134.65814499999991
 31
0.0
  0
LINE
  5
1A85
  8
DETAIL
  6
CONTINUOUS
 62
     5
 10
180.53092399999991
 20
-134.127557
 30
0.0
 11
180.75492600000001
 21
-134.40784400000001
 31
0.0
  0
LINE
  5
1A86
  8
DETAIL
  6
CONTINUOUS
 62
     5
 10
180.342884
 20
-133.8223689999999
 30
0.0
 11
180.53092399999991
 21
-134.127557
 31
0.0
  0
LINE
  5
1A87
  8
DETAIL
  6
CONTINUOUS
 62
     5
 10
180.1946979999999
 20
-133.49921000000001
 30
0.0
 11
180.342884
 21
-133.8223689999999
 31
0.0
  0
LINE
  5
1A88
  8
DETAIL
  6
CONTINUOUS
 62
     5
 10
180.08704999999981
 20
-133.16025899999991
 30
0.0
 11
180.1946979999999
 21
-133.49921000000001
 31
0.0
  0
LINE
  5
1A89
  8
DETAIL
  6
CONTINUOUS
 62
     5
 10
180.021726
 20
-132.8101879999999
 30
0.0
 11
180.08704999999981
 21
-133.16025899999991
 31
0.0
  0
LINE
  5
1A8A
  8
DETAIL
  6
CONTINUOUS
 62
     5
 10
180.00722899999991
 20
-132.57440700000001
 30
0.0
 11
180.021726
 21
-132.8101879999999
 31
0.0
  0
LINE
  5
1A8B
  8
DETAIL
  6
CONTINUOUS
 62
     5
 10
180.021726
 20
-132.9282069999997
 30
0.0
 11
180.0
 21
-132.57485199999991
 31
0.0
  0
LINE
  5
1A8C
  8
DETAIL
  6
CONTINUOUS
 62
     5
 10
180.08704999999981
 20
-133.278278
 30
0.0
 11
180.021726
 21
-132.9282069999997
 31
0.0
  0
LINE
  5
1A8D
  8
DETAIL
  6
CONTINUOUS
 62
     5
 10
180.1946979999999
 20
-133.61722900000001
 30
0.0
 11
180.08704999999981
 21
-133.278278
 31
0.0
  0
LINE
  5
1A8E
  8
DETAIL
  6
CONTINUOUS
 62
     5
 10
180.342884
 20
-133.9403879999997
 30
0.0
 11
180.1946979999999
 21
-133.61722900000001
 31
0.0
  0
LINE
  5
1A8F
  8
DETAIL
  6
CONTINUOUS
 62
     5
 10
180.53092399999991
 20
-134.24557599999969
 30
0.0
 11
180.342884
 21
-133.9403879999997
 31
0.0
  0
LINE
  5
1A90
  8
DETAIL
  6
CONTINUOUS
 62
     5
 10
180.75492600000001
 20
-134.52586199999979
 30
0.0
 11
180.53092399999991
 21
-134.24557599999969
 31
0.0
  0
LINE
  5
1A91
  8
DETAIL
  6
CONTINUOUS
 62
     5
 10
181.0102269999999
 20
-134.77616399999991
 30
0.0
 11
180.75492600000001
 21
-134.52586199999979
 31
0.0
  0
LINE
  5
1A92
  8
DETAIL
  6
CONTINUOUS
 62
     5
 10
181.29606799999991
 20
-134.99574799999999
 30
0.0
 11
181.0102269999999
 21
-134.77616399999991
 31
0.0
  0
LINE
  5
1A93
  8
DETAIL
  6
CONTINUOUS
 62
     5
 10
181.60734999999991
 20
-135.18010699999999
 30
0.0
 11
181.29606799999991
 21
-134.99574799999999
 31
0.0
  0
LINE
  5
1A94
  8
DETAIL
  6
CONTINUOUS
 62
     5
 10
181.93699699999991
 20
-135.32540299999991
 30
0.0
 11
181.60734999999991
 21
-135.18010699999999
 31
0.0
  0
LINE
  5
1A95
  8
DETAIL
  6
CONTINUOUS
 62
     5
 10
182.28264100000001
 20
-135.430914
 30
0.0
 11
181.93699699999991
 21
-135.32540299999991
 31
0.0
  0
LINE
  5
1A96
  8
DETAIL
  6
CONTINUOUS
 62
     5
 10
182.63960900000001
 20
-135.49494300000001
 30
0.0
 11
182.28264100000001
 21
-135.430914
 31
0.0
  0
LINE
  5
1A97
  8
DETAIL
  6
CONTINUOUS
 62
     5
 10
183.0
 20
-135.51624399999969
 30
0.0
 11
182.63960900000001
 21
-135.49494300000001
 31
0.0
  0
LINE
  5
1A98
  8
DETAIL
  6
CONTINUOUS
 62
     5
 10
330.0
 20
-206.10965999999991
 30
0.0
 11
330.0
 21
-199.050319
 31
0.0
  0
LINE
  5
1A99
  8
DETAIL
  6
CONTINUOUS
 62
     5
 10
327.36039599999992
 20
-238.4436739999999
 30
0.0
 11
327.0
 21
-238.46497600000001
 31
0.0
  0
LINE
  5
1A9A
  8
DETAIL
  6
CONTINUOUS
 62
     5
 10
327.71744200000001
 20
-238.379626
 30
0.0
 11
327.36039599999992
 21
-238.4436739999999
 31
0.0
  0
LINE
  5
1A9B
  8
DETAIL
  6
CONTINUOUS
 62
     5
 10
328.06314700000001
 20
-238.274081
 30
0.0
 11
327.71744200000001
 21
-238.379626
 31
0.0
  0
LINE
  5
1A9C
  8
DETAIL
  6
CONTINUOUS
 62
     5
 10
328.39274399999982
 20
-238.1287899999999
 30
0.0
 11
328.06314700000001
 21
-238.274081
 31
0.0
  0
LINE
  5
1A9D
  8
DETAIL
  6
CONTINUOUS
 62
     5
 10
328.70401299999992
 20
-237.944424
 30
0.0
 11
328.39274399999982
 21
-238.1287899999999
 31
0.0
  0
LINE
  5
1A9E
  8
DETAIL
  6
CONTINUOUS
 62
     5
 10
328.98988500000002
 20
-237.72479799999991
 30
0.0
 11
328.70401299999992
 21
-237.944424
 31
0.0
  0
LINE
  5
1A9F
  8
DETAIL
  6
CONTINUOUS
 62
     5
 10
329.24517400000002
 20
-237.4744839999999
 30
0.0
 11
328.98988500000002
 21
-237.72479799999991
 31
0.0
  0
LINE
  5
1AA0
  8
DETAIL
  6
CONTINUOUS
 62
     5
 10
329.469133
 20
-237.19422700000001
 30
0.0
 11
329.24517400000002
 21
-237.4744839999999
 31
0.0
  0
LINE
  5
1AA1
  8
DETAIL
  6
CONTINUOUS
 62
     5
 10
329.65716499999991
 20
-236.889027
 30
0.0
 11
329.469133
 21
-237.19422700000001
 31
0.0
  0
LINE
  5
1AA2
  8
DETAIL
  6
CONTINUOUS
 62
     5
 10
329.80535600000002
 20
-236.56581999999989
 30
0.0
 11
329.65716499999991
 21
-236.889027
 31
0.0
  0
LINE
  5
1AA3
  8
DETAIL
  6
CONTINUOUS
 62
     5
 10
329.91296999999992
 20
-236.22692799999999
 30
0.0
 11
329.80535600000002
 21
-236.56581999999989
 31
0.0
  0
LINE
  5
1AA4
  8
DETAIL
  6
CONTINUOUS
 62
     5
 10
329.97827399999989
 20
-235.87693400000001
 30
0.0
 11
329.91296999999992
 21
-236.22692799999999
 31
0.0
  0
LINE
  5
1AA5
  8
DETAIL
  6
CONTINUOUS
 62
     5
 10
330.0
 20
-235.5235839999998
 30
0.0
 11
329.97827399999989
 21
-235.87693400000001
 31
0.0
  0
LINE
  5
1AA6
  8
DETAIL
  6
CONTINUOUS
 62
     5
 10
330.0
 20
-235.5235839999998
 30
0.0
 11
330.0
 21
-228.4642419999999
 31
0.0
  0
LINE
  5
1AA7
  8
DETAIL
  6
CONTINUOUS
 62
     5
 10
327.0
 20
-238.46497600000001
 30
0.0
 11
327.0
 21
-238.34695699999989
 31
0.0
  0
LINE
  5
1AA8
  8
DETAIL
  6
CONTINUOUS
 62
     5
 10
329.97827399999989
 20
-235.75891499999989
 30
0.0
 11
329.99277099999989
 21
-235.5231389999999
 31
0.0
  0
LINE
  5
1AA9
  8
DETAIL
  6
CONTINUOUS
 62
     5
 10
329.91296999999992
 20
-236.10891000000001
 30
0.0
 11
329.97827399999989
 21
-235.75891499999989
 31
0.0
  0
LINE
  5
1AAA
  8
DETAIL
  6
CONTINUOUS
 62
     5
 10
329.80535600000002
 20
-236.44780099999991
 30
0.0
 11
329.91296999999992
 21
-236.10891000000001
 31
0.0
  0
LINE
  5
1AAB
  8
DETAIL
  6
CONTINUOUS
 62
     5
 10
329.65716499999991
 20
-236.77100799999999
 30
0.0
 11
329.80535600000002
 21
-236.44780099999991
 31
0.0
  0
LINE
  5
1AAC
  8
DETAIL
  6
CONTINUOUS
 62
     5
 10
329.469133
 20
-237.07620799999989
 30
0.0
 11
329.65716499999991
 21
-236.77100799999999
 31
0.0
  0
LINE
  5
1AAD
  8
DETAIL
  6
CONTINUOUS
 62
     5
 10
329.24517400000002
 20
-237.35646499999999
 30
0.0
 11
329.469133
 21
-237.07620799999989
 31
0.0
  0
LINE
  5
1AAE
  8
DETAIL
  6
CONTINUOUS
 62
     5
 10
328.98988500000002
 20
-237.60677899999999
 30
0.0
 11
329.24517400000002
 21
-237.35646499999999
 31
0.0
  0
LINE
  5
1AAF
  8
DETAIL
  6
CONTINUOUS
 62
     5
 10
328.70401299999992
 20
-237.82640599999991
 30
0.0
 11
328.98988500000002
 21
-237.60677899999999
 31
0.0
  0
LINE
  5
1AB0
  8
DETAIL
  6
CONTINUOUS
 62
     5
 10
328.39274399999982
 20
-238.01077100000001
 30
0.0
 11
328.70401299999992
 21
-237.82640599999991
 31
0.0
  0
LINE
  5
1AB1
  8
DETAIL
  6
CONTINUOUS
 62
     5
 10
328.06314700000001
 20
-238.15606299999999
 30
0.0
 11
328.39274399999982
 21
-238.01077100000001
 31
0.0
  0
LINE
  5
1AB2
  8
DETAIL
  6
CONTINUOUS
 62
     5
 10
327.71744200000001
 20
-238.26160699999991
 30
0.0
 11
328.06314700000001
 21
-238.15606299999999
 31
0.0
  0
LINE
  5
1AB3
  8
DETAIL
  6
CONTINUOUS
 62
     5
 10
327.36039599999992
 20
-238.32565500000001
 30
0.0
 11
327.71744200000001
 21
-238.26160699999991
 31
0.0
  0
LINE
  5
1AB4
  8
DETAIL
  6
CONTINUOUS
 62
     5
 10
327.0
 20
-238.34695699999989
 30
0.0
 11
327.36039599999992
 21
-238.32565500000001
 31
0.0
  0
LINE
  5
1AB5
  8
DETAIL
  6
CONTINUOUS
 62
     5
 10
327.36039599999992
 20
-223.73671200000001
 30
0.0
 11
327.0
 21
-223.75801399999989
 31
0.0
  0
LINE
  5
1AB6
  8
DETAIL
  6
CONTINUOUS
 62
     5
 10
327.71744200000001
 20
-223.67266499999999
 30
0.0
 11
327.36039599999992
 21
-223.73671200000001
 31
0.0
  0
LINE
  5
1AB7
  8
DETAIL
  6
CONTINUOUS
 62
     5
 10
328.06314700000001
 20
-223.56711999999999
 30
0.0
 11
327.71744200000001
 21
-223.67266499999999
 31
0.0
  0
LINE
  5
1AB8
  8
DETAIL
  6
CONTINUOUS
 62
     5
 10
328.39274399999982
 20
-223.42182799999989
 30
0.0
 11
328.06314700000001
 21
-223.56711999999999
 31
0.0
  0
LINE
  5
1AB9
  8
DETAIL
  6
CONTINUOUS
 62
     5
 10
328.70401299999992
 20
-223.23746299999991
 30
0.0
 11
328.39274399999982
 21
-223.42182799999989
 31
0.0
  0
LINE
  5
1ABA
  8
DETAIL
  6
CONTINUOUS
 62
     5
 10
328.98988500000002
 20
-223.01783599999999
 30
0.0
 11
328.70401299999992
 21
-223.23746299999991
 31
0.0
  0
LINE
  5
1ABB
  8
DETAIL
  6
CONTINUOUS
 62
     5
 10
329.24517400000002
 20
-222.76752300000001
 30
0.0
 11
328.98988500000002
 21
-223.01783599999999
 31
0.0
  0
LINE
  5
1ABC
  8
DETAIL
  6
CONTINUOUS
 62
     5
 10
329.469133
 20
-222.48726599999989
 30
0.0
 11
329.24517400000002
 21
-222.76752300000001
 31
0.0
  0
LINE
  5
1ABD
  8
DETAIL
  6
CONTINUOUS
 62
     5
 10
329.65716499999991
 20
-222.18206499999999
 30
0.0
 11
329.469133
 21
-222.48726599999989
 31
0.0
  0
LINE
  5
1ABE
  8
DETAIL
  6
CONTINUOUS
 62
     5
 10
329.80535600000002
 20
-221.858858
 30
0.0
 11
329.65716499999991
 21
-222.18206499999999
 31
0.0
  0
LINE
  5
1ABF
  8
DETAIL
  6
CONTINUOUS
 62
     5
 10
329.91296999999992
 20
-221.51996700000001
 30
0.0
 11
329.80535600000002
 21
-221.858858
 31
0.0
  0
LINE
  5
1AC0
  8
DETAIL
  6
CONTINUOUS
 62
     5
 10
329.97827399999989
 20
-221.16997199999989
 30
0.0
 11
329.91296999999992
 21
-221.51996700000001
 31
0.0
  0
LINE
  5
1AC1
  8
DETAIL
  6
CONTINUOUS
 62
     5
 10
330.0
 20
-220.8166219999998
 30
0.0
 11
329.97827399999989
 21
-221.16997199999989
 31
0.0
  0
LINE
  5
1AC2
  8
DETAIL
  6
CONTINUOUS
 62
     5
 10
327.36039599999992
 20
-209.029751
 30
0.0
 11
327.0
 21
-209.051052
 31
0.0
  0
LINE
  5
1AC3
  8
DETAIL
  6
CONTINUOUS
 62
     5
 10
327.71744200000001
 20
-208.96570299999999
 30
0.0
 11
327.36039599999992
 21
-209.029751
 31
0.0
  0
LINE
  5
1AC4
  8
DETAIL
  6
CONTINUOUS
 62
     5
 10
328.06314700000001
 20
-208.86015800000001
 30
0.0
 11
327.71744200000001
 21
-208.96570299999999
 31
0.0
  0
LINE
  5
1AC5
  8
DETAIL
  6
CONTINUOUS
 62
     5
 10
328.39274399999982
 20
-208.71486699999991
 30
0.0
 11
328.06314700000001
 21
-208.86015800000001
 31
0.0
  0
LINE
  5
1AC6
  8
DETAIL
  6
CONTINUOUS
 62
     5
 10
328.70401299999992
 20
-208.5305009999999
 30
0.0
 11
328.39274399999982
 21
-208.71486699999991
 31
0.0
  0
LINE
  5
1AC7
  8
DETAIL
  6
CONTINUOUS
 62
     5
 10
328.98988500000002
 20
-208.31087500000001
 30
0.0
 11
328.70401299999992
 21
-208.5305009999999
 31
0.0
  0
LINE
  5
1AC8
  8
DETAIL
  6
CONTINUOUS
 62
     5
 10
329.24517400000002
 20
-208.06056100000001
 30
0.0
 11
328.98988500000002
 21
-208.31087500000001
 31
0.0
  0
LINE
  5
1AC9
  8
DETAIL
  6
CONTINUOUS
 62
     5
 10
329.469133
 20
-207.780304
 30
0.0
 11
329.24517400000002
 21
-208.06056100000001
 31
0.0
  0
LINE
  5
1ACA
  8
DETAIL
  6
CONTINUOUS
 62
     5
 10
329.65716499999991
 20
-207.4751039999999
 30
0.0
 11
329.469133
 21
-207.780304
 31
0.0
  0
LINE
  5
1ACB
  8
DETAIL
  6
CONTINUOUS
 62
     5
 10
329.80535600000002
 20
-207.15189699999999
 30
0.0
 11
329.65716499999991
 21
-207.4751039999999
 31
0.0
  0
LINE
  5
1ACC
  8
DETAIL
  6
CONTINUOUS
 62
     5
 10
329.91296999999992
 20
-206.813005
 30
0.0
 11
329.80535600000002
 21
-207.15189699999999
 31
0.0
  0
LINE
  5
1ACD
  8
DETAIL
  6
CONTINUOUS
 62
     5
 10
329.97827399999989
 20
-206.46301099999991
 30
0.0
 11
329.91296999999992
 21
-206.813005
 31
0.0
  0
LINE
  5
1ACE
  8
DETAIL
  6
CONTINUOUS
 62
     5
 10
330.0
 20
-206.10965999999991
 30
0.0
 11
329.97827399999989
 21
-206.46301099999991
 31
0.0
  0
LINE
  5
1ACF
  8
DETAIL
  6
CONTINUOUS
 62
     5
 10
330.0
 20
-220.8166219999998
 30
0.0
 11
330.0
 21
-213.75728000000001
 31
0.0
  0
LINE
  5
1AD0
  8
DETAIL
  6
CONTINUOUS
 62
     5
 10
327.0
 20
-209.051052
 30
0.0
 11
327.0
 21
-208.93303399999999
 31
0.0
  0
LINE
  5
1AD1
  8
DETAIL
  6
CONTINUOUS
 62
     5
 10
327.0
 20
-223.75801399999989
 30
0.0
 11
327.0
 21
-223.639995
 31
0.0
  0
LINE
  5
1AD2
  8
DETAIL
  6
CONTINUOUS
 62
     5
 10
329.97827399999989
 20
-206.34499199999999
 30
0.0
 11
329.99277099999989
 21
-206.109216
 31
0.0
  0
LINE
  5
1AD3
  8
DETAIL
  6
CONTINUOUS
 62
     5
 10
329.91296999999992
 20
-206.694986
 30
0.0
 11
329.97827399999989
 21
-206.34499199999999
 31
0.0
  0
LINE
  5
1AD4
  8
DETAIL
  6
CONTINUOUS
 62
     5
 10
329.80535600000002
 20
-207.0338779999999
 30
0.0
 11
329.91296999999992
 21
-206.694986
 31
0.0
  0
LINE
  5
1AD5
  8
DETAIL
  6
CONTINUOUS
 62
     5
 10
329.65716499999991
 20
-207.35708500000001
 30
0.0
 11
329.80535600000002
 21
-207.0338779999999
 31
0.0
  0
LINE
  5
1AD6
  8
DETAIL
  6
CONTINUOUS
 62
     5
 10
329.469133
 20
-207.662285
 30
0.0
 11
329.65716499999991
 21
-207.35708500000001
 31
0.0
  0
LINE
  5
1AD7
  8
DETAIL
  6
CONTINUOUS
 62
     5
 10
329.24517400000002
 20
-207.942542
 30
0.0
 11
329.469133
 21
-207.662285
 31
0.0
  0
LINE
  5
1AD8
  8
DETAIL
  6
CONTINUOUS
 62
     5
 10
328.98988500000002
 20
-208.19285600000001
 30
0.0
 11
329.24517400000002
 21
-207.942542
 31
0.0
  0
LINE
  5
1AD9
  8
DETAIL
  6
CONTINUOUS
 62
     5
 10
328.70401299999992
 20
-208.4124819999999
 30
0.0
 11
328.98988500000002
 21
-208.19285600000001
 31
0.0
  0
LINE
  5
1ADA
  8
DETAIL
  6
CONTINUOUS
 62
     5
 10
328.39274399999982
 20
-208.59684799999999
 30
0.0
 11
328.70401299999992
 21
-208.4124819999999
 31
0.0
  0
LINE
  5
1ADB
  8
DETAIL
  6
CONTINUOUS
 62
     5
 10
328.06314700000001
 20
-208.7421389999999
 30
0.0
 11
328.39274399999982
 21
-208.59684799999999
 31
0.0
  0
LINE
  5
1ADC
  8
DETAIL
  6
CONTINUOUS
 62
     5
 10
327.71744200000001
 20
-208.8476839999999
 30
0.0
 11
328.06314700000001
 21
-208.7421389999999
 31
0.0
  0
LINE
  5
1ADD
  8
DETAIL
  6
CONTINUOUS
 62
     5
 10
327.36039599999992
 20
-208.911732
 30
0.0
 11
327.71744200000001
 21
-208.8476839999999
 31
0.0
  0
LINE
  5
1ADE
  8
DETAIL
  6
CONTINUOUS
 62
     5
 10
327.0
 20
-208.93303399999999
 30
0.0
 11
327.36039599999992
 21
-208.911732
 31
0.0
  0
LINE
  5
1ADF
  8
DETAIL
  6
CONTINUOUS
 62
     5
 10
329.97827399999989
 20
-221.05195299999991
 30
0.0
 11
329.99277099999989
 21
-220.81617700000001
 31
0.0
  0
LINE
  5
1AE0
  8
DETAIL
  6
CONTINUOUS
 62
     5
 10
329.91296999999992
 20
-221.401948
 30
0.0
 11
329.97827399999989
 21
-221.05195299999991
 31
0.0
  0
LINE
  5
1AE1
  8
DETAIL
  6
CONTINUOUS
 62
     5
 10
329.80535600000002
 20
-221.74083899999999
 30
0.0
 11
329.91296999999992
 21
-221.401948
 31
0.0
  0
LINE
  5
1AE2
  8
DETAIL
  6
CONTINUOUS
 62
     5
 10
329.65716499999991
 20
-222.0640469999999
 30
0.0
 11
329.80535600000002
 21
-221.74083899999999
 31
0.0
  0
LINE
  5
1AE3
  8
DETAIL
  6
CONTINUOUS
 62
     5
 10
329.469133
 20
-222.369247
 30
0.0
 11
329.65716499999991
 21
-222.0640469999999
 31
0.0
  0
LINE
  5
1AE4
  8
DETAIL
  6
CONTINUOUS
 62
     5
 10
329.24517400000002
 20
-222.64950400000001
 30
0.0
 11
329.469133
 21
-222.369247
 31
0.0
  0
LINE
  5
1AE5
  8
DETAIL
  6
CONTINUOUS
 62
     5
 10
328.98988500000002
 20
-222.89981800000001
 30
0.0
 11
329.24517400000002
 21
-222.64950400000001
 31
0.0
  0
LINE
  5
1AE6
  8
DETAIL
  6
CONTINUOUS
 62
     5
 10
328.70401299999992
 20
-223.1194439999999
 30
0.0
 11
328.98988500000002
 21
-222.89981800000001
 31
0.0
  0
LINE
  5
1AE7
  8
DETAIL
  6
CONTINUOUS
 62
     5
 10
328.39274399999982
 20
-223.30380899999989
 30
0.0
 11
328.70401299999992
 21
-223.1194439999999
 31
0.0
  0
LINE
  5
1AE8
  8
DETAIL
  6
CONTINUOUS
 62
     5
 10
328.06314700000001
 20
-223.44910100000001
 30
0.0
 11
328.39274399999982
 21
-223.30380899999989
 31
0.0
  0
LINE
  5
1AE9
  8
DETAIL
  6
CONTINUOUS
 62
     5
 10
327.71744200000001
 20
-223.55464599999999
 30
0.0
 11
328.06314700000001
 21
-223.44910100000001
 31
0.0
  0
LINE
  5
1AEA
  8
DETAIL
  6
CONTINUOUS
 62
     5
 10
327.36039599999992
 20
-223.618694
 30
0.0
 11
327.71744200000001
 21
-223.55464599999999
 31
0.0
  0
LINE
  5
1AEB
  8
DETAIL
  6
CONTINUOUS
 62
     5
 10
327.0
 20
-223.639995
 30
0.0
 11
327.36039599999992
 21
-223.618694
 31
0.0
  0
LINE
  5
1AEC
  8
DETAIL
  6
CONTINUOUS
 62
     5
 10
330.0
 20
-147.281813
 30
0.0
 11
330.0
 21
-140.2224719999999
 31
0.0
  0
LINE
  5
1AED
  8
DETAIL
  6
CONTINUOUS
 62
     5
 10
327.36039599999992
 20
-194.322789
 30
0.0
 11
327.0
 21
-194.34409099999991
 31
0.0
  0
LINE
  5
1AEE
  8
DETAIL
  6
CONTINUOUS
 62
     5
 10
327.71744200000001
 20
-194.2587409999999
 30
0.0
 11
327.36039599999992
 21
-194.322789
 31
0.0
  0
LINE
  5
1AEF
  8
DETAIL
  6
CONTINUOUS
 62
     5
 10
328.06314700000001
 20
-194.15319600000001
 30
0.0
 11
327.71744200000001
 21
-194.2587409999999
 31
0.0
  0
LINE
  5
1AF0
  8
DETAIL
  6
CONTINUOUS
 62
     5
 10
328.39274399999982
 20
-194.00790499999991
 30
0.0
 11
328.06314700000001
 21
-194.15319600000001
 31
0.0
  0
LINE
  5
1AF1
  8
DETAIL
  6
CONTINUOUS
 62
     5
 10
328.70401299999992
 20
-193.8235389999999
 30
0.0
 11
328.39274399999982
 21
-194.00790499999991
 31
0.0
  0
LINE
  5
1AF2
  8
DETAIL
  6
CONTINUOUS
 62
     5
 10
328.98988500000002
 20
-193.60391299999989
 30
0.0
 11
328.70401299999992
 21
-193.8235389999999
 31
0.0
  0
LINE
  5
1AF3
  8
DETAIL
  6
CONTINUOUS
 62
     5
 10
329.24517400000002
 20
-193.353599
 30
0.0
 11
328.98988500000002
 21
-193.60391299999989
 31
0.0
  0
LINE
  5
1AF4
  8
DETAIL
  6
CONTINUOUS
 62
     5
 10
329.469133
 20
-193.07334199999991
 30
0.0
 11
329.24517400000002
 21
-193.353599
 31
0.0
  0
LINE
  5
1AF5
  8
DETAIL
  6
CONTINUOUS
 62
     5
 10
329.65716499999991
 20
-192.7681419999999
 30
0.0
 11
329.469133
 21
-193.07334199999991
 31
0.0
  0
LINE
  5
1AF6
  8
DETAIL
  6
CONTINUOUS
 62
     5
 10
329.80535600000002
 20
-192.4449349999999
 30
0.0
 11
329.65716499999991
 21
-192.7681419999999
 31
0.0
  0
LINE
  5
1AF7
  8
DETAIL
  6
CONTINUOUS
 62
     5
 10
329.91296999999992
 20
-192.1060429999998
 30
0.0
 11
329.80535600000002
 21
-192.4449349999999
 31
0.0
  0
LINE
  5
1AF8
  8
DETAIL
  6
CONTINUOUS
 62
     5
 10
329.97827399999989
 20
-191.7560489999999
 30
0.0
 11
329.91296999999992
 21
-192.1060429999998
 31
0.0
  0
LINE
  5
1AF9
  8
DETAIL
  6
CONTINUOUS
 62
     5
 10
330.0
 20
-191.4026979999999
 30
0.0
 11
329.97827399999989
 21
-191.7560489999999
 31
0.0
  0
LINE
  5
1AFA
  8
DETAIL
  6
CONTINUOUS
 62
     5
 10
327.36039599999992
 20
-179.615827
 30
0.0
 11
327.0
 21
-179.6371289999999
 31
0.0
  0
LINE
  5
1AFB
  8
DETAIL
  6
CONTINUOUS
 62
     5
 10
327.71744200000001
 20
-179.55177900000001
 30
0.0
 11
327.36039599999992
 21
-179.615827
 31
0.0
  0
LINE
  5
1AFC
  8
DETAIL
  6
CONTINUOUS
 62
     5
 10
328.06314700000001
 20
-179.446235
 30
0.0
 11
327.71744200000001
 21
-179.55177900000001
 31
0.0
  0
LINE
  5
1AFD
  8
DETAIL
  6
CONTINUOUS
 62
     5
 10
328.39274399999982
 20
-179.3009429999999
 30
0.0
 11
328.06314700000001
 21
-179.446235
 31
0.0
  0
LINE
  5
1AFE
  8
DETAIL
  6
CONTINUOUS
 62
     5
 10
328.70401299999992
 20
-179.116578
 30
0.0
 11
328.39274399999982
 21
-179.3009429999999
 31
0.0
  0
LINE
  5
1AFF
  8
DETAIL
  6
CONTINUOUS
 62
     5
 10
328.98988500000002
 20
-178.896951
 30
0.0
 11
328.70401299999992
 21
-179.116578
 31
0.0
  0
LINE
  5
1B00
  8
DETAIL
  6
CONTINUOUS
 62
     5
 10
329.24517400000002
 20
-178.646637
 30
0.0
 11
328.98988500000002
 21
-178.896951
 31
0.0
  0
LINE
  5
1B01
  8
DETAIL
  6
CONTINUOUS
 62
     5
 10
329.469133
 20
-178.36637999999999
 30
0.0
 11
329.24517400000002
 21
-178.646637
 31
0.0
  0
LINE
  5
1B02
  8
DETAIL
  6
CONTINUOUS
 62
     5
 10
329.65716499999991
 20
-178.06118000000001
 30
0.0
 11
329.469133
 21
-178.36637999999999
 31
0.0
  0
LINE
  5
1B03
  8
DETAIL
  6
CONTINUOUS
 62
     5
 10
329.80535600000002
 20
-177.73797300000001
 30
0.0
 11
329.65716499999991
 21
-178.06118000000001
 31
0.0
  0
LINE
  5
1B04
  8
DETAIL
  6
CONTINUOUS
 62
     5
 10
329.91296999999992
 20
-177.39908199999991
 30
0.0
 11
329.80535600000002
 21
-177.73797300000001
 31
0.0
  0
LINE
  5
1B05
  8
DETAIL
  6
CONTINUOUS
 62
     5
 10
329.97827399999989
 20
-177.0490869999999
 30
0.0
 11
329.91296999999992
 21
-177.39908199999991
 31
0.0
  0
LINE
  5
1B06
  8
DETAIL
  6
CONTINUOUS
 62
     5
 10
330.0
 20
-176.69573700000001
 30
0.0
 11
329.97827399999989
 21
-177.0490869999999
 31
0.0
  0
LINE
  5
1B07
  8
DETAIL
  6
CONTINUOUS
 62
     5
 10
327.36039599999992
 20
-164.90886599999979
 30
0.0
 11
327.0
 21
-164.93016699999981
 31
0.0
  0
LINE
  5
1B08
  8
DETAIL
  6
CONTINUOUS
 62
     5
 10
327.71744200000001
 20
-164.8448179999998
 30
0.0
 11
327.36039599999992
 21
-164.90886599999979
 31
0.0
  0
LINE
  5
1B09
  8
DETAIL
  6
CONTINUOUS
 62
     5
 10
328.06314700000001
 20
-164.73927299999991
 30
0.0
 11
327.71744200000001
 21
-164.8448179999998
 31
0.0
  0
LINE
  5
1B0A
  8
DETAIL
  6
CONTINUOUS
 62
     5
 10
328.39274399999982
 20
-164.5939809999999
 30
0.0
 11
328.06314700000001
 21
-164.73927299999991
 31
0.0
  0
LINE
  5
1B0B
  8
DETAIL
  6
CONTINUOUS
 62
     5
 10
328.70401299999992
 20
-164.4096159999998
 30
0.0
 11
328.39274399999982
 21
-164.5939809999999
 31
0.0
  0
LINE
  5
1B0C
  8
DETAIL
  6
CONTINUOUS
 62
     5
 10
328.98988500000002
 20
-164.18998999999999
 30
0.0
 11
328.70401299999992
 21
-164.4096159999998
 31
0.0
  0
LINE
  5
1B0D
  8
DETAIL
  6
CONTINUOUS
 62
     5
 10
329.24517400000002
 20
-163.93967599999991
 30
0.0
 11
328.98988500000002
 21
-164.18998999999999
 31
0.0
  0
LINE
  5
1B0E
  8
DETAIL
  6
CONTINUOUS
 62
     5
 10
329.469133
 20
-163.65941900000001
 30
0.0
 11
329.24517400000002
 21
-163.93967599999991
 31
0.0
  0
LINE
  5
1B0F
  8
DETAIL
  6
CONTINUOUS
 62
     5
 10
329.65716499999991
 20
-163.354219
 30
0.0
 11
329.469133
 21
-163.65941900000001
 31
0.0
  0
LINE
  5
1B10
  8
DETAIL
  6
CONTINUOUS
 62
     5
 10
329.80535600000002
 20
-163.03101100000001
 30
0.0
 11
329.65716499999991
 21
-163.354219
 31
0.0
  0
LINE
  5
1B11
  8
DETAIL
  6
CONTINUOUS
 62
     5
 10
329.91296999999992
 20
-162.6921199999999
 30
0.0
 11
329.80535600000002
 21
-163.03101100000001
 31
0.0
  0
LINE
  5
1B12
  8
DETAIL
  6
CONTINUOUS
 62
     5
 10
329.97827399999989
 20
-162.34212499999981
 30
0.0
 11
329.91296999999992
 21
-162.6921199999999
 31
0.0
  0
LINE
  5
1B13
  8
DETAIL
  6
CONTINUOUS
 62
     5
 10
330.0
 20
-161.988775
 30
0.0
 11
329.97827399999989
 21
-162.34212499999981
 31
0.0
  0
LINE
  5
1B14
  8
DETAIL
  6
CONTINUOUS
 62
     5
 10
327.36039599999992
 20
-150.20190400000001
 30
0.0
 11
327.0
 21
-150.223206
 31
0.0
  0
LINE
  5
1B15
  8
DETAIL
  6
CONTINUOUS
 62
     5
 10
327.71744200000001
 20
-150.137856
 30
0.0
 11
327.36039599999992
 21
-150.20190400000001
 31
0.0
  0
LINE
  5
1B16
  8
DETAIL
  6
CONTINUOUS
 62
     5
 10
328.06314700000001
 20
-150.03231099999999
 30
0.0
 11
327.71744200000001
 21
-150.137856
 31
0.0
  0
LINE
  5
1B17
  8
DETAIL
  6
CONTINUOUS
 62
     5
 10
328.39274399999982
 20
-149.88701999999981
 30
0.0
 11
328.06314700000001
 21
-150.03231099999999
 31
0.0
  0
LINE
  5
1B18
  8
DETAIL
  6
CONTINUOUS
 62
     5
 10
328.70401299999992
 20
-149.702654
 30
0.0
 11
328.39274399999982
 21
-149.88701999999981
 31
0.0
  0
LINE
  5
1B19
  8
DETAIL
  6
CONTINUOUS
 62
     5
 10
328.98988500000002
 20
-149.4830279999999
 30
0.0
 11
328.70401299999992
 21
-149.702654
 31
0.0
  0
LINE
  5
1B1A
  8
DETAIL
  6
CONTINUOUS
 62
     5
 10
329.24517400000002
 20
-149.2327139999999
 30
0.0
 11
328.98988500000002
 21
-149.4830279999999
 31
0.0
  0
LINE
  5
1B1B
  8
DETAIL
  6
CONTINUOUS
 62
     5
 10
329.469133
 20
-148.95245700000001
 30
0.0
 11
329.24517400000002
 21
-149.2327139999999
 31
0.0
  0
LINE
  5
1B1C
  8
DETAIL
  6
CONTINUOUS
 62
     5
 10
329.65716499999991
 20
-148.64725699999991
 30
0.0
 11
329.469133
 21
-148.95245700000001
 31
0.0
  0
LINE
  5
1B1D
  8
DETAIL
  6
CONTINUOUS
 62
     5
 10
329.80535600000002
 20
-148.3240499999998
 30
0.0
 11
329.65716499999991
 21
-148.64725699999991
 31
0.0
  0
LINE
  5
1B1E
  8
DETAIL
  6
CONTINUOUS
 62
     5
 10
329.91296999999992
 20
-147.98515800000001
 30
0.0
 11
329.80535600000002
 21
-148.3240499999998
 31
0.0
  0
LINE
  5
1B1F
  8
DETAIL
  6
CONTINUOUS
 62
     5
 10
329.97827399999989
 20
-147.6351639999998
 30
0.0
 11
329.91296999999992
 21
-147.98515800000001
 31
0.0
  0
LINE
  5
1B20
  8
DETAIL
  6
CONTINUOUS
 62
     5
 10
330.0
 20
-147.281813
 30
0.0
 11
329.97827399999989
 21
-147.6351639999998
 31
0.0
  0
LINE
  5
1B21
  8
DETAIL
  6
CONTINUOUS
 62
     5
 10
330.0
 20
-161.988775
 30
0.0
 11
330.0
 21
-154.9294329999999
 31
0.0
  0
LINE
  5
1B22
  8
DETAIL
  6
CONTINUOUS
 62
     5
 10
330.0
 20
-176.69573700000001
 30
0.0
 11
330.0
 21
-169.63639499999999
 31
0.0
  0
LINE
  5
1B23
  8
DETAIL
  6
CONTINUOUS
 62
     5
 10
330.0
 20
-191.4026979999999
 30
0.0
 11
330.0
 21
-184.343357
 31
0.0
  0
LINE
  5
1B24
  8
DETAIL
  6
CONTINUOUS
 62
     5
 10
327.0
 20
-150.223206
 30
0.0
 11
327.0
 21
-150.10518699999969
 31
0.0
  0
LINE
  5
1B25
  8
DETAIL
  6
CONTINUOUS
 62
     5
 10
327.0
 20
-164.93016699999981
 30
0.0
 11
327.0
 21
-164.81214900000001
 31
0.0
  0
LINE
  5
1B26
  8
DETAIL
  6
CONTINUOUS
 62
     5
 10
327.0
 20
-179.6371289999999
 30
0.0
 11
327.0
 21
-179.51911000000001
 31
0.0
  0
LINE
  5
1B27
  8
DETAIL
  6
CONTINUOUS
 62
     5
 10
327.0
 20
-194.34409099999991
 30
0.0
 11
327.0
 21
-194.2260719999999
 31
0.0
  0
LINE
  5
1B28
  8
DETAIL
  6
CONTINUOUS
 62
     5
 10
329.97827399999989
 20
-147.51714499999991
 30
0.0
 11
329.99277099999989
 21
-147.2813689999999
 31
0.0
  0
LINE
  5
1B29
  8
DETAIL
  6
CONTINUOUS
 62
     5
 10
329.91296999999992
 20
-147.86713900000001
 30
0.0
 11
329.97827399999989
 21
-147.51714499999991
 31
0.0
  0
LINE
  5
1B2A
  8
DETAIL
  6
CONTINUOUS
 62
     5
 10
329.80535600000002
 20
-148.206031
 30
0.0
 11
329.91296999999992
 21
-147.86713900000001
 31
0.0
  0
LINE
  5
1B2B
  8
DETAIL
  6
CONTINUOUS
 62
     5
 10
329.65716499999991
 20
-148.52923799999991
 30
0.0
 11
329.80535600000002
 21
-148.206031
 31
0.0
  0
LINE
  5
1B2C
  8
DETAIL
  6
CONTINUOUS
 62
     5
 10
329.469133
 20
-148.83443799999981
 30
0.0
 11
329.65716499999991
 21
-148.52923799999991
 31
0.0
  0
LINE
  5
1B2D
  8
DETAIL
  6
CONTINUOUS
 62
     5
 10
329.24517400000002
 20
-149.1146949999999
 30
0.0
 11
329.469133
 21
-148.83443799999981
 31
0.0
  0
LINE
  5
1B2E
  8
DETAIL
  6
CONTINUOUS
 62
     5
 10
328.98988500000002
 20
-149.3650089999999
 30
0.0
 11
329.24517400000002
 21
-149.1146949999999
 31
0.0
  0
LINE
  5
1B2F
  8
DETAIL
  6
CONTINUOUS
 62
     5
 10
328.70401299999992
 20
-149.58463499999979
 30
0.0
 11
328.98988500000002
 21
-149.3650089999999
 31
0.0
  0
LINE
  5
1B30
  8
DETAIL
  6
CONTINUOUS
 62
     5
 10
328.39274399999982
 20
-149.769001
 30
0.0
 11
328.70401299999992
 21
-149.58463499999979
 31
0.0
  0
LINE
  5
1B31
  8
DETAIL
  6
CONTINUOUS
 62
     5
 10
328.06314700000001
 20
-149.9142919999999
 30
0.0
 11
328.39274399999982
 21
-149.769001
 31
0.0
  0
LINE
  5
1B32
  8
DETAIL
  6
CONTINUOUS
 62
     5
 10
327.71744200000001
 20
-150.01983699999991
 30
0.0
 11
328.06314700000001
 21
-149.9142919999999
 31
0.0
  0
LINE
  5
1B33
  8
DETAIL
  6
CONTINUOUS
 62
     5
 10
327.36039599999992
 20
-150.08388500000001
 30
0.0
 11
327.71744200000001
 21
-150.01983699999991
 31
0.0
  0
LINE
  5
1B34
  8
DETAIL
  6
CONTINUOUS
 62
     5
 10
327.0
 20
-150.10518699999969
 30
0.0
 11
327.36039599999992
 21
-150.08388500000001
 31
0.0
  0
LINE
  5
1B35
  8
DETAIL
  6
CONTINUOUS
 62
     5
 10
329.97827399999989
 20
-162.224107
 30
0.0
 11
329.99277099999989
 21
-161.98833099999979
 31
0.0
  0
LINE
  5
1B36
  8
DETAIL
  6
CONTINUOUS
 62
     5
 10
329.91296999999992
 20
-162.57410099999981
 30
0.0
 11
329.97827399999989
 21
-162.224107
 31
0.0
  0
LINE
  5
1B37
  8
DETAIL
  6
CONTINUOUS
 62
     5
 10
329.80535600000002
 20
-162.91299299999969
 30
0.0
 11
329.91296999999992
 21
-162.57410099999981
 31
0.0
  0
LINE
  5
1B38
  8
DETAIL
  6
CONTINUOUS
 62
     5
 10
329.65716499999991
 20
-163.2362
 30
0.0
 11
329.80535600000002
 21
-162.91299299999969
 31
0.0
  0
LINE
  5
1B39
  8
DETAIL
  6
CONTINUOUS
 62
     5
 10
329.469133
 20
-163.54140000000001
 30
0.0
 11
329.65716499999991
 21
-163.2362
 31
0.0
  0
LINE
  5
1B3A
  8
DETAIL
  6
CONTINUOUS
 62
     5
 10
329.24517400000002
 20
-163.8216569999999
 30
0.0
 11
329.469133
 21
-163.54140000000001
 31
0.0
  0
LINE
  5
1B3B
  8
DETAIL
  6
CONTINUOUS
 62
     5
 10
328.98988500000002
 20
-164.07197099999991
 30
0.0
 11
329.24517400000002
 21
-163.8216569999999
 31
0.0
  0
LINE
  5
1B3C
  8
DETAIL
  6
CONTINUOUS
 62
     5
 10
328.70401299999992
 20
-164.29159699999991
 30
0.0
 11
328.98988500000002
 21
-164.07197099999991
 31
0.0
  0
LINE
  5
1B3D
  8
DETAIL
  6
CONTINUOUS
 62
     5
 10
328.39274399999982
 20
-164.47596299999981
 30
0.0
 11
328.70401299999992
 21
-164.29159699999991
 31
0.0
  0
LINE
  5
1B3E
  8
DETAIL
  6
CONTINUOUS
 62
     5
 10
328.06314700000001
 20
-164.62125399999999
 30
0.0
 11
328.39274399999982
 21
-164.47596299999981
 31
0.0
  0
LINE
  5
1B3F
  8
DETAIL
  6
CONTINUOUS
 62
     5
 10
327.71744200000001
 20
-164.726799
 30
0.0
 11
328.06314700000001
 21
-164.62125399999999
 31
0.0
  0
LINE
  5
1B40
  8
DETAIL
  6
CONTINUOUS
 62
     5
 10
327.36039599999992
 20
-164.7908469999999
 30
0.0
 11
327.71744200000001
 21
-164.726799
 31
0.0
  0
LINE
  5
1B41
  8
DETAIL
  6
CONTINUOUS
 62
     5
 10
327.0
 20
-164.81214900000001
 30
0.0
 11
327.36039599999992
 21
-164.7908469999999
 31
0.0
  0
LINE
  5
1B42
  8
DETAIL
  6
CONTINUOUS
 62
     5
 10
329.97827399999989
 20
-176.9310679999999
 30
0.0
 11
329.99277099999989
 21
-176.69529199999999
 31
0.0
  0
LINE
  5
1B43
  8
DETAIL
  6
CONTINUOUS
 62
     5
 10
329.91296999999992
 20
-177.2810629999999
 30
0.0
 11
329.97827399999989
 21
-176.9310679999999
 31
0.0
  0
LINE
  5
1B44
  8
DETAIL
  6
CONTINUOUS
 62
     5
 10
329.80535600000002
 20
-177.61995400000001
 30
0.0
 11
329.91296999999992
 21
-177.2810629999999
 31
0.0
  0
LINE
  5
1B45
  8
DETAIL
  6
CONTINUOUS
 62
     5
 10
329.65716499999991
 20
-177.943161
 30
0.0
 11
329.80535600000002
 21
-177.61995400000001
 31
0.0
  0
LINE
  5
1B46
  8
DETAIL
  6
CONTINUOUS
 62
     5
 10
329.469133
 20
-178.2483619999999
 30
0.0
 11
329.65716499999991
 21
-177.943161
 31
0.0
  0
LINE
  5
1B47
  8
DETAIL
  6
CONTINUOUS
 62
     5
 10
329.24517400000002
 20
-178.52861899999991
 30
0.0
 11
329.469133
 21
-178.2483619999999
 31
0.0
  0
LINE
  5
1B48
  8
DETAIL
  6
CONTINUOUS
 62
     5
 10
328.98988500000002
 20
-178.77893199999991
 30
0.0
 11
329.24517400000002
 21
-178.52861899999991
 31
0.0
  0
LINE
  5
1B49
  8
DETAIL
  6
CONTINUOUS
 62
     5
 10
328.70401299999992
 20
-178.998559
 30
0.0
 11
328.98988500000002
 21
-178.77893199999991
 31
0.0
  0
LINE
  5
1B4A
  8
DETAIL
  6
CONTINUOUS
 62
     5
 10
328.39274399999982
 20
-179.18292400000001
 30
0.0
 11
328.70401299999992
 21
-178.998559
 31
0.0
  0
LINE
  5
1B4B
  8
DETAIL
  6
CONTINUOUS
 62
     5
 10
328.06314700000001
 20
-179.32821599999991
 30
0.0
 11
328.39274399999982
 21
-179.18292400000001
 31
0.0
  0
LINE
  5
1B4C
  8
DETAIL
  6
CONTINUOUS
 62
     5
 10
327.71744200000001
 20
-179.433761
 30
0.0
 11
328.06314700000001
 21
-179.32821599999991
 31
0.0
  0
LINE
  5
1B4D
  8
DETAIL
  6
CONTINUOUS
 62
     5
 10
327.36039599999992
 20
-179.49780799999991
 30
0.0
 11
327.71744200000001
 21
-179.433761
 31
0.0
  0
LINE
  5
1B4E
  8
DETAIL
  6
CONTINUOUS
 62
     5
 10
327.0
 20
-179.51911000000001
 30
0.0
 11
327.36039599999992
 21
-179.49780799999991
 31
0.0
  0
LINE
  5
1B4F
  8
DETAIL
  6
CONTINUOUS
 62
     5
 10
329.97827399999989
 20
-191.6380299999999
 30
0.0
 11
329.99277099999989
 21
-191.40225399999991
 31
0.0
  0
LINE
  5
1B50
  8
DETAIL
  6
CONTINUOUS
 62
     5
 10
329.91296999999992
 20
-191.98802399999991
 30
0.0
 11
329.97827399999989
 21
-191.6380299999999
 31
0.0
  0
LINE
  5
1B51
  8
DETAIL
  6
CONTINUOUS
 62
     5
 10
329.80535600000002
 20
-192.3269159999999
 30
0.0
 11
329.91296999999992
 21
-191.98802399999991
 31
0.0
  0
LINE
  5
1B52
  8
DETAIL
  6
CONTINUOUS
 62
     5
 10
329.65716499999991
 20
-192.65012300000001
 30
0.0
 11
329.80535600000002
 21
-192.3269159999999
 31
0.0
  0
LINE
  5
1B53
  8
DETAIL
  6
CONTINUOUS
 62
     5
 10
329.469133
 20
-192.95532299999991
 30
0.0
 11
329.65716499999991
 21
-192.65012300000001
 31
0.0
  0
LINE
  5
1B54
  8
DETAIL
  6
CONTINUOUS
 62
     5
 10
329.24517400000002
 20
-193.23558
 30
0.0
 11
329.469133
 21
-192.95532299999991
 31
0.0
  0
LINE
  5
1B55
  8
DETAIL
  6
CONTINUOUS
 62
     5
 10
328.98988500000002
 20
-193.4858939999998
 30
0.0
 11
329.24517400000002
 21
-193.23558
 31
0.0
  0
LINE
  5
1B56
  8
DETAIL
  6
CONTINUOUS
 62
     5
 10
328.70401299999992
 20
-193.70551999999981
 30
0.0
 11
328.98988500000002
 21
-193.4858939999998
 31
0.0
  0
LINE
  5
1B57
  8
DETAIL
  6
CONTINUOUS
 62
     5
 10
328.39274399999982
 20
-193.8898859999999
 30
0.0
 11
328.70401299999992
 21
-193.70551999999981
 31
0.0
  0
LINE
  5
1B58
  8
DETAIL
  6
CONTINUOUS
 62
     5
 10
328.06314700000001
 20
-194.035177
 30
0.0
 11
328.39274399999982
 21
-193.8898859999999
 31
0.0
  0
LINE
  5
1B59
  8
DETAIL
  6
CONTINUOUS
 62
     5
 10
327.71744200000001
 20
-194.14072200000001
 30
0.0
 11
328.06314700000001
 21
-194.035177
 31
0.0
  0
LINE
  5
1B5A
  8
DETAIL
  6
CONTINUOUS
 62
     5
 10
327.36039599999992
 20
-194.20476999999991
 30
0.0
 11
327.71744200000001
 21
-194.14072200000001
 31
0.0
  0
LINE
  5
1B5B
  8
DETAIL
  6
CONTINUOUS
 62
     5
 10
327.0
 20
-194.2260719999999
 30
0.0
 11
327.36039599999992
 21
-194.20476999999991
 31
0.0
  0
LINE
  5
1B5C
  8
DETAIL
  6
CONTINUOUS
 62
     5
 10
327.36039599999992
 20
-135.49494200000001
 30
0.0
 11
327.0
 21
-135.51624399999969
 31
0.0
  0
LINE
  5
1B5D
  8
DETAIL
  6
CONTINUOUS
 62
     5
 10
327.71744200000001
 20
-135.43089399999991
 30
0.0
 11
327.36039599999992
 21
-135.49494200000001
 31
0.0
  0
LINE
  5
1B5E
  8
DETAIL
  6
CONTINUOUS
 62
     5
 10
328.06314700000001
 20
-135.3253489999999
 30
0.0
 11
327.71744200000001
 21
-135.43089399999991
 31
0.0
  0
LINE
  5
1B5F
  8
DETAIL
  6
CONTINUOUS
 62
     5
 10
328.39274399999982
 20
-135.180058
 30
0.0
 11
328.06314700000001
 21
-135.3253489999999
 31
0.0
  0
LINE
  5
1B60
  8
DETAIL
  6
CONTINUOUS
 62
     5
 10
328.70401299999992
 20
-134.99569199999991
 30
0.0
 11
328.39274399999982
 21
-135.180058
 31
0.0
  0
LINE
  5
1B61
  8
DETAIL
  6
CONTINUOUS
 62
     5
 10
328.98988500000002
 20
-134.77606599999979
 30
0.0
 11
328.70401299999992
 21
-134.99569199999991
 31
0.0
  0
LINE
  5
1B62
  8
DETAIL
  6
CONTINUOUS
 62
     5
 10
329.24517400000002
 20
-134.52575200000001
 30
0.0
 11
328.98988500000002
 21
-134.77606599999979
 31
0.0
  0
LINE
  5
1B63
  8
DETAIL
  6
CONTINUOUS
 62
     5
 10
329.469133
 20
-134.24549500000001
 30
0.0
 11
329.24517400000002
 21
-134.52575200000001
 31
0.0
  0
LINE
  5
1B64
  8
DETAIL
  6
CONTINUOUS
 62
     5
 10
329.65716499999991
 20
-133.94029499999991
 30
0.0
 11
329.469133
 21
-134.24549500000001
 31
0.0
  0
LINE
  5
1B65
  8
DETAIL
  6
CONTINUOUS
 62
     5
 10
329.80535600000002
 20
-133.617088
 30
0.0
 11
329.65716499999991
 21
-133.94029499999991
 31
0.0
  0
LINE
  5
1B66
  8
DETAIL
  6
CONTINUOUS
 62
     5
 10
329.91296999999992
 20
-133.2781959999997
 30
0.0
 11
329.80535600000002
 21
-133.617088
 31
0.0
  0
LINE
  5
1B67
  8
DETAIL
  6
CONTINUOUS
 62
     5
 10
329.97827399999989
 20
-132.92820199999991
 30
0.0
 11
329.91296999999992
 21
-133.2781959999997
 31
0.0
  0
LINE
  5
1B68
  8
DETAIL
  6
CONTINUOUS
 62
     5
 10
330.0
 20
-132.57485199999991
 30
0.0
 11
329.97827399999989
 21
-132.92820199999991
 31
0.0
  0
LINE
  5
1B69
  8
DETAIL
  6
CONTINUOUS
 62
     5
 10
330.0
 20
-132.57485199999991
 30
0.0
 11
330.0
 21
-125.51551000000001
 31
0.0
  0
LINE
  5
1B6A
  8
DETAIL
  6
CONTINUOUS
 62
     5
 10
327.0
 20
-135.51624399999969
 30
0.0
 11
327.0
 21
-135.398225
 31
0.0
  0
LINE
  5
1B6B
  8
DETAIL
  6
CONTINUOUS
 62
     5
 10
329.97827399999989
 20
-132.81018299999999
 30
0.0
 11
329.99277099999989
 21
-132.57440700000001
 31
0.0
  0
LINE
  5
1B6C
  8
DETAIL
  6
CONTINUOUS
 62
     5
 10
329.91296999999992
 20
-133.16017799999969
 30
0.0
 11
329.97827399999989
 21
-132.81018299999999
 31
0.0
  0
LINE
  5
1B6D
  8
DETAIL
  6
CONTINUOUS
 62
     5
 10
329.80535600000002
 20
-133.49906899999991
 30
0.0
 11
329.91296999999992
 21
-133.16017799999969
 31
0.0
  0
LINE
  5
1B6E
  8
DETAIL
  6
CONTINUOUS
 62
     5
 10
329.65716499999991
 20
-133.8222759999997
 30
0.0
 11
329.80535600000002
 21
-133.49906899999991
 31
0.0
  0
LINE
  5
1B6F
  8
DETAIL
  6
CONTINUOUS
 62
     5
 10
329.469133
 20
-134.127477
 30
0.0
 11
329.65716499999991
 21
-133.8222759999997
 31
0.0
  0
LINE
  5
1B70
  8
DETAIL
  6
CONTINUOUS
 62
     5
 10
329.24517400000002
 20
-134.40773300000001
 30
0.0
 11
329.469133
 21
-134.127477
 31
0.0
  0
LINE
  5
1B71
  8
DETAIL
  6
CONTINUOUS
 62
     5
 10
328.98988500000002
 20
-134.65804700000001
 30
0.0
 11
329.24517400000002
 21
-134.40773300000001
 31
0.0
  0
LINE
  5
1B72
  8
DETAIL
  6
CONTINUOUS
 62
     5
 10
328.70401299999992
 20
-134.87767400000001
 30
0.0
 11
328.98988500000002
 21
-134.65804700000001
 31
0.0
  0
LINE
  5
1B73
  8
DETAIL
  6
CONTINUOUS
 62
     5
 10
328.39274399999982
 20
-135.062039
 30
0.0
 11
328.70401299999992
 21
-134.87767400000001
 31
0.0
  0
LINE
  5
1B74
  8
DETAIL
  6
CONTINUOUS
 62
     5
 10
328.06314700000001
 20
-135.20733100000001
 30
0.0
 11
328.39274399999982
 21
-135.062039
 31
0.0
  0
LINE
  5
1B75
  8
DETAIL
  6
CONTINUOUS
 62
     5
 10
327.71744200000001
 20
-135.3128759999999
 30
0.0
 11
328.06314700000001
 21
-135.20733100000001
 31
0.0
  0
LINE
  5
1B76
  8
DETAIL
  6
CONTINUOUS
 62
     5
 10
327.36039599999992
 20
-135.37692300000001
 30
0.0
 11
327.71744200000001
 21
-135.3128759999999
 31
0.0
  0
LINE
  5
1B77
  8
DETAIL
  6
CONTINUOUS
 62
     5
 10
327.0
 20
-135.398225
 30
0.0
 11
327.36039599999992
 21
-135.37692300000001
 31
0.0
  0
LINE
  5
1B78
  8
DETAIL
  6
CONTINUOUS
 62
     5
 39
50.0
 10
-421.0
 20
76.400000000000006
 30
0.0
 11
-421.0
 21
85.0
 31
0.0
  0
LINE
  5
1B79
  8
DETAIL
  6
CONTINUOUS
 62
     5
 39
50.0
 10
-229.0
 20
76.400000000000006
 30
0.0
 11
-229.0
 21
85.0
 31
0.0
  0
LINE
  5
1B7A
  8
DETAIL
  6
CONTINUOUS
 62
     5
 39
50.0
 10
-229.0
 20
85.0
 30
0.0
 11
-421.0
 21
85.0
 31
0.0
  0
LINE
  5
1B7B
  8
DETAIL
  6
CONTINUOUS
 62
     5
 39
50.0
 10
-429.0
 20
0.0
 30
0.0
 11
-429.0
 21
8.0
 31
0.0
  0
LINE
  5
1B7C
  8
DETAIL
  6
CONTINUOUS
 62
     5
 39
50.0
 10
-221.0
 20
0.0
 30
0.0
 11
-221.0
 21
8.0
 31
0.0
  0
LINE
  5
1B7D
  8
DETAIL
  6
CONTINUOUS
 62
     5
 39
50.0
 10
-229.0
 20
76.400000000000006
 30
0.0
 11
-421.0
 21
76.400000000000006
 31
0.0
  0
LINE
  5
1B7E
  8
DETAIL
  6
CONTINUOUS
 62
     5
 39
50.0
 10
-221.0
 20
8.0
 30
0.0
 11
-429.0
 21
8.0
 31
0.0
  0
LINE
  5
1B7F
  8
DETAIL
  6
CONTINUOUS
 62
     5
 39
50.0
 10
-421.0
 20
76.400000000000006
 30
0.0
 11
-429.0
 21
8.0
 31
0.0
  0
LINE
  5
1B80
  8
DETAIL
  6
CONTINUOUS
 62
     5
 39
50.0
 10
-229.0
 20
76.400000000000006
 30
0.0
 11
-221.0
 21
8.0
 31
0.0
  0
LINE
  5
1B81
  8
DETAIL
  6
CONTINUOUS
 62
     5
 39
50.0
 10
179.0
 20
76.400000000000006
 30
0.0
 11
171.0
 21
8.0
 31
0.0
  0
LINE
  5
1B82
  8
DETAIL
  6
CONTINUOUS
 62
     5
 39
50.0
 10
371.0
 20
76.400000000000006
 30
0.0
 11
379.0
 21
8.0
 31
0.0
  0
LINE
  5
1B83
  8
DETAIL
  6
CONTINUOUS
 62
     5
 39
50.0
 10
179.0
 20
76.400000000000006
 30
0.0
 11
371.0
 21
76.400000000000006
 31
0.0
  0
LINE
  5
1B84
  8
DETAIL
  6
CONTINUOUS
 62
     5
 39
50.0
 10
171.0
 20
0.0
 30
0.0
 11
171.0
 21
8.0
 31
0.0
  0
LINE
  5
1B85
  8
DETAIL
  6
CONTINUOUS
 62
     5
 39
50.0
 10
379.0
 20
0.0
 30
0.0
 11
379.0
 21
8.0
 31
0.0
  0
LINE
  5
1B86
  8
DETAIL
  6
CONTINUOUS
 62
     5
 39
50.0
 10
179.0
 20
85.0
 30
0.0
 11
371.0
 21
85.0
 31
0.0
  0
LINE
  5
1B87
  8
DETAIL
  6
CONTINUOUS
 62
     5
 39
50.0
 10
179.0
 20
76.400000000000006
 30
0.0
 11
179.0
 21
85.0
 31
0.0
  0
LINE
  5
1B88
  8
DETAIL
  6
CONTINUOUS
 62
     5
 39
50.0
 10
371.0
 20
76.400000000000006
 30
0.0
 11
371.0
 21
85.0
 31
0.0
  0
LINE
  5
1B89
  8
DETAIL
  6
CONTINUOUS
 62
     5
 39
50.0
 10
171.0
 20
8.0
 30
0.0
 11
379.0
 21
8.0
 31
0.0
  0
LINE
  5
1B8A
  8
DETAIL
  6
DASHED
 62
     5
 39
50.0
 10
408.49999999999989
 20
-2.299999999999998
 30
0.0
 11
413.0
 21
-2.299999999999998
 31
0.0
  0
LINE
  5
1B8B
  8
NOTE
  6
DASHED
 62
     4
 10
-422.49999999999989
 20
-30.0
 30
0.0
 11
-422.49999999999989
 21
10.0
 31
0.0
  0
CIRCLE
  5
1B8C
  8
FIX
  6
DASHED
 62
    11
 39
50.0
 10
422.49999999999989
 20
-10.0
 30
0.0
 40
6.5
  0
LINE
  5
1B8D
  8
NOTE
  6
DASHED
 62
     4
 10
422.49999999999989
 20
-30.0
 30
0.0
 11
422.49999999999989
 21
10.0
 31
0.0
  0
LINE
  5
1B8E
  8
NOTE
  6
DASHDOT
 62
     4
 10
442.49999999999989
 20
-10.0
 30
0.0
 11
399.35397500763793
 21
-10.0
 31
0.0
  0
CIRCLE
  5
1B8F
  8
ARRANGE
  6
CONTINUOUS
 62
     1
 39
50.0
 10
0.0
 20
0.0
 30
0.0
 40
40.0
  0
POINT
  5
1B90
  8
ARRANGE
  6
CONTINUOUS
 62
     1
 10
0.0
 20
0.0
 30
0.0
 39
50.0
  0
LINE
  5
1B91
  8
OUTLINE
  6
CONTINUOUS
 62
     3
 39
50.0
 10
450.0
 20
0.0
 30
0.0
 11
-450.0
 21
0.0
 31
0.0
  0
LINE
  5
1B92
  8
SIZE
  6
CONTINUOUS
 62
    30
 10
438.0
 20
-657.7893849999997
 30
0.0
 11
-438.0
 21
-657.7893849999997
 31
0.0
  0
CIRCLE
  5
1B93
  8
SIZE
  6
CONTINUOUS
 62
    30
 10
450.0
 20
-657.7893849999997
 30
0.0
 40
6.0
  0
LINE
  5
1B94
  8
SIZE
  6
CONTINUOUS
 62
    30
 10
450.0
 20
-657.7893849999997
 30
0.0
 11
438.0
 21
-657.7893849999997
 31
0.0
  0
CIRCLE
  5
1B95
  8
SIZE
  6
CONTINUOUS
 62
    30
 10
-450.0
 20
-657.7893849999997
 30
0.0
 40
6.0
  0
LINE
  5
1B96
  8
SIZE
  6
CONTINUOUS
 62
    30
 10
-450.0
 20
-657.7893849999997
 30
0.0
 11
-438.0
 21
-657.7893849999997
 31
0.0
  0
TEXT
  5
1B97
  8
SIZE
  6
CONTINUOUS
 62
    30
 10
-74.057142857142864
 20
-632.7893849999997
 30
0.0
 40
64.0
  1
900
 41
0.9
 72
     1
 11
0.0
 21
-632.7893849999997
 31
0.0
  0
LINE
  5
1B98
  8
SIZE
  6
CONTINUOUS
 62
    30
 10
-325.0
 20
193.5514189999999
 30
0.0
 11
275.0
 21
193.5514189999999
 31
0.0
  0
CIRCLE
  5
1B99
  8
SIZE
  6
CONTINUOUS
 62
    30
 10
-325.0
 20
193.5514189999999
 30
0.0
 40
6.0
  0
CIRCLE
  5
1B9A
  8
SIZE
  6
CONTINUOUS
 62
    30
 10
275.0
 20
193.5514189999999
 30
0.0
 40
6.0
  0
TEXT
  5
1B9B
  8
SIZE
  6
CONTINUOUS
 62
    30
 10
-92.006088448517417
 20
218.5514189999999
 30
0.0
 40
64.0
  1
600
 41
0.9
 72
     1
 11
-17.948945591374539
 21
218.5514189999999
 31
0.0
  0
LINE
  5
1B9C
  8
SIZE
  6
CONTINUOUS
 62
    30
 10
-422.49999999999989
 20
30.0
 30
0.0
 11
-422.49999999999989
 21
495.77024
 31
0.0
  0
LINE
  5
1B9D
  8
SIZE
  6
CONTINUOUS
 62
    30
 10
422.49999999999989
 20
30.0
 30
0.0
 11
422.49999999999989
 21
495.77024
 31
0.0
  0
LINE
  5
1B9E
  8
SIZE
  6
CONTINUOUS
 62
    30
 10
-410.5
 20
475.77024
 30
0.0
 11
410.5
 21
475.77024
 31
0.0
  0
CIRCLE
  5
1B9F
  8
SIZE
  6
CONTINUOUS
 62
    30
 10
-422.49999999999989
 20
475.77024
 30
0.0
 40
6.0
  0
LINE
  5
1BA0
  8
SIZE
  6
CONTINUOUS
 62
    30
 10
-422.49999999999989
 20
475.77024
 30
0.0
 11
-410.5
 21
475.77024
 31
0.0
  0
CIRCLE
  5
1BA1
  8
SIZE
  6
CONTINUOUS
 62
    30
 10
422.49999999999989
 20
475.77024
 30
0.0
 40
6.0
  0
LINE
  5
1BA2
  8
SIZE
  6
CONTINUOUS
 62
    30
 10
422.49999999999989
 20
475.77024
 30
0.0
 11
410.5
 21
475.77024
 31
0.0
  0
TEXT
  5
1BA3
  8
SIZE
  6
CONTINUOUS
 62
    30
 10
-74.05714285714285
 20
500.77024
 30
0.0
 40
64.0
  1
845
 41
0.9
 72
     1
 11
0.0
 21
500.77024
 31
0.0
  0
LINE
  5
1BA4
  8
SIZE
  6
CONTINUOUS
 62
    30
 10
379.0
 20
28.0
 30
0.0
 11
379.0
 21
403.56013300000001
 31
0.0
  0
LINE
  5
1BA5
  8
SIZE
  6
CONTINUOUS
 62
    30
 10
171.0
 20
28.0
 30
0.0
 11
171.0
 21
403.56013300000001
 31
0.0
  0
LINE
  5
1BA6
  8
SIZE
  6
CONTINUOUS
 62
    30
 10
367.0
 20
383.56013300000001
 30
0.0
 11
183.0
 21
383.56013300000001
 31
0.0
  0
LINE
  5
1BA7
  8
SIZE
  6
CONTINUOUS
 62
    30
 10
680.30624499999965
 20
383.56013300000001
 30
0.0
 11
379.0
 21
383.56013300000001
 31
0.0
  0
TEXT
  5
1BA8
  8
SIZE
  6
CONTINUOUS
 62
    30
 10
440.81481714285678
 20
408.56013300000001
 30
0.0
 40
64.0
  1
φ208
 41
0.9
 72
     1
 11
555.19195999999965
 21
408.56013300000001
 31
0.0
  0
CIRCLE
  5
1BA9
  8
SIZE
  6
CONTINUOUS
 62
    30
 10
379.0
 20
383.56013300000001
 30
0.0
 40
6.0
  0
LINE
  5
1BAA
  8
SIZE
  6
CONTINUOUS
 62
    30
 10
379.0
 20
383.56013300000001
 30
0.0
 11
367.0
 21
383.56013300000001
 31
0.0
  0
CIRCLE
  5
1BAB
  8
SIZE
  6
CONTINUOUS
 62
    30
 10
171.0
 20
383.56013300000001
 30
0.0
 40
6.0
  0
LINE
  5
1BAC
  8
SIZE
  6
CONTINUOUS
 62
    30
 10
171.0
 20
383.56013300000001
 30
0.0
 11
183.0
 21
383.56013300000001
 31
0.0
  0
LINE
  5
1BAD
  8
SIZE
  6
CONTINUOUS
 62
    30
 10
371.0
 20
105.0
 30
0.0
 11
371.0
 21
286.47843399999988
 31
0.0
  0
LINE
  5
1BAE
  8
SIZE
  6
CONTINUOUS
 62
    30
 10
179.0
 20
105.0
 30
0.0
 11
179.0
 21
286.47843399999988
 31
0.0
  0
LINE
  5
1BAF
  8
SIZE
  6
CONTINUOUS
 62
    30
 10
359.0
 20
266.47843399999999
 30
0.0
 11
191.0
 21
266.47843399999999
 31
0.0
  0
LINE
  5
1BB0
  8
SIZE
  6
CONTINUOUS
 62
    30
 10
673.42282399999999
 20
266.47843399999999
 30
0.0
 11
371.0
 21
266.47843399999999
 31
0.0
  0
TEXT
  5
1BB1
  8
SIZE
  6
CONTINUOUS
 62
    30
 10
444.90282442857142
 20
291.47843399999999
 30
0.0
 40
64.0
  1
φ192
 41
0.9
 72
     1
 11
553.79425300000003
 21
291.47843399999999
 31
0.0
  0
CIRCLE
  5
1BB2
  8
SIZE
  6
CONTINUOUS
 62
    30
 10
371.0
 20
266.47843399999999
 30
0.0
 40
6.0
  0
LINE
  5
1BB3
  8
SIZE
  6
CONTINUOUS
 62
    30
 10
371.0
 20
266.47843399999999
 30
0.0
 11
359.0
 21
266.47843399999999
 31
0.0
  0
CIRCLE
  5
1BB4
  8
SIZE
  6
CONTINUOUS
 62
    30
 10
179.0
 20
266.47843399999999
 30
0.0
 40
6.0
  0
LINE
  5
1BB5
  8
SIZE
  6
CONTINUOUS
 62
    30
 10
179.0
 20
266.47843399999999
 30
0.0
 11
191.0
 21
266.47843399999999
 31
0.0
  0
LINE
  5
1BB6
  8
SERVICESPACE
  6
DASHDOT
 62
     2
 39
50.0
 10
-850.0
 20
-436.30485099999993
 30
0.0
 11
-850.0
 21
325.46771899999982
 31
0.0
  0
LINE
  5
1BB7
  8
SERVICESPACE
  6
DASHDOT
 62
     2
 39
50.0
 10
850.0
 20
-436.30485099999993
 30
0.0
 11
850.0
 21
332.17936900000001
 31
0.0
  0
LINE
  5
1BB8
  8
SIZE
  6
CONTINUOUS
 62
    30
 10
450.0
 20
-316.10074422985281
 30
0.0
 11
450.0
 21
-677.78938499999981
 31
0.0
  0
LINE
  5
1BB9
  8
SIZE
  6
CONTINUOUS
 62
    30
 10
850.0
 20
-456.30485099999993
 30
0.0
 11
850.0
 21
-677.78938499999981
 31
0.0
  0
LINE
  5
1BBA
  8
SIZE
  6
CONTINUOUS
 62
    30
 10
462.0
 20
-657.7893849999997
 30
0.0
 11
838.0
 21
-657.7893849999997
 31
0.0
  0
CIRCLE
  5
1BBB
  8
SIZE
  6
CONTINUOUS
 62
    30
 10
450.0
 20
-657.7893849999997
 30
0.0
 40
6.0
  0
LINE
  5
1BBC
  8
SIZE
  6
CONTINUOUS
 62
    30
 10
450.0
 20
-657.7893849999997
 30
0.0
 11
462.0
 21
-657.7893849999997
 31
0.0
  0
CIRCLE
  5
1BBD
  8
SIZE
  6
CONTINUOUS
 62
    30
 10
850.0
 20
-657.7893849999997
 30
0.0
 40
6.0
  0
LINE
  5
1BBE
  8
SIZE
  6
CONTINUOUS
 62
    30
 10
850.0
 20
-657.7893849999997
 30
0.0
 11
838.0
 21
-657.7893849999997
 31
0.0
  0
TEXT
  5
1BBF
  8
SIZE
  6
CONTINUOUS
 62
    30
 10
506.27428571428572
 20
-632.7893849999997
 30
0.0
 40
64.0
  1
400以上
 41
0.9
 72
     1
 11
650.0
 21
-632.7893849999997
 31
0.0
  0
LINE
  5
1BC0
  8
SIZE
  6
CONTINUOUS
 62
    30
 10
-450.0
 20
-320.5218863043865
 30
0.0
 11
-450.0
 21
-677.78938499999981
 31
0.0
  0
LINE
  5
1BC1
  8
SIZE
  6
CONTINUOUS
 62
    30
 10
-850.0
 20
-456.30485099999993
 30
0.0
 11
-850.0
 21
-677.78938499999981
 31
0.0
  0
LINE
  5
1BC2
  8
SIZE
  6
CONTINUOUS
 62
    30
 10
-462.0
 20
-657.7893849999997
 30
0.0
 11
-838.0
 21
-657.7893849999997
 31
0.0
  0
CIRCLE
  5
1BC3
  8
SIZE
  6
CONTINUOUS
 62
    30
 10
-450.0
 20
-657.7893849999997
 30
0.0
 40
6.0
  0
LINE
  5
1BC4
  8
SIZE
  6
CONTINUOUS
 62
    30
 10
-450.0
 20
-657.7893849999997
 30
0.0
 11
-462.0
 21
-657.7893849999997
 31
0.0
  0
CIRCLE
  5
1BC5
  8
SIZE
  6
CONTINUOUS
 62
    30
 10
-850.0
 20
-657.7893849999997
 30
0.0
 40
6.0
  0
LINE
  5
1BC6
  8
SIZE
  6
CONTINUOUS
 62
    30
 10
-850.0
 20
-657.7893849999997
 30
0.0
 11
-838.0
 21
-657.7893849999997
 31
0.0
  0
TEXT
  5
1BC7
  8
SIZE
  6
CONTINUOUS
 62
    30
 10
-793.72571428571416
 20
-632.7893849999997
 30
0.0
 40
64.0
  1
400以上
 41
0.9
 72
     1
 11
-650.0
 21
-632.7893849999997
 31
0.0
  0
TEXT
  5
1BC8
  8
NOTE
  6
CONTINUOUS
 62
     4
 10
337.83380899999992
 20
-778.13806399999999
 30
0.0
 40
64.0
  1
メンテナンススペース
 41
0.9
  0
TEXT
  5
1BC9
  8
NOTE
  6
CONTINUOUS
 62
     4
 10
-1068.839191999999
 20
-778.13806399999999
 30
0.0
 40
64.0
  1
回路メンテナンススペース
 41
0.9
  0
LINE
  5
1BCA
  8
SIZE
  6
CONTINUOUS
 62
    30
 10
-470.0
 20
0.0
 30
0.0
 11
-609.64240600000016
 21
0.0
 31
0.0
  0
LINE
  5
1BCB
  8
SIZE
  6
CONTINUOUS
 62
    30
 10
-416.0
 20
85.0
 30
0.0
 11
-609.64240600000016
 21
85.0
 31
0.0
  0
LINE
  5
1BCC
  8
SIZE
  6
CONTINUOUS
 62
    30
 10
-589.64240600000005
 20
0.0
 30
0.0
 11
-589.64240600000005
 21
85.0
 31
0.0
  0
CIRCLE
  5
1BCD
  8
SIZE
  6
CONTINUOUS
 62
    30
 10
-589.64240600000005
 20
0.0
 30
0.0
 40
6.0
  0
CIRCLE
  5
1BCE
  8
SIZE
  6
CONTINUOUS
 62
    30
 10
-589.64240600000005
 20
85.0
 30
0.0
 40
6.0
  0
TEXT
  5
1BCF
  8
SIZE
  6
CONTINUOUS
 62
    30
 10
-614.64240600000005
 20
-4.1285714285714263
 30
0.0
 40
64.0
  1
85
 50
90.0
 41
0.9
 72
     1
 11
-614.64240600000005
 21
42.5
 31
0.0
  0
TEXT
  5
1BD0
  8
NOTE
  6
CONTINUOUS
 62
     4
 10
-368.52429599999999
 20
95.175756000000007
 30
0.0
 40
64.0
  1
EA
 41
0.9
  0
TEXT
  5
1BD1
  8
NOTE
  6
CONTINUOUS
 62
     4
 10
221.96246600000001
 20
95.820262999999997
 30
0.0
 40
64.0
  1
OA
 41
0.9
  0
TEXT
  5
1BD2
  8
NOTE
  6
CONTINUOUS
 62
     4
 10
-778.90056200000004
 20
276.55922900000002
 30
0.0
 40
64.0
  1
AH-2
 41
0.9
  0
LINE
  5
1BD3
  8
NOTE
  6
CONTINUOUS
 62
     4
 10
-799.08681399999989
 20
237.768711
 30
0.0
 11
-534.42148200000008
 21
237.768711
 31
0.0
  0
LINE
  5
1BD4
  8
NOTE
  6
CONTINUOUS
 62
     4
 10
-422.49999999999989
 20
-10.0
 30
0.0
 11
-534.42148200000008
 21
237.768711
 31
0.0
  0
LINE
  5
1BD5
  8
NOTE
  6
CONTINUOUS
 62
     4
 10
-448.45860299999998
 20
20.432728000000001
 30
0.0
 11
-422.49999999999989
 21
-10.0
 31
0.0
  0
LINE
  5
1BD6
  8
NOTE
  6
CONTINUOUS
 62
     4
 10
-422.49999999999989
 20
-10.0
 30
0.0
 11
-429.76444499999991
 21
29.33481699999999
 31
0.0
  0
TEXT
  5
1BD7
  8
ETC
  6
CONTINUOUS
 62
    61
 10
455.487711362114
 20
672.27814568699205
 30
0.0
 40
50.0
  1
SCF-50LS2
 41
0.9
  0
LINE
  5
1BD8
  8
SIZE
  6
CONTINUOUS
 62
    30
 10
275.0
 20
135.96075748916491
 30
0.0
 11
275.0
 21
213.5514189999999
 31
0.0
  0
LINE
  5
1BD9
  8
SIZE
  6
CONTINUOUS
 62
    30
 10
-325.0
 20
129.32904842739461
 30
0.0
 11
-325.0
 21
213.5514189999999
 31
0.0
  0
CIRCLE
  5
1BDA
  8
FIX
  6
DASHED
 62
    11
 39
50.0
 10
-422.8510504211215
 20
-10.024024776468639
 30
0.0
 40
6.5
  0
ARC
  5
1BDB
  8
DETAIL
  6
DASHED
 62
     5
 39
50.0
 10
-432.35105042112161
 20
-17.02402477646865
 30
0.0
 40
3.0
 50
270.0
 51
0.0
  0
ARC
  5
1BDC
  8
DETAIL
  6
DASHED
 62
     5
 39
50.0
 10
-396.0510504211216
 20
-23.251846776468639
 30
0.0
 40
1.5
 50
180.0
 51
270.0
  0
ARC
  5
1BDD
  8
DETAIL
  6
DASHED
 62
     5
 39
50.0
 10
-402.15105042112162
 20
-23.22940677646865
 30
0.0
 40
2.299999999999998
 50
0.0
 51
44.999999999999687
  0
ARC
  5
1BDE
  8
DETAIL
  6
DASHED
 62
     5
 39
50.0
 10
-402.15105042112162
 20
-23.22940677646865
 30
0.0
 40
4.599999999999997
 50
0.0
 51
44.999999999999687
  0
ARC
  5
1BDF
  8
DETAIL
  6
DASHED
 62
     5
 39
50.0
 10
-398.5510504211216
 20
-17.071333776468641
 30
0.0
 40
4.599999999999997
 50
180.0
 51
224.9999999999996
  0
ARC
  5
1BE0
  8
DETAIL
  6
DASHED
 62
     5
 39
50.0
 10
-398.5510504211216
 20
-17.071333776468641
 30
0.0
 40
2.299999999999998
 50
180.0
 51
224.9999999999996
  0
ARC
  5
1BE1
  8
DETAIL
  6
DASHED
 62
     5
 39
50.0
 10
-396.0510504211216
 20
-36.851846776468641
 30
0.0
 40
1.5
 50
90.0
 51
180.0
  0
ARC
  5
1BE2
  8
DETAIL
  6
DASHED
 62
     5
 39
50.0
 10
-441.85105042112173
 20
-17.02402477646865
 30
0.0
 40
3.0
 50
180.0
 51
270.0
  0
ARC
  5
1BE3
  8
DETAIL
  6
DASHED
 62
     5
 39
50.0
 10
-408.85105042112173
 20
-5.3240247764686472
 30
0.0
 40
3.0
 50
0.0
 51
90.0
  0
ARC
  5
1BE4
  8
DETAIL
  6
DASHED
 62
     5
 39
50.0
 10
-413.35105042112173
 20
-5.3240247764686472
 30
0.0
 40
3.0
 50
90.0
 51
180.0
  0
ARC
  5
1BE5
  8
DETAIL
  6
DASHED
 62
     5
 39
50.0
 10
-405.45105042112169
 20
-14.62402477646865
 30
0.0
 40
4.599999999999997
 50
0.0
 51
90.0
  0
ARC
  5
1BE6
  8
DETAIL
  6
DASHED
 62
     5
 39
50.0
 10
-405.45105042112169
 20
-14.62402477646865
 30
0.0
 40
2.299999999999998
 50
0.0
 51
90.0
  0
LINE
  5
1BE7
  8
DETAIL
  6
DASHED
 62
     5
 39
50.0
 10
-429.35105042112173
 20
-12.324024776468651
 30
0.0
 11
-405.45105042112169
 21
-12.324024776468651
 31
0.0
  0
LINE
  5
1BE8
  8
DETAIL
  6
DASHED
 62
     5
 39
50.0
 10
-416.35105042112161
 20
-10.024024776468639
 30
0.0
 11
-405.8510504211215
 21
-10.024024776468639
 31
0.0
  0
LINE
  5
1BE9
  8
DETAIL
  6
DASHED
 62
     5
 39
50.0
 10
-441.85105042112173
 20
-20.02402477646865
 30
0.0
 11
-432.35105042112161
 21
-20.02402477646865
 31
0.0
  0
LINE
  5
1BEA
  8
DETAIL
  6
DASHED
 62
     5
 39
50.0
 10
-408.85105042112173
 20
-2.324024776468645
 30
0.0
 11
-413.35105042112173
 21
-2.324024776468645
 31
0.0
  0
LINE
  5
1BEB
  8
DETAIL
  6
DASHED
 62
     5
 39
50.0
 10
-416.35105042112161
 20
-12.324024776468651
 30
0.0
 11
-416.35105042112161
 21
-5.3240247764686472
 31
0.0
  0
LINE
  5
1BEC
  8
DETAIL
  6
DASHED
 62
     5
 39
50.0
 10
-444.85105042112161
 20
-12.324024776468651
 30
0.0
 11
-429.35105042112173
 21
-12.324024776468651
 31
0.0
  0
LINE
  5
1BED
  8
DETAIL
  6
DASHED
 62
     5
 39
50.0
 10
-444.85105042112161
 20
-10.024024776468639
 30
0.0
 11
-416.35105042112161
 21
-10.024024776468639
 31
0.0
  0
LINE
  5
1BEE
  8
DETAIL
  6
DASHED
 62
     5
 39
50.0
 10
-444.85105042112161
 20
-10.024024776468639
 30
0.0
 11
-444.85105042112161
 21
-17.02402477646865
 31
0.0
  0
LINE
  5
1BEF
  8
DETAIL
  6
DASHED
 62
     5
 39
50.0
 10
-429.35105042112173
 20
-10.024024776468639
 30
0.0
 11
-429.35105042112173
 21
-17.02402477646865
 31
0.0
  0
LINE
  5
1BF0
  8
DETAIL
  6
DASHED
 62
     5
 39
50.0
 10
-396.0510504211216
 20
-24.75184677646865
 30
0.0
 11
-396.0510504211216
 21
-35.351846776468641
 31
0.0
  0
LINE
  5
1BF1
  8
DETAIL
  6
DASHED
 62
     5
 39
50.0
 10
-397.5510504211216
 20
-40.02402477646865
 30
0.0
 11
-397.5510504211216
 21
-23.22940677646865
 31
0.0
  0
LINE
  5
1BF2
  8
DETAIL
  6
DASHED
 62
     5
 39
50.0
 10
-399.85105042112161
 20
-40.02402477646865
 30
0.0
 11
-399.85105042112161
 21
-23.22940677646865
 31
0.0
  0
LINE
  5
1BF3
  8
DETAIL
  6
DASHED
 62
     5
 39
50.0
 10
-400.5247044211215
 20
-21.60306177646865
 30
0.0
 11
-401.80374142112157
 21
-20.32402477646864
 31
0.0
  0
LINE
  5
1BF4
  8
DETAIL
  6
DASHED
 62
     5
 39
50.0
 10
-398.8983594211216
 20
-19.976715776468641
 30
0.0
 11
-400.1773964211215
 21
-18.697678776468639
 31
0.0
  0
LINE
  5
1BF5
  8
DETAIL
  6
DASHED
 62
     5
 39
50.0
 10
-403.15105042112162
 20
-17.071333776468641
 30
0.0
 11
-403.15105042112162
 21
-14.62402477646865
 31
0.0
  0
LINE
  5
1BF6
  8
DETAIL
  6
DASHED
 62
     5
 39
50.0
 10
-400.85105042112173
 20
-17.071333776468641
 30
0.0
 11
-400.85105042112173
 21
-14.62402477646865
 31
0.0
  0
LINE
  5
1BF7
  8
DETAIL
  6
DASHED
 62
     5
 39
50.0
 10
-399.85105042112161
 20
-40.02402477646865
 30
0.0
 11
-397.5510504211216
 21
-40.02402477646865
 31
0.0
  0
LINE
  5
1BF8
  8
DETAIL
  6
DASHED
 62
     5
 39
50.0
 10
-405.8510504211215
 20
-10.024024776468639
 30
0.0
 11
-405.45105042112169
 21
-10.024024776468639
 31
0.0
  0
LINE
  5
1BF9
  8
DETAIL
  6
DASHED
 62
     5
 39
50.0
 10
-405.8510504211215
 20
-12.324024776468651
 30
0.0
 11
-405.8510504211215
 21
-5.3240247764686472
 31
0.0
  0
LINE
  5
1BFA
  8
NOTE
  6
DASHDOT
 62
     4
 10
-398.97607036087351
 20
-9.9999999999999982
 30
0.0
 11
-447.62776762357942
 21
-10.0
 31
0.0
  0
LINE
  5
1BFB
  8
BASIS
  6
DASHDOT
 62
     6
 39
50.0
 10
-325.0
 20
111.64449227934981
 30
0.0
 11
-325.0
 21
-43.095387178635043
 31
0.0
  0
LINE
  5
1BFC
  8
BASIS
  6
DASHDOT
 62
     6
 39
50.0
 10
275.0
 20
113.85506331661691
 30
0.0
 11
275.0
 21
-40.884816141367992
 31
0.0
  0
LINE
  5
1BFD
  8
BASIS
  6
DASHDOT
 62
     6
 39
50.0
 10
0.0
 20
63.011957809691012
 30
0.0
 11
0.0
 21
-341.52229900833072
 31
0.0
  0
CIRCLE
  5
1BFE
  8
SIZE
  6
CONTINUOUS
 62
    30
 39
50.0
 10
-0.0000000000000095
 20
-496.26217441628597
 30
0.0
 40
6.0
  0
CIRCLE
  5
1BFF
  8
SIZE
  6
CONTINUOUS
 62
    30
 39
50.0
 10
275.0
 20
-496.26217441628597
 30
0.0
 40
6.0
  0
CIRCLE
  5
1C00
  8
SIZE
  6
CONTINUOUS
 62
    30
 39
50.0
 10
673.57391120108321
 20
-295.0
 30
0.0
 40
6.0
  0
CIRCLE
  5
1C01
  8
SIZE
  6
CONTINUOUS
 62
    30
 39
50.0
 10
673.57391120108321
 20
-0.0000000000000633
 30
0.0
 40
6.0
  0
LINE
  5
1C02
  8
SIZE
  6
CONTINUOUS
 10
275.0
 20
-60.884816141367992
 30
0.0
 11
274.99999999999989
 21
-516.26217441628614
 31
0.0
  0
LINE
  5
1C03
  8
SIZE
  6
CONTINUOUS
 10
-0.0000000000000012
 20
-361.52229900833072
 30
0.0
 11
-0.0000000000000107
 21
-516.26217441628614
 31
0.0
  0
LINE
  5
1C04
  8
SIZE
  6
CONTINUOUS
 10
275.0
 20
-496.26217441628597
 30
0.0
 11
-0.0000000000000095
 21
-496.26217441628597
 31
0.0
  0
LINE
  5
1C05
  8
SIZE
  6
CONTINUOUS
 10
470.0
 20
-0.0000000000000057
 30
0.0
 11
693.57391120108321
 21
-0.000000000000069
 31
0.0
  0
LINE
  5
1C06
  8
SIZE
  6
CONTINUOUS
 10
470.0
 20
-295.0
 30
0.0
 11
693.57391120108321
 21
-295.0
 31
0.0
  0
LINE
  5
1C07
  8
SIZE
  6
CONTINUOUS
 10
673.57391120108321
 20
-0.0000000000000633
 30
0.0
 11
673.57391120108321
 21
-295.0
 31
0.0
  0
TEXT
  5
1C08
  8
SIZE
  6
CONTINUOUS
 10
63.44285714285715
 20
-471.26217441628597
 30
0.0
 40
64.0
  1
275
 41
0.9
  0
TEXT
  5
1C09
  8
SIZE
  6
CONTINUOUS
 10
648.57391120108321
 20
-221.55714285714251
 30
0.0
 40
64.0
  1
295
 50
90.0
 41
0.9
  0
LINE
  5
1C0A
  8
OUTLINE
  6
CONTINUOUS
 62
     3
 39
50.0
 10
-450.0
 20
0.0
 30
0.0
 11
-450.0
 21
-295.0
 31
0.0
  0
LINE
  5
1C0B
  8
OUTLINE
  6
CONTINUOUS
 62
     3
 39
50.0
 10
-450.0
 20
-295.0
 30
0.0
 11
450.0
 21
-295.0
 31
0.0
  0
LINE
  5
1C0C
  8
OUTLINE
  6
CONTINUOUS
 62
     3
 39
50.0
 10
450.0
 20
-295.0
 30
0.0
 11
450.0
 21
0.0
 31
0.0
  0
ENDSEC
  0
EOF
