  0
SECTION
  2
HEADER
  9
$ACADVER
  1
AC1009
  9
$INSBASE
 10
0.0
 20
0.0
 30
0.0
  9
$EXTMIN
 10
-1064.9991919999991
 20
-778.13806399999999
 30
0.0
  9
$EXTMAX
 10
1257.3504194813829
 20
876.54729016197746
 30
50.0
  9
$LIMMIN
 10
-2970.0
 20
-2100.0
  9
$LIMMAX
 10
2970.0
 20
2100.0
  9
$ORTHOMODE
 70
     1
  9
$REGENMODE
 70
     0
  9
$FILLMODE
 70
     1
  9
$QTEXTMODE
 70
     0
  9
$MIRRTEXT
 70
     0
  9
$DRAGMODE
 70
     2
  9
$LTSCALE
 40
20.0
  9
$OSMODE
 70
   167
  9
$ATTMODE
 70
     1
  9
$TEXTSIZE
 40
64.0
  9
$TRACEWID
 40
0.05
  9
$TEXTSTYLE
  7
STANDARD
  9
$CLAYER
  8
SIZE
  9
$CELTYPE
  6
CONTINUOUS
  9
$CECOLOR
 62
    30
  9
$DIMSCALE
 40
1.0
  9
$DIMASZ
 40
12.0
  9
$DIMEXO
 40
20.0
  9
$DIMDLI
 40
200.0
  9
$DIMRND
 40
0.0
  9
$DIMDLE
 40
0.0
  9
$DIMEXE
 40
20.0
  9
$DIMTP
 40
0.0
  9
$DIMTM
 40
0.0
  9
$DIMTXT
 40
64.0
  9
$DIMCEN
 40
0.09
  9
$DIMTSZ
 40
0.0
  9
$DIMTOL
 70
     0
  9
$DIMLIM
 70
     0
  9
$DIMTIH
 70
     0
  9
$DIMTOH
 70
     0
  9
$DIMSE1
 70
     0
  9
$DIMSE2
 70
     0
  9
$DIMTAD
 70
     1
  9
$DIMZIN
 70
     8
  9
$DIMBLK
  1
NONE
  9
$DIMASO
 70
     1
  9
$DIMSHO
 70
     0
  9
$DIMPOST
  1

  9
$DIMAPOST
  1

  9
$DIMALT
 70
     0
  9
$DIMALTD
 70
     2
  9
$DIMALTF
 40
25.399999999999999
  9
$DIMLFAC
 40
1.0
  9
$DIMTOFL
 70
     1
  9
$DIMTVP
 40
0.0
  9
$DIMTIX
 70
     1
  9
$DIMSOXD
 70
     0
  9
$DIMSAH
 70
     0
  9
$DIMBLK1
  1
NONE
  9
$DIMBLK2
  1
BOXFILLED
  9
$DIMSTYLE
  2
STANDARD
  9
$DIMCLRD
 70
   256
  9
$DIMCLRE
 70
   256
  9
$DIMCLRT
 70
   256
  9
$DIMTFAC
 40
1.0
  9
$DIMGAP
 40
25.0
  9
$LUNITS
 70
     2
  9
$LUPREC
 70
     4
  9
$SKETCHINC
 40
0.1
  9
$FILLETRAD
 40
4.0
  9
$AUNITS
 70
     1
  9
$AUPREC
 70
     3
  9
$MENU
  1
ACAD
  9
$ELEVATION
 40
0.0
  9
$PELEVATION
 40
0.0
  9
$THICKNESS
 40
50.0
  9
$LIMCHECK
 70
     0
  9
$BLIPMODE
 70
     0
  9
$CHAMFERA
 40
0.0
  9
$CHAMFERB
 40
0.0
  9
$SKPOLY
 70
     0
  9
$TDCREATE
 40
2453136.5472293631
  9
$TDUPDATE
 40
2454293.6455562729
  9
$TDINDWG
 40
0.0672678356
  9
$TDUSRTIMER
 40
0.0672676505
  9
$USRTIMER
 70
     1
  9
$ANGBASE
 50
0.0
  9
$ANGDIR
 70
     0
  9
$PDMODE
 70
     3
  9
$PDSIZE
 40
-2.0
  9
$PLINEWID
 40
0.0
  9
$COORDS
 70
     2
  9
$SPLFRAME
 70
     0
  9
$SPLINETYPE
 70
     6
  9
$SPLINESEGS
 70
     8
  9
$ATTDIA
 70
     0
  9
$ATTREQ
 70
     1
  9
$HANDLING
 70
 22529
  9
$HANDSEED
  5
78F
  9
$SURFTAB1
 70
     6
  9
$SURFTAB2
 70
     6
  9
$SURFTYPE
 70
     6
  9
$SURFU
 70
     6
  9
$SURFV
 70
     6
  9
$UCSNAME
  2

  9
$UCSORG
 10
0.0
 20
0.0
 30
0.0
  9
$UCSXDIR
 10
1.0
 20
0.0
 30
0.0
  9
$UCSYDIR
 10
0.0
 20
1.0
 30
0.0
  9
$PUCSNAME
  2

  9
$PUCSORG
 10
0.0
 20
0.0
 30
0.0
  9
$PUCSXDIR
 10
1.0
 20
0.0
 30
0.0
  9
$PUCSYDIR
 10
0.0
 20
1.0
 30
0.0
  9
$USERI1
 70
     0
  9
$USERI2
 70
     0
  9
$USERI3
 70
     0
  9
$USERI4
 70
     0
  9
$USERI5
 70
     0
  9
$USERR1
 40
20.0
  9
$USERR2
 40
0.0
  9
$USERR3
 40
0.0
  9
$USERR4
 40
0.0
  9
$USERR5
 40
0.0
  9
$WORLDVIEW
 70
     1
  9
$SHADEDGE
 70
     3
  9
$SHADEDIF
 70
    70
  9
$TILEMODE
 70
     1
  9
$MAXACTVP
 70
    48
  9
$PLIMCHECK
 70
     0
  9
$PEXTMIN
 10
-1.0000000000000000E+020
 20
-1.0000000000000000E+020
 30
-1.0000000000000000E+020
  9
$PEXTMAX
 10
1.0000000000000000E+020
 20
1.0000000000000000E+020
 30
1.0000000000000000E+020
  9
$PLIMMIN
 10
0.0
 20
0.0
  9
$PLIMMAX
 10
12.0
 20
9.0
  9
$UNITMODE
 70
     0
  9
$VISRETAIN
 70
     0
  9
$PLINEGEN
 70
     0
  9
$PSLTSCALE
 70
     0
  0
ENDSEC
  0
SECTION
  2
TABLES
  0
TABLE
  2
VPORT
 70
     3
  0
VPORT
  2
*ACTIVE
 70
     0
 10
0.0
 20
0.0
 11
1.0
 21
1.0
 12
85.721868740313084
 22
48.841229525642348
 13
0.0
 23
0.0
 14
1.0
 24
1.0
 15
0.0
 25
0.0
 16
0.0
 26
0.0
 36
1.0
 17
0.0
 27
0.0
 37
0.0
 40
1879.86153536202
 41
1.6612612612612609
 42
50.0
 43
0.0
 44
0.0
 50
0.0
 51
0.0
 71
     0
 72
  1000
 73
     1
 74
     0
 75
     0
 76
     0
 77
     0
 78
     0
  0
ENDTAB
  0
TABLE
  2
LTYPE
 70
     3
  0
LTYPE
  2
CONTINUOUS
 70
     0
  3
実線
 72
    65
 73
     0
 40
0.0
  0
LTYPE
  2
DASHDOT
 70
     0
  3
____ _ ____ _ ____ _ ____ _ ____ _ ____ _ ____
 72
    65
 73
     4
 40
5.5
 49
4.0
 49
-0.6
 49
0.3
 49
-0.6
  0
LTYPE
  2
DASHED
 70
     0
  3
-- -- -- -- -- -- -- -- -- -- -- -- -- -- --
 72
    65
 73
     2
 40
0.75
 49
0.5
 49
-0.25
  0
ENDTAB
  0
TABLE
  2
LAYER
 70
    12
  0
LAYER
  2
0
 70
     0
 62
     7
  6
CONTINUOUS
  0
LAYER
  2
SIZE
 70
     0
 62
    30
  6
CONTINUOUS
  0
LAYER
  2
DETAIL
 70
     0
 62
     5
  6
CONTINUOUS
  0
LAYER
  2
BASIS
 70
     0
 62
     6
  6
DASHDOT
  0
LAYER
  2
OUTLINE
 70
     0
 62
     3
  6
CONTINUOUS
  0
LAYER
  2
ARRANGE
 70
     0
 62
     1
  6
CONTINUOUS
  0
LAYER
  2
DEFPOINTS
 70
     0
 62
     7
  6
CONTINUOUS
  0
LAYER
  2
ETC
 70
     0
 62
    61
  6
CONTINUOUS
  0
LAYER
  2
FIX
 70
     0
 62
    11
  6
CONTINUOUS
  0
LAYER
  2
NOTE
 70
     0
 62
     4
  6
CONTINUOUS
  0
LAYER
  2
SERVICESPACE
 70
     0
 62
     2
  6
DASHDOT
  0
LAYER
  2
SYMBOLLINE
 70
     0
 62
    15
  6
CONTINUOUS
  0
ENDTAB
  0
TABLE
  2
STYLE
 70
     1
  0
STYLE
  2
STANDARD
 70
     0
 40
64.0
 41
0.9
 50
0.0
 71
     0
 42
64.0
  3
SIMPLEX.shx
  4
BIGFONT.shx
  0
ENDTAB
  0
TABLE
  2
VIEW
 70
     1
  0
VIEW
  2
ALL
 70
     0
 40
4282.6198079999967
 10
0.0
 20
41.309903999999989
 41
5940.0
 11
0.0
 21
0.0
 31
1.0
 12
0.0
 22
0.0
 32
0.0
 42
50.0
 43
0.0
 44
0.0
 50
0.0
 71
     0
  0
ENDTAB
  0
TABLE
  2
UCS
 70
     0
  0
ENDTAB
  0
TABLE
  2
APPID
 70
     2
  0
APPID
  2
ACAD
 70
     0
  0
APPID
  2
AUTOCAD_POSTSCRIPT_FIGURE
 70
     0
  0
ENDTAB
  0
TABLE
  2
DIMSTYLE
 70
     1
  0
DIMSTYLE
  2
STANDARD
 70
     0
  3

  4

  5

  6

  7

 40
1.0
 41
0.18
 42
0.0625
 43
0.38
 44
0.18
 45
0.0
 46
0.0
 47
0.0
 48
0.0
140
0.18
141
0.09
142
0.0
143
25.399999999999999
144
1.0
145
0.0
146
1.0
147
0.09
 71
     0
 72
     0
 73
     1
 74
     1
 75
     0
 76
     0
 77
     0
 78
     0
170
     0
171
     2
172
     0
173
     0
174
     0
175
     0
176
     7
177
     7
178
     7
  0
ENDTAB
  0
ENDSEC
  0
SECTION
  2
BLOCKS
  0
BLOCK
  8
0
  2
$MODEL_SPACE
 70
     0
 10
0.0
 20
0.0
 30
0.0
  3
$MODEL_SPACE
  1

  0
ENDBLK
  5
633
  8
0
  0
BLOCK
 67
     1
  8
0
  2
$PAPER_SPACE
 70
     0
 10
0.0
 20
0.0
 30
0.0
  3
$PAPER_SPACE
  1

  0
ENDBLK
  5
62F
 67
     1
  8
0
  0
BLOCK
  8
0
  2
DOT1
 70
     0
 10
0.0
 20
0.0
 30
0.0
  3
DOT1
  1

  0
CIRCLE
  5
650
  8
SIZE
  6
CONTINUOUS
 62
     7
 10
0.0
 20
0.0
 30
0.0
 40
3.0
  0
ENDBLK
  5
651
  8
0
  0
BLOCK
  8
0
  2
_ORIGIN
 70
     0
 10
0.0
 20
0.0
 30
0.0
  3
_ORIGIN
  1

  0
CIRCLE
  5
654
  8
0
  6
CONTINUOUS
 62
     7
 10
0.0
 20
0.0
 30
0.0
 40
0.5
  0
LINE
  5
655
  8
0
  6
CONTINUOUS
 62
     7
 10
0.0
 20
0.0
 30
0.0
 11
-1.0
 21
0.0
 31
0.0
  0
ENDBLK
  5
656
  8
0
  0
BLOCK
  8
0
 62
    30
  2
_NONE
 70
     0
 10
0.0
 20
0.0
 30
0.0
  3
_NONE
  1

  0
ENDBLK
  5
659
  8
0
 62
    30
  0
BLOCK
  8
0
 62
    30
  2
_OPEN30
 70
     0
 10
0.0
 20
0.0
 30
0.0
  3
_OPEN30
  1

  0
LINE
  5
65C
  8
0
  6
BYBLOCK
 62
     0
 10
-1.0
 20
0.26794919
 30
0.0
 11
0.0
 21
0.0
 31
0.0
  0
LINE
  5
65D
  8
0
  6
BYBLOCK
 62
     0
 10
0.0
 20
0.0
 30
0.0
 11
-1.0
 21
-0.26794919
 31
0.0
  0
LINE
  5
65E
  8
0
  6
BYBLOCK
 62
     0
 10
0.0
 20
0.0
 30
0.0
 11
-1.0
 21
0.0
 31
0.0
  0
ENDBLK
  5
65F
  8
0
 62
    30
  0
BLOCK
  8
0
 62
    30
  2
_BOXFILLED
 70
     0
 10
0.0
 20
0.0
 30
0.0
  3
_BOXFILLED
  1

  0
SOLID
  5
662
  8
0
  6
BYBLOCK
 62
     0
 10
-0.5
 20
0.5
 30
0.0
 11
0.5
 21
0.5
 31
0.0
 12
-0.5
 22
-0.5
 32
0.0
 13
0.5
 23
-0.5
 33
0.0
  0
LINE
  5
663
  8
0
  6
BYBLOCK
 62
     0
 10
-0.5
 20
0.0
 30
0.0
 11
-1.0
 21
0.0
 31
0.0
  0
ENDBLK
  5
664
  8
0
 62
    30
  0
BLOCK
  8
0
 62
    30
  2
*D7
 70
     1
 10
0.0
 20
0.0
 30
0.0
  3
*D7
  1

  0
LINE
  5
667
  8
SIZE
  6
CONTINUOUS
 10
470.0
 20
-295.0
 30
0.0
 11
716.19516535481364
 21
-295.0
 31
0.0
  0
LINE
  5
668
  8
SIZE
  6
CONTINUOUS
 10
470.0
 20
-0.0000000000000057
 30
0.0
 11
716.19516535481398
 21
-0.0000000000000754
 31
0.0
  0
LINE
  5
669
  8
SIZE
  6
CONTINUOUS
 10
696.19516535481387
 20
-295.0
 30
0.0
 11
696.19516535481398
 21
-0.0000000000000697
 31
0.0
  0
TEXT
  5
66A
  8
SIZE
  6
CONTINUOUS
 10
671.19516535481398
 20
-221.5571428571424
 30
0.0
 40
64.0
  1
295
 50
90.0
 41
0.9
  0
POINT
  5
66B
  8
DEFPOINTS
  6
CONTINUOUS
 62
     0
 10
450.0
 20
-295.0
 30
0.0
  0
POINT
  5
66C
  8
DEFPOINTS
  6
CONTINUOUS
 62
     0
 10
450.0
 20
0.0
 30
0.0
  0
POINT
  5
66D
  8
DEFPOINTS
  6
CONTINUOUS
 62
     0
 10
696.19516535481398
 20
-0.0000000000000697
 30
0.0
  0
ENDBLK
  5
66E
  8
0
 62
    30
  0
BLOCK
  8
0
 62
    30
  2
*D8
 70
     1
 10
0.0
 20
0.0
 30
0.0
  3
*D8
  1

  0
LINE
  5
671
  8
SIZE
  6
CONTINUOUS
 10
275.0
 20
-57.014502
 30
0.0
 11
274.99999999999989
 21
-540.40362574083281
 31
0.0
  0
LINE
  5
672
  8
SIZE
  6
CONTINUOUS
 10
-0.0000000000000012
 20
-363.51046498909818
 30
0.0
 11
-0.0000000000000121
 21
-540.40362574083281
 31
0.0
  0
LINE
  5
673
  8
SIZE
  6
CONTINUOUS
 10
274.99999999999989
 20
-520.40362574083292
 30
0.0
 11
-0.0000000000000108
 21
-520.40362574083292
 31
0.0
  0
TEXT
  5
674
  8
SIZE
  6
CONTINUOUS
 10
63.442857142857108
 20
-495.40362574083292
 30
0.0
 40
64.0
  1
275
 41
0.9
  0
POINT
  5
675
  8
DEFPOINTS
  6
CONTINUOUS
 62
     0
 10
275.0
 20
-37.014502
 30
0.0
  0
POINT
  5
676
  8
DEFPOINTS
  6
CONTINUOUS
 62
     0
 10
0.0
 20
-343.51046498909801
 30
0.0
  0
POINT
  5
677
  8
DEFPOINTS
  6
CONTINUOUS
 62
     0
 10
-0.0000000000000108
 20
-520.40362574083292
 30
0.0
  0
ENDBLK
  5
678
  8
0
 62
    30
  0
ENDSEC
  0
SECTION
  2
ENTITIES
  0
LINE
  5
679
  8
BASIS
  6
DASHDOT
 62
     6
 39
50.0
 10
0.0
 20
-343.51046498909801
 30
0.0
 11
0.0
 21
69.880181000000007
 31
0.0
  0
LINE
  5
67A
  8
DETAIL
  6
CONTINUOUS
 62
     5
 39
50.0
 10
450.0
 20
0.0
 30
0.0
 11
-450.0
 21
0.0
 31
0.0
  0
LINE
  5
67B
  8
DETAIL
  6
CONTINUOUS
 62
     5
 39
50.0
 10
450.0
 20
-295.0
 30
0.0
 11
-450.0
 21
-295.0
 31
0.0
  0
LINE
  5
67C
  8
DETAIL
  6
CONTINUOUS
 62
     5
 39
50.0
 10
-450.0
 20
-295.0
 30
0.0
 11
-450.0
 21
0.0
 31
0.0
  0
LINE
  5
67D
  8
DETAIL
  6
CONTINUOUS
 62
     5
 39
50.0
 10
450.0
 20
-295.0
 30
0.0
 11
450.0
 21
0.0
 31
0.0
  0
LINE
  5
67E
  8
DETAIL
  6
DASHED
 62
     5
 39
50.0
 10
-429.0
 20
-10.0
 30
0.0
 11
-429.0
 21
-17.0
 31
0.0
  0
ARC
  5
67F
  8
DETAIL
  6
DASHED
 62
     5
 39
50.0
 10
-405.10000000000002
 20
-14.599999999999991
 30
0.0
 40
2.299999999999998
 50
0.0
 51
90.0
  0
ARC
  5
680
  8
DETAIL
  6
DASHED
 62
     5
 39
50.0
 10
-405.10000000000002
 20
-14.599999999999991
 30
0.0
 40
4.5999999999999961
 50
0.0
 51
90.0
  0
LINE
  5
681
  8
DETAIL
  6
DASHED
 62
     5
 39
50.0
 10
-444.5
 20
-10.0
 30
0.0
 11
-444.5
 21
-17.0
 31
0.0
  0
LINE
  5
682
  8
DETAIL
  6
DASHED
 62
     5
 39
50.0
 10
-444.5
 20
-10.0
 30
0.0
 11
-416.0
 21
-10.0
 31
0.0
  0
LINE
  5
683
  8
DETAIL
  6
DASHED
 62
     5
 39
50.0
 10
-444.5
 20
-12.300000000000001
 30
0.0
 11
-429.0
 21
-12.300000000000001
 31
0.0
  0
LINE
  5
684
  8
DETAIL
  6
DASHED
 62
     5
 39
50.0
 10
-416.0
 20
-12.300000000000001
 30
0.0
 11
-416.0
 21
-5.299999999999998
 31
0.0
  0
LINE
  5
685
  8
DETAIL
  6
DASHED
 62
     5
 39
50.0
 10
-416.0
 20
-10.0
 30
0.0
 11
-405.49999999999989
 21
-10.0
 31
0.0
  0
LINE
  5
686
  8
DETAIL
  6
DASHED
 62
     5
 39
50.0
 10
-408.49999999999989
 20
-2.299999999999998
 30
0.0
 11
-413.0
 21
-2.299999999999998
 31
0.0
  0
ARC
  5
687
  8
DETAIL
  6
DASHED
 62
     5
 39
50.0
 10
-413.0
 20
-5.299999999999998
 30
0.0
 40
3.0
 50
90.0
 51
180.0
  0
LINE
  5
688
  8
DETAIL
  6
DASHED
 62
     5
 39
50.0
 10
-429.0
 20
-12.300000000000001
 30
0.0
 11
-405.10000000000002
 21
-12.300000000000001
 31
0.0
  0
LINE
  5
689
  8
DETAIL
  6
DASHED
 62
     5
 39
50.0
 10
-430.49999999999989
 20
-10.0
 30
0.0
 11
-430.10000000000002
 21
-10.0
 31
0.0
  0
LINE
  5
68A
  8
DETAIL
  6
DASHED
 62
     5
 39
50.0
 10
-441.5
 20
-20.0
 30
0.0
 11
-432.0
 21
-20.0
 31
0.0
  0
ARC
  5
68B
  8
DETAIL
  6
DASHED
 62
     5
 39
50.0
 10
-441.5
 20
-17.0
 30
0.0
 40
3.0
 50
180.0
 51
270.0
  0
LINE
  5
68C
  8
DETAIL
  6
DASHED
 62
     5
 39
50.0
 10
-399.5
 20
-40.0
 30
0.0
 11
-397.19999999999987
 21
-40.0
 31
0.0
  0
ARC
  5
68D
  8
DETAIL
  6
DASHED
 62
     5
 39
50.0
 10
-395.69999999999987
 20
-36.827821999999998
 30
0.0
 40
1.5
 50
90.0
 51
180.0
  0
LINE
  5
68E
  8
DETAIL
  6
DASHED
 62
     5
 39
50.0
 10
-400.49999999999989
 20
-17.047308999999991
 30
0.0
 11
-400.49999999999989
 21
-14.599999999999991
 31
0.0
  0
LINE
  5
68F
  8
DETAIL
  6
DASHED
 62
     5
 39
50.0
 10
-402.80000000000001
 20
-17.047308999999991
 30
0.0
 11
-402.80000000000001
 21
-14.599999999999991
 31
0.0
  0
LINE
  5
690
  8
DETAIL
  6
DASHED
 62
     5
 39
50.0
 10
-398.54730899999993
 20
-19.952691000000002
 30
0.0
 11
-399.826346
 21
-18.673653999999981
 31
0.0
  0
ARC
  5
691
  8
DETAIL
  6
DASHED
 62
     5
 39
50.0
 10
-398.19999999999987
 20
-17.047308999999991
 30
0.0
 40
2.299999999999998
 50
180.0
 51
225.0
  0
ARC
  5
692
  8
DETAIL
  6
DASHED
 62
     5
 39
50.0
 10
-398.19999999999987
 20
-17.047308999999991
 30
0.0
 40
4.5999999999999961
 50
180.0
 51
225.0
  0
ARC
  5
693
  8
DETAIL
  6
DASHED
 62
     5
 39
50.0
 10
-401.79999999999978
 20
-23.205382
 30
0.0
 40
4.5999999999999961
 50
0.0
 51
45.0
  0
ARC
  5
694
  8
DETAIL
  6
DASHED
 62
     5
 39
50.0
 10
-401.79999999999978
 20
-23.205382
 30
0.0
 40
2.299999999999998
 50
0.0
 51
45.0
  0
ARC
  5
695
  8
DETAIL
  6
DASHED
 62
     5
 39
50.0
 10
-395.69999999999987
 20
-23.227822
 30
0.0
 40
1.5
 50
180.0
 51
270.0
  0
LINE
  5
696
  8
DETAIL
  6
DASHED
 62
     5
 39
50.0
 10
-400.173654
 20
-21.57903699999996
 30
0.0
 11
-401.45269099999979
 21
-20.300000000000001
 31
0.0
  0
LINE
  5
697
  8
DETAIL
  6
DASHED
 62
     5
 39
50.0
 10
-399.5
 20
-40.0
 30
0.0
 11
-399.5
 21
-23.205382
 31
0.0
  0
LINE
  5
698
  8
DETAIL
  6
DASHED
 62
     5
 39
50.0
 10
-397.19999999999987
 20
-40.0
 30
0.0
 11
-397.19999999999987
 21
-23.205382
 31
0.0
  0
LINE
  5
699
  8
DETAIL
  6
DASHED
 62
     5
 39
50.0
 10
-395.69999999999987
 20
-24.727822
 30
0.0
 11
-395.69999999999987
 21
-35.327821999999991
 31
0.0
  0
ARC
  5
69A
  8
DETAIL
  6
DASHED
 62
     5
 39
50.0
 10
-432.0
 20
-17.0
 30
0.0
 40
3.0
 50
270.0
 51
0.0
  0
ARC
  5
69B
  8
DETAIL
  6
DASHED
 62
     5
 39
50.0
 10
405.10000000000002
 20
-14.599999999999991
 30
0.0
 40
2.299999999999998
 50
90.0
 51
180.0
  0
ARC
  5
69C
  8
DETAIL
  6
DASHED
 62
     5
 39
50.0
 10
405.10000000000002
 20
-14.599999999999991
 30
0.0
 40
4.5999999999999961
 50
90.0
 51
180.0
  0
ARC
  5
69D
  8
DETAIL
  6
DASHED
 62
     5
 39
50.0
 10
413.0
 20
-5.299999999999998
 30
0.0
 40
3.0
 50
0.0
 51
90.0
  0
ARC
  5
69E
  8
DETAIL
  6
DASHED
 62
     5
 39
50.0
 10
408.49999999999989
 20
-5.299999999999998
 30
0.0
 40
3.0
 50
90.0
 51
180.0
  0
ARC
  5
69F
  8
DETAIL
  6
DASHED
 62
     5
 39
50.0
 10
441.5
 20
-17.0
 30
0.0
 40
3.0
 50
270.0
 51
0.0
  0
ARC
  5
6A0
  8
DETAIL
  6
DASHED
 62
     5
 39
50.0
 10
396.39999999999998
 20
-36.827821999999998
 30
0.0
 40
1.5
 50
0.0
 51
90.0
  0
ARC
  5
6A1
  8
DETAIL
  6
DASHED
 62
     5
 39
50.0
 10
398.19999999999987
 20
-17.047308999999991
 30
0.0
 40
2.299999999999998
 50
315.0
 51
0.0
  0
ARC
  5
6A2
  8
DETAIL
  6
DASHED
 62
     5
 39
50.0
 10
398.19999999999987
 20
-17.047308999999991
 30
0.0
 40
4.5999999999999961
 50
315.0
 51
0.0
  0
ARC
  5
6A3
  8
DETAIL
  6
DASHED
 62
     5
 39
50.0
 10
401.79999999999978
 20
-23.205382
 30
0.0
 40
4.5999999999999961
 50
135.0
 51
180.0
  0
ARC
  5
6A4
  8
DETAIL
  6
DASHED
 62
     5
 39
50.0
 10
401.79999999999978
 20
-23.205382
 30
0.0
 40
2.299999999999998
 50
135.0
 51
180.0
  0
ARC
  5
6A5
  8
DETAIL
  6
DASHED
 62
     5
 39
50.0
 10
395.69999999999987
 20
-23.227822
 30
0.0
 40
1.5
 50
270.0
 51
0.0
  0
ARC
  5
6A6
  8
DETAIL
  6
DASHED
 62
     5
 39
50.0
 10
432.0
 20
-17.0
 30
0.0
 40
3.0
 50
180.0
 51
270.0
  0
LINE
  5
6A7
  8
DETAIL
  6
DASHED
 62
     5
 39
50.0
 10
416.0
 20
-10.0
 30
0.0
 11
405.49999999999989
 21
-10.0
 31
0.0
  0
LINE
  5
6A8
  8
DETAIL
  6
DASHED
 62
     5
 39
50.0
 10
429.0
 20
-12.300000000000001
 30
0.0
 11
405.10000000000002
 21
-12.300000000000001
 31
0.0
  0
LINE
  5
6A9
  8
DETAIL
  6
DASHED
 62
     5
 39
50.0
 10
429.0
 20
-10.0
 30
0.0
 11
429.0
 21
-17.0
 31
0.0
  0
LINE
  5
6AA
  8
DETAIL
  6
DASHED
 62
     5
 39
50.0
 10
444.5
 20
-10.0
 30
0.0
 11
444.5
 21
-17.0
 31
0.0
  0
LINE
  5
6AB
  8
DETAIL
  6
DASHED
 62
     5
 39
50.0
 10
444.5
 20
-10.0
 30
0.0
 11
416.0
 21
-10.0
 31
0.0
  0
LINE
  5
6AC
  8
DETAIL
  6
DASHED
 62
     5
 39
50.0
 10
444.5
 20
-12.300000000000001
 30
0.0
 11
429.0
 21
-12.300000000000001
 31
0.0
  0
LINE
  5
6AD
  8
DETAIL
  6
DASHED
 62
     5
 39
50.0
 10
416.0
 20
-12.300000000000001
 30
0.0
 11
416.0
 21
-5.299999999999998
 31
0.0
  0
LINE
  5
6AE
  8
DETAIL
  6
DASHED
 62
     5
 39
50.0
 10
408.49999999999989
 20
-2.299999999999998
 30
0.0
 11
413.0
 21
-2.299999999999998
 31
0.0
  0
LINE
  5
6AF
  8
DETAIL
  6
DASHED
 62
     5
 39
50.0
 10
441.5
 20
-20.0
 30
0.0
 11
432.0
 21
-20.0
 31
0.0
  0
LINE
  5
6B0
  8
DETAIL
  6
DASHED
 62
     5
 39
50.0
 10
405.49999999999989
 20
-12.29999999999999
 30
0.0
 11
405.49999999999989
 21
-5.299999999999998
 31
0.0
  0
LINE
  5
6B1
  8
DETAIL
  6
DASHED
 62
     5
 39
50.0
 10
405.49999999999989
 20
-10.0
 30
0.0
 11
405.10000000000002
 21
-10.0
 31
0.0
  0
LINE
  5
6B2
  8
DETAIL
  6
DASHED
 62
     5
 39
50.0
 10
400.49999999999989
 20
-17.047308999999991
 30
0.0
 11
400.49999999999989
 21
-14.599999999999991
 31
0.0
  0
LINE
  5
6B3
  8
DETAIL
  6
DASHED
 62
     5
 39
50.0
 10
402.80000000000001
 20
-17.047308999999991
 30
0.0
 11
402.80000000000001
 21
-14.599999999999991
 31
0.0
  0
LINE
  5
6B4
  8
DETAIL
  6
DASHED
 62
     5
 39
50.0
 10
398.54730899999993
 20
-19.952691000000002
 30
0.0
 11
399.826346
 21
-18.673653999999981
 31
0.0
  0
LINE
  5
6B5
  8
DETAIL
  6
DASHED
 62
     5
 39
50.0
 10
400.173654
 20
-21.57903699999996
 30
0.0
 11
401.45269099999979
 21
-20.300000000000001
 31
0.0
  0
LINE
  5
6B6
  8
DETAIL
  6
DASHED
 62
     5
 39
50.0
 10
399.5
 20
-40.0
 30
0.0
 11
399.5
 21
-23.205382
 31
0.0
  0
LINE
  5
6B7
  8
DETAIL
  6
DASHED
 62
     5
 39
50.0
 10
397.19999999999987
 20
-40.0
 30
0.0
 11
397.19999999999987
 21
-23.205382
 31
0.0
  0
LINE
  5
6B8
  8
DETAIL
  6
DASHED
 62
     5
 39
50.0
 10
395.69999999999987
 20
-24.727822
 30
0.0
 11
395.69999999999987
 21
-35.327821999999991
 31
0.0
  0
LINE
  5
6B9
  8
DETAIL
  6
CONTINUOUS
 62
     5
 39
50.0
 10
-420.99999999999989
 20
76.400000000000006
 30
0.0
 11
-420.99999999999989
 21
85.0
 31
0.0
  0
LINE
  5
6BA
  8
DETAIL
  6
CONTINUOUS
 62
     5
 39
50.0
 10
-228.9999999999998
 20
76.400000000000006
 30
0.0
 11
-228.9999999999998
 21
85.0
 31
0.0
  0
LINE
  5
6BB
  8
DETAIL
  6
CONTINUOUS
 62
     5
 39
50.0
 10
-228.9999999999998
 20
85.0
 30
0.0
 11
-420.99999999999989
 21
85.0
 31
0.0
  0
LINE
  5
6BC
  8
DETAIL
  6
CONTINUOUS
 62
     5
 39
50.0
 10
-428.99999999999989
 20
0.0
 30
0.0
 11
-428.99999999999989
 21
8.0
 31
0.0
  0
LINE
  5
6BD
  8
DETAIL
  6
CONTINUOUS
 62
     5
 39
50.0
 10
-220.99999999999989
 20
0.0
 30
0.0
 11
-220.99999999999989
 21
8.0
 31
0.0
  0
LINE
  5
6BE
  8
DETAIL
  6
CONTINUOUS
 62
     5
 39
50.0
 10
-228.9999999999998
 20
76.400000000000006
 30
0.0
 11
-420.99999999999989
 21
76.400000000000006
 31
0.0
  0
LINE
  5
6BF
  8
DETAIL
  6
CONTINUOUS
 62
     5
 39
50.0
 10
-220.99999999999989
 20
8.0
 30
0.0
 11
-428.99999999999989
 21
8.0
 31
0.0
  0
LINE
  5
6C0
  8
DETAIL
  6
CONTINUOUS
 62
     5
 39
50.0
 10
-420.99999999999989
 20
76.400000000000006
 30
0.0
 11
-428.99999999999989
 21
8.0
 31
0.0
  0
LINE
  5
6C1
  8
DETAIL
  6
CONTINUOUS
 62
     5
 39
50.0
 10
-228.9999999999998
 20
76.400000000000006
 30
0.0
 11
-220.99999999999989
 21
8.0
 31
0.0
  0
LINE
  5
6C2
  8
DETAIL
  6
CONTINUOUS
 62
     5
 39
50.0
 10
179.0
 20
76.400000000000006
 30
0.0
 11
171.0
 21
8.0
 31
0.0
  0
LINE
  5
6C3
  8
DETAIL
  6
CONTINUOUS
 62
     5
 39
50.0
 10
371.0
 20
76.400000000000006
 30
0.0
 11
379.0
 21
8.0
 31
0.0
  0
LINE
  5
6C4
  8
DETAIL
  6
CONTINUOUS
 62
     5
 39
50.0
 10
179.0
 20
76.400000000000006
 30
0.0
 11
371.0
 21
76.400000000000006
 31
0.0
  0
LINE
  5
6C5
  8
DETAIL
  6
CONTINUOUS
 62
     5
 39
50.0
 10
171.0
 20
0.0
 30
0.0
 11
171.0
 21
8.0
 31
0.0
  0
LINE
  5
6C6
  8
DETAIL
  6
CONTINUOUS
 62
     5
 39
50.0
 10
379.0
 20
0.0
 30
0.0
 11
379.0
 21
8.0
 31
0.0
  0
LINE
  5
6C7
  8
DETAIL
  6
CONTINUOUS
 62
     5
 39
50.0
 10
179.0
 20
85.0
 30
0.0
 11
371.0
 21
85.0
 31
0.0
  0
LINE
  5
6C8
  8
DETAIL
  6
CONTINUOUS
 62
     5
 39
50.0
 10
179.0
 20
76.400000000000006
 30
0.0
 11
179.0
 21
85.0
 31
0.0
  0
LINE
  5
6C9
  8
DETAIL
  6
CONTINUOUS
 62
     5
 39
50.0
 10
371.0
 20
76.400000000000006
 30
0.0
 11
371.0
 21
85.0
 31
0.0
  0
LINE
  5
6CA
  8
DETAIL
  6
CONTINUOUS
 62
     5
 39
50.0
 10
171.0
 20
8.0
 30
0.0
 11
379.0
 21
8.0
 31
0.0
  0
LINE
  5
6CB
  8
DETAIL
  6
DASHED
 62
     5
 39
50.0
 10
408.49999999999989
 20
-2.299999999999998
 30
0.0
 11
413.0
 21
-2.299999999999998
 31
0.0
  0
LINE
  5
6CC
  8
NOTE
  6
DASHED
 62
     4
 10
-422.49999999999989
 20
-30.0
 30
0.0
 11
-422.49999999999989
 21
10.0
 31
0.0
  0
LINE
  5
6CD
  8
NOTE
  6
DASHED
 62
     4
 10
-442.49999999999989
 20
-10.0
 30
0.0
 11
-402.5
 21
-10.0
 31
0.0
  0
CIRCLE
  5
6CE
  8
FIX
  6
DASHED
 62
    11
 39
50.0
 10
-422.49999999999989
 20
-10.0
 30
0.0
 40
6.5
  0
CIRCLE
  5
6CF
  8
FIX
  6
DASHED
 62
    11
 39
50.0
 10
422.49999999999989
 20
-10.0
 30
0.0
 40
6.5
  0
LINE
  5
6D0
  8
NOTE
  6
DASHED
 62
     4
 10
422.49999999999989
 20
-30.0
 30
0.0
 11
422.49999999999989
 21
10.0
 31
0.0
  0
LINE
  5
6D1
  8
NOTE
  6
DASHED
 62
     4
 10
442.49999999999989
 20
-10.0
 30
0.0
 11
402.5
 21
-10.0
 31
0.0
  0
CIRCLE
  5
6D2
  8
ARRANGE
  6
CONTINUOUS
 62
     1
 39
50.0
 10
0.0
 20
0.0
 30
0.0
 40
40.0
  0
POINT
  5
6D3
  8
ARRANGE
  6
CONTINUOUS
 62
     1
 10
0.0
 20
0.0
 30
0.0
 39
50.0
  0
LINE
  5
6D4
  8
OUTLINE
  6
CONTINUOUS
 62
     3
 39
50.0
 10
450.0
 20
0.0
 30
0.0
 11
-450.0
 21
0.0
 31
0.0
  0
LINE
  5
6D5
  8
SIZE
  6
CONTINUOUS
 62
    30
 10
438.0
 20
-657.7893849999997
 30
0.0
 11
-438.0
 21
-657.7893849999997
 31
0.0
  0
CIRCLE
  5
6D6
  8
SIZE
  6
CONTINUOUS
 62
    30
 10
450.0
 20
-657.7893849999997
 30
0.0
 40
6.0
  0
LINE
  5
6D7
  8
SIZE
  6
CONTINUOUS
 62
    30
 10
450.0
 20
-657.7893849999997
 30
0.0
 11
438.0
 21
-657.7893849999997
 31
0.0
  0
CIRCLE
  5
6D8
  8
SIZE
  6
CONTINUOUS
 62
    30
 10
-450.0
 20
-657.7893849999997
 30
0.0
 40
6.0
  0
LINE
  5
6D9
  8
SIZE
  6
CONTINUOUS
 62
    30
 10
-450.0
 20
-657.7893849999997
 30
0.0
 11
-438.0
 21
-657.7893849999997
 31
0.0
  0
TEXT
  5
6DA
  8
SIZE
  6
CONTINUOUS
 62
    30
 10
-74.057142857142864
 20
-632.7893849999997
 30
0.0
 40
64.0
  1
900
 41
0.9
 72
     1
 11
0.0
 21
-632.7893849999997
 31
0.0
  0
LINE
  5
6DB
  8
SIZE
  6
CONTINUOUS
 62
    30
 10
275.0
 20
148.24136399999981
 30
0.0
 11
275.0
 21
213.5514189999999
 31
0.0
  0
LINE
  5
6DC
  8
SIZE
  6
CONTINUOUS
 62
    30
 10
-325.0
 20
193.5514189999999
 30
0.0
 11
275.0
 21
193.5514189999999
 31
0.0
  0
CIRCLE
  5
6DD
  8
SIZE
  6
CONTINUOUS
 62
    30
 10
275.0
 20
193.5514189999999
 30
0.0
 40
6.0
  0
LINE
  5
6DE
  8
SIZE
  6
CONTINUOUS
 62
    30
 10
275.0
 20
193.5514189999999
 30
0.0
 11
263.0
 21
193.5514189999999
 31
0.0
  0
TEXT
  5
6DF
  8
SIZE
  6
CONTINUOUS
 62
    30
 10
-96.314741669223608
 20
218.5514189999999
 30
0.0
 40
64.0
  1
600
 41
0.9
 72
     1
 11
-22.257598812080762
 21
218.5514189999999
 31
0.0
  0
LINE
  5
6E0
  8
SIZE
  6
CONTINUOUS
 62
    30
 10
-422.49999999999989
 20
30.0
 30
0.0
 11
-422.49999999999989
 21
495.77024
 31
0.0
  0
LINE
  5
6E1
  8
SIZE
  6
CONTINUOUS
 62
    30
 10
422.49999999999989
 20
30.0
 30
0.0
 11
422.49999999999989
 21
495.77024
 31
0.0
  0
LINE
  5
6E2
  8
SIZE
  6
CONTINUOUS
 62
    30
 10
-410.5
 20
475.77024
 30
0.0
 11
410.5
 21
475.77024
 31
0.0
  0
CIRCLE
  5
6E3
  8
SIZE
  6
CONTINUOUS
 62
    30
 10
-422.49999999999989
 20
475.77024
 30
0.0
 40
6.0
  0
LINE
  5
6E4
  8
SIZE
  6
CONTINUOUS
 62
    30
 10
-422.49999999999989
 20
475.77024
 30
0.0
 11
-410.5
 21
475.77024
 31
0.0
  0
CIRCLE
  5
6E5
  8
SIZE
  6
CONTINUOUS
 62
    30
 10
422.49999999999989
 20
475.77024
 30
0.0
 40
6.0
  0
LINE
  5
6E6
  8
SIZE
  6
CONTINUOUS
 62
    30
 10
422.49999999999989
 20
475.77024
 30
0.0
 11
410.5
 21
475.77024
 31
0.0
  0
TEXT
  5
6E7
  8
SIZE
  6
CONTINUOUS
 62
    30
 10
-74.05714285714285
 20
500.77024
 30
0.0
 40
64.0
  1
845
 41
0.9
 72
     1
 11
0.0
 21
500.77024
 31
0.0
  0
LINE
  5
6E8
  8
SIZE
  6
CONTINUOUS
 62
    30
 10
379.0
 20
28.0
 30
0.0
 11
379.0
 21
403.56013300000001
 31
0.0
  0
LINE
  5
6E9
  8
SIZE
  6
CONTINUOUS
 62
    30
 10
171.0
 20
28.0
 30
0.0
 11
171.0
 21
403.56013300000001
 31
0.0
  0
LINE
  5
6EA
  8
SIZE
  6
CONTINUOUS
 62
    30
 10
367.0
 20
383.56013300000001
 30
0.0
 11
183.0
 21
383.56013300000001
 31
0.0
  0
LINE
  5
6EB
  8
SIZE
  6
CONTINUOUS
 62
    30
 10
680.30624499999965
 20
383.56013300000001
 30
0.0
 11
379.0
 21
383.56013300000001
 31
0.0
  0
TEXT
  5
6EC
  8
SIZE
  6
CONTINUOUS
 62
    30
 10
440.81481714285673
 20
408.56013300000001
 30
0.0
 40
64.0
  1
φ208
 41
0.9
 72
     1
 11
555.19195999999965
 21
408.56013300000001
 31
0.0
  0
CIRCLE
  5
6ED
  8
SIZE
  6
CONTINUOUS
 62
    30
 10
379.0
 20
383.56013300000001
 30
0.0
 40
6.0
  0
LINE
  5
6EE
  8
SIZE
  6
CONTINUOUS
 62
    30
 10
379.0
 20
383.56013300000001
 30
0.0
 11
367.0
 21
383.56013300000001
 31
0.0
  0
CIRCLE
  5
6EF
  8
SIZE
  6
CONTINUOUS
 62
    30
 10
171.0
 20
383.56013300000001
 30
0.0
 40
6.0
  0
LINE
  5
6F0
  8
SIZE
  6
CONTINUOUS
 62
    30
 10
171.0
 20
383.56013300000001
 30
0.0
 11
183.0
 21
383.56013300000001
 31
0.0
  0
LINE
  5
6F1
  8
SIZE
  6
CONTINUOUS
 62
    30
 10
371.0
 20
105.0
 30
0.0
 11
371.0
 21
286.47843399999988
 31
0.0
  0
LINE
  5
6F2
  8
SIZE
  6
CONTINUOUS
 62
    30
 10
179.0
 20
105.0
 30
0.0
 11
179.0
 21
286.47843399999988
 31
0.0
  0
LINE
  5
6F3
  8
SIZE
  6
CONTINUOUS
 62
    30
 10
359.0
 20
266.47843399999999
 30
0.0
 11
191.0
 21
266.47843399999999
 31
0.0
  0
LINE
  5
6F4
  8
SIZE
  6
CONTINUOUS
 62
    30
 10
673.42282399999999
 20
266.47843399999999
 30
0.0
 11
371.0
 21
266.47843399999999
 31
0.0
  0
TEXT
  5
6F5
  8
SIZE
  6
CONTINUOUS
 62
    30
 10
444.90282442857142
 20
291.47843399999999
 30
0.0
 40
64.0
  1
φ192
 41
0.9
 72
     1
 11
553.79425300000003
 21
291.47843399999999
 31
0.0
  0
CIRCLE
  5
6F6
  8
SIZE
  6
CONTINUOUS
 62
    30
 10
371.0
 20
266.47843399999999
 30
0.0
 40
6.0
  0
LINE
  5
6F7
  8
SIZE
  6
CONTINUOUS
 62
    30
 10
371.0
 20
266.47843399999999
 30
0.0
 11
359.0
 21
266.47843399999999
 31
0.0
  0
CIRCLE
  5
6F8
  8
SIZE
  6
CONTINUOUS
 62
    30
 10
179.0
 20
266.47843399999999
 30
0.0
 40
6.0
  0
LINE
  5
6F9
  8
SIZE
  6
CONTINUOUS
 62
    30
 10
179.0
 20
266.47843399999999
 30
0.0
 11
191.0
 21
266.47843399999999
 31
0.0
  0
LINE
  5
6FA
  8
SERVICESPACE
  6
DASHDOT
 62
     2
 39
50.0
 10
-850.0
 20
-436.30485099999993
 30
0.0
 11
-850.0
 21
325.46771899999982
 31
0.0
  0
LINE
  5
6FB
  8
SERVICESPACE
  6
DASHDOT
 62
     2
 39
50.0
 10
850.0
 20
-436.30485099999993
 30
0.0
 11
850.0
 21
332.17936900000001
 31
0.0
  0
LINE
  5
6FC
  8
SIZE
  6
CONTINUOUS
 62
    30
 10
450.0
 20
-304.52334920867702
 30
0.0
 11
450.0
 21
-677.78938499999981
 31
0.0
  0
LINE
  5
6FD
  8
SIZE
  6
CONTINUOUS
 62
    30
 10
850.0
 20
-456.30485099999993
 30
0.0
 11
850.0
 21
-677.78938499999981
 31
0.0
  0
LINE
  5
6FE
  8
SIZE
  6
CONTINUOUS
 62
    30
 10
462.0
 20
-657.7893849999997
 30
0.0
 11
838.0
 21
-657.7893849999997
 31
0.0
  0
CIRCLE
  5
6FF
  8
SIZE
  6
CONTINUOUS
 62
    30
 10
450.0
 20
-657.7893849999997
 30
0.0
 40
6.0
  0
LINE
  5
700
  8
SIZE
  6
CONTINUOUS
 62
    30
 10
450.0
 20
-657.7893849999997
 30
0.0
 11
462.0
 21
-657.7893849999997
 31
0.0
  0
CIRCLE
  5
701
  8
SIZE
  6
CONTINUOUS
 62
    30
 10
850.0
 20
-657.7893849999997
 30
0.0
 40
6.0
  0
LINE
  5
702
  8
SIZE
  6
CONTINUOUS
 62
    30
 10
850.0
 20
-657.7893849999997
 30
0.0
 11
838.0
 21
-657.7893849999997
 31
0.0
  0
TEXT
  5
703
  8
SIZE
  6
CONTINUOUS
 62
    30
 10
506.27428571428572
 20
-632.7893849999997
 30
0.0
 40
64.0
  1
400以上
 41
0.9
 72
     1
 11
650.0
 21
-632.7893849999997
 31
0.0
  0
LINE
  5
704
  8
SIZE
  6
CONTINUOUS
 62
    30
 10
-450.0
 20
-308.85525096205708
 30
0.0
 11
-450.0
 21
-677.78938499999981
 31
0.0
  0
LINE
  5
705
  8
SIZE
  6
CONTINUOUS
 62
    30
 10
-850.0
 20
-456.30485099999993
 30
0.0
 11
-850.0
 21
-677.78938499999981
 31
0.0
  0
LINE
  5
706
  8
SIZE
  6
CONTINUOUS
 62
    30
 10
-462.0
 20
-657.7893849999997
 30
0.0
 11
-838.0
 21
-657.7893849999997
 31
0.0
  0
CIRCLE
  5
707
  8
SIZE
  6
CONTINUOUS
 62
    30
 10
-450.0
 20
-657.7893849999997
 30
0.0
 40
6.0
  0
LINE
  5
708
  8
SIZE
  6
CONTINUOUS
 62
    30
 10
-450.0
 20
-657.7893849999997
 30
0.0
 11
-462.0
 21
-657.7893849999997
 31
0.0
  0
CIRCLE
  5
709
  8
SIZE
  6
CONTINUOUS
 62
    30
 10
-850.0
 20
-657.7893849999997
 30
0.0
 40
6.0
  0
LINE
  5
70A
  8
SIZE
  6
CONTINUOUS
 62
    30
 10
-850.0
 20
-657.7893849999997
 30
0.0
 11
-838.0
 21
-657.7893849999997
 31
0.0
  0
TEXT
  5
70B
  8
SIZE
  6
CONTINUOUS
 62
    30
 10
-793.72571428571416
 20
-632.7893849999997
 30
0.0
 40
64.0
  1
400以上
 41
0.9
 72
     1
 11
-650.0
 21
-632.7893849999997
 31
0.0
  0
TEXT
  5
70C
  8
NOTE
  6
CONTINUOUS
 62
     4
 10
337.83380899999992
 20
-778.13806399999999
 30
0.0
 40
64.0
  1
メンテナンススペース
 41
0.9
  0
TEXT
  5
70D
  8
NOTE
  6
CONTINUOUS
 62
     4
 10
-1068.839191999999
 20
-778.13806399999999
 30
0.0
 40
64.0
  1
回路メンテナンススペース
 41
0.9
  0
LINE
  5
70E
  8
SIZE
  6
CONTINUOUS
 62
    30
 10
-470.0
 20
0.0
 30
0.0
 11
-609.64240600000016
 21
0.0
 31
0.0
  0
LINE
  5
70F
  8
SIZE
  6
CONTINUOUS
 62
    30
 10
-416.0
 20
85.0
 30
0.0
 11
-609.64240600000016
 21
85.0
 31
0.0
  0
LINE
  5
710
  8
SIZE
  6
CONTINUOUS
 62
    30
 10
-589.64240600000005
 20
0.0
 30
0.0
 11
-589.64240600000005
 21
85.0
 31
0.0
  0
CIRCLE
  5
711
  8
SIZE
  6
CONTINUOUS
 62
    30
 10
-589.64240600000005
 20
0.0
 30
0.0
 40
6.0
  0
CIRCLE
  5
712
  8
SIZE
  6
CONTINUOUS
 62
    30
 10
-589.64240600000005
 20
85.0
 30
0.0
 40
6.0
  0
TEXT
  5
713
  8
SIZE
  6
CONTINUOUS
 62
    30
 10
-614.64240600000005
 20
-4.1285714285714263
 30
0.0
 40
64.0
  1
85
 50
90.0
 41
0.9
 72
     1
 11
-614.64240600000005
 21
42.5
 31
0.0
  0
TEXT
  5
714
  8
NOTE
  6
CONTINUOUS
 62
     4
 10
-368.52429599999988
 20
95.175756000000007
 30
0.0
 40
64.0
  1
EA
 41
0.9
  0
TEXT
  5
715
  8
NOTE
  6
CONTINUOUS
 62
     4
 10
221.96246600000001
 20
95.820262999999997
 30
0.0
 40
64.0
  1
OA
 41
0.9
  0
TEXT
  5
716
  8
NOTE
  6
CONTINUOUS
 62
     4
 10
-778.90056200000004
 20
276.55922900000002
 30
0.0
 40
64.0
  1
AH-2
 41
0.9
  0
LINE
  5
717
  8
NOTE
  6
CONTINUOUS
 62
     4
 10
-799.08681399999989
 20
237.768711
 30
0.0
 11
-534.42148200000008
 21
237.768711
 31
0.0
  0
LINE
  5
718
  8
NOTE
  6
CONTINUOUS
 62
     4
 10
-422.49999999999989
 20
-10.0
 30
0.0
 11
-534.42148200000008
 21
237.768711
 31
0.0
  0
LINE
  5
719
  8
NOTE
  6
CONTINUOUS
 62
     4
 10
-448.45860299999998
 20
20.432728000000001
 30
0.0
 11
-422.49999999999989
 21
-10.0
 31
0.0
  0
LINE
  5
71A
  8
NOTE
  6
CONTINUOUS
 62
     4
 10
-422.49999999999989
 20
-10.0
 30
0.0
 11
-429.76444499999991
 21
29.33481699999999
 31
0.0
  0
LINE
  5
71B
  8
DETAIL
  6
CONTINUOUS
 62
     5
 39
50.0
 10
439.0
 20
-289.39999999999992
 30
0.0
 11
-439.0
 21
-289.39999999999992
 31
0.0
  0
CIRCLE
  5
71C
  8
DETAIL
  6
CONTINUOUS
 62
     5
 10
-420.2999999999995
 20
-251.59999999999999
 30
0.0
 40
4.0
  0
CIRCLE
  5
71D
  8
DETAIL
  6
CONTINUOUS
 62
     5
 10
-420.2999999999995
 20
-251.59999999999999
 30
0.0
 40
15.0
  0
LINE
  5
71E
  8
DETAIL
  6
DASHED
 62
     5
 10
-398.89999999999992
 20
-40.0
 30
0.0
 11
-398.89999999999992
 21
-40.0
 31
0.0
  0
CIRCLE
  5
71F
  8
DETAIL
  6
CONTINUOUS
 62
     5
 10
-420.30000000000001
 20
-46.599999999999987
 30
0.0
 40
15.0
  0
CIRCLE
  5
720
  8
DETAIL
  6
CONTINUOUS
 62
     5
 10
-420.30000000000001
 20
-46.599999999999987
 30
0.0
 40
4.0
  0
CIRCLE
  5
721
  8
DETAIL
  6
CONTINUOUS
 62
     5
 10
419.5
 20
-46.599999999999987
 30
0.0
 40
15.0
  0
CIRCLE
  5
722
  8
DETAIL
  6
CONTINUOUS
 62
     5
 10
419.5
 20
-46.599999999999987
 30
0.0
 40
4.0
  0
LINE
  5
723
  8
DETAIL
  6
DASHED
 62
     5
 10
398.79999999999961
 20
-27.5
 30
0.0
 11
396.5
 21
-27.5
 31
0.0
  0
LINE
  5
724
  8
DETAIL
  6
DASHED
 62
     5
 10
399.5
 20
-32.5
 30
0.0
 11
397.2000000000001
 21
-32.5
 31
0.0
  0
LINE
  5
725
  8
DETAIL
  6
DASHED
 62
     5
 10
397.2000000000001
 20
-40.0
 30
0.0
 11
399.5
 21
-40.0
 31
0.0
  0
CIRCLE
  5
726
  8
DETAIL
  6
CONTINUOUS
 62
     5
 10
419.5
 20
-251.59999999999999
 30
0.0
 40
15.0
  0
CIRCLE
  5
727
  8
DETAIL
  6
CONTINUOUS
 62
     5
 10
419.5
 20
-251.59999999999999
 30
0.0
 40
4.0
  0
LINE
  5
72B
  8
DETAIL
  6
CONTINUOUS
 62
     5
 39
50.0
 10
450.0
 20
-295.0
 30
0.0
 11
-450.0
 21
-295.0
 31
0.0
  0
LINE
  5
72C
  8
BASIS
  6
DASHDOT
 62
     6
 39
50.0
 10
275.0
 20
-37.014502
 30
0.0
 11
275.0
 21
128.24136399999969
 31
0.0
  0
LINE
  5
72D
  8
BASIS
  6
DASHDOT
 62
     6
 39
50.0
 10
-325.0
 20
-37.014502
 30
0.0
 11
-325.0
 21
128.24136399999969
 31
0.0
  0
LINE
  5
72E
  8
SIZE
  6
CONTINUOUS
 62
    30
 10
-325.0
 20
148.24136399999981
 30
0.0
 11
-325.0
 21
213.5514189999999
 31
0.0
  0
CIRCLE
  5
72F
  8
SIZE
  6
CONTINUOUS
 62
    30
 39
50.0
 10
-0.0000000000000108
 20
-520.40362574083292
 30
0.0
 40
6.0
  0
CIRCLE
  5
730
  8
SIZE
  6
CONTINUOUS
 62
    30
 39
50.0
 10
274.99999999999989
 20
-520.40362574083292
 30
0.0
 40
6.0
  0
CIRCLE
  5
731
  8
SIZE
  6
CONTINUOUS
 62
    30
 39
50.0
 10
696.19516535481387
 20
-295.0
 30
0.0
 40
6.0
  0
CIRCLE
  5
732
  8
SIZE
  6
CONTINUOUS
 62
    30
 39
50.0
 10
696.19516535481398
 20
-0.0000000000000697
 30
0.0
 40
6.0
  0
CIRCLE
  5
733
  8
SIZE
  6
CONTINUOUS
 62
    30
 39
50.0
 10
-325.0
 20
193.5514189999999
 30
0.0
 40
6.0
  0
LINE
  5
734
  8
OUTLINE
  6
CONTINUOUS
 62
     3
 39
50.0
 10
450.0
 20
0.0
 30
0.0
 11
450.0
 21
-295.0
 31
0.0
  0
LINE
  5
735
  8
OUTLINE
  6
CONTINUOUS
 62
     3
 39
50.0
 10
450.0
 20
-295.0
 30
0.0
 11
-450.0
 21
-295.0
 31
0.0
  0
LINE
  5
736
  8
OUTLINE
  6
CONTINUOUS
 62
     3
 39
50.0
 10
-450.0
 20
-295.0
 30
0.0
 11
-450.0
 21
0.0
 31
0.0
  0
LINE
  5
737
  8
SIZE
  6
CONTINUOUS
 10
275.0
 20
-57.014502
 30
0.0
 11
274.99999999999989
 21
-540.40362574083281
 31
0.0
  0
LINE
  5
738
  8
SIZE
  6
CONTINUOUS
 10
-0.0000000000000012
 20
-363.51046498909818
 30
0.0
 11
-0.0000000000000121
 21
-540.40362574083281
 31
0.0
  0
LINE
  5
739
  8
SIZE
  6
CONTINUOUS
 10
274.99999999999989
 20
-520.40362574083292
 30
0.0
 11
-0.0000000000000108
 21
-520.40362574083292
 31
0.0
  0
LINE
  5
73A
  8
SIZE
  6
CONTINUOUS
 10
470.0
 20
-295.0
 30
0.0
 11
716.19516535481364
 21
-295.0
 31
0.0
  0
LINE
  5
73B
  8
SIZE
  6
CONTINUOUS
 10
470.0
 20
-0.0000000000000057
 30
0.0
 11
716.19516535481398
 21
-0.0000000000000754
 31
0.0
  0
LINE
  5
73C
  8
SIZE
  6
CONTINUOUS
 10
696.19516535481387
 20
-295.0
 30
0.0
 11
696.19516535481398
 21
-0.0000000000000697
 31
0.0
  0
TEXT
  5
73D
  8
SIZE
  6
CONTINUOUS
 62
    30
 10
63.442857142857108
 20
-495.40362574083292
 30
0.0
 40
64.0
  1
275
 41
0.9
  0
TEXT
  5
73E
  8
SIZE
  6
CONTINUOUS
 62
    30
 10
671.19516535481398
 20
-221.5571428571424
 30
0.0
 40
64.0
  1
295
 50
90.0
 41
0.9
  0
LINE
  5
73F
  8
DETAIL
  6
CONTINUOUS
 62
     5
 39
50.0
 10
-439.0
 20
-289.39999999999992
 30
0.0
 11
-439.0
 21
0.0
 31
0.0
  0
LINE
  5
740
  8
DETAIL
  6
CONTINUOUS
 62
     5
 39
50.0
 10
439.0
 20
-289.39999999999992
 30
0.0
 11
439.0
 21
0.0
 31
0.0
  0
ARC
  5
741
  8
DETAIL
  6
DASHED
 62
     5
 39
50.0
 10
-408.49999999999989
 20
-5.299999999999998
 30
0.0
 40
3.0
 50
0.0
 51
90.0
  0
LINE
  5
742
  8
DETAIL
  6
DASHED
 62
     5
 39
50.0
 10
-405.49999999999989
 20
-12.29999999999999
 30
0.0
 11
-405.49999999999989
 21
-5.299999999999998
 31
0.0
  0
TEXT
  5
74B
  8
ETC
  6
CONTINUOUS
 62
    61
 10
812.12506155778169
 20
607.00998173847756
 30
0.0
 40
50.0
  1
SCF-50LS2
 41
0.9
  0
TEXT
  5
74C
  8
ETC
  6
CONTINUOUS
 62
    61
 10
656.66470519566758
 20
786.66449805148523
 30
0.0
 40
64.0
  1
SCF-50LS2_6
 41
0.9
  0
TEXT
  5
74D
  8
ETC
  6
CONTINUOUS
 62
    61
 10
648.7489981956677
 20
684.94435805148532
 30
0.0
 40
64.0
  1
ロスナイ
 41
0.9
  0
ENDSEC
  0
EOF
