  0
SECTION
  2
HEADER
  9
$ACADVER
  1
AC1009
  9
$INSBASE
 10
0.0
 20
0.0
 30
0.0
  9
$EXTMIN
 10
-389.23457499999989
 20
-538.79819800000007
 30
0.0
  9
$EXTMAX
 10
1232.441186778721
 20
560.52460551181036
 30
0.0
  9
$LIMMIN
 10
-4200.0
 20
-2970.0
  9
$LIMMAX
 10
4200.0
 20
2970.0
  9
$ORTHOMODE
 70
     1
  9
$REGENMODE
 70
     0
  9
$FILLMODE
 70
     1
  9
$QTEXTMODE
 70
     0
  9
$MIRRTEXT
 70
     0
  9
$DRAGMODE
 70
     2
  9
$LTSCALE
 40
20.0
  9
$OSMODE
 70
   161
  9
$ATTMODE
 70
     1
  9
$TEXTSIZE
 40
64.0
  9
$TRACEWID
 40
0.05
  9
$TEXTSTYLE
  7
STANDARD
  9
$CLAYER
  8
FIX
  9
$CELTYPE
  6
CONTINUOUS
  9
$CECOLOR
 62
    11
  9
$DIMSCALE
 40
1.0
  9
$DIMASZ
 40
2.0
  9
$DIMEXO
 40
20.0
  9
$DIMDLI
 40
200.0
  9
$DIMRND
 40
0.0
  9
$DIMDLE
 40
0.0
  9
$DIMEXE
 40
30.0
  9
$DIMTP
 40
0.0
  9
$DIMTM
 40
0.0
  9
$DIMTXT
 40
64.0
  9
$DIMCEN
 40
0.09
  9
$DIMTSZ
 40
0.0
  9
$DIMTOL
 70
     0
  9
$DIMLIM
 70
     0
  9
$DIMTIH
 70
     0
  9
$DIMTOH
 70
     0
  9
$DIMSE1
 70
     0
  9
$DIMSE2
 70
     0
  9
$DIMTAD
 70
     1
  9
$DIMZIN
 70
     8
  9
$DIMBLK
  1

  9
$DIMASO
 70
     1
  9
$DIMSHO
 70
     0
  9
$DIMPOST
  1

  9
$DIMAPOST
  1

  9
$DIMALT
 70
     0
  9
$DIMALTD
 70
     2
  9
$DIMALTF
 40
25.399999999999999
  9
$DIMLFAC
 40
1.0
  9
$DIMTOFL
 70
     1
  9
$DIMTVP
 40
0.0
  9
$DIMTIX
 70
     1
  9
$DIMSOXD
 70
     0
  9
$DIMSAH
 70
     0
  9
$DIMBLK1
  1

  9
$DIMBLK2
  1

  9
$DIMSTYLE
  2
STANDARD
  9
$DIMCLRD
 70
     0
  9
$DIMCLRE
 70
     0
  9
$DIMCLRT
 70
     0
  9
$DIMTFAC
 40
1.0
  9
$DIMGAP
 40
0.09
  9
$LUNITS
 70
     2
  9
$LUPREC
 70
     4
  9
$SKETCHINC
 40
0.1
  9
$FILLETRAD
 40
13.0
  9
$AUNITS
 70
     1
  9
$AUPREC
 70
     3
  9
$MENU
  1
ACAD
  9
$ELEVATION
 40
0.0
  9
$PELEVATION
 40
0.0
  9
$THICKNESS
 40
0.0
  9
$LIMCHECK
 70
     1
  9
$BLIPMODE
 70
     0
  9
$CHAMFERA
 40
5.0
  9
$CHAMFERB
 40
5.0
  9
$SKPOLY
 70
     0
  9
$TDCREATE
 40
2451837.5072916672
  9
$TDUPDATE
 40
2453475.428364791
  9
$TDINDWG
 40
0.0377027315
  9
$TDUSRTIMER
 40
0.0377025463
  9
$USRTIMER
 70
     1
  9
$ANGBASE
 50
0.0
  9
$ANGDIR
 70
     0
  9
$PDMODE
 70
     3
  9
$PDSIZE
 40
-2.0
  9
$PLINEWID
 40
0.0
  9
$COORDS
 70
     2
  9
$SPLFRAME
 70
     0
  9
$SPLINETYPE
 70
     6
  9
$SPLINESEGS
 70
     8
  9
$ATTDIA
 70
     0
  9
$ATTREQ
 70
     1
  9
$HANDLING
 70
 22529
  9
$HANDSEED
  5
446
  9
$SURFTAB1
 70
     6
  9
$SURFTAB2
 70
     6
  9
$SURFTYPE
 70
     6
  9
$SURFU
 70
     6
  9
$SURFV
 70
     6
  9
$UCSNAME
  2

  9
$UCSORG
 10
0.0
 20
0.0
 30
0.0
  9
$UCSXDIR
 10
1.0
 20
0.0
 30
0.0
  9
$UCSYDIR
 10
0.0
 20
1.0
 30
0.0
  9
$PUCSNAME
  2

  9
$PUCSORG
 10
0.0
 20
0.0
 30
0.0
  9
$PUCSXDIR
 10
1.0
 20
0.0
 30
0.0
  9
$PUCSYDIR
 10
0.0
 20
1.0
 30
0.0
  9
$USERI1
 70
     0
  9
$USERI2
 70
     0
  9
$USERI3
 70
     0
  9
$USERI4
 70
     0
  9
$USERI5
 70
     0
  9
$USERR1
 40
20.0
  9
$USERR2
 40
0.0
  9
$USERR3
 40
0.0
  9
$USERR4
 40
0.0
  9
$USERR5
 40
0.0
  9
$WORLDVIEW
 70
     1
  9
$SHADEDGE
 70
     3
  9
$SHADEDIF
 70
    70
  9
$TILEMODE
 70
     1
  9
$MAXACTVP
 70
    64
  9
$PLIMCHECK
 70
     0
  9
$PEXTMIN
 10
1.0000000000000000E+020
 20
1.0000000000000000E+020
 30
1.0000000000000000E+020
  9
$PEXTMAX
 10
-1.0000000000000000E+020
 20
-1.0000000000000000E+020
 30
-1.0000000000000000E+020
  9
$PLIMMIN
 10
0.0
 20
0.0
  9
$PLIMMAX
 10
12.0
 20
9.0
  9
$UNITMODE
 70
     0
  9
$VISRETAIN
 70
     1
  9
$PLINEGEN
 70
     0
  9
$PSLTSCALE
 70
     1
  0
ENDSEC
  0
SECTION
  2
TABLES
  0
TABLE
  2
VPORT
 70
     3
  0
VPORT
  2
*ACTIVE
 70
     0
 10
0.0
 20
0.0
 11
1.0
 21
1.0
 12
185.71630257498941
 22
-71.49316653045571
 13
0.0
 23
0.0
 14
400.0
 24
400.0
 15
400.0
 25
400.0
 16
0.0
 26
0.0
 36
1.0
 17
0.0
 27
0.0
 37
0.0
 40
1555.575065343578
 41
1.4423558897243101
 42
50.0
 43
0.0
 44
0.0
 50
0.0
 51
0.0
 71
     0
 72
   500
 73
     1
 74
     0
 75
     0
 76
     0
 77
     0
 78
     0
  0
ENDTAB
  0
TABLE
  2
LTYPE
 70
     7
  0
LTYPE
  2
CONTINUOUS
 70
     0
  3
実線
 72
    65
 73
     0
 40
0.0
  0
LTYPE
  2
DOT
 70
     0
  3
...............................................
 72
    65
 73
     2
 40
0.8
 49
0.5
 49
-0.3
  0
LTYPE
  2
DASHED
 70
     0
  3
_ _ _ _ _ _ _ _ _ _ _ _ _ _ _ _ _ _ _ _ _ _ _
 72
    65
 73
     2
 40
2.0
 49
1.1999999999999991
 49
-0.8
  0
LTYPE
  2
DASHDOT
 70
     0
  3
____ _ ____ _ ____ _ ____ _ ____ _ ____ _ ____
 72
    65
 73
     4
 40
5.5
 49
4.0
 49
-0.6
 49
0.3
 49
-0.6
  0
LTYPE
  2
DASHDOT1
 70
     0
  3
____ _ ____ _ ____ _ ____ _ ____ _ ____ _ ____
 72
    65
 73
     4
 40
2.0
 49
1.5
 49
-0.2
 49
0.1
 49
-0.2
  0
LTYPE
  2
DIVIDE
 70
     0
  3
_____ _ _ _____ _ _ _____ _ _ _____ _ _ ____
 72
    65
 73
     6
 40
6.4000000000000004
 49
4.0
 49
-0.6
 49
0.3
 49
-0.6
 49
0.3
 49
-0.6
  0
LTYPE
  2
DIVIDE1
 70
     0
  3
_____ _ _ _____ _ _ _____ _ _ _____ _ _ ____
 72
    65
 73
     6
 40
3.2000000000000002
 49
2.0
 49
-0.3
 49
0.15
 49
-0.3
 49
0.15
 49
-0.3
  0
ENDTAB
  0
TABLE
  2
LAYER
 70
    12
  0
LAYER
  2
0
 70
     0
 62
     7
  6
CONTINUOUS
  0
LAYER
  2
FIX
 70
     0
 62
    11
  6
CONTINUOUS
  0
LAYER
  2
OUTLINE
 70
     0
 62
     3
  6
CONTINUOUS
  0
LAYER
  2
DETAIL
 70
     0
 62
     5
  6
CONTINUOUS
  0
LAYER
  2
BASIS
 70
     0
 62
     6
  6
DASHDOT
  0
LAYER
  2
SIZE
 70
     0
 62
    30
  6
CONTINUOUS
  0
LAYER
  2
NOTE
 70
     0
 62
     4
  6
CONTINUOUS
  0
LAYER
  2
ARRANGE
 70
     0
 62
     1
  6
CONTINUOUS
  0
LAYER
  2
ETC
 70
     0
 62
    61
  6
CONTINUOUS
  0
LAYER
  2
DEFPOINTS
 70
     0
 62
     7
  6
CONTINUOUS
  0
LAYER
  2
SERVICESPACE
 70
     0
 62
     2
  6
DASHDOT
  0
LAYER
  2
SYMBOLLINE
 70
     0
 62
    15
  6
CONTINUOUS
  0
ENDTAB
  0
TABLE
  2
STYLE
 70
     1
  0
STYLE
  2
STANDARD
 70
     0
 40
0.0
 41
0.9
 50
0.0
 71
     0
 42
64.0
  3
SIMPLEX
  4
BIGFONT
  0
ENDTAB
  0
TABLE
  2
VIEW
 70
     1
  0
VIEW
  2
ALL
 70
     0
 40
6374.9789810000002
 10
0.0
 20
58.11501599999999
 41
8842.1052629999976
 11
0.0
 21
0.0
 31
1.0
 12
0.0
 22
0.0
 32
0.0
 42
50.0
 43
0.0
 44
0.0
 50
0.0
 71
     0
  0
ENDTAB
  0
TABLE
  2
UCS
 70
     0
  0
ENDTAB
  0
TABLE
  2
APPID
 70
     1
  0
APPID
  2
ACAD
 70
     0
  0
ENDTAB
  0
TABLE
  2
DIMSTYLE
 70
     1
  0
DIMSTYLE
  2
STANDARD
 70
     0
  3

  4

  5

  6

  7

 40
1.0
 41
0.18
 42
0.0625
 43
0.38
 44
0.18
 45
0.0
 46
0.0
 47
0.0
 48
0.0
140
0.18
141
0.09
142
0.0
143
25.399999999999999
144
1.0
145
0.0
146
1.0
147
0.09
 71
     0
 72
     0
 73
     1
 74
     1
 75
     0
 76
     0
 77
     0
 78
     0
170
     0
171
     2
172
     0
173
     0
174
     0
175
     0
176
     0
177
     0
178
     0
  0
ENDTAB
  0
ENDSEC
  0
SECTION
  2
BLOCKS
  0
BLOCK
  8
0
  2
$MODEL_SPACE
 70
     0
 10
0.0
 20
0.0
 30
0.0
  3
$MODEL_SPACE
  1

  0
ENDBLK
  5
366
  8
0
  0
BLOCK
 67
     1
  8
0
  2
$PAPER_SPACE
 70
     0
 10
0.0
 20
0.0
 30
0.0
  3
$PAPER_SPACE
  1

  0
ENDBLK
  5
362
 67
     1
  8
0
  0
ENDSEC
  0
SECTION
  2
ENTITIES
  0
LINE
  5
384
  8
NOTE
  6
CONTINUOUS
 62
     4
 10
516.92715899999996
 20
213.97056199999989
 30
0.0
 11
222.3798579999999
 21
213.97056199999989
 31
0.0
  0
LINE
  5
385
  8
BASIS
  6
DASHDOT
 62
     6
 10
0.0
 20
210.608689
 30
0.0
 11
0.0
 21
-238.5914329999998
 31
0.0
  0
LINE
  5
386
  8
BASIS
  6
DASHDOT
 62
     6
 10
-210.0368549999998
 20
0.0
 30
0.0
 11
210.92315600000001
 21
0.0
 31
0.0
  0
LINE
  5
387
  8
DETAIL
 62
     5
 10
-152.5
 20
-157.5
 30
0.0
 11
-129.4999999999996
 21
-157.5
 31
0.0
  0
LINE
  5
388
  8
DETAIL
 62
     5
 10
157.5
 20
152.5
 30
0.0
 11
157.5
 21
-152.5
 31
0.0
  0
LINE
  5
389
  8
DETAIL
 62
     5
 10
-157.5
 20
152.5
 30
0.0
 11
-157.5
 21
-152.5
 31
0.0
  0
LINE
  5
38A
  8
DETAIL
 62
     5
 10
-152.5
 20
157.5
 30
0.0
 11
152.5
 21
157.5
 31
0.0
  0
LINE
  5
38B
  8
NOTE
  6
CONTINUOUS
 62
     4
 10
140.0
 20
140.0
 30
0.0
 11
222.3798579999999
 21
213.97056199999989
 31
0.0
  0
POINT
  5
38C
  8
ARRANGE
  6
CONTINUOUS
 62
     1
 10
0.0
 20
0.0
 30
0.0
  0
CIRCLE
  5
38D
  8
ARRANGE
  6
CONTINUOUS
 62
     1
 10
0.0
 20
0.0
 30
0.0
 40
40.0
  0
TEXT
  5
38E
  8
NOTE
  6
CONTINUOUS
 62
     4
 10
232.22319100000001
 20
238.6506049999999
 30
0.0
 40
64.0
  1
4-φ10
 41
0.9
  0
LINE
  5
38F
  8
DETAIL
 62
     5
 10
-114.5
 20
131.4999999999996
 30
0.0
 11
114.5
 21
131.4999999999996
 31
0.0
  0
LINE
  5
390
  8
DETAIL
 62
     5
 10
-129.4999999999996
 20
-157.0
 30
0.0
 11
129.4999999999996
 21
-157.0
 31
0.0
  0
LINE
  5
391
  8
DETAIL
 62
     5
 10
-138.0
 20
117.5
 30
0.0
 11
-138.0
 21
-144.0
 31
0.0
  0
LINE
  5
392
  8
DETAIL
 62
     5
 10
138.0
 20
117.5
 30
0.0
 11
138.0
 21
-144.0
 31
0.0
  0
LINE
  5
393
  8
DETAIL
  6
CONTINUOUS
 62
     5
 10
-129.4999999999996
 20
-157.0
 30
0.0
 11
-129.4999999999996
 21
-195.0
 31
0.0
  0
LINE
  5
394
  8
DETAIL
  6
CONTINUOUS
 62
     5
 10
129.4999999999996
 20
-157.0
 30
0.0
 11
129.4999999999996
 21
-195.0
 31
0.0
  0
LINE
  5
395
  8
DETAIL
 62
     5
 10
-129.4999999999996
 20
-195.0
 30
0.0
 11
129.4999999999996
 21
-195.0
 31
0.0
  0
LINE
  5
396
  8
DETAIL
 62
     5
 10
-114.5
 20
131.4999999999996
 30
0.0
 11
-114.5
 21
-157.0
 31
0.0
  0
LINE
  5
397
  8
DETAIL
 62
     5
 10
114.5
 20
131.4999999999996
 30
0.0
 11
114.5
 21
-157.0
 31
0.0
  0
LINE
  5
398
  8
DETAIL
 62
     5
 10
-157.5
 20
-152.5
 30
0.0
 11
-152.5
 21
-157.5
 31
0.0
  0
ARC
  5
399
  8
DETAIL
 62
     5
 10
-125.0
 20
-144.0
 30
0.0
 40
13.0
 50
180.0
 51
270.0
  0
ARC
  5
39A
  8
DETAIL
 62
     5
 10
125.0
 20
-144.0
 30
0.0
 40
13.0
 50
270.0
 51
0.0
  0
LINE
  5
39B
  8
DETAIL
 62
     5
 10
157.5
 20
-152.5
 30
0.0
 11
152.5
 21
-157.5
 31
0.0
  0
LINE
  5
39C
  8
DETAIL
 62
     5
 10
-125.0
 20
130.4999999999996
 30
0.0
 11
-114.5
 21
130.4999999999996
 31
0.0
  0
ARC
  5
39D
  8
DETAIL
 62
     5
 10
-125.0
 20
117.5
 30
0.0
 40
13.0
 50
90.0
 51
180.0
  0
ARC
  5
39E
  8
DETAIL
 62
     5
 10
125.0
 20
117.5
 30
0.0
 40
13.0
 50
0.0
 51
90.0
  0
LINE
  5
39F
  8
DETAIL
 62
     5
 10
125.0
 20
130.4999999999996
 30
0.0
 11
114.5
 21
130.4999999999996
 31
0.0
  0
CIRCLE
  5
3A0
  8
DETAIL
  6
CONTINUOUS
 62
     5
 10
-140.0
 20
140.0
 30
0.0
 40
6.0
  0
CIRCLE
  5
3A1
  8
FIX
  6
CONTINUOUS
 62
    11
 10
-140.0
 20
140.0
 30
0.0
 40
6.0
  0
CIRCLE
  5
3A2
  8
DETAIL
  6
CONTINUOUS
 62
     5
 10
140.0
 20
140.0
 30
0.0
 40
6.0
  0
ARC
  5
3A3
  8
DETAIL
  6
CONTINUOUS
 62
     5
 10
-140.0
 20
-140.0
 30
0.0
 40
6.0
 50
70.528779
 51
290.50090799999992
  0
ARC
  5
3A4
  8
DETAIL
  6
CONTINUOUS
 62
     5
 10
140.0
 20
-140.0
 30
0.0
 40
6.0
 50
249.49909199999991
 51
109.4712209999999
  0
LINE
  5
3A5
  8
SIZE
  6
CONTINUOUS
 62
    30
 10
-293.23457499999989
 20
-195.0
 30
0.0
 11
-293.23457499999989
 21
-336.48768799999999
 31
0.0
  0
LINE
  5
3A6
  8
SIZE
  6
CONTINUOUS
 62
    30
 10
-293.23457499999989
 20
157.5
 30
0.0
 11
-293.23457499999989
 21
303.66654799999992
 31
0.0
  0
LINE
  5
3A7
  8
DETAIL
 62
     5
 10
-152.5
 20
157.5
 30
0.0
 11
-157.5
 21
152.5
 31
0.0
  0
LINE
  5
3A8
  8
DETAIL
 62
     5
 10
152.5
 20
157.5
 30
0.0
 11
157.5
 21
152.5
 31
0.0
  0
LINE
  5
3A9
  8
DETAIL
 62
     5
 10
129.4999999999996
 20
-157.5
 30
0.0
 11
152.5
 21
-157.5
 31
0.0
  0
LINE
  5
3AA
  8
OUTLINE
 62
     3
 10
129.4999999999996
 20
-157.5
 30
0.0
 11
152.5
 21
-157.5
 31
0.0
  0
LINE
  5
3AB
  8
OUTLINE
 62
     3
 10
152.5
 20
157.5
 30
0.0
 11
157.5
 21
152.5
 31
0.0
  0
LINE
  5
3AC
  8
OUTLINE
 62
     3
 10
-152.5
 20
157.5
 30
0.0
 11
-157.5
 21
152.5
 31
0.0
  0
LINE
  5
3AD
  8
OUTLINE
 62
     3
 10
157.5
 20
-152.5
 30
0.0
 11
152.5
 21
-157.5
 31
0.0
  0
LINE
  5
3AE
  8
OUTLINE
 62
     3
 10
-157.5
 20
-152.5
 30
0.0
 11
-152.5
 21
-157.5
 31
0.0
  0
LINE
  5
3AF
  8
OUTLINE
 62
     3
 10
-129.4999999999996
 20
-195.0
 30
0.0
 11
129.4999999999996
 21
-195.0
 31
0.0
  0
LINE
  5
3B0
  8
OUTLINE
  6
CONTINUOUS
 62
     3
 10
129.4999999999996
 20
-157.0
 30
0.0
 11
129.4999999999996
 21
-195.0
 31
0.0
  0
LINE
  5
3B1
  8
OUTLINE
  6
CONTINUOUS
 62
     3
 10
-129.4999999999996
 20
-157.0
 30
0.0
 11
-129.4999999999996
 21
-195.0
 31
0.0
  0
LINE
  5
3B2
  8
OUTLINE
 62
     3
 10
-129.4999999999996
 20
-157.0
 30
0.0
 11
129.4999999999996
 21
-157.0
 31
0.0
  0
LINE
  5
3B3
  8
OUTLINE
 62
     3
 10
-152.5
 20
157.5
 30
0.0
 11
152.5
 21
157.5
 31
0.0
  0
LINE
  5
3B4
  8
OUTLINE
 62
     3
 10
-157.5
 20
152.5
 30
0.0
 11
-157.5
 21
-152.5
 31
0.0
  0
LINE
  5
3B5
  8
OUTLINE
 62
     3
 10
157.5
 20
152.5
 30
0.0
 11
157.5
 21
-152.5
 31
0.0
  0
LINE
  5
3B6
  8
OUTLINE
 62
     3
 10
-152.5
 20
-157.5
 30
0.0
 11
-129.4999999999996
 21
-157.5
 31
0.0
  0
LINE
  5
3B7
  8
SIZE
  6
BYBLOCK
 62
    30
 10
-134.4999999999996
 20
131.4999999999996
 30
0.0
 11
-323.23457500000001
 21
131.4999999999996
 31
0.0
  0
LINE
  5
3B8
  8
SIZE
  6
BYBLOCK
 62
    30
 10
-134.4999999999996
 20
-157.0
 30
0.0
 11
-323.23457500000001
 21
-157.0
 31
0.0
  0
LINE
  5
3B9
  8
SIZE
  6
BYBLOCK
 62
    30
 10
-293.23457499999989
 20
129.4999999999996
 30
0.0
 11
-293.23457499999989
 21
-155.0
 31
0.0
  0
TEXT
  5
3BA
  8
SIZE
  6
BYBLOCK
 62
    30
 10
-325.23457499999989
 20
-127.95
 30
0.0
 40
64.0
  1
288.5
 50
90.0
 41
0.9
  0
LINE
  5
3BB
  8
SIZE
  6
BYBLOCK
 62
    30
 10
-134.4999999999996
 20
-157.0
 30
0.0
 11
-323.23457500000001
 21
-157.0
 31
0.0
  0
LINE
  5
3BC
  8
SIZE
  6
BYBLOCK
 62
    30
 10
-149.5
 20
-195.0
 30
0.0
 11
-323.23457500000001
 21
-195.0
 31
0.0
  0
LINE
  5
3BD
  8
SIZE
  6
BYBLOCK
 62
    30
 10
-293.23457499999989
 20
-197.0
 30
0.0
 11
-293.23457499999989
 21
-199.0
 31
0.0
  0
LINE
  5
3BE
  8
SIZE
  6
BYBLOCK
 62
    30
 10
-293.23457499999989
 20
-155.0
 30
0.0
 11
-293.23457499999989
 21
-153.0
 31
0.0
  0
LINE
  5
3BF
  8
SIZE
  6
BYBLOCK
 62
    30
 10
-293.23457499999989
 20
-195.0
 30
0.0
 11
-293.23457499999989
 21
-157.0
 31
0.0
  0
TEXT
  5
3C0
  8
SIZE
  6
BYBLOCK
 62
    30
 10
-325.23457499999989
 20
-320.95125000000002
 30
0.0
 40
64.0
  1
38
 50
90.0
 41
0.9
  0
LINE
  5
3C1
  8
SIZE
  6
BYBLOCK
 62
    30
 10
-167.5
 20
157.5
 30
0.0
 11
-323.23457500000001
 21
157.5
 31
0.0
  0
LINE
  5
3C2
  8
SIZE
  6
BYBLOCK
 62
    30
 10
-134.4999999999996
 20
131.4999999999996
 30
0.0
 11
-323.23457500000001
 21
131.4999999999996
 31
0.0
  0
LINE
  5
3C3
  8
SIZE
  6
BYBLOCK
 62
    30
 10
-293.23457499999989
 20
129.4999999999996
 30
0.0
 11
-293.23457499999989
 21
127.5
 31
0.0
  0
LINE
  5
3C4
  8
SIZE
  6
BYBLOCK
 62
    30
 10
-293.23457499999989
 20
159.4999999999996
 30
0.0
 11
-293.23457499999989
 21
161.5
 31
0.0
  0
LINE
  5
3C5
  8
SIZE
  6
BYBLOCK
 62
    30
 10
-293.23457499999989
 20
131.4999999999996
 30
0.0
 11
-293.23457499999989
 21
157.5
 31
0.0
  0
TEXT
  5
3C6
  8
SIZE
  6
BYBLOCK
 62
    30
 10
-325.23457499999989
 20
195.98258299999981
 30
0.0
 40
64.0
  1
26
 50
90.0
 41
0.9
  0
LINE
  5
3C7
  8
SIZE
  6
BYBLOCK
 62
    30
 10
-138.0
 20
-164.0
 30
0.0
 11
-138.0
 21
-538.79819800000007
 31
0.0
  0
LINE
  5
3C8
  8
SIZE
  6
BYBLOCK
 62
    30
 10
138.0
 20
-164.0
 30
0.0
 11
138.0
 21
-538.79819800000007
 31
0.0
  0
LINE
  5
3C9
  8
SIZE
  6
BYBLOCK
 62
    30
 10
-136.0
 20
-508.79819800000013
 30
0.0
 11
0.0
 21
-508.79819800000013
 31
0.0
  0
LINE
  5
3CA
  8
SIZE
  6
BYBLOCK
 62
    30
 10
136.0
 20
-508.79819800000013
 30
0.0
 11
0.0
 21
-508.79819800000013
 31
0.0
  0
TEXT
  5
3CB
  8
SIZE
  6
BYBLOCK
 62
    30
 10
-72.685714000000004
 20
-476.79819800000001
 30
0.0
 40
64.0
  1
276
 41
0.9
  0
LINE
  5
3CC
  8
SIZE
  6
BYBLOCK
 62
    30
 10
129.4999999999996
 20
-215.0
 30
0.0
 11
129.4999999999996
 21
-409.83976499999989
 31
0.0
  0
LINE
  5
3CD
  8
SIZE
  6
BYBLOCK
 62
    30
 10
-129.4999999999996
 20
-215.0
 30
0.0
 11
-129.4999999999996
 21
-409.83976499999989
 31
0.0
  0
LINE
  5
3CE
  8
SIZE
  6
BYBLOCK
 62
    30
 10
127.5
 20
-379.839765
 30
0.0
 11
0.0
 21
-379.839765
 31
0.0
  0
LINE
  5
3CF
  8
SIZE
  6
BYBLOCK
 62
    30
 10
-127.5
 20
-379.839765
 30
0.0
 11
0.0
 21
-379.839765
 31
0.0
  0
TEXT
  5
3D0
  8
SIZE
  6
BYBLOCK
 62
    30
 10
-72.685714000000004
 20
-347.839765
 30
0.0
 40
64.0
  1
259
 41
0.9
  0
LINE
  5
3D1
  8
SIZE
  6
BYBLOCK
 62
    30
 10
167.5
 20
157.5
 30
0.0
 11
523.56768499999987
 21
157.5
 31
0.0
  0
LINE
  5
3D2
  8
SIZE
  6
BYBLOCK
 62
    30
 10
167.5
 20
-157.5
 30
0.0
 11
523.56768499999987
 21
-157.5
 31
0.0
  0
LINE
  5
3D3
  8
SIZE
  6
BYBLOCK
 62
    30
 10
493.56768499999998
 20
155.4999999999996
 30
0.0
 11
493.56768499999998
 21
0.0
 31
0.0
  0
LINE
  5
3D4
  8
SIZE
  6
BYBLOCK
 62
    30
 10
493.56768499999998
 20
-155.4999999999996
 30
0.0
 11
493.56768499999998
 21
0.0
 31
0.0
  0
TEXT
  5
3D5
  8
SIZE
  6
BYBLOCK
 62
    30
 10
461.56768499999981
 20
-68.571429000000009
 30
0.0
 40
64.0
  1
315
 50
90.0
 41
0.9
  0
LINE
  5
3D6
  8
SIZE
  6
BYBLOCK
 62
    30
 10
180.0
 20
140.0
 30
0.0
 11
389.08795400000002
 21
140.0
 31
0.0
  0
LINE
  5
3D7
  8
SIZE
  6
BYBLOCK
 62
    30
 10
180.0
 20
-140.0
 30
0.0
 11
389.08795400000002
 21
-140.0
 31
0.0
  0
LINE
  5
3D8
  8
SIZE
  6
BYBLOCK
 62
    30
 10
359.08795400000002
 20
138.0
 30
0.0
 11
359.08795400000002
 21
0.0
 31
0.0
  0
LINE
  5
3D9
  8
SIZE
  6
BYBLOCK
 62
    30
 10
359.08795400000002
 20
-138.0
 30
0.0
 11
359.08795400000002
 21
0.0
 31
0.0
  0
TEXT
  5
3DA
  8
SIZE
  6
BYBLOCK
 62
    30
 10
327.08795400000002
 20
-74.057143000000025
 30
0.0
 40
64.0
  1
280
 50
90.0
 41
0.9
  0
LINE
  5
3DB
  8
SIZE
  6
BYBLOCK
 62
    30
 10
157.5
 20
167.5
 30
0.0
 11
157.5
 21
427.34753899999993
 31
0.0
  0
LINE
  5
3DC
  8
SIZE
  6
BYBLOCK
 62
    30
 10
-157.5
 20
167.5
 30
0.0
 11
-157.5
 21
427.34753899999993
 31
0.0
  0
LINE
  5
3DD
  8
SIZE
  6
BYBLOCK
 62
    30
 10
155.4999999999996
 20
397.34753899999993
 30
0.0
 11
-155.4999999999996
 21
397.34753899999993
 31
0.0
  0
TEXT
  5
3DE
  8
SIZE
  6
BYBLOCK
 62
    30
 10
-68.571429000000009
 20
429.34753899999998
 30
0.0
 40
64.0
  1
315
 41
0.9
  0
LINE
  5
3DF
  8
SIZE
  6
BYBLOCK
 62
    30
 10
140.0
 20
180.0
 30
0.0
 11
140.0
 21
298.13097699999992
 31
0.0
  0
LINE
  5
3E0
  8
SIZE
  6
BYBLOCK
 62
    30
 10
-140.0
 20
180.0
 30
0.0
 11
-140.0
 21
298.13097699999992
 31
0.0
  0
LINE
  5
3E1
  8
SIZE
  6
BYBLOCK
 62
    30
 10
138.0
 20
268.13097699999992
 30
0.0
 11
-138.0
 21
268.13097699999992
 31
0.0
  0
TEXT
  5
3E2
  8
SIZE
  6
BYBLOCK
 62
    30
 10
-74.057143000000025
 20
300.13097699999992
 30
0.0
 40
64.0
  1
280
 41
0.9
  0
CIRCLE
  5
3E3
  8
SIZE
  6
CONTINUOUS
 62
    30
 10
-140.0
 20
268.13097699999992
 30
0.0
 40
6.0
  0
CIRCLE
  5
3E4
  8
SIZE
  6
CONTINUOUS
 62
    30
 10
140.0
 20
268.13097699999992
 30
0.0
 40
6.0
  0
CIRCLE
  5
3E5
  8
SIZE
  6
CONTINUOUS
 62
    30
 10
-157.5
 20
397.34753899999993
 30
0.0
 40
6.0
  0
CIRCLE
  5
3E6
  8
SIZE
  6
CONTINUOUS
 62
    30
 10
157.5
 20
397.34753899999993
 30
0.0
 40
6.0
  0
CIRCLE
  5
3E7
  8
SIZE
  6
CONTINUOUS
 62
    30
 10
359.08795400000002
 20
-140.0
 30
0.0
 40
6.0
  0
CIRCLE
  5
3E8
  8
SIZE
  6
CONTINUOUS
 62
    30
 10
359.08795400000002
 20
140.0
 30
0.0
 40
6.0
  0
CIRCLE
  5
3E9
  8
SIZE
  6
CONTINUOUS
 62
    30
 10
493.56768499999998
 20
-157.5
 30
0.0
 40
6.0
  0
CIRCLE
  5
3EA
  8
SIZE
  6
CONTINUOUS
 62
    30
 10
493.56768499999998
 20
157.5
 30
0.0
 40
6.0
  0
CIRCLE
  5
3EB
  8
SIZE
  6
CONTINUOUS
 62
    30
 10
-129.4999999999996
 20
-379.839765
 30
0.0
 40
6.0
  0
CIRCLE
  5
3EC
  8
SIZE
  6
CONTINUOUS
 62
    30
 10
129.4999999999996
 20
-379.839765
 30
0.0
 40
6.0
  0
CIRCLE
  5
3ED
  8
SIZE
  6
CONTINUOUS
 62
    30
 10
138.0
 20
-508.79819800000013
 30
0.0
 40
6.0
  0
CIRCLE
  5
3EE
  8
SIZE
  6
CONTINUOUS
 62
    30
 10
-138.0
 20
-508.79819800000013
 30
0.0
 40
6.0
  0
CIRCLE
  5
3EF
  8
SIZE
  6
CONTINUOUS
 62
    30
 10
-293.23457499999989
 20
157.5
 30
0.0
 40
6.0
  0
CIRCLE
  5
3F0
  8
SIZE
  6
CONTINUOUS
 62
    30
 10
-293.23457499999989
 20
131.4999999999996
 30
0.0
 40
6.0
  0
CIRCLE
  5
3F1
  8
SIZE
  6
CONTINUOUS
 62
    30
 10
-293.23457499999989
 20
-157.0
 30
0.0
 40
6.0
  0
CIRCLE
  5
3F2
  8
SIZE
  6
CONTINUOUS
 62
    30
 10
-293.23457499999989
 20
-195.0
 30
0.0
 40
6.0
  0
CIRCLE
  5
3F3
  8
SIZE
  6
CONTINUOUS
 62
    30
 10
-293.23457499999989
 20
-157.0
 30
0.0
 40
6.0
  0
CIRCLE
  5
3F4
  8
SIZE
  6
CONTINUOUS
 62
    30
 10
-293.23457499999989
 20
131.4999999999996
 30
0.0
 40
6.0
  0
LINE
  5
3F5
  8
NOTE
  6
CONTINUOUS
 62
     4
 10
-140.0
 20
-120.0
 30
0.0
 11
-140.0
 21
-160.0
 31
0.0
  0
LINE
  5
3F6
  8
NOTE
  6
CONTINUOUS
 62
     4
 10
-160.0
 20
-140.0
 30
0.0
 11
-120.0
 21
-140.0
 31
0.0
  0
LINE
  5
3F7
  8
NOTE
  6
CONTINUOUS
 62
     4
 10
140.0
 20
-120.0
 30
0.0
 11
140.0
 21
-160.0
 31
0.0
  0
LINE
  5
3F8
  8
NOTE
  6
CONTINUOUS
 62
     4
 10
120.0
 20
-140.0
 30
0.0
 11
160.0
 21
-140.0
 31
0.0
  0
LINE
  5
3F9
  8
NOTE
  6
CONTINUOUS
 62
     4
 10
140.0
 20
120.0
 30
0.0
 11
140.0
 21
160.0
 31
0.0
  0
LINE
  5
3FA
  8
NOTE
  6
CONTINUOUS
 62
     4
 10
120.0
 20
140.0
 30
0.0
 11
160.0
 21
140.0
 31
0.0
  0
LINE
  5
3FB
  8
NOTE
  6
CONTINUOUS
 62
     4
 10
-140.0
 20
120.0
 30
0.0
 11
-140.0
 21
160.0
 31
0.0
  0
LINE
  5
3FC
  8
NOTE
  6
CONTINUOUS
 62
     4
 10
-160.0
 20
140.0
 30
0.0
 11
-120.0
 21
140.0
 31
0.0
  0
TEXT
  5
3FD
  8
ETC
  6
CONTINUOUS
 62
    61
 10
628.58125932141149
 20
322.94924072459088
 30
0.0
 40
50.0
  1
SHW-20SDB-C
 41
0.9
  0
TEXT
  5
3FE
  8
ETC
  6
CONTINUOUS
 62
    61
 10
458.3355559215783
 20
403.64554051180932
 30
0.0
 40
64.0
  1
システム部材
 41
0.9
  0
TEXT
  5
3FF
  8
ETC
  6
CONTINUOUS
 62
    61
 10
467.18404392157851
 20
496.52460551180991
 30
0.0
 40
64.0
  1
SHW-20SDB-C_2
 41
0.9
  0
LINE
  5
400
  8
NOTE
  6
CONTINUOUS
 62
     4
 10
175.51320000000001
 20
158.4068629999999
 30
0.0
 11
140.0
 21
140.0
 31
0.0
  0
LINE
  5
401
  8
NOTE
  6
CONTINUOUS
 62
     4
 10
140.0
 20
140.0
 30
0.0
 11
161.55190200000001
 21
173.69741099999999
 31
0.0
  0
CIRCLE
  5
402
  8
FIX
  6
CONTINUOUS
 62
    11
 10
140.0
 20
140.0
 30
0.0
 40
6.0
  0
CIRCLE
  5
403
  8
FIX
  6
CONTINUOUS
 62
    11
 10
-140.0
 20
-140.0
 30
0.0
 40
6.0
  0
CIRCLE
  5
404
  8
FIX
  6
CONTINUOUS
 62
    11
 10
140.0
 20
-140.0
 30
0.0
 40
6.0
  0
ENDSEC
  0
EOF
