  0
SECTION
  2
HEADER
  9
$ACADVER
  1
AC1009
  9
$INSBASE
 10
0.0
 20
0.0
 30
0.0
  9
$EXTMIN
 10
-557.9833460000001
 20
-529.22667799999999
 30
0.0
  9
$EXTMAX
 10
1107.284821988178
 20
558.67797080149626
 30
0.0
  9
$LIMMIN
 10
-4200.0
 20
-2970.0
  9
$LIMMAX
 10
4200.0
 20
2970.0
  9
$ORTHOMODE
 70
     1
  9
$REGENMODE
 70
     0
  9
$FILLMODE
 70
     1
  9
$QTEXTMODE
 70
     0
  9
$MIRRTEXT
 70
     0
  9
$DRAGMODE
 70
     2
  9
$LTSCALE
 40
20.0
  9
$OSMODE
 70
   161
  9
$ATTMODE
 70
     1
  9
$TEXTSIZE
 40
64.0
  9
$TRACEWID
 40
0.05
  9
$TEXTSTYLE
  7
STANDARD
  9
$CLAYER
  8
0
  9
$CELTYPE
  6
CONTINUOUS
  9
$CECOLOR
 62
     8
  9
$DIMSCALE
 40
1.0
  9
$DIMASZ
 40
2.0
  9
$DIMEXO
 40
20.0
  9
$DIMDLI
 40
200.0
  9
$DIMRND
 40
0.0
  9
$DIMDLE
 40
0.0
  9
$DIMEXE
 40
30.0
  9
$DIMTP
 40
0.0
  9
$DIMTM
 40
0.0
  9
$DIMTXT
 40
64.0
  9
$DIMCEN
 40
0.09
  9
$DIMTSZ
 40
0.0
  9
$DIMTOL
 70
     0
  9
$DIMLIM
 70
     0
  9
$DIMTIH
 70
     0
  9
$DIMTOH
 70
     0
  9
$DIMSE1
 70
     0
  9
$DIMSE2
 70
     0
  9
$DIMTAD
 70
     1
  9
$DIMZIN
 70
     8
  9
$DIMBLK
  1

  9
$DIMASO
 70
     1
  9
$DIMSHO
 70
     0
  9
$DIMPOST
  1

  9
$DIMAPOST
  1

  9
$DIMALT
 70
     0
  9
$DIMALTD
 70
     2
  9
$DIMALTF
 40
25.399999999999999
  9
$DIMLFAC
 40
1.0
  9
$DIMTOFL
 70
     1
  9
$DIMTVP
 40
0.0
  9
$DIMTIX
 70
     1
  9
$DIMSOXD
 70
     0
  9
$DIMSAH
 70
     0
  9
$DIMBLK1
  1

  9
$DIMBLK2
  1

  9
$DIMSTYLE
  2
STANDARD
  9
$DIMCLRD
 70
     0
  9
$DIMCLRE
 70
     0
  9
$DIMCLRT
 70
     0
  9
$DIMTFAC
 40
1.0
  9
$DIMGAP
 40
0.09
  9
$LUNITS
 70
     2
  9
$LUPREC
 70
     4
  9
$SKETCHINC
 40
0.1
  9
$FILLETRAD
 40
70.0
  9
$AUNITS
 70
     1
  9
$AUPREC
 70
     3
  9
$MENU
  1
ACAD
  9
$ELEVATION
 40
0.0
  9
$PELEVATION
 40
0.0
  9
$THICKNESS
 40
0.0
  9
$LIMCHECK
 70
     1
  9
$BLIPMODE
 70
     0
  9
$CHAMFERA
 40
5.0
  9
$CHAMFERB
 40
5.0
  9
$SKPOLY
 70
     0
  9
$TDCREATE
 40
2451837.5135532408
  9
$TDUPDATE
 40
2453475.4290057062
  9
$TDINDWG
 40
0.0173697801
  9
$TDUSRTIMER
 40
0.0173694329
  9
$USRTIMER
 70
     1
  9
$ANGBASE
 50
0.0
  9
$ANGDIR
 70
     0
  9
$PDMODE
 70
     3
  9
$PDSIZE
 40
-2.0
  9
$PLINEWID
 40
0.0
  9
$COORDS
 70
     2
  9
$SPLFRAME
 70
     0
  9
$SPLINETYPE
 70
     6
  9
$SPLINESEGS
 70
     8
  9
$ATTDIA
 70
     0
  9
$ATTREQ
 70
     1
  9
$HANDLING
 70
 22529
  9
$HANDSEED
  5
3AF
  9
$SURFTAB1
 70
     6
  9
$SURFTAB2
 70
     6
  9
$SURFTYPE
 70
     6
  9
$SURFU
 70
     6
  9
$SURFV
 70
     6
  9
$UCSNAME
  2

  9
$UCSORG
 10
0.0
 20
0.0
 30
0.0
  9
$UCSXDIR
 10
1.0
 20
0.0
 30
0.0
  9
$UCSYDIR
 10
0.0
 20
1.0
 30
0.0
  9
$PUCSNAME
  2

  9
$PUCSORG
 10
0.0
 20
0.0
 30
0.0
  9
$PUCSXDIR
 10
1.0
 20
0.0
 30
0.0
  9
$PUCSYDIR
 10
0.0
 20
1.0
 30
0.0
  9
$USERI1
 70
     0
  9
$USERI2
 70
     0
  9
$USERI3
 70
     0
  9
$USERI4
 70
     0
  9
$USERI5
 70
     0
  9
$USERR1
 40
20.0
  9
$USERR2
 40
0.0
  9
$USERR3
 40
0.0
  9
$USERR4
 40
0.0
  9
$USERR5
 40
0.0
  9
$WORLDVIEW
 70
     1
  9
$SHADEDGE
 70
     3
  9
$SHADEDIF
 70
    70
  9
$TILEMODE
 70
     1
  9
$MAXACTVP
 70
    64
  9
$PLIMCHECK
 70
     0
  9
$PEXTMIN
 10
1.0000000000000000E+020
 20
1.0000000000000000E+020
 30
1.0000000000000000E+020
  9
$PEXTMAX
 10
-1.0000000000000000E+020
 20
-1.0000000000000000E+020
 30
-1.0000000000000000E+020
  9
$PLIMMIN
 10
0.0
 20
0.0
  9
$PLIMMAX
 10
12.0
 20
9.0
  9
$UNITMODE
 70
     0
  9
$VISRETAIN
 70
     1
  9
$PLINEGEN
 70
     0
  9
$PSLTSCALE
 70
     1
  0
ENDSEC
  0
SECTION
  2
TABLES
  0
TABLE
  2
VPORT
 70
     3
  0
VPORT
  2
*ACTIVE
 70
     0
 10
0.0
 20
0.0
 11
1.0
 21
1.0
 12
67.077200971481261
 22
-54.378257702244348
 13
0.0
 23
0.0
 14
400.0
 24
400.0
 15
400.0
 25
400.0
 16
0.0
 26
0.0
 36
1.0
 17
0.0
 27
0.0
 37
0.0
 40
1585.1529177265591
 41
1.4423558897243101
 42
50.0
 43
0.0
 44
0.0
 50
0.0
 51
0.0
 71
     0
 72
   500
 73
     1
 74
     0
 75
     0
 76
     0
 77
     0
 78
     0
  0
ENDTAB
  0
TABLE
  2
LTYPE
 70
     7
  0
LTYPE
  2
CONTINUOUS
 70
     0
  3
実線
 72
    65
 73
     0
 40
0.0
  0
LTYPE
  2
DOT
 70
     0
  3
...............................................
 72
    65
 73
     2
 40
0.8
 49
0.5
 49
-0.3
  0
LTYPE
  2
DASHED
 70
     0
  3
_ _ _ _ _ _ _ _ _ _ _ _ _ _ _ _ _ _ _ _ _ _ _
 72
    65
 73
     2
 40
2.0
 49
1.1999999999999991
 49
-0.8
  0
LTYPE
  2
DASHDOT
 70
     0
  3
____ _ ____ _ ____ _ ____ _ ____ _ ____ _ ____
 72
    65
 73
     4
 40
5.5
 49
4.0
 49
-0.6
 49
0.3
 49
-0.6
  0
LTYPE
  2
DASHDOT1
 70
     0
  3
____ _ ____ _ ____ _ ____ _ ____ _ ____ _ ____
 72
    65
 73
     4
 40
2.0
 49
1.5
 49
-0.2
 49
0.1
 49
-0.2
  0
LTYPE
  2
DIVIDE
 70
     0
  3
_____ _ _ _____ _ _ _____ _ _ _____ _ _ ____
 72
    65
 73
     6
 40
6.4000000000000004
 49
4.0
 49
-0.6
 49
0.3
 49
-0.6
 49
0.3
 49
-0.6
  0
LTYPE
  2
DIVIDE1
 70
     0
  3
_____ _ _ _____ _ _ _____ _ _ _____ _ _ ____
 72
    65
 73
     6
 40
3.2000000000000002
 49
2.0
 49
-0.3
 49
0.15
 49
-0.3
 49
0.15
 49
-0.3
  0
ENDTAB
  0
TABLE
  2
LAYER
 70
    12
  0
LAYER
  2
0
 70
     0
 62
     7
  6
CONTINUOUS
  0
LAYER
  2
OUTLINE
 70
     0
 62
     3
  6
CONTINUOUS
  0
LAYER
  2
DETAIL
 70
     0
 62
     5
  6
CONTINUOUS
  0
LAYER
  2
BASIS
 70
     0
 62
     6
  6
DASHDOT
  0
LAYER
  2
SIZE
 70
     0
 62
    30
  6
CONTINUOUS
  0
LAYER
  2
NOTE
 70
     0
 62
     4
  6
CONTINUOUS
  0
LAYER
  2
ARRANGE
 70
     0
 62
     1
  6
CONTINUOUS
  0
LAYER
  2
FIX
 70
     0
 62
    11
  6
CONTINUOUS
  0
LAYER
  2
ETC
 70
     0
 62
    61
  6
CONTINUOUS
  0
LAYER
  2
DEFPOINTS
 70
     0
 62
     7
  6
CONTINUOUS
  0
LAYER
  2
SERVICESPACE
 70
     0
 62
     2
  6
DASHDOT
  0
LAYER
  2
SYMBOLLINE
 70
     0
 62
    15
  6
CONTINUOUS
  0
ENDTAB
  0
TABLE
  2
STYLE
 70
     1
  0
STYLE
  2
STANDARD
 70
     0
 40
0.0
 41
0.9
 50
0.0
 71
     0
 42
64.0
  3
SIMPLEX
  4
BIGFONT
  0
ENDTAB
  0
TABLE
  2
VIEW
 70
     1
  0
VIEW
  2
ALL
 70
     0
 40
6374.9789810000002
 10
0.0
 20
58.11501599999999
 41
8842.1052629999976
 11
0.0
 21
0.0
 31
1.0
 12
0.0
 22
0.0
 32
0.0
 42
50.0
 43
0.0
 44
0.0
 50
0.0
 71
     0
  0
ENDTAB
  0
TABLE
  2
UCS
 70
     0
  0
ENDTAB
  0
TABLE
  2
APPID
 70
     1
  0
APPID
  2
ACAD
 70
     0
  0
ENDTAB
  0
TABLE
  2
DIMSTYLE
 70
     1
  0
DIMSTYLE
  2
STANDARD
 70
     0
  3

  4

  5

  6

  7

 40
1.0
 41
0.18
 42
0.0625
 43
0.38
 44
0.18
 45
0.0
 46
0.0
 47
0.0
 48
0.0
140
0.18
141
0.09
142
0.0
143
25.399999999999999
144
1.0
145
0.0
146
1.0
147
0.09
 71
     0
 72
     0
 73
     1
 74
     1
 75
     0
 76
     0
 77
     0
 78
     0
170
     0
171
     2
172
     0
173
     0
174
     0
175
     0
176
     0
177
     0
178
     0
  0
ENDTAB
  0
ENDSEC
  0
SECTION
  2
BLOCKS
  0
BLOCK
  8
0
  2
$MODEL_SPACE
 70
     0
 10
0.0
 20
0.0
 30
0.0
  3
$MODEL_SPACE
  1

  0
ENDBLK
  5
2F4
  8
0
  0
BLOCK
 67
     1
  8
0
  2
$PAPER_SPACE
 70
     0
 10
0.0
 20
0.0
 30
0.0
  3
$PAPER_SPACE
  1

  0
ENDBLK
  5
2F0
 67
     1
  8
0
  0
ENDSEC
  0
SECTION
  2
ENTITIES
  0
LINE
  5
312
  8
DETAIL
  6
CONTINUOUS
 62
     5
 10
0.0
 20
157.5
 30
0.0
 11
0.0
 21
-157.5
 31
0.0
  0
LINE
  5
313
  8
BASIS
  6
DASHDOT
 62
     6
 10
85.821054000000004
 20
0.0
 30
0.0
 11
-305.45102599999962
 21
0.0
 31
0.0
  0
POINT
  5
314
  8
ARRANGE
  6
CONTINUOUS
 62
     1
 10
0.0
 20
0.0
 30
0.0
  0
CIRCLE
  5
315
  8
ARRANGE
  6
CONTINUOUS
 62
     1
 10
0.0
 20
0.0
 30
0.0
 40
40.0
  0
LINE
  5
316
  8
DETAIL
  6
CONTINUOUS
 62
     5
 10
-96.0
 20
-195.0
 30
0.0
 11
-276.0
 21
-195.0
 31
0.0
  0
LINE
  5
317
  8
DETAIL
  6
CONTINUOUS
 62
     5
 10
-276.0
 20
-157.0
 30
0.0
 11
-276.0
 21
-195.0
 31
0.0
  0
LINE
  5
318
  8
DETAIL
  6
CONTINUOUS
 62
     5
 10
-76.0
 20
-157.0
 30
0.0
 11
-276.0
 21
-157.0
 31
0.0
  0
LINE
  5
319
  8
DETAIL
  6
CONTINUOUS
 62
     5
 10
-96.0
 20
-157.0
 30
0.0
 11
-96.0
 21
-195.0
 31
0.0
  0
LINE
  5
31A
  8
DETAIL
  6
CONTINUOUS
 62
     5
 10
0.0
 20
-131.4999999999996
 30
0.0
 11
-46.0
 21
-141.5
 31
0.0
  0
LINE
  5
31B
  8
DETAIL
  6
CONTINUOUS
 62
     5
 10
-46.0
 20
-141.5
 30
0.0
 11
-76.0
 21
-157.0
 31
0.0
  0
LINE
  5
31C
  8
DETAIL
  6
CONTINUOUS
 62
     5
 10
-275.88464399999992
 20
-143.84265600000001
 30
0.0
 11
-198.40270599999999
 21
76.590896999999998
 31
0.0
  0
LINE
  5
31D
  8
DETAIL
  6
CONTINUOUS
 62
     5
 10
-266.39616799999982
 20
-157.0
 30
0.0
 11
-235.145658
 21
-157.0
 31
0.0
  0
ARC
  5
31E
  8
DETAIL
  6
CONTINUOUS
 62
     5
 10
-266.39616799999982
 20
-147.0
 30
0.0
 40
10.0
 50
161.59484599999999
 51
270.0
  0
CIRCLE
  5
31F
  8
FIX
  6
CONTINUOUS
 62
    11
 10
0.0
 20
140.0
 30
0.0
 40
6.0
  0
CIRCLE
  5
320
  8
FIX
  6
CONTINUOUS
 62
    11
 10
0.0
 20
-140.0
 30
0.0
 40
6.0
  0
TEXT
  5
321
  8
NOTE
  6
CONTINUOUS
 62
     4
 10
77.145684000000003
 20
262.87129900000002
 30
0.0
 40
64.0
  1
4-φ10
 41
0.9
  0
LINE
  5
322
  8
NOTE
  6
CONTINUOUS
 62
     4
 10
70.018858999999992
 20
238.19125699999989
 30
0.0
 11
359.56616000000002
 21
238.19125699999989
 31
0.0
  0
LINE
  5
323
  8
SIZE
  6
CONTINUOUS
 62
    30
 10
-461.98334599999993
 20
-197.0
 30
0.0
 11
-461.98334599999993
 21
-335.78894400000001
 31
0.0
  0
LINE
  5
324
  8
SIZE
  6
CONTINUOUS
 62
    30
 10
-461.98334599999993
 20
157.5
 30
0.0
 11
-461.98334599999993
 21
298.34946300000001
 31
0.0
  0
LINE
  5
325
  8
NOTE
  6
CONTINUOUS
 62
     4
 10
0.0
 20
140.0
 30
0.0
 11
70.018858999999992
 21
238.19125699999989
 31
0.0
  0
LINE
  5
326
  8
DETAIL
  6
CONTINUOUS
 62
     5
 10
0.0
 20
131.4999999999996
 30
0.0
 11
-136.5835339999997
 21
123.2509419999999
 31
0.0
  0
ARC
  5
327
  8
DETAIL
  6
CONTINUOUS
 62
     5
 10
-132.36352400000001
 20
53.378261000000002
 30
0.0
 40
70.0
 50
93.456219999999959
 51
160.633531
  0
ARC
  5
328
  8
OUTLINE
  6
CONTINUOUS
 62
     3
 10
-132.36352400000001
 20
53.378261000000002
 30
0.0
 40
70.0
 50
93.456219999999959
 51
160.633531
  0
LINE
  5
329
  8
OUTLINE
  6
CONTINUOUS
 62
     3
 10
0.0
 20
131.4999999999996
 30
0.0
 11
-136.5835339999997
 21
123.2509419999999
 31
0.0
  0
ARC
  5
32A
  8
OUTLINE
  6
CONTINUOUS
 62
     3
 10
-266.39616799999982
 20
-147.0
 30
0.0
 40
10.0
 50
161.59484599999999
 51
270.0
  0
LINE
  5
32B
  8
OUTLINE
  6
CONTINUOUS
 62
     3
 10
-266.39616799999982
 20
-157.0
 30
0.0
 11
-235.145658
 21
-157.0
 31
0.0
  0
LINE
  5
32C
  8
OUTLINE
  6
CONTINUOUS
 62
     3
 10
-275.88464399999992
 20
-143.84265600000001
 30
0.0
 11
-198.40270599999999
 21
76.590896999999998
 31
0.0
  0
LINE
  5
32D
  8
OUTLINE
  6
CONTINUOUS
 62
     3
 10
-46.0
 20
-141.5
 30
0.0
 11
-76.0
 21
-157.0
 31
0.0
  0
LINE
  5
32E
  8
OUTLINE
  6
CONTINUOUS
 62
     3
 10
0.0
 20
-131.4999999999996
 30
0.0
 11
-46.0
 21
-141.5
 31
0.0
  0
LINE
  5
32F
  8
OUTLINE
  6
CONTINUOUS
 62
     3
 10
-96.0
 20
-157.0
 30
0.0
 11
-96.0
 21
-195.0
 31
0.0
  0
LINE
  5
330
  8
OUTLINE
  6
CONTINUOUS
 62
     3
 10
-76.0
 20
-157.0
 30
0.0
 11
-276.0
 21
-157.0
 31
0.0
  0
LINE
  5
331
  8
OUTLINE
  6
CONTINUOUS
 62
     3
 10
-276.0
 20
-157.0
 30
0.0
 11
-276.0
 21
-195.0
 31
0.0
  0
LINE
  5
332
  8
OUTLINE
  6
CONTINUOUS
 62
     3
 10
-96.0
 20
-195.0
 30
0.0
 11
-276.0
 21
-195.0
 31
0.0
  0
LINE
  5
333
  8
OUTLINE
  6
CONTINUOUS
 62
     3
 10
0.0
 20
157.5
 30
0.0
 11
0.0
 21
-157.5
 31
0.0
  0
LINE
  5
334
  8
SIZE
  6
BYBLOCK
 62
    30
 10
-20.0
 20
131.4999999999996
 30
0.0
 11
-491.98334599999993
 21
131.4999999999996
 31
0.0
  0
LINE
  5
335
  8
SIZE
  6
BYBLOCK
 62
    30
 10
-296.0
 20
-157.0
 30
0.0
 11
-491.98334599999993
 21
-157.0
 31
0.0
  0
LINE
  5
336
  8
SIZE
  6
BYBLOCK
 62
    30
 10
-461.98334599999993
 20
129.4999999999996
 30
0.0
 11
-461.98334599999993
 21
-155.0
 31
0.0
  0
TEXT
  5
337
  8
SIZE
  6
BYBLOCK
 62
    30
 10
-493.98334599999998
 20
-127.95
 30
0.0
 40
64.0
  1
288.5
 50
90.0
 41
0.9
  0
LINE
  5
338
  8
SIZE
  6
BYBLOCK
 62
    30
 10
-20.0
 20
157.5
 30
0.0
 11
-491.98334599999993
 21
157.5
 31
0.0
  0
LINE
  5
339
  8
SIZE
  6
BYBLOCK
 62
    30
 10
-20.0
 20
131.4999999999996
 30
0.0
 11
-491.98334599999993
 21
131.4999999999996
 31
0.0
  0
LINE
  5
33A
  8
SIZE
  6
BYBLOCK
 62
    30
 10
-461.98334599999993
 20
129.4999999999996
 30
0.0
 11
-461.98334599999993
 21
127.5
 31
0.0
  0
LINE
  5
33B
  8
SIZE
  6
BYBLOCK
 62
    30
 10
-461.98334599999993
 20
159.4999999999996
 30
0.0
 11
-461.98334599999993
 21
161.5
 31
0.0
  0
LINE
  5
33C
  8
SIZE
  6
BYBLOCK
 62
    30
 10
-461.98334599999993
 20
131.4999999999996
 30
0.0
 11
-461.98334599999993
 21
157.5
 31
0.0
  0
TEXT
  5
33D
  8
SIZE
  6
BYBLOCK
 62
    30
 10
-493.98334599999998
 20
187.14550199999991
 30
0.0
 40
64.0
  1
26
 50
90.0
 41
0.9
  0
LINE
  5
33E
  8
SIZE
  6
BYBLOCK
 62
    30
 10
-296.0
 20
-157.0
 30
0.0
 11
-491.98334599999993
 21
-157.0
 31
0.0
  0
LINE
  5
33F
  8
SIZE
  6
BYBLOCK
 62
    30
 10
-296.0
 20
-195.0
 30
0.0
 11
-491.98334599999993
 21
-195.0
 31
0.0
  0
LINE
  5
340
  8
SIZE
  6
BYBLOCK
 62
    30
 10
-461.98334599999993
 20
-197.0
 30
0.0
 11
-461.98334599999993
 21
-199.0
 31
0.0
  0
LINE
  5
341
  8
SIZE
  6
BYBLOCK
 62
    30
 10
-461.98334599999993
 20
-155.0
 30
0.0
 11
-461.98334599999993
 21
-153.0
 31
0.0
  0
LINE
  5
342
  8
SIZE
  6
BYBLOCK
 62
    30
 10
-461.98334599999993
 20
-195.0
 30
0.0
 11
-461.98334599999993
 21
-157.0
 31
0.0
  0
TEXT
  5
343
  8
SIZE
  6
BYBLOCK
 62
    30
 10
-493.98334599999998
 20
-321.06481600000001
 30
0.0
 40
64.0
  1
38
 50
90.0
 41
0.9
  0
LINE
  5
344
  8
SIZE
  6
BYBLOCK
 62
    30
 10
20.0
 20
157.5
 30
0.0
 11
387.60416700000002
 21
157.5
 31
0.0
  0
LINE
  5
345
  8
SIZE
  6
BYBLOCK
 62
    30
 10
20.0
 20
-157.5
 30
0.0
 11
387.60416700000002
 21
-157.5
 31
0.0
  0
LINE
  5
346
  8
SIZE
  6
BYBLOCK
 62
    30
 10
357.60416700000002
 20
155.4999999999996
 30
0.0
 11
357.60416700000002
 21
0.0
 31
0.0
  0
LINE
  5
347
  8
SIZE
  6
BYBLOCK
 62
    30
 10
357.60416700000002
 20
-155.4999999999996
 30
0.0
 11
357.60416700000002
 21
0.0
 31
0.0
  0
TEXT
  5
348
  8
SIZE
  6
BYBLOCK
 62
    30
 10
325.60416700000002
 20
-68.571429000000009
 30
0.0
 40
64.0
  1
315
 50
90.0
 41
0.9
  0
LINE
  5
349
  8
SIZE
  6
BYBLOCK
 62
    30
 10
40.0
 20
140.0
 30
0.0
 11
258.31133499999999
 21
140.0
 31
0.0
  0
LINE
  5
34A
  8
SIZE
  6
BYBLOCK
 62
    30
 10
40.0
 20
-140.0
 30
0.0
 11
258.31133499999999
 21
-140.0
 31
0.0
  0
LINE
  5
34B
  8
SIZE
  6
BYBLOCK
 62
    30
 10
228.31133500000001
 20
138.0
 30
0.0
 11
228.31133500000001
 21
-138.0
 31
0.0
  0
TEXT
  5
34C
  8
SIZE
  6
BYBLOCK
 62
    30
 10
196.31133500000001
 20
-74.057143000000025
 30
0.0
 40
64.0
  1
280
 50
90.0
 41
0.9
  0
LINE
  5
34D
  8
SIZE
  6
BYBLOCK
 62
    30
 10
0.0
 20
-177.5
 30
0.0
 11
0.0
 21
-529.22667799999999
 31
0.0
  0
LINE
  5
34E
  8
SIZE
  6
BYBLOCK
 62
    30
 10
-276.0
 20
-215.0
 30
0.0
 11
-276.0
 21
-529.22667799999999
 31
0.0
  0
LINE
  5
34F
  8
SIZE
  6
BYBLOCK
 62
    30
 10
-2.0
 20
-499.22667799999999
 30
0.0
 11
-138.0
 21
-499.22667799999999
 31
0.0
  0
LINE
  5
350
  8
SIZE
  6
BYBLOCK
 62
    30
 10
-274.0
 20
-499.22667799999999
 30
0.0
 11
-138.0
 21
-499.22667799999999
 31
0.0
  0
TEXT
  5
351
  8
SIZE
  6
BYBLOCK
 62
    30
 10
-210.6857139999999
 20
-467.22667799999999
 30
0.0
 40
64.0
  1
276
 41
0.9
  0
LINE
  5
352
  8
SIZE
  6
BYBLOCK
 62
    30
 10
-96.0
 20
-215.0
 30
0.0
 11
-96.0
 21
-376.68479300000001
 31
0.0
  0
LINE
  5
353
  8
SIZE
  6
BYBLOCK
 62
    30
 10
-276.0
 20
-215.0
 30
0.0
 11
-276.0
 21
-376.68479300000001
 31
0.0
  0
LINE
  5
354
  8
SIZE
  6
BYBLOCK
 62
    30
 10
-98.0
 20
-346.68479300000001
 30
0.0
 11
-186.0
 21
-346.68479300000001
 31
0.0
  0
LINE
  5
355
  8
SIZE
  6
BYBLOCK
 62
    30
 10
-274.0
 20
-346.68479300000001
 30
0.0
 11
-186.0
 21
-346.68479300000001
 31
0.0
  0
TEXT
  5
356
  8
SIZE
  6
BYBLOCK
 62
    30
 10
-254.5714289999998
 20
-314.68479300000001
 30
0.0
 40
64.0
  1
180
 41
0.9
  0
CIRCLE
  5
357
  8
SIZE
  6
CONTINUOUS
 62
    30
 10
-276.0
 20
-346.68479300000001
 30
0.0
 40
6.0
  0
CIRCLE
  5
358
  8
SIZE
  6
CONTINUOUS
 62
    30
 10
-96.0
 20
-346.68479300000001
 30
0.0
 40
6.0
  0
CIRCLE
  5
359
  8
SIZE
  6
CONTINUOUS
 62
    30
 10
-276.0
 20
-499.22667799999999
 30
0.0
 40
6.0
  0
CIRCLE
  5
35A
  8
SIZE
  6
CONTINUOUS
 62
    30
 10
0.0
 20
-499.22667799999999
 30
0.0
 40
6.0
  0
CIRCLE
  5
35B
  8
SIZE
  6
CONTINUOUS
 62
    30
 10
228.31133500000001
 20
-140.0
 30
0.0
 40
6.0
  0
CIRCLE
  5
35C
  8
SIZE
  6
CONTINUOUS
 62
    30
 10
228.31133500000001
 20
140.0
 30
0.0
 40
6.0
  0
CIRCLE
  5
35D
  8
SIZE
  6
CONTINUOUS
 62
    30
 10
357.60416700000002
 20
-157.5
 30
0.0
 40
6.0
  0
CIRCLE
  5
35E
  8
SIZE
  6
CONTINUOUS
 62
    30
 10
357.60416700000002
 20
157.5
 30
0.0
 40
6.0
  0
CIRCLE
  5
35F
  8
SIZE
  6
CONTINUOUS
 62
    30
 10
-461.98334599999993
 20
-157.0
 30
0.0
 40
6.0
  0
CIRCLE
  5
360
  8
SIZE
  6
CONTINUOUS
 62
    30
 10
-461.98334599999993
 20
-195.0
 30
0.0
 40
6.0
  0
CIRCLE
  5
361
  8
SIZE
  6
CONTINUOUS
 62
    30
 10
-461.98334599999993
 20
157.5
 30
0.0
 40
6.0
  0
CIRCLE
  5
362
  8
SIZE
  6
CONTINUOUS
 62
    30
 10
-461.98334599999993
 20
131.4999999999996
 30
0.0
 40
6.0
  0
CIRCLE
  5
363
  8
SIZE
  6
CONTINUOUS
 62
    30
 10
-461.98334599999993
 20
-157.0
 30
0.0
 40
6.0
  0
CIRCLE
  5
364
  8
SIZE
  6
CONTINUOUS
 62
    30
 10
-461.98334599999993
 20
131.4999999999996
 30
0.0
 40
6.0
  0
LINE
  5
365
  8
NOTE
  6
CONTINUOUS
 62
     4
 10
0.0
 20
-120.0
 30
0.0
 11
0.0
 21
-160.0
 31
0.0
  0
LINE
  5
366
  8
NOTE
  6
CONTINUOUS
 62
     4
 10
20.0
 20
-140.0
 30
0.0
 11
-20.0
 21
-140.0
 31
0.0
  0
LINE
  5
367
  8
NOTE
  6
CONTINUOUS
 62
     4
 10
0.0
 20
120.0
 30
0.0
 11
0.0
 21
160.0
 31
0.0
  0
LINE
  5
368
  8
NOTE
  6
CONTINUOUS
 62
     4
 10
20.0
 20
140.0
 30
0.0
 11
-20.0
 21
140.0
 31
0.0
  0
TEXT
  5
369
  8
ETC
  6
CONTINUOUS
 62
    61
 10
500.68203738801202
 20
321.10260601427677
 30
0.0
 40
50.0
  1
SHW-20SDB-C
 41
0.9
  0
TEXT
  5
36A
  8
ETC
  6
CONTINUOUS
 62
    61
 10
330.43633398817877
 20
401.79890580149561
 30
0.0
 40
64.0
  1
システム部材
 41
0.9
  0
TEXT
  5
36B
  8
ETC
  6
CONTINUOUS
 62
    61
 10
339.28482198817881
 20
494.6779708014958
 30
0.0
 40
64.0
  1
SHW-20SDB-C_4
 41
0.9
  0
LINE
  5
36C
  8
NOTE
  6
CONTINUOUS
 62
     4
 10
31.471865000000001
 20
164.68849399999991
 30
0.0
 11
0.0
 21
140.0
 31
0.0
  0
LINE
  5
36D
  8
NOTE
  6
CONTINUOUS
 62
     4
 10
0.0
 20
140.0
 30
0.0
 11
14.911187
 21
177.11679499999991
 31
0.0
  0
ENDSEC
  0
EOF
