  0
SECTION
  2
HEADER
  9
$ACADVER
  1
AC1009
  9
$INSBASE
 10
0.0
 20
0.0
 30
0.0
  9
$EXTMIN
 10
-382.24749100000002
 20
-493.64568399999979
 30
0.0
  9
$EXTMAX
 10
1199.487060516054
 20
449.01502192534372
 30
0.0
  9
$LIMMIN
 10
-4200.0
 20
-2970.0
  9
$LIMMAX
 10
4200.0
 20
2970.0
  9
$ORTHOMODE
 70
     1
  9
$REGENMODE
 70
     0
  9
$FILLMODE
 70
     1
  9
$QTEXTMODE
 70
     0
  9
$MIRRTEXT
 70
     0
  9
$DRAGMODE
 70
     2
  9
$LTSCALE
 40
20.0
  9
$OSMODE
 70
   161
  9
$ATTMODE
 70
     1
  9
$TEXTSIZE
 40
64.0
  9
$TRACEWID
 40
0.05
  9
$TEXTSTYLE
  7
STANDARD
  9
$CLAYER
  8
0
  9
$CELTYPE
  6
CONTINUOUS
  9
$CECOLOR
 62
     8
  9
$DIMSCALE
 40
1.0
  9
$DIMASZ
 40
2.0
  9
$DIMEXO
 40
20.0
  9
$DIMDLI
 40
200.0
  9
$DIMRND
 40
0.0
  9
$DIMDLE
 40
0.0
  9
$DIMEXE
 40
30.0
  9
$DIMTP
 40
0.0
  9
$DIMTM
 40
0.0
  9
$DIMTXT
 40
64.0
  9
$DIMCEN
 40
0.09
  9
$DIMTSZ
 40
0.0
  9
$DIMTOL
 70
     0
  9
$DIMLIM
 70
     0
  9
$DIMTIH
 70
     0
  9
$DIMTOH
 70
     0
  9
$DIMSE1
 70
     0
  9
$DIMSE2
 70
     0
  9
$DIMTAD
 70
     1
  9
$DIMZIN
 70
     8
  9
$DIMBLK
  1

  9
$DIMASO
 70
     1
  9
$DIMSHO
 70
     0
  9
$DIMPOST
  1

  9
$DIMAPOST
  1

  9
$DIMALT
 70
     0
  9
$DIMALTD
 70
     2
  9
$DIMALTF
 40
25.399999999999999
  9
$DIMLFAC
 40
1.0
  9
$DIMTOFL
 70
     1
  9
$DIMTVP
 40
0.0
  9
$DIMTIX
 70
     1
  9
$DIMSOXD
 70
     0
  9
$DIMSAH
 70
     0
  9
$DIMBLK1
  1

  9
$DIMBLK2
  1

  9
$DIMSTYLE
  2
STANDARD
  9
$DIMCLRD
 70
     0
  9
$DIMCLRE
 70
     0
  9
$DIMCLRT
 70
     0
  9
$DIMTFAC
 40
1.0
  9
$DIMGAP
 40
0.09
  9
$LUNITS
 70
     2
  9
$LUPREC
 70
     4
  9
$SKETCHINC
 40
0.1
  9
$FILLETRAD
 40
13.0
  9
$AUNITS
 70
     1
  9
$AUPREC
 70
     3
  9
$MENU
  1
ACAD
  9
$ELEVATION
 40
0.0
  9
$PELEVATION
 40
0.0
  9
$THICKNESS
 40
0.0
  9
$LIMCHECK
 70
     1
  9
$BLIPMODE
 70
     0
  9
$CHAMFERA
 40
5.0
  9
$CHAMFERB
 40
5.0
  9
$SKPOLY
 70
     0
  9
$TDCREATE
 40
2451837.5142129632
  9
$TDUPDATE
 40
2453475.4325437611
  9
$TDINDWG
 40
0.0542173032
  9
$TDUSRTIMER
 40
0.0542158565
  9
$USRTIMER
 70
     1
  9
$ANGBASE
 50
0.0
  9
$ANGDIR
 70
     0
  9
$PDMODE
 70
     3
  9
$PDSIZE
 40
-2.0
  9
$PLINEWID
 40
0.0
  9
$COORDS
 70
     2
  9
$SPLFRAME
 70
     0
  9
$SPLINETYPE
 70
     6
  9
$SPLINESEGS
 70
     8
  9
$ATTDIA
 70
     0
  9
$ATTREQ
 70
     1
  9
$HANDLING
 70
 22529
  9
$HANDSEED
  5
462
  9
$SURFTAB1
 70
     6
  9
$SURFTAB2
 70
     6
  9
$SURFTYPE
 70
     6
  9
$SURFU
 70
     6
  9
$SURFV
 70
     6
  9
$UCSNAME
  2

  9
$UCSORG
 10
0.0
 20
0.0
 30
0.0
  9
$UCSXDIR
 10
1.0
 20
0.0
 30
0.0
  9
$UCSYDIR
 10
0.0
 20
1.0
 30
0.0
  9
$PUCSNAME
  2

  9
$PUCSORG
 10
0.0
 20
0.0
 30
0.0
  9
$PUCSXDIR
 10
1.0
 20
0.0
 30
0.0
  9
$PUCSYDIR
 10
0.0
 20
1.0
 30
0.0
  9
$USERI1
 70
     0
  9
$USERI2
 70
     0
  9
$USERI3
 70
     0
  9
$USERI4
 70
     0
  9
$USERI5
 70
     0
  9
$USERR1
 40
20.0
  9
$USERR2
 40
0.0
  9
$USERR3
 40
0.0
  9
$USERR4
 40
0.0
  9
$USERR5
 40
0.0
  9
$WORLDVIEW
 70
     1
  9
$SHADEDGE
 70
     3
  9
$SHADEDIF
 70
    70
  9
$TILEMODE
 70
     1
  9
$MAXACTVP
 70
    64
  9
$PLIMCHECK
 70
     0
  9
$PEXTMIN
 10
1.0000000000000000E+020
 20
1.0000000000000000E+020
 30
1.0000000000000000E+020
  9
$PEXTMAX
 10
-1.0000000000000000E+020
 20
-1.0000000000000000E+020
 30
-1.0000000000000000E+020
  9
$PLIMMIN
 10
0.0
 20
0.0
  9
$PLIMMAX
 10
12.0
 20
9.0
  9
$UNITMODE
 70
     0
  9
$VISRETAIN
 70
     1
  9
$PLINEGEN
 70
     0
  9
$PSLTSCALE
 70
     1
  0
ENDSEC
  0
SECTION
  2
TABLES
  0
TABLE
  2
VPORT
 70
     3
  0
VPORT
  2
*ACTIVE
 70
     0
 10
0.0
 20
0.0
 11
1.0
 21
1.0
 12
148.7690555182277
 22
-96.166039448282504
 13
0.0
 23
0.0
 14
400.0
 24
400.0
 15
400.0
 25
400.0
 16
0.0
 26
0.0
 36
1.0
 17
0.0
 27
0.0
 37
0.0
 40
1556.6803273745979
 41
1.4423558897243101
 42
50.0
 43
0.0
 44
0.0
 50
0.0
 51
0.0
 71
     0
 72
   500
 73
     1
 74
     0
 75
     0
 76
     0
 77
     0
 78
     0
  0
ENDTAB
  0
TABLE
  2
LTYPE
 70
     7
  0
LTYPE
  2
CONTINUOUS
 70
     0
  3
実線
 72
    65
 73
     0
 40
0.0
  0
LTYPE
  2
DOT
 70
     0
  3
...............................................
 72
    65
 73
     2
 40
0.8
 49
0.5
 49
-0.3
  0
LTYPE
  2
DASHED
 70
     0
  3
_ _ _ _ _ _ _ _ _ _ _ _ _ _ _ _ _ _ _ _ _ _ _
 72
    65
 73
     2
 40
2.0
 49
1.1999999999999991
 49
-0.8
  0
LTYPE
  2
DASHDOT
 70
     0
  3
____ _ ____ _ ____ _ ____ _ ____ _ ____ _ ____
 72
    65
 73
     4
 40
5.5
 49
4.0
 49
-0.6
 49
0.3
 49
-0.6
  0
LTYPE
  2
DASHDOT1
 70
     0
  3
____ _ ____ _ ____ _ ____ _ ____ _ ____ _ ____
 72
    65
 73
     4
 40
2.0
 49
1.5
 49
-0.2
 49
0.1
 49
-0.2
  0
LTYPE
  2
DIVIDE
 70
     0
  3
_____ _ _ _____ _ _ _____ _ _ _____ _ _ ____
 72
    65
 73
     6
 40
6.4000000000000004
 49
4.0
 49
-0.6
 49
0.3
 49
-0.6
 49
0.3
 49
-0.6
  0
LTYPE
  2
DIVIDE1
 70
     0
  3
_____ _ _ _____ _ _ _____ _ _ _____ _ _ ____
 72
    65
 73
     6
 40
3.2000000000000002
 49
2.0
 49
-0.3
 49
0.15
 49
-0.3
 49
0.15
 49
-0.3
  0
ENDTAB
  0
TABLE
  2
LAYER
 70
    12
  0
LAYER
  2
0
 70
     0
 62
     7
  6
CONTINUOUS
  0
LAYER
  2
OUTLINE
 70
     0
 62
     3
  6
CONTINUOUS
  0
LAYER
  2
DETAIL
 70
     0
 62
     5
  6
CONTINUOUS
  0
LAYER
  2
BASIS
 70
     0
 62
     6
  6
DASHDOT
  0
LAYER
  2
SIZE
 70
     0
 62
    30
  6
CONTINUOUS
  0
LAYER
  2
NOTE
 70
     0
 62
     4
  6
CONTINUOUS
  0
LAYER
  2
ARRANGE
 70
     0
 62
     1
  6
CONTINUOUS
  0
LAYER
  2
FIX
 70
     0
 62
    11
  6
CONTINUOUS
  0
LAYER
  2
ETC
 70
     0
 62
    61
  6
CONTINUOUS
  0
LAYER
  2
DEFPOINTS
 70
     0
 62
     7
  6
CONTINUOUS
  0
LAYER
  2
SERVICESPACE
 70
     0
 62
     2
  6
DASHDOT
  0
LAYER
  2
SYMBOLLINE
 70
     0
 62
    15
  6
CONTINUOUS
  0
ENDTAB
  0
TABLE
  2
STYLE
 70
     1
  0
STYLE
  2
STANDARD
 70
     0
 40
0.0
 41
0.9
 50
0.0
 71
     0
 42
64.0
  3
SIMPLEX
  4
BIGFONT
  0
ENDTAB
  0
TABLE
  2
VIEW
 70
     1
  0
VIEW
  2
ALL
 70
     0
 40
6374.9789810000002
 10
0.0
 20
58.11501599999999
 41
8842.1052629999976
 11
0.0
 21
0.0
 31
1.0
 12
0.0
 22
0.0
 32
0.0
 42
50.0
 43
0.0
 44
0.0
 50
0.0
 71
     0
  0
ENDTAB
  0
TABLE
  2
UCS
 70
     0
  0
ENDTAB
  0
TABLE
  2
APPID
 70
     1
  0
APPID
  2
ACAD
 70
     0
  0
ENDTAB
  0
TABLE
  2
DIMSTYLE
 70
     1
  0
DIMSTYLE
  2
STANDARD
 70
     0
  3

  4

  5

  6

  7

 40
1.0
 41
0.18
 42
0.0625
 43
0.38
 44
0.18
 45
0.0
 46
0.0
 47
0.0
 48
0.0
140
0.18
141
0.09
142
0.0
143
25.399999999999999
144
1.0
145
0.0
146
1.0
147
0.09
 71
     0
 72
     0
 73
     1
 74
     1
 75
     0
 76
     0
 77
     0
 78
     0
170
     0
171
     2
172
     0
173
     0
174
     0
175
     0
176
     0
177
     0
178
     0
  0
ENDTAB
  0
ENDSEC
  0
SECTION
  2
BLOCKS
  0
BLOCK
  8
0
  2
$MODEL_SPACE
 70
     0
 10
0.0
 20
0.0
 30
0.0
  3
$MODEL_SPACE
  1

  0
ENDBLK
  5
3C9
  8
0
  0
BLOCK
 67
     1
  8
0
  2
$PAPER_SPACE
 70
     0
 10
0.0
 20
0.0
 30
0.0
  3
$PAPER_SPACE
  1

  0
ENDBLK
  5
3C5
 67
     1
  8
0
  0
ENDSEC
  0
SECTION
  2
ENTITIES
  0
LINE
  5
3E7
  8
NOTE
  6
CONTINUOUS
 62
     4
 10
516.92715899999996
 20
73.970562000000001
 30
0.0
 11
222.3798579999999
 21
73.970562000000001
 31
0.0
  0
LINE
  5
3E8
  8
BASIS
  6
DASHDOT
 62
     6
 10
0.0
 20
60.007263000000002
 30
0.0
 11
0.0
 21
-317.27623099999988
 31
0.0
  0
LINE
  5
3E9
  8
DETAIL
 62
     5
 10
-157.5
 20
0.0
 30
0.0
 11
157.5
 21
0.0
 31
0.0
  0
LINE
  5
3EA
  8
NOTE
  6
CONTINUOUS
 62
     4
 10
140.0
 20
0.0
 30
0.0
 11
222.3798579999999
 21
73.970562000000001
 31
0.0
  0
POINT
  5
3EB
  8
ARRANGE
  6
CONTINUOUS
 62
     1
 10
0.0
 20
0.0
 30
0.0
  0
CIRCLE
  5
3EC
  8
ARRANGE
  6
CONTINUOUS
 62
     1
 10
0.0
 20
0.0
 30
0.0
 40
40.0
  0
TEXT
  5
3ED
  8
NOTE
  6
CONTINUOUS
 62
     4
 10
232.22319100000001
 20
98.650604999999999
 30
0.0
 40
64.0
  1
4-φ10
 41
0.9
  0
LINE
  5
3EE
  8
DETAIL
 62
     5
 10
-138.0
 20
0.0
 30
0.0
 11
-138.0
 21
-271.0
 31
0.0
  0
LINE
  5
3EF
  8
DETAIL
 62
     5
 10
138.0
 20
0.0
 30
0.0
 11
138.0
 21
-271.0
 31
0.0
  0
LINE
  5
3F0
  8
DETAIL
 62
     5
 10
-114.5
 20
0.0
 30
0.0
 11
-114.5
 21
-276.0
 31
0.0
  0
LINE
  5
3F1
  8
DETAIL
 62
     5
 10
114.5
 20
0.0
 30
0.0
 11
114.5
 21
-276.0
 31
0.0
  0
CIRCLE
  5
3F2
  8
FIX
  6
CONTINUOUS
 62
    11
 10
-140.0
 20
0.0
 30
0.0
 40
6.0
  0
LINE
  5
3F3
  8
DETAIL
 62
     5
 10
-133.0
 20
-276.0
 30
0.0
 11
133.0
 21
-276.0
 31
0.0
  0
LINE
  5
3F4
  8
DETAIL
 62
     5
 10
138.0
 20
-271.0
 30
0.0
 11
133.0
 21
-276.0
 31
0.0
  0
LINE
  5
3F5
  8
DETAIL
 62
     5
 10
-133.0
 20
-276.0
 30
0.0
 11
-138.0
 21
-271.0
 31
0.0
  0
CIRCLE
  5
3F6
  8
FIX
  6
CONTINUOUS
 62
    11
 10
140.0
 20
0.0
 30
0.0
 40
6.0
  0
LINE
  5
3F7
  8
OUTLINE
 62
     3
 10
-133.0
 20
-276.0
 30
0.0
 11
-138.0
 21
-271.0
 31
0.0
  0
LINE
  5
3F8
  8
OUTLINE
 62
     3
 10
138.0
 20
-271.0
 30
0.0
 11
133.0
 21
-276.0
 31
0.0
  0
LINE
  5
3F9
  8
OUTLINE
 62
     3
 10
-133.0
 20
-276.0
 30
0.0
 11
133.0
 21
-276.0
 31
0.0
  0
LINE
  5
3FA
  8
OUTLINE
 62
     3
 10
138.0
 20
0.0
 30
0.0
 11
138.0
 21
-271.0
 31
0.0
  0
LINE
  5
3FB
  8
OUTLINE
 62
     3
 10
-138.0
 20
0.0
 30
0.0
 11
-138.0
 21
-271.0
 31
0.0
  0
LINE
  5
3FC
  8
OUTLINE
 62
     3
 10
-157.5
 20
0.0
 30
0.0
 11
157.5
 21
0.0
 31
0.0
  0
LINE
  5
3FD
  8
SIZE
  6
BYBLOCK
 62
    30
 10
-177.5
 20
0.0
 30
0.0
 11
-316.24749100000002
 21
0.0
 31
0.0
  0
LINE
  5
3FE
  8
SIZE
  6
BYBLOCK
 62
    30
 10
-153.0
 20
-276.0
 30
0.0
 11
-316.24749100000002
 21
-276.0
 31
0.0
  0
LINE
  5
3FF
  8
SIZE
  6
BYBLOCK
 62
    30
 10
-286.24749100000002
 20
-2.0
 30
0.0
 11
-286.24749100000002
 21
-138.0
 31
0.0
  0
LINE
  5
400
  8
SIZE
  6
BYBLOCK
 62
    30
 10
-286.24749100000002
 20
-274.0
 30
0.0
 11
-286.24749100000002
 21
-138.0
 31
0.0
  0
TEXT
  5
401
  8
SIZE
  6
BYBLOCK
 62
    30
 10
-318.24749100000002
 20
-210.6857139999999
 30
0.0
 40
64.0
  1
276
 50
90.0
 41
0.9
  0
LINE
  5
402
  8
SIZE
  6
BYBLOCK
 62
    30
 10
138.0
 20
-291.0
 30
0.0
 11
138.0
 21
-493.64568399999979
 31
0.0
  0
LINE
  5
403
  8
SIZE
  6
BYBLOCK
 62
    30
 10
-138.0
 20
-291.0
 30
0.0
 11
-138.0
 21
-493.64568399999979
 31
0.0
  0
LINE
  5
404
  8
SIZE
  6
BYBLOCK
 62
    30
 10
136.0
 20
-463.64568400000002
 30
0.0
 11
-136.0
 21
-463.64568400000002
 31
0.0
  0
TEXT
  5
405
  8
SIZE
  6
BYBLOCK
 62
    30
 10
-72.685714000000004
 20
-431.64568399999979
 30
0.0
 40
64.0
  1
276
 41
0.9
  0
LINE
  5
406
  8
SIZE
  6
BYBLOCK
 62
    30
 10
157.5
 20
20.0
 30
0.0
 11
157.5
 21
261.89481499999999
 31
0.0
  0
LINE
  5
407
  8
SIZE
  6
BYBLOCK
 62
    30
 10
-157.5
 20
20.0
 30
0.0
 11
-157.5
 21
261.89481499999999
 31
0.0
  0
LINE
  5
408
  8
SIZE
  6
BYBLOCK
 62
    30
 10
155.4999999999996
 20
231.89481499999999
 30
0.0
 11
0.0
 21
231.89481499999999
 31
0.0
  0
LINE
  5
409
  8
SIZE
  6
BYBLOCK
 62
    30
 10
-155.4999999999996
 20
231.89481499999999
 30
0.0
 11
0.0
 21
231.89481499999999
 31
0.0
  0
TEXT
  5
40A
  8
SIZE
  6
BYBLOCK
 62
    30
 10
-68.571429000000009
 20
263.89481499999999
 30
0.0
 40
64.0
  1
315
 41
0.9
  0
LINE
  5
40B
  8
SIZE
  6
BYBLOCK
 62
    30
 10
140.0
 20
40.0
 30
0.0
 11
140.0
 21
137.27219499999961
 31
0.0
  0
LINE
  5
40C
  8
SIZE
  6
BYBLOCK
 62
    30
 10
-140.0
 20
40.0
 30
0.0
 11
-140.0
 21
137.27219499999961
 31
0.0
  0
LINE
  5
40D
  8
SIZE
  6
BYBLOCK
 62
    30
 10
138.0
 20
107.272195
 30
0.0
 11
0.0
 21
107.272195
 31
0.0
  0
LINE
  5
40E
  8
SIZE
  6
BYBLOCK
 62
    30
 10
-138.0
 20
107.272195
 30
0.0
 11
0.0
 21
107.272195
 31
0.0
  0
TEXT
  5
40F
  8
SIZE
  6
BYBLOCK
 62
    30
 10
-74.057143000000025
 20
139.27219499999961
 30
0.0
 40
64.0
  1
280
 41
0.9
  0
CIRCLE
  5
410
  8
SIZE
  6
CONTINUOUS
 62
    30
 10
-140.0
 20
107.272195
 30
0.0
 40
6.0
  0
CIRCLE
  5
411
  8
SIZE
  6
CONTINUOUS
 62
    30
 10
140.0
 20
107.272195
 30
0.0
 40
6.0
  0
CIRCLE
  5
412
  8
SIZE
  6
CONTINUOUS
 62
    30
 10
-157.5
 20
231.89481499999999
 30
0.0
 40
6.0
  0
CIRCLE
  5
413
  8
SIZE
  6
CONTINUOUS
 62
    30
 10
157.5
 20
231.89481499999999
 30
0.0
 40
6.0
  0
CIRCLE
  5
414
  8
SIZE
  6
CONTINUOUS
 62
    30
 10
-138.0
 20
-463.64568400000002
 30
0.0
 40
6.0
  0
CIRCLE
  5
415
  8
SIZE
  6
CONTINUOUS
 62
    30
 10
138.0
 20
-463.64568400000002
 30
0.0
 40
6.0
  0
CIRCLE
  5
416
  8
SIZE
  6
CONTINUOUS
 62
    30
 10
-286.24749100000002
 20
-276.0
 30
0.0
 40
6.0
  0
CIRCLE
  5
417
  8
SIZE
  6
CONTINUOUS
 62
    30
 10
-286.24749100000002
 20
0.0
 30
0.0
 40
6.0
  0
LINE
  5
418
  8
NOTE
  6
CONTINUOUS
 62
     4
 10
140.0
 20
20.0
 30
0.0
 11
140.0
 21
-20.0
 31
0.0
  0
LINE
  5
419
  8
NOTE
  6
CONTINUOUS
 62
     4
 10
160.0
 20
0.0
 30
0.0
 11
120.0
 21
0.0
 31
0.0
  0
LINE
  5
41A
  8
NOTE
  6
CONTINUOUS
 62
     4
 10
-140.0
 20
20.0
 30
0.0
 11
-140.0
 21
-20.0
 31
0.0
  0
LINE
  5
41B
  8
NOTE
  6
CONTINUOUS
 62
     4
 10
-160.0
 20
0.0
 30
0.0
 11
-120.0
 21
0.0
 31
0.0
  0
TEXT
  5
41C
  8
ETC
  6
CONTINUOUS
 62
    61
 10
464.40134623034061
 20
385.01502192534349
 30
0.0
 40
64.0
  1
SHW-20TDB-C_1
 41
0.9
  0
TEXT
  5
41D
  8
ETC
  6
CONTINUOUS
 62
    61
 10
455.55285823034058
 20
292.13595692534312
 30
0.0
 40
64.0
  1
システム部材
 41
0.9
  0
TEXT
  5
41E
  8
ETC
  6
CONTINUOUS
 62
    61
 10
625.79856163017359
 20
211.4396571381244
 30
0.0
 40
50.0
  1
SHW-20TDB-C
 41
0.9
  0
LINE
  5
41F
  8
NOTE
  6
CONTINUOUS
 62
     4
 10
175.51320000000001
 20
18.406863000000001
 30
0.0
 11
140.0
 21
0.0
 31
0.0
  0
LINE
  5
420
  8
NOTE
  6
CONTINUOUS
 62
     4
 10
140.0
 20
0.0
 30
0.0
 11
161.55190200000001
 21
33.697410999999981
 31
0.0
  0
ENDSEC
  0
EOF
