  0
SECTION
  2
HEADER
  9
$ACADVER
  1
AC1009
  9
$INSBASE
 10
0.0
 20
0.0
 30
0.0
  9
$EXTMIN
 10
-760.51517600000022
 20
-270.23318699999999
 30
0.0
  9
$EXTMAX
 10
1270.6047336546151
 20
912.41954780825029
 30
50.0
  9
$LIMMIN
 10
-2970.0
 20
-2100.0
  9
$LIMMAX
 10
2970.0
 20
2100.0
  9
$ORTHOMODE
 70
     1
  9
$REGENMODE
 70
     0
  9
$FILLMODE
 70
     1
  9
$QTEXTMODE
 70
     0
  9
$MIRRTEXT
 70
     0
  9
$DRAGMODE
 70
     2
  9
$LTSCALE
 40
20.0
  9
$OSMODE
 70
   165
  9
$ATTMODE
 70
     1
  9
$TEXTSIZE
 40
64.0
  9
$TRACEWID
 40
0.05
  9
$TEXTSTYLE
  7
STANDARD
  9
$CLAYER
  8
SIZE
  9
$CELTYPE
  6
CONTINUOUS
  9
$CECOLOR
 62
    30
  9
$DIMSCALE
 40
1.0
  9
$DIMASZ
 40
12.0
  9
$DIMEXO
 40
20.0
  9
$DIMDLI
 40
200.0
  9
$DIMRND
 40
0.0
  9
$DIMDLE
 40
0.0
  9
$DIMEXE
 40
20.0
  9
$DIMTP
 40
0.0
  9
$DIMTM
 40
0.0
  9
$DIMTXT
 40
64.0
  9
$DIMCEN
 40
0.09
  9
$DIMTSZ
 40
0.0
  9
$DIMTOL
 70
     0
  9
$DIMLIM
 70
     0
  9
$DIMTIH
 70
     0
  9
$DIMTOH
 70
     0
  9
$DIMSE1
 70
     0
  9
$DIMSE2
 70
     0
  9
$DIMTAD
 70
     1
  9
$DIMZIN
 70
     8
  9
$DIMBLK
  1
DOT1
  9
$DIMASO
 70
     1
  9
$DIMSHO
 70
     0
  9
$DIMPOST
  1

  9
$DIMAPOST
  1

  9
$DIMALT
 70
     0
  9
$DIMALTD
 70
     2
  9
$DIMALTF
 40
25.399999999999999
  9
$DIMLFAC
 40
1.0
  9
$DIMTOFL
 70
     1
  9
$DIMTVP
 40
0.0
  9
$DIMTIX
 70
     1
  9
$DIMSOXD
 70
     0
  9
$DIMSAH
 70
     1
  9
$DIMBLK1
  1
ORIGIN
  9
$DIMBLK2
  1
ORIGIN
  9
$DIMSTYLE
  2
STANDARD
  9
$DIMCLRD
 70
     0
  9
$DIMCLRE
 70
     0
  9
$DIMCLRT
 70
     0
  9
$DIMTFAC
 40
1.0
  9
$DIMGAP
 40
0.09
  9
$LUNITS
 70
     2
  9
$LUPREC
 70
     4
  9
$SKETCHINC
 40
0.1
  9
$FILLETRAD
 40
25.0
  9
$AUNITS
 70
     1
  9
$AUPREC
 70
     3
  9
$MENU
  1
ACAD
  9
$ELEVATION
 40
0.0
  9
$PELEVATION
 40
0.0
  9
$THICKNESS
 40
50.0
  9
$LIMCHECK
 70
     0
  9
$BLIPMODE
 70
     0
  9
$CHAMFERA
 40
0.0
  9
$CHAMFERB
 40
0.0
  9
$SKPOLY
 70
     0
  9
$TDCREATE
 40
2452321.3961996529
  9
$TDUPDATE
 40
2454720.505079201
  9
$TDINDWG
 40
0.2802639236
  9
$TDUSRTIMER
 40
0.2802639236
  9
$USRTIMER
 70
     1
  9
$ANGBASE
 50
0.0
  9
$ANGDIR
 70
     0
  9
$PDMODE
 70
     3
  9
$PDSIZE
 40
-2.0
  9
$PLINEWID
 40
0.0
  9
$COORDS
 70
     2
  9
$SPLFRAME
 70
     0
  9
$SPLINETYPE
 70
     6
  9
$SPLINESEGS
 70
     8
  9
$ATTDIA
 70
     0
  9
$ATTREQ
 70
     1
  9
$HANDLING
 70
 22529
  9
$HANDSEED
  5
1CC
  9
$SURFTAB1
 70
     6
  9
$SURFTAB2
 70
     6
  9
$SURFTYPE
 70
     6
  9
$SURFU
 70
     6
  9
$SURFV
 70
     6
  9
$UCSNAME
  2

  9
$UCSORG
 10
0.0
 20
0.0
 30
0.0
  9
$UCSXDIR
 10
1.0
 20
0.0
 30
0.0
  9
$UCSYDIR
 10
0.0
 20
1.0
 30
0.0
  9
$PUCSNAME
  2

  9
$PUCSORG
 10
0.0
 20
0.0
 30
0.0
  9
$PUCSXDIR
 10
1.0
 20
0.0
 30
0.0
  9
$PUCSYDIR
 10
0.0
 20
1.0
 30
0.0
  9
$USERI1
 70
     0
  9
$USERI2
 70
     0
  9
$USERI3
 70
     0
  9
$USERI4
 70
     0
  9
$USERI5
 70
     0
  9
$USERR1
 40
20.0
  9
$USERR2
 40
0.0
  9
$USERR3
 40
0.0
  9
$USERR4
 40
0.0
  9
$USERR5
 40
0.0
  9
$WORLDVIEW
 70
     1
  9
$SHADEDGE
 70
     3
  9
$SHADEDIF
 70
    70
  9
$TILEMODE
 70
     1
  9
$MAXACTVP
 70
    64
  9
$PLIMCHECK
 70
     0
  9
$PEXTMIN
 10
1.0000000000000000E+020
 20
1.0000000000000000E+020
 30
1.0000000000000000E+020
  9
$PEXTMAX
 10
-1.0000000000000000E+020
 20
-1.0000000000000000E+020
 30
-1.0000000000000000E+020
  9
$PLIMMIN
 10
0.0
 20
0.0
  9
$PLIMMAX
 10
12.0
 20
9.0
  9
$UNITMODE
 70
     0
  9
$VISRETAIN
 70
     1
  9
$PLINEGEN
 70
     0
  9
$PSLTSCALE
 70
     1
  0
ENDSEC
  0
SECTION
  2
TABLES
  0
TABLE
  2
VPORT
 70
     3
  0
VPORT
  2
*ACTIVE
 70
     0
 10
0.0
 20
0.0
 11
1.0
 21
1.0
 12
244.53042813474119
 22
318.82244232306738
 13
0.0
 23
0.0
 14
1.0
 24
1.0
 15
0.0
 25
0.0
 16
0.0
 26
0.0
 36
1.0
 17
0.0
 27
0.0
 37
0.0
 40
1542.0204765186479
 41
1.493654822335025
 42
50.0
 43
0.0
 44
0.0
 50
0.0
 51
0.0
 71
     0
 72
   100
 73
     1
 74
     0
 75
     0
 76
     0
 77
     0
 78
     0
  0
ENDTAB
  0
TABLE
  2
LTYPE
 70
     3
  0
LTYPE
  2
CONTINUOUS
 70
     0
  3
実線
 72
    65
 73
     0
 40
0.0
  0
LTYPE
  2
DASHDOT
 70
     0
  3
____ _ ____ _ ____ _ ____ _ ____ _ ____ _ ____
 72
    65
 73
     4
 40
5.5
 49
4.0
 49
-0.6
 49
0.3
 49
-0.6
  0
LTYPE
  2
CONTINOUS
 70
     0
  3
Solid line
 72
    65
 73
     0
 40
0.0
  0
ENDTAB
  0
TABLE
  2
LAYER
 70
    12
  0
LAYER
  2
0
 70
     0
 62
     7
  6
CONTINUOUS
  0
LAYER
  2
SIZE
 70
     0
 62
    30
  6
CONTINUOUS
  0
LAYER
  2
BASIS
 70
     0
 62
     6
  6
DASHDOT
  0
LAYER
  2
OUTLINE
 70
     0
 62
     3
  6
CONTINUOUS
  0
LAYER
  2
DETAIL
 70
     0
 62
     5
  6
CONTINUOUS
  0
LAYER
  2
ARRANGE
 70
     0
 62
     1
  6
CONTINUOUS
  0
LAYER
  2
DEFPOINTS
 70
     0
 62
     7
  6
CONTINUOUS
  0
LAYER
  2
ETC
 70
     0
 62
    61
  6
CONTINUOUS
  0
LAYER
  2
FIX
 70
     0
 62
    11
  6
CONTINUOUS
  0
LAYER
  2
NOTE
 70
     0
 62
     4
  6
CONTINUOUS
  0
LAYER
  2
SERVICESPACE
 70
     0
 62
     2
  6
DASHDOT
  0
LAYER
  2
SYMBOLLINE
 70
     0
 62
    15
  6
CONTINUOUS
  0
ENDTAB
  0
TABLE
  2
STYLE
 70
     1
  0
STYLE
  2
STANDARD
 70
     0
 40
64.0
 41
0.9
 50
0.0
 71
     0
 42
64.0
  3
SIMPLEX.shx
  4
BIGFONT.shx
  0
ENDTAB
  0
TABLE
  2
VIEW
 70
     1
  0
VIEW
  2
ALL
 70
     0
 40
4282.6198079999976
 10
0.0
 20
41.309903999999989
 41
5940.0
 11
0.0
 21
0.0
 31
1.0
 12
0.0
 22
0.0
 32
0.0
 42
50.0
 43
0.0
 44
0.0
 50
0.0
 71
     0
  0
ENDTAB
  0
TABLE
  2
UCS
 70
     0
  0
ENDTAB
  0
TABLE
  2
APPID
 70
     1
  0
APPID
  2
ACAD
 70
     0
  0
ENDTAB
  0
TABLE
  2
DIMSTYLE
 70
     1
  0
DIMSTYLE
  2
STANDARD
 70
     0
  3

  4

  5

  6

  7

 40
1.0
 41
0.18
 42
0.0625
 43
0.38
 44
0.18
 45
0.0
 46
0.0
 47
0.0
 48
0.0
140
0.18
141
0.09
142
0.0
143
25.399999999999999
144
1.0
145
0.0
146
1.0
147
0.09
 71
     0
 72
     0
 73
     1
 74
     1
 75
     0
 76
     0
 77
     0
 78
     0
170
     0
171
     2
172
     0
173
     0
174
     0
175
     0
176
     0
177
     0
178
     0
  0
ENDTAB
  0
ENDSEC
  0
SECTION
  2
BLOCKS
  0
BLOCK
  8
0
  2
$MODEL_SPACE
 70
     0
 10
0.0
 20
0.0
 30
0.0
  3
$MODEL_SPACE
  1

  0
ENDBLK
  5
F3
  8
0
  0
BLOCK
 67
     1
  8
0
  2
$PAPER_SPACE
 70
     0
 10
0.0
 20
0.0
 30
0.0
  3
$PAPER_SPACE
  1

  0
ENDBLK
  5
EF
 67
     1
  8
0
  0
BLOCK
  8
0
  2
DOT1
 70
     0
 10
0.0
 20
0.0
 30
0.0
  3
DOT1
  1

  0
CIRCLE
  5
10F
  8
SIZE
  6
CONTINUOUS
 62
     7
 10
0.0
 20
0.0
 30
0.0
 40
3.0
  0
ENDBLK
  5
110
  8
0
  0
BLOCK
  8
0
  2
_ORIGIN
 70
     0
 10
0.0
 20
0.0
 30
0.0
  3
_ORIGIN
  1

  0
CIRCLE
  5
113
  8
0
  6
CONTINUOUS
 62
     7
 10
0.0
 20
0.0
 30
0.0
 40
0.5
  0
LINE
  5
114
  8
0
  6
CONTINUOUS
 62
     7
 10
0.0
 20
0.0
 30
0.0
 11
-1.0
 21
0.0
 31
0.0
  0
ENDBLK
  5
115
  8
0
  0
ENDSEC
  0
SECTION
  2
ENTITIES
  0
LINE
  5
116
  8
DETAIL
  6
CONTINOUS
 62
     5
 10
440.0
 20
390.0
 30
0.0
 11
440.0
 21
0.0
 31
0.0
  0
LINE
  5
117
  8
DETAIL
  6
CONTINOUS
 62
     5
 10
-440.0
 20
390.0
 30
0.0
 11
-440.0
 21
0.0
 31
0.0
  0
LINE
  5
118
  8
BASIS
  6
DASHDOT
 62
     6
 10
0.0
 20
379.16167300000001
 30
0.0
 11
0.0
 21
-75.619439
 31
0.0
  0
POINT
  5
119
  8
ARRANGE
  6
CONTINOUS
 62
     1
 10
0.0
 20
0.0
 30
0.0
  0
CIRCLE
  5
11A
  8
ARRANGE
  6
CONTINUOUS
 62
     1
 10
0.0
 20
0.0
 30
0.0
 40
40.0
  0
LINE
  5
11B
  8
DETAIL
  6
CONTINOUS
 62
     5
 10
440.0
 20
390.0
 30
0.0
 11
-440.0
 21
390.0
 31
0.0
  0
ARC
  5
11C
  8
DETAIL
  6
CONTINUOUS
 62
     5
 39
50.0
 10
438.60000000000002
 20
375.69999999999999
 30
0.0
 40
4.5999999999999979
 50
287.71893199999988
 51
0.0
  0
ARC
  5
11D
  8
DETAIL
  6
CONTINUOUS
 62
     5
 39
50.0
 10
445.5
 20
375.69999999999999
 30
0.0
 40
2.299999999999998
 50
90.0
 51
180.0
  0
LINE
  5
11E
  8
DETAIL
  6
CONTINUOUS
 62
     5
 39
50.0
 10
445.5
 20
387.69999999999987
 30
0.0
 11
445.5
 21
378.0
 31
0.0
  0
LINE
  5
11F
  8
DETAIL
  6
CONTINUOUS
 62
     5
 39
50.0
 10
485.0
 20
380.0
 30
0.0
 11
485.0
 21
370.0
 31
0.0
  0
LINE
  5
120
  8
DETAIL
  6
CONTINUOUS
 62
     5
 39
50.0
 10
469.5
 20
380.0
 30
0.0
 11
469.5
 21
370.0
 31
0.0
  0
LINE
  5
121
  8
DETAIL
  6
CONTINUOUS
 62
     5
 39
50.0
 10
456.5
 20
387.69999999999987
 30
0.0
 11
456.5
 21
378.0
 31
0.0
  0
LINE
  5
122
  8
DETAIL
  6
CONTINUOUS
 62
     5
 39
50.0
 10
485.0
 20
380.0
 30
0.0
 11
456.5
 21
380.0
 31
0.0
  0
LINE
  5
123
  8
DETAIL
  6
CONTINUOUS
 62
     5
 39
50.0
 10
485.0
 20
370.0
 30
0.0
 11
469.5
 21
370.0
 31
0.0
  0
LINE
  5
124
  8
DETAIL
  6
CONTINUOUS
 62
     5
 39
50.0
 10
456.5
 20
387.69999999999987
 30
0.0
 11
445.5
 21
387.69999999999987
 31
0.0
  0
CIRCLE
  5
125
  8
FIX
  6
CONTINUOUS
 62
    11
 39
50.0
 10
463.0
 20
380.0
 30
0.0
 40
6.5
  0
LINE
  5
126
  8
NOTE
  6
CONTINUOUS
 62
     4
 10
463.0
 20
360.0
 30
0.0
 11
463.0
 21
400.0
 31
0.0
  0
LINE
  5
127
  8
NOTE
  6
CONTINUOUS
 62
     4
 10
443.0
 20
380.0
 30
0.0
 11
483.0
 21
380.0
 31
0.0
  0
LINE
  5
128
  8
DETAIL
  6
CONTINOUS
 62
     5
 10
456.5
 20
380.0
 30
0.0
 11
485.0
 21
380.0
 31
0.0
  0
LINE
  5
129
  8
DETAIL
  6
CONTINOUS
 62
     5
 10
445.5
 20
378.0
 30
0.0
 11
469.5
 21
378.0
 31
0.0
  0
ARC
  5
12A
  8
DETAIL
  6
CONTINUOUS
 62
     5
 39
50.0
 10
445.5
 20
375.69999999999999
 30
0.0
 40
4.299999999999998
 50
90.0
 51
180.0
  0
ARC
  5
12B
  8
DETAIL
  6
CONTINUOUS
 62
     5
 39
50.0
 10
438.60000000000002
 20
375.69999999999999
 30
0.0
 40
2.6000000000000001
 50
302.57897000000003
 51
0.0
  0
ARC
  5
12C
  8
DETAIL
  6
CONTINUOUS
 62
     5
 39
50.0
 10
-438.60000000000002
 20
375.69999999999999
 30
0.0
 40
2.6000000000000001
 50
180.0
 51
237.42103
  0
ARC
  5
12D
  8
DETAIL
  6
CONTINUOUS
 62
     5
 39
50.0
 10
-445.5
 20
375.69999999999999
 30
0.0
 40
4.299999999999998
 50
0.0
 51
90.0
  0
ARC
  5
12E
  8
DETAIL
  6
CONTINUOUS
 62
     5
 39
50.0
 10
-438.60000000000002
 20
375.69999999999999
 30
0.0
 40
4.5999999999999979
 50
180.0
 51
252.281068
  0
ARC
  5
12F
  8
DETAIL
  6
CONTINUOUS
 62
     5
 39
50.0
 10
-445.5
 20
375.69999999999999
 30
0.0
 40
2.299999999999998
 50
0.0
 51
90.0
  0
LINE
  5
130
  8
DETAIL
  6
CONTINUOUS
 62
     5
 39
50.0
 10
-445.5
 20
387.69999999999987
 30
0.0
 11
-445.5
 21
378.0
 31
0.0
  0
LINE
  5
131
  8
DETAIL
  6
CONTINUOUS
 62
     5
 39
50.0
 10
-485.0
 20
380.0
 30
0.0
 11
-485.0
 21
370.0
 31
0.0
  0
LINE
  5
132
  8
DETAIL
  6
CONTINUOUS
 62
     5
 39
50.0
 10
-469.5
 20
380.0
 30
0.0
 11
-469.5
 21
370.0
 31
0.0
  0
LINE
  5
133
  8
DETAIL
  6
CONTINUOUS
 62
     5
 39
50.0
 10
-456.5
 20
387.69999999999987
 30
0.0
 11
-456.5
 21
378.0
 31
0.0
  0
LINE
  5
134
  8
DETAIL
  6
CONTINUOUS
 62
     5
 39
50.0
 10
-485.0
 20
380.0
 30
0.0
 11
-456.5
 21
380.0
 31
0.0
  0
LINE
  5
135
  8
DETAIL
  6
CONTINUOUS
 62
     5
 39
50.0
 10
-485.0
 20
370.0
 30
0.0
 11
-469.5
 21
370.0
 31
0.0
  0
LINE
  5
136
  8
DETAIL
  6
CONTINUOUS
 62
     5
 39
50.0
 10
-456.5
 20
387.69999999999987
 30
0.0
 11
-445.5
 21
387.69999999999987
 31
0.0
  0
CIRCLE
  5
137
  8
FIX
  6
CONTINUOUS
 62
    11
 39
50.0
 10
-463.0
 20
380.0
 30
0.0
 40
6.5
  0
LINE
  5
138
  8
NOTE
  6
CONTINUOUS
 62
     4
 10
-463.0
 20
360.0
 30
0.0
 11
-463.0
 21
400.0
 31
0.0
  0
LINE
  5
139
  8
NOTE
  6
CONTINUOUS
 62
     4
 10
-443.0
 20
380.0
 30
0.0
 11
-483.0
 21
380.0
 31
0.0
  0
LINE
  5
13A
  8
DETAIL
  6
CONTINOUS
 62
     5
 10
-456.5
 20
380.0
 30
0.0
 11
-485.0
 21
380.0
 31
0.0
  0
LINE
  5
13B
  8
DETAIL
  6
CONTINOUS
 62
     5
 10
-445.5
 20
378.0
 30
0.0
 11
-469.5
 21
378.0
 31
0.0
  0
LINE
  5
13C
  8
NOTE
  6
CONTINUOUS
 62
     4
 39
50.0
 10
-350.0
 20
390.0
 30
0.0
 11
-537.50716599999976
 21
474.77371299999987
 31
0.0
  0
LINE
  5
13D
  8
NOTE
  6
CONTINUOUS
 62
     4
 10
-680.57454499999994
 20
474.77371299999987
 30
0.0
 11
-537.50716599999976
 21
474.77371299999987
 31
0.0
  0
LINE
  5
13E
  8
NOTE
  6
CONTINUOUS
 62
     4
 10
-380.94505600000002
 20
415.34568099999979
 30
0.0
 11
-350.0
 21
390.0
 31
0.0
  0
LINE
  5
13F
  8
NOTE
  6
CONTINUOUS
 62
     4
 10
-350.0
 20
390.0
 30
0.0
 11
-389.47204499999992
 21
396.47747500000003
 31
0.0
  0
LINE
  5
140
  8
NOTE
  6
CONTINUOUS
 62
     4
 10
-350.0
 20
370.0
 30
0.0
 11
-350.0
 21
410.0
 31
0.0
  0
LINE
  5
141
  8
NOTE
  6
CONTINUOUS
 62
     4
 10
-330.0
 20
390.0
 30
0.0
 11
-370.0
 21
390.0
 31
0.0
  0
TEXT
  5
142
  8
NOTE
  6
CONTINUOUS
 62
     4
 10
553.76646500000004
 20
530.67188499999997
 30
0.0
 40
64.0
  1
AH 4-φ13×30
 41
0.9
  0
LINE
  5
143
  8
NOTE
  6
CONTINUOUS
 62
     4
 10
559.41190499999993
 20
505.40250499999991
 30
0.0
 11
1190.948999999998
 21
505.40250499999991
 31
0.0
  0
LINE
  5
144
  8
NOTE
  6
CONTINUOUS
 62
     4
 10
463.0
 20
380.0
 30
0.0
 11
559.41190499999993
 21
505.40250499999991
 31
0.0
  0
LINE
  5
145
  8
NOTE
  6
CONTINUOUS
 62
     4
 10
492.98230899999999
 20
406.47755999999993
 30
0.0
 11
463.0
 21
380.0
 31
0.0
  0
LINE
  5
146
  8
NOTE
  6
CONTINUOUS
 62
     4
 10
463.0
 20
380.0
 30
0.0
 11
475.72666099999998
 21
417.92139400000002
 31
0.0
  0
TEXT
  5
147
  8
NOTE
  6
CONTINUOUS
 62
     4
 10
-648.91461800000002
 20
500.04309299999989
 30
0.0
 40
64.0
  1
EL
 41
0.9
  0
LINE
  5
148
  8
SIZE
  6
CONTINUOUS
 62
    30
 10
-440.0
 20
410.0
 30
0.0
 11
-440.0
 21
566.42354899999998
 31
0.0
  0
LINE
  5
149
  8
SIZE
  6
CONTINUOUS
 62
    30
 10
440.0
 20
410.0
 30
0.0
 11
440.0
 21
566.42354899999998
 31
0.0
  0
LINE
  5
14A
  8
SIZE
  6
CONTINUOUS
 62
    30
 10
-428.0
 20
546.42354899999998
 30
0.0
 11
428.0
 21
546.42354899999998
 31
0.0
  0
CIRCLE
  5
14B
  8
SIZE
  6
CONTINUOUS
 62
    30
 10
-440.0
 20
546.42354899999998
 30
0.0
 40
6.0
  0
LINE
  5
14C
  8
SIZE
  6
CONTINUOUS
 62
    30
 10
-440.0
 20
546.42354899999998
 30
0.0
 11
-428.0
 21
546.42354899999998
 31
0.0
  0
CIRCLE
  5
14D
  8
SIZE
  6
CONTINUOUS
 62
    30
 10
440.0
 20
546.42354899999998
 30
0.0
 40
6.0
  0
LINE
  5
14E
  8
SIZE
  6
CONTINUOUS
 62
    30
 10
440.0
 20
546.42354899999998
 30
0.0
 11
428.0
 21
546.42354899999998
 31
0.0
  0
TEXT
  5
14F
  8
SIZE
  6
CONTINUOUS
 62
    30
 10
-74.05714285714285
 20
571.42354899999998
 30
0.0
 40
64.0
  1
880
 41
0.9
 72
     1
 11
0.0
 21
571.42354899999998
 31
0.0
  0
LINE
  5
150
  8
SIZE
  6
CONTINUOUS
 62
    30
 10
-463.0
 20
420.0
 30
0.0
 11
-463.0
 21
682.31812500000001
 31
0.0
  0
LINE
  5
151
  8
SIZE
  6
CONTINUOUS
 62
    30
 10
463.0
 20
420.0
 30
0.0
 11
463.0
 21
682.31812500000001
 31
0.0
  0
LINE
  5
152
  8
SIZE
  6
CONTINUOUS
 62
    30
 10
-451.0
 20
662.31812500000001
 30
0.0
 11
451.0
 21
662.31812500000001
 31
0.0
  0
CIRCLE
  5
153
  8
SIZE
  6
CONTINUOUS
 62
    30
 10
-463.0
 20
662.31812500000001
 30
0.0
 40
6.0
  0
LINE
  5
154
  8
SIZE
  6
CONTINUOUS
 62
    30
 10
-463.0
 20
662.31812500000001
 30
0.0
 11
-451.0
 21
662.31812500000001
 31
0.0
  0
CIRCLE
  5
155
  8
SIZE
  6
CONTINUOUS
 62
    30
 10
463.0
 20
662.31812500000001
 30
0.0
 40
6.0
  0
LINE
  5
156
  8
SIZE
  6
CONTINUOUS
 62
    30
 10
463.0
 20
662.31812500000001
 30
0.0
 11
451.0
 21
662.31812500000001
 31
0.0
  0
TEXT
  5
157
  8
SIZE
  6
CONTINUOUS
 62
    30
 10
-72.685714285714283
 20
687.31812500000001
 30
0.0
 40
64.0
  1
926
 41
0.9
 72
     1
 11
0.0
 21
687.31812500000001
 31
0.0
  0
LINE
  5
158
  8
SIZE
  6
CONTINUOUS
 62
    30
 10
-460.0
 20
390.0
 30
0.0
 11
-691.515176
 21
390.0
 31
0.0
  0
LINE
  5
159
  8
SIZE
  6
CONTINUOUS
 62
    30
 10
-496.49999999999989
 20
0.0
 30
0.0
 11
-691.515176
 21
0.0
 31
0.0
  0
LINE
  5
15A
  8
SIZE
  6
CONTINUOUS
 62
    30
 10
-671.515176
 20
378.0
 30
0.0
 11
-671.515176
 21
12.0
 31
0.0
  0
CIRCLE
  5
15B
  8
SIZE
  6
CONTINUOUS
 62
    30
 10
-671.515176
 20
390.0
 30
0.0
 40
6.0
  0
LINE
  5
15C
  8
SIZE
  6
CONTINUOUS
 62
    30
 10
-671.515176
 20
390.0
 30
0.0
 11
-671.515176
 21
378.0
 31
0.0
  0
CIRCLE
  5
15D
  8
SIZE
  6
CONTINUOUS
 62
    30
 10
-671.515176
 20
0.0
 30
0.0
 40
6.0
  0
LINE
  5
15E
  8
SIZE
  6
CONTINUOUS
 62
    30
 10
-671.515176
 20
0.0
 30
0.0
 11
-671.515176
 21
12.0
 31
0.0
  0
TEXT
  5
15F
  8
SIZE
  6
CONTINUOUS
 62
    30
 10
-696.515176
 20
120.94285714285709
 30
0.0
 40
64.0
  1
390
 50
90.0
 41
0.9
 72
     1
 11
-696.515176
 21
195.0
 31
0.0
  0
LINE
  5
160
  8
SIZE
  6
CONTINUOUS
 62
    30
 10
-496.49999999999989
 20
0.0
 30
0.0
 11
-691.515176
 21
0.0
 31
0.0
  0
LINE
  5
161
  8
SIZE
  6
CONTINUOUS
 62
    30
 10
-466.5
 20
-23.0
 30
0.0
 11
-691.515176
 21
-23.0
 31
0.0
  0
LINE
  5
162
  8
SIZE
  6
CONTINUOUS
 62
    30
 10
-671.515176
 20
12.0
 30
0.0
 11
-671.515176
 21
24.0
 31
0.0
  0
LINE
  5
163
  8
SIZE
  6
CONTINUOUS
 62
    30
 10
-671.515176
 20
-35.0
 30
0.0
 11
-671.515176
 21
-206.739135
 31
0.0
  0
LINE
  5
164
  8
SIZE
  6
CONTINUOUS
 62
    30
 10
-671.515176
 20
0.0
 30
0.0
 11
-671.515176
 21
-23.0
 31
0.0
  0
CIRCLE
  5
165
  8
SIZE
  6
CONTINUOUS
 62
    30
 10
-671.515176
 20
0.0
 30
0.0
 40
6.0
  0
LINE
  5
166
  8
SIZE
  6
CONTINUOUS
 62
    30
 10
-671.515176
 20
0.0
 30
0.0
 11
-671.515176
 21
12.0
 31
0.0
  0
CIRCLE
  5
167
  8
SIZE
  6
CONTINUOUS
 62
    30
 10
-671.515176
 20
-23.0
 30
0.0
 40
6.0
  0
LINE
  5
168
  8
SIZE
  6
CONTINUOUS
 62
    30
 10
-671.515176
 20
-23.0
 30
0.0
 11
-671.515176
 21
-35.0
 31
0.0
  0
TEXT
  5
169
  8
SIZE
  6
CONTINUOUS
 62
    30
 10
-696.515176
 20
-181.7391344285713
 30
0.0
 40
64.0
  1
23
 50
90.0
 41
0.9
 72
     1
 11
-696.515176
 21
-135.1105629999999
 31
0.0
  0
LINE
  5
16A
  8
SIZE
  6
CONTINUOUS
 62
    30
 10
-460.0
 20
390.0
 30
0.0
 11
-556.67314299999987
 21
390.0
 31
0.0
  0
LINE
  5
16B
  8
SIZE
  6
CONTINUOUS
 62
    30
 10
-503.0
 20
380.0
 30
0.0
 11
-556.67314299999987
 21
380.0
 31
0.0
  0
LINE
  5
16C
  8
SIZE
  6
CONTINUOUS
 62
    30
 10
-536.67314299999975
 20
402.0
 30
0.0
 11
-536.67314299999975
 21
414.0
 31
0.0
  0
LINE
  5
16D
  8
SIZE
  6
CONTINUOUS
 62
    30
 10
-536.67314299999975
 20
368.0
 30
0.0
 11
-536.67314299999975
 21
207.2322939999998
 31
0.0
  0
LINE
  5
16E
  8
SIZE
  6
CONTINUOUS
 62
    30
 10
-536.67314299999975
 20
390.0
 30
0.0
 11
-536.67314299999975
 21
380.0
 31
0.0
  0
CIRCLE
  5
16F
  8
SIZE
  6
CONTINUOUS
 62
    30
 10
-536.67314299999975
 20
390.0
 30
0.0
 40
6.0
  0
LINE
  5
170
  8
SIZE
  6
CONTINUOUS
 62
    30
 10
-536.67314299999975
 20
390.0
 30
0.0
 11
-536.67314299999975
 21
402.0
 31
0.0
  0
CIRCLE
  5
171
  8
SIZE
  6
CONTINUOUS
 62
    30
 10
-536.67314299999975
 20
380.0
 30
0.0
 40
6.0
  0
LINE
  5
172
  8
SIZE
  6
CONTINUOUS
 62
    30
 10
-536.67314299999975
 20
380.0
 30
0.0
 11
-536.67314299999975
 21
368.0
 31
0.0
  0
TEXT
  5
173
  8
SIZE
  6
CONTINUOUS
 62
    30
 10
-561.67314299999975
 20
232.23229385714271
 30
0.0
 40
64.0
  1
10
 50
90.0
 41
0.9
 72
     1
 11
-561.67314299999975
 21
273.37515099999979
 31
0.0
  0
LINE
  5
174
  8
DETAIL
  6
CONTINUOUS
 62
     5
 39
50.0
 10
477.5
 20
-5.0
 30
0.0
 11
477.5
 21
0.0
 31
0.0
  0
ARC
  5
175
  8
DETAIL
  6
CONTINUOUS
 62
     5
 39
50.0
 10
401.42001399999992
 20
87.799976999999998
 30
0.0
 40
120.0
 50
292.58166599999993
 51
309.34584699999988
  0
LINE
  5
176
  8
DETAIL
  6
CONTINUOUS
 62
     5
 39
50.0
 10
0.0
 20
-23.0
 30
0.0
 11
447.5
 21
-23.0
 31
0.0
  0
ARC
  5
177
  8
DETAIL
  6
CONTINUOUS
 62
     5
 39
50.0
 10
-401.42001399999992
 20
87.799976999999998
 30
0.0
 40
120.0
 50
230.65415299999989
 51
247.41833399999999
  0
LINE
  5
178
  8
DETAIL
  6
CONTINUOUS
 62
     5
 39
50.0
 10
-477.5
 20
-5.0
 30
0.0
 11
-477.5
 21
0.0
 31
0.0
  0
LINE
  5
179
  8
DETAIL
  6
CONTINUOUS
 62
     5
 39
50.0
 10
477.5
 20
0.0
 30
0.0
 11
-477.5
 21
0.0
 31
0.0
  0
LINE
  5
17A
  8
DETAIL
  6
CONTINUOUS
 62
     5
 39
50.0
 10
0.0
 20
-23.0
 30
0.0
 11
-447.5
 21
-23.0
 31
0.0
  0
LINE
  5
17B
  8
SIZE
  6
CONTINUOUS
 62
    30
 10
-477.5
 20
-20.0
 30
0.0
 11
-477.5
 21
-270.23318699999999
 31
0.0
  0
LINE
  5
17C
  8
SIZE
  6
CONTINUOUS
 62
    30
 10
477.5
 20
-25.0
 30
0.0
 11
477.5
 21
-270.23318699999999
 31
0.0
  0
LINE
  5
17D
  8
SIZE
  6
CONTINUOUS
 62
    30
 10
-465.5
 20
-250.2331869999999
 30
0.0
 11
465.5
 21
-250.2331869999999
 31
0.0
  0
CIRCLE
  5
17E
  8
SIZE
  6
CONTINUOUS
 62
    30
 10
-477.5
 20
-250.2331869999999
 30
0.0
 40
6.0
  0
LINE
  5
17F
  8
SIZE
  6
CONTINUOUS
 62
    30
 10
-477.5
 20
-250.2331869999999
 30
0.0
 11
-465.5
 21
-250.2331869999999
 31
0.0
  0
CIRCLE
  5
180
  8
SIZE
  6
CONTINUOUS
 62
    30
 10
477.5
 20
-250.2331869999999
 30
0.0
 40
6.0
  0
LINE
  5
181
  8
SIZE
  6
CONTINUOUS
 62
    30
 10
477.5
 20
-250.2331869999999
 30
0.0
 11
465.5
 21
-250.2331869999999
 31
0.0
  0
TEXT
  5
182
  8
SIZE
  6
CONTINUOUS
 62
    30
 10
-74.05714285714285
 20
-225.2331869999999
 30
0.0
 40
64.0
  1
955
 41
0.9
 72
     1
 11
0.0
 21
-225.2331869999999
 31
0.0
  0
LINE
  5
183
  8
OUTLINE
  6
CONTINOUS
 62
     3
 10
440.0
 20
390.0
 30
0.0
 11
-440.0
 21
390.0
 31
0.0
  0
LINE
  5
184
  8
OUTLINE
  6
CONTINOUS
 62
     3
 10
440.0
 20
390.0
 30
0.0
 11
440.0
 21
0.0
 31
0.0
  0
LINE
  5
185
  8
OUTLINE
  6
CONTINOUS
 62
     3
 10
-440.0
 20
390.0
 30
0.0
 11
-440.0
 21
0.0
 31
0.0
  0
LINE
  5
186
  8
OUTLINE
  6
CONTINUOUS
 62
     3
 39
50.0
 10
477.5
 20
0.0
 30
0.0
 11
-477.5
 21
0.0
 31
0.0
  0
TEXT
  5
187
  8
ETC
  6
CONTINUOUS
 62
    61
 10
886.71926802395751
 20
675.31387608515843
 30
0.0
 40
50.0
  1
SKU-50AC
 41
0.9
  0
TEXT
  5
188
  8
ETC
  6
CONTINUOUS
 62
    61
 10
686.68902665461519
 20
753.19022280824981
 30
0.0
 40
64.0
  1
ロスナイ
 41
0.9
  0
TEXT
  5
189
  8
ETC
  6
CONTINUOUS
 62
    61
 10
694.60473365461519
 20
848.41954780824972
 30
0.0
 40
64.0
  1
SKU-50AC_3
 41
0.9
  0
ENDSEC
  0
EOF
