  0
SECTION
  2
HEADER
  9
$ACADVER
  1
AC1009
  9
$INSBASE
 10
0.0
 20
0.0
 30
0.0
  9
$EXTMIN
 10
-640.86815600000023
 20
-228.12137699999991
 30
0.0
  9
$EXTMAX
 10
1224.2764533046479
 20
902.29693980101911
 30
50.0
  9
$LIMMIN
 10
-2970.0
 20
-2100.0
  9
$LIMMAX
 10
2970.0
 20
2100.0
  9
$ORTHOMODE
 70
     1
  9
$REGENMODE
 70
     0
  9
$FILLMODE
 70
     1
  9
$QTEXTMODE
 70
     0
  9
$MIRRTEXT
 70
     0
  9
$DRAGMODE
 70
     2
  9
$LTSCALE
 40
20.0
  9
$OSMODE
 70
   165
  9
$ATTMODE
 70
     1
  9
$TEXTSIZE
 40
64.0
  9
$TRACEWID
 40
0.05
  9
$TEXTSTYLE
  7
STANDARD
  9
$CLAYER
  8
OUTLINE
  9
$CELTYPE
  6
CONTINUOUS
  9
$CECOLOR
 62
     3
  9
$DIMSCALE
 40
1.0
  9
$DIMASZ
 40
12.0
  9
$DIMEXO
 40
20.0
  9
$DIMDLI
 40
200.0
  9
$DIMRND
 40
0.0
  9
$DIMDLE
 40
0.0
  9
$DIMEXE
 40
20.0
  9
$DIMTP
 40
0.0
  9
$DIMTM
 40
0.0
  9
$DIMTXT
 40
64.0
  9
$DIMCEN
 40
0.09
  9
$DIMTSZ
 40
0.0
  9
$DIMTOL
 70
     0
  9
$DIMLIM
 70
     0
  9
$DIMTIH
 70
     0
  9
$DIMTOH
 70
     0
  9
$DIMSE1
 70
     0
  9
$DIMSE2
 70
     0
  9
$DIMTAD
 70
     1
  9
$DIMZIN
 70
     8
  9
$DIMBLK
  1
DOT1
  9
$DIMASO
 70
     1
  9
$DIMSHO
 70
     0
  9
$DIMPOST
  1

  9
$DIMAPOST
  1

  9
$DIMALT
 70
     0
  9
$DIMALTD
 70
     2
  9
$DIMALTF
 40
25.399999999999999
  9
$DIMLFAC
 40
1.0
  9
$DIMTOFL
 70
     1
  9
$DIMTVP
 40
0.0
  9
$DIMTIX
 70
     1
  9
$DIMSOXD
 70
     0
  9
$DIMSAH
 70
     1
  9
$DIMBLK1
  1
ORIGIN
  9
$DIMBLK2
  1
ORIGIN
  9
$DIMSTYLE
  2
STANDARD
  9
$DIMCLRD
 70
     0
  9
$DIMCLRE
 70
     0
  9
$DIMCLRT
 70
     0
  9
$DIMTFAC
 40
1.0
  9
$DIMGAP
 40
0.09
  9
$LUNITS
 70
     2
  9
$LUPREC
 70
     4
  9
$SKETCHINC
 40
0.1
  9
$FILLETRAD
 40
25.0
  9
$AUNITS
 70
     1
  9
$AUPREC
 70
     3
  9
$MENU
  1
ACAD
  9
$ELEVATION
 40
0.0
  9
$PELEVATION
 40
0.0
  9
$THICKNESS
 40
50.0
  9
$LIMCHECK
 70
     0
  9
$BLIPMODE
 70
     0
  9
$CHAMFERA
 40
0.0
  9
$CHAMFERB
 40
0.0
  9
$SKPOLY
 70
     0
  9
$TDCREATE
 40
2452321.3961996529
  9
$TDUPDATE
 40
2454720.5172283682
  9
$TDINDWG
 40
0.2929553009
  9
$TDUSRTIMER
 40
0.2929553009
  9
$USRTIMER
 70
     1
  9
$ANGBASE
 50
0.0
  9
$ANGDIR
 70
     0
  9
$PDMODE
 70
     3
  9
$PDSIZE
 40
-2.0
  9
$PLINEWID
 40
0.0
  9
$COORDS
 70
     2
  9
$SPLFRAME
 70
     0
  9
$SPLINETYPE
 70
     6
  9
$SPLINESEGS
 70
     8
  9
$ATTDIA
 70
     0
  9
$ATTREQ
 70
     1
  9
$HANDLING
 70
 22529
  9
$HANDSEED
  5
238
  9
$SURFTAB1
 70
     6
  9
$SURFTAB2
 70
     6
  9
$SURFTYPE
 70
     6
  9
$SURFU
 70
     6
  9
$SURFV
 70
     6
  9
$UCSNAME
  2

  9
$UCSORG
 10
0.0
 20
0.0
 30
0.0
  9
$UCSXDIR
 10
1.0
 20
0.0
 30
0.0
  9
$UCSYDIR
 10
0.0
 20
1.0
 30
0.0
  9
$PUCSNAME
  2

  9
$PUCSORG
 10
0.0
 20
0.0
 30
0.0
  9
$PUCSXDIR
 10
1.0
 20
0.0
 30
0.0
  9
$PUCSYDIR
 10
0.0
 20
1.0
 30
0.0
  9
$USERI1
 70
     0
  9
$USERI2
 70
     0
  9
$USERI3
 70
     0
  9
$USERI4
 70
     0
  9
$USERI5
 70
     0
  9
$USERR1
 40
20.0
  9
$USERR2
 40
0.0
  9
$USERR3
 40
0.0
  9
$USERR4
 40
0.0
  9
$USERR5
 40
0.0
  9
$WORLDVIEW
 70
     1
  9
$SHADEDGE
 70
     3
  9
$SHADEDIF
 70
    70
  9
$TILEMODE
 70
     1
  9
$MAXACTVP
 70
    64
  9
$PLIMCHECK
 70
     0
  9
$PEXTMIN
 10
1.0000000000000000E+020
 20
1.0000000000000000E+020
 30
1.0000000000000000E+020
  9
$PEXTMAX
 10
-1.0000000000000000E+020
 20
-1.0000000000000000E+020
 30
-1.0000000000000000E+020
  9
$PLIMMIN
 10
0.0
 20
0.0
  9
$PLIMMAX
 10
12.0
 20
9.0
  9
$UNITMODE
 70
     0
  9
$VISRETAIN
 70
     1
  9
$PLINEGEN
 70
     0
  9
$PSLTSCALE
 70
     1
  0
ENDSEC
  0
SECTION
  2
TABLES
  0
TABLE
  2
VPORT
 70
     3
  0
VPORT
  2
*ACTIVE
 70
     0
 10
0.0
 20
0.0
 11
1.0
 21
1.0
 12
299.5598398870531
 22
332.83962888112592
 13
0.0
 23
0.0
 14
1.0
 24
1.0
 15
0.0
 25
0.0
 16
0.0
 26
0.0
 36
1.0
 17
0.0
 27
0.0
 37
0.0
 40
1542.155325737155
 41
1.493654822335025
 42
50.0
 43
0.0
 44
0.0
 50
0.0
 51
0.0
 71
     0
 72
   100
 73
     1
 74
     0
 75
     0
 76
     0
 77
     0
 78
     0
  0
ENDTAB
  0
TABLE
  2
LTYPE
 70
     3
  0
LTYPE
  2
CONTINUOUS
 70
     0
  3
実線
 72
    65
 73
     0
 40
0.0
  0
LTYPE
  2
DASHDOT
 70
     0
  3
____ _ ____ _ ____ _ ____ _ ____ _ ____ _ ____
 72
    65
 73
     4
 40
5.5
 49
4.0
 49
-0.6
 49
0.3
 49
-0.6
  0
LTYPE
  2
CONTINOUS
 70
     0
  3
Solid line
 72
    65
 73
     0
 40
0.0
  0
ENDTAB
  0
TABLE
  2
LAYER
 70
    12
  0
LAYER
  2
0
 70
     0
 62
     7
  6
CONTINUOUS
  0
LAYER
  2
SIZE
 70
     0
 62
    30
  6
CONTINUOUS
  0
LAYER
  2
BASIS
 70
     0
 62
     6
  6
DASHDOT
  0
LAYER
  2
OUTLINE
 70
     0
 62
     3
  6
CONTINUOUS
  0
LAYER
  2
DETAIL
 70
     0
 62
     5
  6
CONTINUOUS
  0
LAYER
  2
ARRANGE
 70
     0
 62
     1
  6
CONTINUOUS
  0
LAYER
  2
DEFPOINTS
 70
     0
 62
     7
  6
CONTINUOUS
  0
LAYER
  2
ETC
 70
     0
 62
    61
  6
CONTINUOUS
  0
LAYER
  2
FIX
 70
     0
 62
    11
  6
CONTINUOUS
  0
LAYER
  2
NOTE
 70
     0
 62
     4
  6
CONTINUOUS
  0
LAYER
  2
SERVICESPACE
 70
     0
 62
     2
  6
DASHDOT
  0
LAYER
  2
SYMBOLLINE
 70
     0
 62
    15
  6
CONTINUOUS
  0
ENDTAB
  0
TABLE
  2
STYLE
 70
     1
  0
STYLE
  2
STANDARD
 70
     0
 40
64.0
 41
0.9
 50
0.0
 71
     0
 42
64.0
  3
SIMPLEX.shx
  4
BIGFONT.shx
  0
ENDTAB
  0
TABLE
  2
VIEW
 70
     1
  0
VIEW
  2
ALL
 70
     0
 40
4282.6198079999976
 10
0.0
 20
41.309903999999989
 41
5940.0
 11
0.0
 21
0.0
 31
1.0
 12
0.0
 22
0.0
 32
0.0
 42
50.0
 43
0.0
 44
0.0
 50
0.0
 71
     0
  0
ENDTAB
  0
TABLE
  2
UCS
 70
     0
  0
ENDTAB
  0
TABLE
  2
APPID
 70
     1
  0
APPID
  2
ACAD
 70
     0
  0
ENDTAB
  0
TABLE
  2
DIMSTYLE
 70
     1
  0
DIMSTYLE
  2
STANDARD
 70
     0
  3

  4

  5

  6

  7

 40
1.0
 41
0.18
 42
0.0625
 43
0.38
 44
0.18
 45
0.0
 46
0.0
 47
0.0
 48
0.0
140
0.18
141
0.09
142
0.0
143
25.399999999999999
144
1.0
145
0.0
146
1.0
147
0.09
 71
     0
 72
     0
 73
     1
 74
     1
 75
     0
 76
     0
 77
     0
 78
     0
170
     0
171
     2
172
     0
173
     0
174
     0
175
     0
176
     0
177
     0
178
     0
  0
ENDTAB
  0
ENDSEC
  0
SECTION
  2
BLOCKS
  0
BLOCK
  8
0
  2
$MODEL_SPACE
 70
     0
 10
0.0
 20
0.0
 30
0.0
  3
$MODEL_SPACE
  1

  0
ENDBLK
  5
12D
  8
0
  0
BLOCK
 67
     1
  8
0
  2
$PAPER_SPACE
 70
     0
 10
0.0
 20
0.0
 30
0.0
  3
$PAPER_SPACE
  1

  0
ENDBLK
  5
129
 67
     1
  8
0
  0
BLOCK
  8
0
  2
DOT1
 70
     0
 10
0.0
 20
0.0
 30
0.0
  3
DOT1
  1

  0
CIRCLE
  5
149
  8
SIZE
  6
CONTINUOUS
 62
     7
 10
0.0
 20
0.0
 30
0.0
 40
3.0
  0
ENDBLK
  5
14A
  8
0
  0
BLOCK
  8
0
  2
_ORIGIN
 70
     0
 10
0.0
 20
0.0
 30
0.0
  3
_ORIGIN
  1

  0
CIRCLE
  5
14D
  8
0
  6
CONTINUOUS
 62
     7
 10
0.0
 20
0.0
 30
0.0
 40
0.5
  0
LINE
  5
14E
  8
0
  6
CONTINUOUS
 62
     7
 10
0.0
 20
0.0
 30
0.0
 11
-1.0
 21
0.0
 31
0.0
  0
ENDBLK
  5
14F
  8
0
  0
ENDSEC
  0
SECTION
  2
ENTITIES
  0
LINE
  5
150
  8
DETAIL
  6
CONTINUOUS
 62
     5
 10
260.0
 20
390.0
 30
0.0
 11
260.0
 21
0.0
 31
0.0
  0
LINE
  5
151
  8
DETAIL
  6
CONTINUOUS
 62
     5
 10
-260.0
 20
390.0
 30
0.0
 11
-260.0
 21
0.0
 31
0.0
  0
LINE
  5
152
  8
BASIS
  6
DASHDOT
 62
     6
 10
0.0
 20
452.0
 30
0.0
 11
0.0
 21
-75.619439
 31
0.0
  0
POINT
  5
153
  8
ARRANGE
  6
CONTINOUS
 62
     1
 10
0.0
 20
0.0
 30
0.0
  0
CIRCLE
  5
154
  8
ARRANGE
  6
CONTINUOUS
 62
     1
 10
0.0
 20
0.0
 30
0.0
 40
40.0
  0
LINE
  5
155
  8
DETAIL
  6
CONTINUOUS
 62
     5
 10
260.0
 20
390.0
 30
0.0
 11
-260.0
 21
390.0
 31
0.0
  0
LINE
  5
156
  8
BASIS
  6
DASHDOT
 62
     6
 10
394.352732
 20
248.0
 30
0.0
 11
195.01569199999989
 21
248.0
 31
0.0
  0
LINE
  5
157
  8
NOTE
  6
CONTINUOUS
 62
     4
 39
50.0
 10
-206.0
 20
390.0
 30
0.0
 11
-338.94116000000002
 21
507.31135699999999
 31
0.0
  0
LINE
  5
158
  8
NOTE
  6
CONTINUOUS
 62
     4
 10
-481.65959599999991
 20
507.31135699999999
 30
0.0
 11
-338.94116000000002
 21
507.31135699999999
 31
0.0
  0
LINE
  5
159
  8
NOTE
  6
CONTINUOUS
 62
     4
 10
-228.125575
 20
423.32354900000001
 30
0.0
 11
-206.0
 21
390.0
 31
0.0
  0
LINE
  5
15A
  8
NOTE
  6
CONTINUOUS
 62
     4
 10
-206.0
 20
390.0
 30
0.0
 11
-241.82308499999999
 21
407.79625199999981
 31
0.0
  0
LINE
  5
15B
  8
NOTE
  6
CONTINUOUS
 62
     4
 10
-206.0
 20
370.0
 30
0.0
 11
-206.0
 21
410.0
 31
0.0
  0
LINE
  5
15C
  8
NOTE
  6
CONTINUOUS
 62
     4
 10
-186.0
 20
390.0
 30
0.0
 11
-226.0
 21
390.0
 31
0.0
  0
TEXT
  5
15D
  8
NOTE
  6
CONTINUOUS
 62
     4
 10
402.558223
 20
530.67188499999997
 30
0.0
 40
64.0
  1
AH 4-φ13×30
 41
0.9
  0
LINE
  5
15E
  8
NOTE
  6
CONTINUOUS
 62
     4
 10
393.60726899999992
 20
505.40250499999991
 30
0.0
 11
1024.0429999999999
 21
505.40250499999991
 31
0.0
  0
LINE
  5
15F
  8
NOTE
  6
CONTINUOUS
 62
     4
 10
210.0
 20
380.0
 30
0.0
 11
393.60726899999992
 21
505.40250499999991
 31
0.0
  0
LINE
  5
160
  8
NOTE
  6
CONTINUOUS
 62
     4
 10
247.68996299999981
 20
393.39651800000001
 30
0.0
 11
210.0
 21
380.0
 31
0.0
  0
LINE
  5
161
  8
NOTE
  6
CONTINUOUS
 62
     4
 10
210.0
 20
380.0
 30
0.0
 11
235.94220599999991
 21
410.446707
 31
0.0
  0
TEXT
  5
162
  8
NOTE
  6
CONTINUOUS
 62
     4
 10
-449.99966999999992
 20
532.58073699999977
 30
0.0
 40
64.0
  1
EL
 41
0.9
  0
TEXT
  5
163
  8
NOTE
  6
CONTINUOUS
 62
     4
 10
308.85047200000002
 20
47.752157000000011
 30
0.0
 40
64.0
  1
EA
 41
0.9
  0
LINE
  5
164
  8
DETAIL
  6
CONTINUOUS
 62
     5
 39
50.0
 10
185.0
 20
367.0
 30
0.0
 11
245.0
 21
367.0
 31
0.0
  0
LINE
  5
165
  8
DETAIL
  6
CONTINUOUS
 62
     5
 39
50.0
 10
245.0
 20
377.69999999999999
 30
0.0
 11
184.59999999999999
 21
377.69999999999999
 31
0.0
  0
LINE
  5
166
  8
DETAIL
  6
CONTINUOUS
 62
     5
 39
50.0
 10
245.0
 20
380.0
 30
0.0
 11
184.59999999999999
 21
380.0
 31
0.0
  0
LINE
  5
167
  8
DETAIL
  6
CONTINUOUS
 62
     5
 39
50.0
 10
245.0
 20
380.0
 30
0.0
 11
245.0
 21
367.0
 31
0.0
  0
LINE
  5
168
  8
DETAIL
  6
CONTINUOUS
 62
     5
 39
50.0
 10
185.0
 20
377.69999999999999
 30
0.0
 11
185.0
 21
367.0
 31
0.0
  0
ARC
  5
169
  8
DETAIL
  6
CONTINUOUS
 62
     5
 39
50.0
 10
184.59999999999999
 20
375.39999999999998
 30
0.0
 40
2.299999999999998
 50
90.0
 51
180.0
  0
ARC
  5
16A
  8
DETAIL
  6
CONTINUOUS
 62
     5
 39
50.0
 10
184.59999999999999
 20
375.39999999999998
 30
0.0
 40
4.5999999999999979
 50
90.0
 51
180.0
  0
ARC
  5
16B
  8
DETAIL
  6
CONTINUOUS
 62
     5
 39
50.0
 10
184.59999999999999
 20
382.30000000000001
 30
0.0
 40
2.299999999999998
 50
180.0
 51
270.0
  0
LINE
  5
16C
  8
DETAIL
  6
CONTINUOUS
 62
     5
 39
50.0
 10
180.0
 20
370.0
 30
0.0
 11
180.0
 21
375.39999999999998
 31
0.0
  0
LINE
  5
16D
  8
DETAIL
  6
CONTINUOUS
 62
     5
 39
50.0
 10
182.30000000000001
 20
370.0
 30
0.0
 11
180.0
 21
370.0
 31
0.0
  0
LINE
  5
16E
  8
DETAIL
  6
CONTINUOUS
 62
     5
 39
50.0
 10
182.30000000000001
 20
370.0
 30
0.0
 11
182.30000000000001
 21
375.39999999999998
 31
0.0
  0
LINE
  5
16F
  8
DETAIL
  6
CONTINUOUS
 62
     5
 39
50.0
 10
180.0
 20
382.30000000000001
 30
0.0
 11
180.0
 21
387.69999999999987
 31
0.0
  0
LINE
  5
170
  8
DETAIL
  6
CONTINUOUS
 62
     5
 39
50.0
 10
182.30000000000001
 20
387.69999999999987
 30
0.0
 11
180.0
 21
387.69999999999987
 31
0.0
  0
LINE
  5
171
  8
DETAIL
  6
CONTINUOUS
 62
     5
 39
50.0
 10
182.30000000000001
 20
382.30000000000001
 30
0.0
 11
182.30000000000001
 21
387.69999999999987
 31
0.0
  0
ARC
  5
172
  8
DETAIL
  6
CONTINUOUS
 62
     5
 39
50.0
 10
184.59999999999999
 20
382.30000000000001
 30
0.0
 40
4.5999999999999979
 50
180.0
 51
228.5903779999999
  0
CIRCLE
  5
173
  8
FIX
  6
CONTINUOUS
 62
    11
 39
50.0
 10
210.0
 20
380.0
 30
0.0
 40
6.5
  0
LINE
  5
174
  8
NOTE
  6
CONTINUOUS
 62
     4
 10
210.0
 20
360.0
 30
0.0
 11
210.0
 21
400.0
 31
0.0
  0
LINE
  5
175
  8
NOTE
  6
CONTINUOUS
 62
     4
 10
230.0
 20
380.0
 30
0.0
 11
190.0
 21
380.0
 31
0.0
  0
LINE
  5
176
  8
DETAIL
  6
CONTINUOUS
 62
     5
 39
50.0
 10
-235.0
 20
367.0
 30
0.0
 11
-175.0
 21
367.0
 31
0.0
  0
LINE
  5
177
  8
DETAIL
  6
CONTINUOUS
 62
     5
 39
50.0
 10
-175.0
 20
377.69999999999999
 30
0.0
 11
-235.40000000000001
 21
377.69999999999999
 31
0.0
  0
LINE
  5
178
  8
DETAIL
  6
CONTINUOUS
 62
     5
 39
50.0
 10
-175.0
 20
380.0
 30
0.0
 11
-235.40000000000001
 21
380.0
 31
0.0
  0
LINE
  5
179
  8
DETAIL
  6
CONTINUOUS
 62
     5
 39
50.0
 10
-175.0
 20
380.0
 30
0.0
 11
-175.0
 21
367.0
 31
0.0
  0
LINE
  5
17A
  8
DETAIL
  6
CONTINUOUS
 62
     5
 39
50.0
 10
-235.0
 20
377.69999999999999
 30
0.0
 11
-235.0
 21
367.0
 31
0.0
  0
ARC
  5
17B
  8
DETAIL
  6
CONTINUOUS
 62
     5
 39
50.0
 10
-235.40000000000001
 20
375.39999999999998
 30
0.0
 40
2.299999999999998
 50
90.0
 51
180.0
  0
ARC
  5
17C
  8
DETAIL
  6
CONTINUOUS
 62
     5
 39
50.0
 10
-235.40000000000001
 20
375.39999999999998
 30
0.0
 40
4.5999999999999979
 50
90.0
 51
180.0
  0
ARC
  5
17D
  8
DETAIL
  6
CONTINUOUS
 62
     5
 39
50.0
 10
-235.40000000000001
 20
382.30000000000001
 30
0.0
 40
2.299999999999998
 50
180.0
 51
270.0
  0
LINE
  5
17E
  8
DETAIL
  6
CONTINUOUS
 62
     5
 39
50.0
 10
-240.0
 20
370.0
 30
0.0
 11
-240.0
 21
375.39999999999998
 31
0.0
  0
LINE
  5
17F
  8
DETAIL
  6
CONTINUOUS
 62
     5
 39
50.0
 10
-237.6999999999999
 20
370.0
 30
0.0
 11
-240.0
 21
370.0
 31
0.0
  0
LINE
  5
180
  8
DETAIL
  6
CONTINUOUS
 62
     5
 39
50.0
 10
-237.6999999999999
 20
370.0
 30
0.0
 11
-237.6999999999999
 21
375.39999999999998
 31
0.0
  0
LINE
  5
181
  8
DETAIL
  6
CONTINUOUS
 62
     5
 39
50.0
 10
-240.0
 20
382.30000000000001
 30
0.0
 11
-240.0
 21
387.69999999999987
 31
0.0
  0
LINE
  5
182
  8
DETAIL
  6
CONTINUOUS
 62
     5
 39
50.0
 10
-237.6999999999999
 20
387.69999999999987
 30
0.0
 11
-240.0
 21
387.69999999999987
 31
0.0
  0
LINE
  5
183
  8
DETAIL
  6
CONTINUOUS
 62
     5
 39
50.0
 10
-237.6999999999999
 20
382.30000000000001
 30
0.0
 11
-237.6999999999999
 21
387.69999999999987
 31
0.0
  0
ARC
  5
184
  8
DETAIL
  6
CONTINUOUS
 62
     5
 39
50.0
 10
-235.40000000000001
 20
382.30000000000001
 30
0.0
 40
4.5999999999999979
 50
180.0
 51
228.5903779999999
  0
CIRCLE
  5
185
  8
FIX
  6
CONTINUOUS
 62
    11
 39
50.0
 10
-210.0
 20
380.0
 30
0.0
 40
6.5
  0
LINE
  5
186
  8
NOTE
  6
CONTINUOUS
 62
     4
 10
-210.0
 20
360.0
 30
0.0
 11
-210.0
 21
400.0
 31
0.0
  0
LINE
  5
187
  8
NOTE
  6
CONTINUOUS
 62
     4
 10
-190.0
 20
380.0
 30
0.0
 11
-230.0
 21
380.0
 31
0.0
  0
LINE
  5
188
  8
SIZE
  6
CONTINUOUS
 62
    30
 10
280.0
 20
390.0
 30
0.0
 11
608.08558700000003
 21
390.0
 31
0.0
  0
LINE
  5
189
  8
SIZE
  6
CONTINUOUS
 62
    30
 10
414.352732
 20
248.0
 30
0.0
 11
608.08558700000003
 21
248.0
 31
0.0
  0
LINE
  5
18A
  8
SIZE
  6
CONTINUOUS
 62
    30
 10
588.08558700000003
 20
378.0
 30
0.0
 11
588.08558700000003
 21
260.0
 31
0.0
  0
LINE
  5
18B
  8
SIZE
  6
CONTINUOUS
 62
    30
 10
588.08558700000003
 20
248.0
 30
0.0
 11
588.08558700000003
 21
-49.563841000000018
 31
0.0
  0
CIRCLE
  5
18C
  8
SIZE
  6
CONTINUOUS
 62
    30
 10
588.08558700000003
 20
390.0
 30
0.0
 40
6.0
  0
LINE
  5
18D
  8
SIZE
  6
CONTINUOUS
 62
    30
 10
588.08558700000003
 20
390.0
 30
0.0
 11
588.08558700000003
 21
378.0
 31
0.0
  0
CIRCLE
  5
18E
  8
SIZE
  6
CONTINUOUS
 62
    30
 10
588.08558700000003
 20
248.0
 30
0.0
 40
6.0
  0
LINE
  5
18F
  8
SIZE
  6
CONTINUOUS
 62
    30
 10
588.08558700000003
 20
248.0
 30
0.0
 11
588.08558700000003
 21
260.0
 31
0.0
  0
TEXT
  5
190
  8
SIZE
  6
CONTINUOUS
 62
    30
 10
563.08558700000003
 20
-24.563840571428571
 30
0.0
 40
64.0
  1
142
 50
90.0
 41
0.9
 72
     1
 11
563.08558700000003
 21
44.007587999999998
 31
0.0
  0
LINE
  5
191
  8
SIZE
  6
CONTINUOUS
 62
    30
 10
-260.0
 20
410.0
 30
0.0
 11
-260.0
 21
676.6304429999999
 31
0.0
  0
LINE
  5
193
  8
SIZE
  6
CONTINUOUS
 62
    30
 10
-253.0
 20
656.63044300000001
 30
0.0
 11
253.0
 21
656.63044300000001
 31
0.0
  0
CIRCLE
  5
194
  8
SIZE
  6
CONTINUOUS
 62
    30
 10
-260.0
 20
656.63044300000001
 30
0.0
 40
6.0
  0
LINE
  5
195
  8
SIZE
  6
CONTINUOUS
 62
    30
 10
-260.0
 20
656.63044300000001
 30
0.0
 11
-248.0
 21
656.63044300000001
 31
0.0
  0
CIRCLE
  5
196
  8
SIZE
  6
CONTINUOUS
 62
    30
 10
260.0
 20
656.63044300000001
 30
0.0
 40
6.0
  0
LINE
  5
197
  8
SIZE
  6
CONTINUOUS
 62
    30
 10
260.0
 20
656.63044300000001
 30
0.0
 11
248.0
 21
656.63044300000001
 31
0.0
  0
TEXT
  5
198
  8
SIZE
  6
CONTINUOUS
 62
    30
 10
-74.05714285714285
 20
681.63044300000001
 30
0.0
 40
64.0
  1
520
 41
0.9
 72
     1
 11
0.0
 21
681.63044300000001
 31
0.0
  0
LINE
  5
199
  8
SIZE
  6
CONTINUOUS
 62
    30
 10
-210.0
 20
420.0
 30
0.0
 11
-210.0
 21
550.31645199999991
 31
0.0
  0
LINE
  5
19A
  8
SIZE
  6
CONTINUOUS
 62
    30
 10
210.0
 20
420.0
 30
0.0
 11
210.0
 21
550.31645199999991
 31
0.0
  0
LINE
  5
19B
  8
SIZE
  6
CONTINUOUS
 62
    30
 10
-198.0
 20
530.31645199999991
 30
0.0
 11
198.0
 21
530.31645199999991
 31
0.0
  0
CIRCLE
  5
19C
  8
SIZE
  6
CONTINUOUS
 62
    30
 10
-210.0
 20
530.31645199999991
 30
0.0
 40
6.0
  0
LINE
  5
19D
  8
SIZE
  6
CONTINUOUS
 62
    30
 10
-210.0
 20
530.31645199999991
 30
0.0
 11
-198.0
 21
530.31645199999991
 31
0.0
  0
CIRCLE
  5
19E
  8
SIZE
  6
CONTINUOUS
 62
    30
 10
210.0
 20
530.31645199999991
 30
0.0
 40
6.0
  0
LINE
  5
19F
  8
SIZE
  6
CONTINUOUS
 62
    30
 10
210.0
 20
530.31645199999991
 30
0.0
 11
198.0
 21
530.31645199999991
 31
0.0
  0
TEXT
  5
1A0
  8
SIZE
  6
CONTINUOUS
 62
    30
 10
-74.05714285714285
 20
555.31645199999991
 30
0.0
 40
64.0
  1
420
 41
0.9
 72
     1
 11
0.0
 21
555.31645199999991
 31
0.0
  0
LINE
  5
1A1
  8
SIZE
  6
CONTINUOUS
 62
    30
 10
260.0
 20
410.0
 30
0.0
 11
260.0
 21
676.6304429999999
 31
0.0
  0
LINE
  5
1A2
  8
SIZE
  6
CONTINUOUS
 62
    30
 10
345.0
 20
364.0
 30
0.0
 11
345.0
 21
676.6304429999999
 31
0.0
  0
LINE
  5
1A3
  8
SIZE
  6
CONTINUOUS
 62
    30
 10
248.0
 20
656.63044300000001
 30
0.0
 11
236.0
 21
656.63044300000001
 31
0.0
  0
LINE
  5
1A4
  8
SIZE
  6
CONTINUOUS
 62
    30
 10
357.0
 20
656.63044300000001
 30
0.0
 11
369.0
 21
656.63044300000001
 31
0.0
  0
LINE
  5
1A5
  8
SIZE
  6
CONTINUOUS
 62
    30
 10
260.0
 20
656.63044300000001
 30
0.0
 11
345.0
 21
656.63044300000001
 31
0.0
  0
CIRCLE
  5
1A6
  8
SIZE
  6
CONTINUOUS
 62
    30
 10
260.0
 20
656.63044300000001
 30
0.0
 40
6.0
  0
LINE
  5
1A7
  8
SIZE
  6
CONTINUOUS
 62
    30
 10
260.0
 20
656.63044300000001
 30
0.0
 11
248.0
 21
656.63044300000001
 31
0.0
  0
CIRCLE
  5
1A8
  8
SIZE
  6
CONTINUOUS
 62
    30
 10
345.0
 20
656.63044300000001
 30
0.0
 40
6.0
  0
LINE
  5
1A9
  8
SIZE
  6
CONTINUOUS
 62
    30
 10
345.0
 20
656.63044300000001
 30
0.0
 11
357.0
 21
656.63044300000001
 31
0.0
  0
TEXT
  5
1AA
  8
SIZE
  6
CONTINUOUS
 62
    30
 10
255.87142857142851
 20
681.63044300000001
 30
0.0
 40
64.0
  1
85
 41
0.9
 72
     1
 11
302.49999999999989
 21
681.63044300000001
 31
0.0
  0
LINE
  5
1AB
  8
SIZE
  6
CONTINUOUS
 62
    30
 10
-318.0
 20
0.0
 30
0.0
 11
-571.868156
 21
0.0
 31
0.0
  0
LINE
  5
1AC
  8
SIZE
  6
CONTINUOUS
 62
    30
 10
-285.0
 20
390.0
 30
0.0
 11
-571.868156
 21
390.0
 31
0.0
  0
LINE
  5
1AD
  8
SIZE
  6
CONTINUOUS
 62
    30
 10
-551.868156
 20
12.0
 30
0.0
 11
-551.868156
 21
378.0
 31
0.0
  0
CIRCLE
  5
1AE
  8
SIZE
  6
CONTINUOUS
 62
    30
 10
-551.868156
 20
0.0
 30
0.0
 40
6.0
  0
LINE
  5
1AF
  8
SIZE
  6
CONTINUOUS
 62
    30
 10
-551.868156
 20
0.0
 30
0.0
 11
-551.868156
 21
12.0
 31
0.0
  0
CIRCLE
  5
1B0
  8
SIZE
  6
CONTINUOUS
 62
    30
 10
-551.868156
 20
390.0
 30
0.0
 40
6.0
  0
LINE
  5
1B1
  8
SIZE
  6
CONTINUOUS
 62
    30
 10
-551.868156
 20
390.0
 30
0.0
 11
-551.868156
 21
378.0
 31
0.0
  0
TEXT
  5
1B2
  8
SIZE
  6
CONTINUOUS
 62
    30
 10
-576.868156
 20
120.94285714285709
 30
0.0
 40
64.0
  1
390
 50
90.0
 41
0.9
 72
     1
 11
-576.868156
 21
195.0
 31
0.0
  0
LINE
  5
1B3
  8
SIZE
  6
CONTINUOUS
 62
    30
 10
-285.0
 20
390.0
 30
0.0
 11
-438.86918700000001
 21
390.0
 31
0.0
  0
LINE
  5
1B4
  8
SIZE
  6
CONTINUOUS
 62
    30
 10
-255.0
 20
380.0
 30
0.0
 11
-438.86918700000001
 21
380.0
 31
0.0
  0
LINE
  5
1B5
  8
SIZE
  6
CONTINUOUS
 62
    30
 10
-418.86918700000001
 20
402.0
 30
0.0
 11
-418.86918700000001
 21
414.0
 31
0.0
  0
LINE
  5
1B6
  8
SIZE
  6
CONTINUOUS
 62
    30
 10
-418.86918700000001
 20
368.0
 30
0.0
 11
-418.86918700000001
 21
210.195168
 31
0.0
  0
LINE
  5
1B7
  8
SIZE
  6
CONTINUOUS
 62
    30
 10
-418.86918700000001
 20
390.0
 30
0.0
 11
-418.86918700000001
 21
380.0
 31
0.0
  0
CIRCLE
  5
1B8
  8
SIZE
  6
CONTINUOUS
 62
    30
 10
-418.86918700000001
 20
390.0
 30
0.0
 40
6.0
  0
LINE
  5
1B9
  8
SIZE
  6
CONTINUOUS
 62
    30
 10
-418.86918700000001
 20
390.0
 30
0.0
 11
-418.86918700000001
 21
402.0
 31
0.0
  0
CIRCLE
  5
1BA
  8
SIZE
  6
CONTINUOUS
 62
    30
 10
-418.86918700000001
 20
380.0
 30
0.0
 40
6.0
  0
LINE
  5
1BB
  8
SIZE
  6
CONTINUOUS
 62
    30
 10
-418.86918700000001
 20
380.0
 30
0.0
 11
-418.86918700000001
 21
368.0
 31
0.0
  0
TEXT
  5
1BC
  8
SIZE
  6
CONTINUOUS
 62
    30
 10
-443.86918700000001
 20
235.19516785714279
 30
0.0
 40
64.0
  1
10
 50
90.0
 41
0.9
 72
     1
 11
-443.86918700000001
 21
276.33802500000002
 31
0.0
  0
LINE
  5
1BD
  8
SIZE
  6
CONTINUOUS
 62
    30
 10
-318.0
 20
0.0
 30
0.0
 11
-571.868156
 21
0.0
 31
0.0
  0
LINE
  5
1BE
  8
SIZE
  6
CONTINUOUS
 62
    30
 10
-288.0
 20
-23.0
 30
0.0
 11
-571.868156
 21
-23.0
 31
0.0
  0
LINE
  5
1BF
  8
SIZE
  6
CONTINUOUS
 62
    30
 10
-551.868156
 20
12.0
 30
0.0
 11
-551.868156
 21
24.0
 31
0.0
  0
LINE
  5
1C0
  8
SIZE
  6
CONTINUOUS
 62
    30
 10
-551.868156
 20
-35.0
 30
0.0
 11
-551.868156
 21
-190.2571429999999
 31
0.0
  0
LINE
  5
1C1
  8
SIZE
  6
CONTINUOUS
 62
    30
 10
-551.868156
 20
0.0
 30
0.0
 11
-551.868156
 21
-23.0
 31
0.0
  0
CIRCLE
  5
1C2
  8
SIZE
  6
CONTINUOUS
 62
    30
 10
-551.868156
 20
0.0
 30
0.0
 40
6.0
  0
LINE
  5
1C3
  8
SIZE
  6
CONTINUOUS
 62
    30
 10
-551.868156
 20
0.0
 30
0.0
 11
-551.868156
 21
12.0
 31
0.0
  0
CIRCLE
  5
1C4
  8
SIZE
  6
CONTINUOUS
 62
    30
 10
-551.868156
 20
-23.0
 30
0.0
 40
6.0
  0
LINE
  5
1C5
  8
SIZE
  6
CONTINUOUS
 62
    30
 10
-551.868156
 20
-23.0
 30
0.0
 11
-551.868156
 21
-35.0
 31
0.0
  0
TEXT
  5
1C6
  8
SIZE
  6
CONTINUOUS
 62
    30
 10
-576.868156
 20
-165.2571424285712
 30
0.0
 40
64.0
  1
23
 50
90.0
 41
0.9
 72
     1
 11
-576.868156
 21
-118.62857099999979
 31
0.0
  0
LINE
  5
1C7
  8
DETAIL
  6
CONTINUOUS
 62
     5
 10
345.0
 20
344.0
 30
0.0
 11
345.0
 21
152.0
 31
0.0
  0
LINE
  5
1C8
  8
DETAIL
  6
CONTINUOUS
 62
     5
 10
260.0
 20
144.0
 30
0.0
 11
345.0
 21
152.0
 31
0.0
  0
LINE
  5
1C9
  8
DETAIL
  6
CONTINUOUS
 62
     5
 10
345.0
 20
344.0
 30
0.0
 11
260.0
 21
352.0
 31
0.0
  0
LINE
  5
1CA
  8
DETAIL
  6
CONTINUOUS
 62
     5
 39
50.0
 10
-298.0
 20
0.0
 30
0.0
 11
298.0
 21
0.0
 31
0.0
  0
LINE
  5
1CB
  8
DETAIL
  6
CONTINUOUS
 62
     5
 39
50.0
 10
0.0
 20
-23.0
 30
0.0
 11
268.0
 21
-23.0
 31
0.0
  0
ARC
  5
1CC
  8
DETAIL
  6
CONTINUOUS
 62
     5
 39
50.0
 10
221.92001400000001
 20
87.799976999999998
 30
0.0
 40
120.0
 50
292.58166599999993
 51
309.34584699999988
  0
LINE
  5
1CD
  8
DETAIL
  6
CONTINUOUS
 62
     5
 39
50.0
 10
298.0
 20
-5.0
 30
0.0
 11
298.0
 21
0.0
 31
0.0
  0
LINE
  5
1CE
  8
DETAIL
  6
CONTINUOUS
 62
     5
 39
50.0
 10
-298.0
 20
-5.0
 30
0.0
 11
-298.0
 21
0.0
 31
0.0
  0
ARC
  5
1CF
  8
DETAIL
  6
CONTINUOUS
 62
     5
 39
50.0
 10
-221.92001400000001
 20
87.799976999999998
 30
0.0
 40
120.0
 50
230.65415299999989
 51
247.41833399999999
  0
LINE
  5
1D0
  8
DETAIL
  6
CONTINUOUS
 62
     5
 39
50.0
 10
0.0
 20
-23.0
 30
0.0
 11
-268.0
 21
-23.0
 31
0.0
  0
LINE
  5
1D1
  8
SIZE
  6
CONTINUOUS
 62
    30
 10
-298.0
 20
-20.0
 30
0.0
 11
-298.0
 21
-228.12137699999991
 31
0.0
  0
LINE
  5
1D2
  8
SIZE
  6
CONTINUOUS
 62
    30
 10
298.0
 20
-20.0
 30
0.0
 11
298.0
 21
-228.12137699999991
 31
0.0
  0
LINE
  5
1D3
  8
SIZE
  6
CONTINUOUS
 62
    30
 10
-286.0
 20
-208.121377
 30
0.0
 11
286.0
 21
-208.121377
 31
0.0
  0
CIRCLE
  5
1D4
  8
SIZE
  6
CONTINUOUS
 62
    30
 10
-298.0
 20
-208.121377
 30
0.0
 40
6.0
  0
LINE
  5
1D5
  8
SIZE
  6
CONTINUOUS
 62
    30
 10
-298.0
 20
-208.121377
 30
0.0
 11
-286.0
 21
-208.121377
 31
0.0
  0
CIRCLE
  5
1D6
  8
SIZE
  6
CONTINUOUS
 62
    30
 10
298.0
 20
-208.121377
 30
0.0
 40
6.0
  0
LINE
  5
1D7
  8
SIZE
  6
CONTINUOUS
 62
    30
 10
298.0
 20
-208.121377
 30
0.0
 11
286.0
 21
-208.121377
 31
0.0
  0
TEXT
  5
1D8
  8
SIZE
  6
CONTINUOUS
 62
    30
 10
-72.685714285714297
 20
-183.12137699999991
 30
0.0
 40
64.0
  1
596
 41
0.9
 72
     1
 11
0.0
 21
-183.12137699999991
 31
0.0
  0
LINE
  5
1DD
  8
SIZE
  6
CONTINUOUS
 62
    30
 10
365.0
 20
344.0
 30
0.0
 11
733.80255399999999
 21
344.0
 31
0.0
  0
LINE
  5
1DE
  8
SIZE
  6
CONTINUOUS
 62
    30
 10
365.0
 20
152.0
 30
0.0
 11
733.80255399999999
 21
152.0
 31
0.0
  0
LINE
  5
1DF
  8
SIZE
  6
CONTINUOUS
 62
    30
 10
713.80255399999987
 20
332.0
 30
0.0
 11
713.80255399999987
 21
164.0
 31
0.0
  0
LINE
  5
1E0
  8
SIZE
  6
CONTINUOUS
 62
    30
 10
713.80255399999987
 20
152.0
 30
0.0
 11
713.80255399999987
 21
-99.257143000000042
 31
0.0
  0
CIRCLE
  5
1E1
  8
SIZE
  6
CONTINUOUS
 62
    30
 10
713.80255399999987
 20
344.0
 30
0.0
 40
6.0
  0
LINE
  5
1E2
  8
SIZE
  6
CONTINUOUS
 62
    30
 10
713.80255399999987
 20
344.0
 30
0.0
 11
713.80255399999987
 21
332.0
 31
0.0
  0
CIRCLE
  5
1E3
  8
SIZE
  6
CONTINUOUS
 62
    30
 10
713.80255399999987
 20
152.0
 30
0.0
 40
6.0
  0
LINE
  5
1E4
  8
SIZE
  6
CONTINUOUS
 62
    30
 10
713.80255399999987
 20
152.0
 30
0.0
 11
713.80255399999987
 21
164.0
 31
0.0
  0
TEXT
  5
1E5
  8
SIZE
  6
CONTINUOUS
 62
    30
 10
688.80255399999987
 20
-88.519999571428556
 30
0.0
 40
64.0
  1
φ192
 50
90.0
 41
0.9
 72
     1
 11
688.80255399999987
 21
20.371428999999999
 31
0.0
  0
LINE
  5
1E6
  8
SIZE
  6
CONTINUOUS
 62
    30
 10
280.0
 20
352.0
 30
0.0
 11
857.15070100000014
 21
352.0
 31
0.0
  0
LINE
  5
1E7
  8
SIZE
  6
CONTINUOUS
 62
    30
 10
280.0
 20
144.0
 30
0.0
 11
857.15070100000014
 21
144.0
 31
0.0
  0
LINE
  5
1E8
  8
SIZE
  6
CONTINUOUS
 62
    30
 10
837.15070100000003
 20
340.0
 30
0.0
 11
837.15070100000003
 21
156.0
 31
0.0
  0
LINE
  5
1E9
  8
SIZE
  6
CONTINUOUS
 62
    30
 10
837.15070100000003
 20
144.0
 30
0.0
 11
837.15070100000003
 21
-118.2285709999999
 31
0.0
  0
CIRCLE
  5
1EA
  8
SIZE
  6
CONTINUOUS
 62
    30
 10
837.15070100000003
 20
352.0
 30
0.0
 40
6.0
  0
LINE
  5
1EB
  8
SIZE
  6
CONTINUOUS
 62
    30
 10
837.15070100000003
 20
352.0
 30
0.0
 11
837.15070100000003
 21
340.0
 31
0.0
  0
CIRCLE
  5
1EC
  8
SIZE
  6
CONTINUOUS
 62
    30
 10
837.15070100000003
 20
144.0
 30
0.0
 40
6.0
  0
LINE
  5
1ED
  8
SIZE
  6
CONTINUOUS
 62
    30
 10
837.15070100000003
 20
144.0
 30
0.0
 11
837.15070100000003
 21
156.0
 31
0.0
  0
TEXT
  5
1EE
  8
SIZE
  6
CONTINUOUS
 62
    30
 10
812.15070100000003
 20
-107.49142885714279
 30
0.0
 40
64.0
  1
φ208
 50
90.0
 41
0.9
 72
     1
 11
812.15070100000003
 21
6.8857140000000072
 31
0.0
  0
TEXT
  5
1EF
  8
ETC
  6
CONTINUOUS
 62
    61
 10
840.39098767399071
 20
665.19126807792748
 30
0.0
 40
50.0
  1
SKU-50AC
 41
0.9
  0
TEXT
  5
1F0
  8
ETC
  6
CONTINUOUS
 62
    61
 10
640.36074630464816
 20
743.06761480101852
 30
0.0
 40
64.0
  1
ロスナイ
 41
0.9
  0
TEXT
  5
1F1
  8
ETC
  6
CONTINUOUS
 62
    61
 10
648.27645330464816
 20
838.29693980101854
 30
0.0
 40
64.0
  1
SKU-50AC_5
 41
0.9
  0
LINE
  5
1F3
  8
OUTLINE
  6
CONTINUOUS
 62
     3
 39
50.0
 10
-298.0
 20
0.0
 30
0.0
 11
298.0
 21
0.0
 31
0.0
  0
LINE
  5
1F4
  8
OUTLINE
  6
CONTINUOUS
 62
     3
 39
50.0
 10
260.0
 20
0.0
 30
0.0
 11
260.0
 21
390.0
 31
0.0
  0
LINE
  5
1F5
  8
OUTLINE
  6
CONTINUOUS
 62
     3
 39
50.0
 10
260.0
 20
390.0
 30
0.0
 11
-260.0
 21
390.0
 31
0.0
  0
LINE
  5
1F6
  8
OUTLINE
  6
CONTINUOUS
 62
     3
 39
50.0
 10
-260.0
 20
390.0
 30
0.0
 11
-260.0
 21
0.0
 31
0.0
  0
ENDSEC
  0
EOF
