  0
SECTION
  2
HEADER
  9
$ACADVER
  1
AC1015
  9
$ACADMAINTVER
 70
    20
  9
$DWGCODEPAGE
  3
ANSI_932
  9
$INSBASE
 10
0.0
 20
0.0
 30
0.0
  9
$EXTMIN
 10
-346.2120655277649
 20
-374.4744596477152
 30
0.0
  9
$EXTMAX
 10
837.8619857154308
 20
722.0387487717109
 30
50.0
  9
$LIMMIN
 10
-2970.0
 20
-2100.0
  9
$LIMMAX
 10
2970.0
 20
2100.0
  9
$ORTHOMODE
 70
     1
  9
$REGENMODE
 70
     0
  9
$FILLMODE
 70
     1
  9
$QTEXTMODE
 70
     0
  9
$MIRRTEXT
 70
     0
  9
$LTSCALE
 40
20.0
  9
$ATTMODE
 70
     1
  9
$TEXTSIZE
 40
64.0
  9
$TRACEWID
 40
0.05
  9
$TEXTSTYLE
  7
STANDARD
  9
$CLAYER
  8
0
  9
$CELTYPE
  6
ByLayer
  9
$CECOLOR
 62
   256
  9
$CELTSCALE
 40
1.0
  9
$DISPSILH
 70
     0
  9
$DIMSCALE
 40
1.0
  9
$DIMASZ
 40
0.12
  9
$DIMEXO
 40
0.05
  9
$DIMDLI
 40
0.5
  9
$DIMRND
 40
0.0
  9
$DIMDLE
 40
0.0
  9
$DIMEXE
 40
0.1
  9
$DIMTP
 40
0.1
  9
$DIMTM
 40
0.1
  9
$DIMTXT
 40
0.12
  9
$DIMCEN
 40
0.0
  9
$DIMTSZ
 40
0.0
  9
$DIMTOL
 70
     0
  9
$DIMLIM
 70
     0
  9
$DIMTIH
 70
     1
  9
$DIMTOH
 70
     1
  9
$DIMSE1
 70
     0
  9
$DIMSE2
 70
     0
  9
$DIMTAD
 70
     0
  9
$DIMZIN
 70
     7
  9
$DIMBLK
  1

  9
$DIMASO
 70
     1
  9
$DIMSHO
 70
     0
  9
$DIMPOST
  1

  9
$DIMAPOST
  1
mm
  9
$DIMALT
 70
     0
  9
$DIMALTD
 70
     2
  9
$DIMALTF
 40
25.4
  9
$DIMLFAC
 40
1.0
  9
$DIMTOFL
 70
     0
  9
$DIMTVP
 40
0.0
  9
$DIMTIX
 70
     0
  9
$DIMSOXD
 70
     0
  9
$DIMSAH
 70
     0
  9
$DIMBLK1
  1

  9
$DIMBLK2
  1

  9
$DIMSTYLE
  2
AM_ANSI
  9
$DIMCLRD
 70
   256
  9
$DIMCLRE
 70
   256
  9
$DIMCLRT
 70
     2
  9
$DIMTFAC
 40
0.71
  9
$DIMGAP
 40
0.06
  9
$DIMJUST
 70
     0
  9
$DIMSD1
 70
     0
  9
$DIMSD2
 70
     0
  9
$DIMTOLJ
 70
     1
  9
$DIMTZIN
 70
     7
  9
$DIMALTZ
 70
     0
  9
$DIMALTTZ
 70
     0
  9
$DIMUPT
 70
     0
  9
$DIMDEC
 70
     4
  9
$DIMTDEC
 70
     4
  9
$DIMALTU
 70
     2
  9
$DIMALTTD
 70
     4
  9
$DIMTXSTY
  7
STANDARD
  9
$DIMAUNIT
 70
     0
  9
$DIMADEC
 70
     0
  9
$DIMALTRND
 40
0.0
  9
$DIMAZIN
 70
     2
  9
$DIMDSEP
 70
    46
  9
$DIMATFIT
 70
     3
  9
$DIMFRAC
 70
     0
  9
$DIMLDRBLK
  1

  9
$DIMLUNIT
 70
     2
  9
$DIMLWD
 70
    -1
  9
$DIMLWE
 70
    -1
  9
$DIMTMOVE
 70
     0
  9
$LUNITS
 70
     2
  9
$LUPREC
 70
     4
  9
$SKETCHINC
 40
0.1
  9
$FILLETRAD
 40
4.0
  9
$AUNITS
 70
     1
  9
$AUPREC
 70
     3
  9
$MENU
  1
ACAD
  9
$ELEVATION
 40
0.0
  9
$PELEVATION
 40
0.0
  9
$THICKNESS
 40
50.0
  9
$LIMCHECK
 70
     0
  9
$CHAMFERA
 40
0.0
  9
$CHAMFERB
 40
0.0
  9
$CHAMFERC
 40
0.0
  9
$CHAMFERD
 40
0.0
  9
$SKPOLY
 70
     0
  9
$TDCREATE
 40
2452321.396199653
  9
$TDUCREATE
 40
2452321.021199653
  9
$TDUPDATE
 40
2456213.423734317
  9
$TDUUPDATE
 40
2456213.048734317
  9
$TDINDWG
 40
1.0461697106
  9
$TDUSRTIMER
 40
1.0461637731
  9
$USRTIMER
 70
     1
  9
$ANGBASE
 50
0.0
  9
$ANGDIR
 70
     0
  9
$PDMODE
 70
     3
  9
$PDSIZE
 40
-2.0
  9
$PLINEWID
 40
0.0
  9
$SPLFRAME
 70
     0
  9
$SPLINETYPE
 70
     6
  9
$SPLINESEGS
 70
     8
  9
$HANDSEED
  5
35AF
  9
$SURFTAB1
 70
     6
  9
$SURFTAB2
 70
     6
  9
$SURFTYPE
 70
     6
  9
$SURFU
 70
     6
  9
$SURFV
 70
     6
  9
$UCSBASE
  2

  9
$UCSNAME
  2

  9
$UCSORG
 10
0.0
 20
0.0
 30
0.0
  9
$UCSXDIR
 10
1.0
 20
0.0
 30
0.0
  9
$UCSYDIR
 10
0.0
 20
1.0
 30
0.0
  9
$UCSORTHOREF
  2

  9
$UCSORTHOVIEW
 70
     0
  9
$UCSORGTOP
 10
0.0
 20
0.0
 30
0.0
  9
$UCSORGBOTTOM
 10
0.0
 20
0.0
 30
0.0
  9
$UCSORGLEFT
 10
0.0
 20
0.0
 30
0.0
  9
$UCSORGRIGHT
 10
0.0
 20
0.0
 30
0.0
  9
$UCSORGFRONT
 10
0.0
 20
0.0
 30
0.0
  9
$UCSORGBACK
 10
0.0
 20
0.0
 30
0.0
  9
$PUCSBASE
  2

  9
$PUCSNAME
  2

  9
$PUCSORG
 10
0.0
 20
0.0
 30
0.0
  9
$PUCSXDIR
 10
1.0
 20
0.0
 30
0.0
  9
$PUCSYDIR
 10
0.0
 20
1.0
 30
0.0
  9
$PUCSORTHOREF
  2

  9
$PUCSORTHOVIEW
 70
     0
  9
$PUCSORGTOP
 10
0.0
 20
0.0
 30
0.0
  9
$PUCSORGBOTTOM
 10
0.0
 20
0.0
 30
0.0
  9
$PUCSORGLEFT
 10
0.0
 20
0.0
 30
0.0
  9
$PUCSORGRIGHT
 10
0.0
 20
0.0
 30
0.0
  9
$PUCSORGFRONT
 10
0.0
 20
0.0
 30
0.0
  9
$PUCSORGBACK
 10
0.0
 20
0.0
 30
0.0
  9
$USERI1
 70
     0
  9
$USERI2
 70
     0
  9
$USERI3
 70
     0
  9
$USERI4
 70
     0
  9
$USERI5
 70
     0
  9
$USERR1
 40
20.0
  9
$USERR2
 40
0.0
  9
$USERR3
 40
0.0
  9
$USERR4
 40
0.0
  9
$USERR5
 40
0.0
  9
$WORLDVIEW
 70
     1
  9
$SHADEDGE
 70
     3
  9
$SHADEDIF
 70
    70
  9
$TILEMODE
 70
     1
  9
$MAXACTVP
 70
    64
  9
$PINSBASE
 10
0.0
 20
0.0
 30
0.0
  9
$PLIMCHECK
 70
     0
  9
$PEXTMIN
 10
1.000000000000000E+20
 20
1.000000000000000E+20
 30
1.000000000000000E+20
  9
$PEXTMAX
 10
-1.000000000000000E+20
 20
-1.000000000000000E+20
 30
-1.000000000000000E+20
  9
$PLIMMIN
 10
0.0
 20
0.0
  9
$PLIMMAX
 10
12.0
 20
9.0
  9
$UNITMODE
 70
     0
  9
$VISRETAIN
 70
     1
  9
$PLINEGEN
 70
     0
  9
$PSLTSCALE
 70
     1
  9
$TREEDEPTH
 70
  3020
  9
$CMLSTYLE
  2
Standard
  9
$CMLJUST
 70
     0
  9
$CMLSCALE
 40
1.0
  9
$PROXYGRAPHICS
 70
     1
  9
$MEASUREMENT
 70
     0
  9
$CELWEIGHT
370
    -1
  9
$ENDCAPS
280
     0
  9
$JOINSTYLE
280
     0
  9
$LWDISPLAY
290
     0
  9
$INSUNITS
 70
     0
  9
$HYPERLINKBASE
  1

  9
$STYLESHEET
  1

  9
$XEDIT
290
     1
  9
$CEPSNTYPE
380
     0
  9
$PSTYLEMODE
290
     1
  9
$FINGERPRINTGUID
  2
{993AF597-4165-4231-9E2A-550582B65926}
  9
$VERSIONGUID
  2
{BBE48142-7367-45BB-8B8F-3BB03F55D009}
  9
$EXTNAMES
290
     1
  9
$PSVPSCALE
 40
0.0
  9
$OLESTARTUP
290
     0
  0
ENDSEC
  0
SECTION
  2
CLASSES
  0
CLASS
  1
ACDBDICTIONARYWDFLT
  2
AcDbDictionaryWithDefault
  3
ObjectDBX Classes
 90
        0
280
     0
281
     0
  0
CLASS
  1
MATERIAL
  2
AcDbMaterial
  3
ObjectDBX Classes
 90
     1153
280
     0
281
     0
  0
CLASS
  1
VISUALSTYLE
  2
AcDbVisualStyle
  3
ObjectDBX Classes
 90
     4095
280
     0
281
     0
  0
CLASS
  1
SCALE
  2
AcDbScale
  3
ObjectDBX Classes
 90
     1153
280
     0
281
     0
  0
CLASS
  1
TABLESTYLE
  2
AcDbTableStyle
  3
ObjectDBX Classes
 90
     4095
280
     0
281
     0
  0
CLASS
  1
MLEADERSTYLE
  2
AcDbMLeaderStyle
  3
ACDB_MLEADERSTYLE_CLASS
 90
     4095
280
     0
281
     0
  0
CLASS
  1
AMGSETTINGSOBJ
  2
AmgSettingsObj
  3
"AcadM|Product Description: AutoCAD Mechanical|Company: Autodesk, Inc."
 90
     1024
280
     0
281
     0
  0
CLASS
  1
ACME_DOCUMENT
  2
AcMeDbDoc
  3
AcMeServices
 90
     1024
280
     0
281
     0
  0
CLASS
  1
ACMESCOPE
  2
AcMeScope
  3
AcMeServices
 90
     1024
280
     0
281
     0
  0
CLASS
  1
ACMECOMMANDHISTORY
  2
AcMeCommandHistory
  3
AcMeServices
 90
     1024
280
     0
281
     0
  0
CLASS
  1
ACIMSYSVARMAN
  2
AcImSysVarManager
  3
AcMeServices
 90
     1024
280
     0
281
     0
  0
CLASS
  1
ACIMREALSYSVAR
  2
AcImRealSysVar
  3
AcMeServices
 90
     1024
280
     0
281
     0
  0
CLASS
  1
ACIMINTSYSVAR
  2
AcImIntSysVar
  3
AcMeServices
 90
     1024
280
     0
281
     0
  0
CLASS
  1
ACMEDRAWINGMAN
  2
AcMeDrawingMan
  3
AcMeServices
 90
     1024
280
     0
281
     0
  0
CLASS
  1
ACMEVIEW
  2
AcMeView
  3
AcMeServices
 90
     1024
280
     0
281
     0
  0
CLASS
  1
ACDBENTITYCACHE
  2
AcMeEntityCache
  3
AcMeServices
 90
     1024
280
     0
281
     0
  0
CLASS
  1
GSMANAGER
  2
AcMeGSManager
  3
AcMeServices
 90
     1024
280
     0
281
     0
  0
CLASS
  1
AMDTINTERNALREACTOR
  2
AmdtInternalReactor
  3
AcMeServices
 90
     1024
280
     0
281
     0
  0
CLASS
  1
ACMESTATEMGR
  2
AcMeStateMgr
  3
AcMeServices
 90
     1024
280
     0
281
     0
  0
CLASS
  1
ACGREFMASTER
  2
AcGrefMaster
  3
AcAttribServices
 90
     1024
280
     0
281
     0
  0
CLASS
  1
AM_DRAWING_MGR
  2
AcDmDwgMgr
  3
AcMechDwgViewMgmt
 90
     1024
280
     0
281
     0
  0
CLASS
  1
AM_DWG_DOCUMENT
  2
AcDmDwgDocument
  3
AcMechDwgViewMgmt
 90
     1024
280
     0
281
     0
  0
CLASS
  1
AM_DWG_SHEET
  2
AcDmSheet
  3
AcMechDwgViewMgmt
 90
     1024
280
     0
281
     0
  0
CLASS
  1
AM_VIEWDIMPARMAP
  2
AcDmViewDimParMap
  3
AcMechDwgViewMgmt
 90
     1024
280
     0
281
     0
  0
CLASS
  1
AM_DWGMGR_NAME
  2
AcDmDwgMgrName
  3
AcMechDwgViewMgmt
 90
     1024
280
     0
281
     0
  0
CLASS
  1
ACME_DATABASE
  2
AcMeDbDatabase
  3
AcMeServices
 90
     1024
280
     0
281
     0
  0
CLASS
  1
ACRFINSADJUSTERMGR
  2
AcRfInsAdjusterMgr
  3
AcMeServices
 90
     1024
280
     0
281
     0
  0
CLASS
  1
ACGREFACADMASTER
  2
AcGrefacadMaster
  3
AcGrefServices
 90
     1024
280
     0
281
     0
  0
CLASS
  1
AMDTMENUSTATEMGR
  2
AmdtMenuStateMgr
  3
McadcomServices
 90
     1024
280
     0
281
     0
  0
CLASS
  1
AMDTMCOMMENUSTATE
  2
AmdtMcomMenuState
  3
McadcomServices
 90
     1024
280
     0
281
     0
  0
CLASS
  1
AMIMASTER
  2
AmiMaster
  3
AmiServices
 90
     1024
280
     0
281
     0
  0
CLASS
  1
ASAPP
  2
AcAsAppObject
  3
AutoSurfServices
 90
     1024
280
     0
281
     0
  0
CLASS
  1
IM_STATIC_MAN
  2
AcImStaticVarManager
  3
AcMeServices
 90
     1024
280
     0
281
     0
  0
CLASS
  1
ACIMSTRSYSVAR
  2
AcImStrSysVar
  3
AcMeServices
 90
     1024
280
     0
281
     0
  0
CLASS
  1
ACIMDBLSTATICVAR
  2
AcImDblStaticVar
  3
AcMeServices
 90
     1024
280
     0
281
     0
  0
CLASS
  1
ACIMSTRSTATICVAR
  2
AcImStrStaticVar
  3
AcMeServices
 90
     1024
280
     0
281
     0
  0
CLASS
  1
ACIMINTSTATICVAR
  2
AcImIntStaticVar
  3
AcMeServices
 90
     1024
280
     0
281
     0
  0
CLASS
  1
ACASGREFMASTER
  2
AcAsGrefMaster
  3
AutoSurfResolverServices
 90
     1024
280
     0
281
     0
  0
CLASS
  1
ACADGREFMODULE
  2
AcAdGrefModule
  3
AdGrefServices
 90
     1024
280
     0
281
     0
  0
CLASS
  1
AMDTMAPISURFMOUDULE
  2
AmdtMApiSurfModule
  3
MApiSurfServices
 90
     1024
280
     0
281
     0
  0
CLASS
  1
MAPIAMMOUDLE
  2
MApiAmModule
  3
MApiAmServices
 90
     1024
280
     0
281
     0
  0
CLASS
  1
AMDTADMENUSTATE
  2
AmdtAdMenuState
  3
DesignerServices
 90
     1024
280
     0
281
     0
  0
CLASS
  1
ADAPPL
  2
AcAdAppl
  3
DesignerServices
 90
     1024
280
     0
281
     0
  0
CLASS
  1
DEPMGR
  2
AcAdDepMgr
  3
DesignerServices
 90
     1024
280
     0
281
     0
  0
CLASS
  1
PARAMMGR
  2
AcAdParamMgr
  3
DesignerServices
 90
     1024
280
     0
281
     0
  0
CLASS
  1
PARAMSCOPE
  2
AcAdParamScope
  3
DesignerServices
 90
     1024
280
     0
281
     0
  0
CLASS
  1
NAMEDAPPL
  2
AcAdNamedAppl
  3
DesignerServices
 90
     1024
280
     0
281
     0
  0
CLASS
  1
AMDTDMMENUSTATE
  2
AmdtDmMenuState
  3
AcMechDwgViewMgmt
 90
     1024
280
     0
281
     0
  0
CLASS
  1
MAPIADMODULE
  2
MApiAdModule
  3
MApiAdServices
 90
     1024
280
     0
281
     0
  0
CLASS
  1
AMDTAMMENUSTATE
  2
AmdtAmMenuState
  3
DesignerAssemblies
 90
     1024
280
     0
281
     0
  0
CLASS
  1
ACAMPROJECT
  2
AcAmProject
  3
DesignerAssemblies
 90
     1024
280
     0
281
     0
  0
CLASS
  1
ACAMGRCOMPDEF
  2
AcAmGrCompDef
  3
DesignerAssemblies
 90
     1024
280
     0
281
     0
  0
CLASS
  1
ACCMCONTEXT
  2
AcCmContext
  3
DesignerAssemblies
 90
     1024
280
     0
281
     0
  0
CLASS
  1
ACAMCOMPDEF
  2
AcAmCompDef
  3
DesignerAssemblies
 90
     1024
280
     0
281
     0
  0
CLASS
  1
ACAMCOMPDEFMGR
  2
AcAmCompDefMgr
  3
DesignerAssemblies
 90
     1024
280
     0
281
     0
  0
CLASS
  1
AMCONTEXTMGR
  2
AcAmContextMgr
  3
DesignerAssemblies
 90
     1024
280
     0
281
     0
  0
CLASS
  1
ACAMCONTEXTMODELER
  2
AcAmContextModeler
  3
DesignerAssemblies
 90
     1024
280
     0
281
     0
  0
CLASS
  1
ACMDATADICTIONARY
  2
AcmDataDictionary
  3
"AcmSymBB|Product Description: AutoCAD Mechanical|Company: Autodesk, Inc."
 90
     1024
280
     0
281
     0
  0
CLASS
  1
ACMDATAENTRYBLOCK
  2
AcmDataEntryBlock
  3
AcmSymBB|Product Description: AutoCAD Mechanical|Company: Autodesk, Inc.
 90
     1024
280
     0
281
     0
  0
CLASS
  1
ACRFATTGENMGR
  2
AcRfAttGeneralMgr
  3
AcAttribServices
 90
     1024
280
     0
281
     0
  0
CLASS
  1
ACRFOBJATTMGR
  2
AcRfObjAttGroupMgr
  3
AcAttribServices
 90
     1024
280
     0
281
     0
  0
CLASS
  1
ACRFMCADAPIATTHOLDER
  2
AcRfMCADAPIAttHolder
  3
AcAttribServices
 90
     1024
280
     0
281
     0
  0
CLASS
  1
AMDTSYSATTR
  2
AmdtSystemAttribute
  3
AcAttribServices
 90
     1024
280
     0
281
     0
  0
CLASS
  1
CATALOGSTATE
  2
AcAmCatalogState
  3
DesignerAssemblies
 90
     1024
280
     0
281
     0
  0
CLASS
  1
ACAMGRCOMPDEFSET
  2
AcAmGrCompDefSet
  3
DesignerAssemblies
 90
     1024
280
     0
281
     0
  0
CLASS
  1
AMDTBROWSERDBTAB
  2
AmdtBrowserDbTab
  3
McadcomServices
 90
     1024
280
     0
281
     0
  0
CLASS
  1
CBROWSERAPPOBJECT
  2
CBrowserAppObject
  3
McadcomServices
 90
     1024
280
     0
281
     0
  0
CLASS
  1
DM_PLACEHOLDER
  2
AcDmSelsetPlaceholder
  3
AcMechDwgViewMgmt
 90
     1024
280
     0
281
     0
  0
CLASS
  1
ACMSTANDARDANSI
  2
AcmStandardANSI
  3
"Amdt_StdImp|Product Description: AutoCAD Mechanical|Company: Autodesk, Inc."
 90
     1024
280
     0
281
     0
  0
CLASS
  1
ACMSURFSTANDARDANSI
  2
AcmSurfTextStdANSI
  3
"Amdt_StdImp|Product Description: AutoCAD Mechanical|Company: Autodesk, Inc."
 90
     1024
280
     0
281
     0
  0
CLASS
  1
ACMFCFSTANDARDANSI
  2
AcmFCFStdANSI
  3
"Amdt_StdImp|Product Description: AutoCAD Mechanical|Company: Autodesk, Inc."
 90
     1024
280
     0
281
     0
  0
CLASS
  1
ACMWELDSTANDARDANSI
  2
AcmWeldingStdANSI
  3
"Amdt_StdImp|Product Description: AutoCAD Mechanical|Company: Autodesk, Inc."
 90
     1024
280
     0
281
     0
  0
CLASS
  1
ACMIDSTANDARDANSI
  2
AcmIdStdANSI
  3
"Amdt_StdImp|Product Description: AutoCAD Mechanical|Company: Autodesk, Inc."
 90
     1024
280
     0
281
     0
  0
CLASS
  1
ACMDATUMSTANDARDANSI
  2
AcmDatumStdANSI
  3
"Amdt_StdImp|Product Description: AutoCAD Mechanical|Company: Autodesk, Inc."
 90
     1024
280
     0
281
     0
  0
CLASS
  1
ACMBOMSTANDARDANSI
  2
AcmBOMStdANSI
  3
"Amdt_StdImp|Product Description: AutoCAD Mechanical|Company: Autodesk, Inc."
 90
     1024
280
     0
281
     0
  0
CLASS
  1
ACMDETAILSTANDARDANSI
  2
AmdtDetailSymStdANSI
  3
"Amdt_StdImp|Product Description: AutoCAD Mechanical|Company: Autodesk, Inc."
 90
     1024
280
     0
281
     0
  0
CLASS
  1
ACMSECTIONSTANDARDANSI
  2
AmdtSectionSymStdANSI
  3
"Amdt_StdImp|Product Description: AutoCAD Mechanical|Company: Autodesk, Inc."
 90
     1024
280
     0
281
     0
  0
CLASS
  1
ACMCENTERLINESTANDARDANSI
  2
AmdtCenterLineStdANSI
  3
"Amdt_StdImp|Product Description: AutoCAD Mechanical|Company: Autodesk, Inc."
 90
     1024
280
     0
281
     0
  0
CLASS
  1
ACMTHREADLINESTANDARDANSI
  2
AmdtThreadLineStdANSI
  3
"Amdt_StdImp|Product Description: AutoCAD Mechanical|Company: Autodesk, Inc."
 90
     1024
280
     0
281
     0
  0
CLASS
  1
ACMNOTESTANDARDANSI
  2
AmdtNoteStdANSI
  3
"Amdt_StdImp|Product Description: AutoCAD Mechanical|Company: Autodesk, Inc."
 90
     1024
280
     0
281
     0
  0
CLASS
  1
ACMTAPERSTANDARDANSI
  2
AcmTaperStdANSI
  3
"Amdt_StdImp|Product Description: AutoCAD Mechanical|Company: Autodesk, Inc."
 90
     1024
280
     0
281
     0
  0
CLASS
  1
ACMANOOTATIONVIEWSTANDARDANSI
  2
AmdtAnViewStdANSI
  3
"Amdt_StdImp|Product Description: AutoCAD Mechanical|Company: Autodesk, Inc."
 90
     1024
280
     0
281
     0
  0
CLASS
  1
ACAMGLAYSTD
  2
AcAmgLayStd
  3
"AmgLay|Product Description: AutoCAD Mechanical|Company: Autodesk, Inc."
 90
     1024
280
     0
281
     0
  0
CLASS
  1
ACAMGDIMSTD
  2
AcAmgDimStd
  3
"AmgDim|Product Description: AutoCAD Mechanical|Company: Autodesk, Inc."
 90
     1024
280
     0
281
     0
  0
CLASS
  1
ACAMGHOLECHARTSTDANSI
  2
AcAmgHoleChartStdANSI
  3
AmgDim|Product Description: AutoCAD Mechanical|Company: Autodesk, Inc.
 90
     1024
280
     0
281
     0
  0
CLASS
  1
AMGOBJPROPCFG
  2
AmgObjPropCfg
  3
"AmgLay|Product Description: AutoCAD Mechanical|Company: Autodesk, Inc."
 90
     1025
280
     0
281
     0
  0
CLASS
  1
ACAMGTITLESTD
  2
AcAmgTitleStd
  3
"AmgTitle|Product Description: AutoCAD Mechanical|Company: Autodesk, Inc."
 90
     4095
280
     0
281
     0
  0
CLASS
  1
AMDTNOTETEMPLATEDB
  2
AmdtNoteTemplateDB
  3
AcmSymBB|Product Description: AutoCAD Mechanical|Company: Autodesk, Inc.
 90
     1024
280
     0
281
     0
  0
CLASS
  1
LAYER_INDEX
  2
AcDbLayerIndex
  3
ObjectDBX Classes
 90
        0
280
     0
281
     0
  0
CLASS
  1
IDBUFFER
  2
AcDbIdBuffer
  3
ObjectDBX Classes
 90
        0
280
     0
281
     0
  0
CLASS
  1
DICTIONARYVAR
  2
AcDbDictionaryVar
  3
ObjectDBX Classes
 90
        0
280
     0
281
     0
  0
CLASS
  1
CELLSTYLEMAP
  2
AcDbCellStyleMap
  3
ObjectDBX Classes
 90
     1152
280
     0
281
     0
  0
CLASS
  1
ACDBPLACEHOLDER
  2
AcDbPlaceHolder
  3
ObjectDBX Classes
 90
        0
280
     0
281
     0
  0
CLASS
  1
LAYOUT
  2
AcDbLayout
  3
ObjectDBX Classes
 90
        0
280
     0
281
     0
  0
ENDSEC
  0
SECTION
  2
TABLES
  0
TABLE
  2
VPORT
  5
333C
330
0
100
AcDbSymbolTable
 70
     1
  0
VPORT
  5
33AC
330
333C
100
AcDbSymbolTableRecord
100
AcDbViewportTableRecord
  2
*ACTIVE
 70
     0
 10
0.0
 20
0.0
 11
1.0
 21
1.0
 12
0.0
 22
0.0
 13
0.0
 23
0.0
 14
1.0
 24
1.0
 15
0.0
 25
0.0
 16
0.0
 26
0.0
 36
1.0
 17
245.8534381886165
 27
173.835764375789
 37
0.0
 40
1104.087448260656
 41
1.712555066079295
 42
50.0
 43
0.0
 44
0.0
 50
0.0
 51
0.0
 71
     0
 72
   100
 73
     1
 74
     0
 75
     0
 76
     0
 77
     0
 78
     0
281
     0
 65
     0
110
0.0
120
0.0
130
0.0
111
1.0
121
0.0
131
0.0
112
0.0
122
1.0
132
0.0
 79
     0
146
0.0
  0
ENDTAB
  0
TABLE
  2
LTYPE
  5
3339
330
0
100
AcDbSymbolTable
 70
    19
  0
LTYPE
  5
3396
330
3339
100
AcDbSymbolTableRecord
100
AcDbLinetypeTableRecord
  2
ByBlock
 70
     0
  3

 72
    65
 73
     0
 40
0.0
  0
LTYPE
  5
3397
330
3339
100
AcDbSymbolTableRecord
100
AcDbLinetypeTableRecord
  2
ByLayer
 70
     0
  3

 72
    65
 73
     0
 40
0.0
  0
LTYPE
  5
3398
330
3339
100
AcDbSymbolTableRecord
100
AcDbLinetypeTableRecord
  2
CONTINUOUS
 70
     0
  3
実線
 72
    65
 73
     0
 40
0.0
  0
LTYPE
  5
33AD
330
3339
100
AcDbSymbolTableRecord
100
AcDbLinetypeTableRecord
  2
DASHDOT
 70
     0
  3
____ _ ____ _ ____ _ ____ _ ____ _ ____ _ ____
 72
    65
 73
     4
 40
5.5
 49
4.0
 74
     0
 49
-0.6
 74
     0
 49
0.3
 74
     0
 49
-0.6
 74
     0
  0
LTYPE
  5
33AE
330
3339
100
AcDbSymbolTableRecord
100
AcDbLinetypeTableRecord
  2
HIDDEN
 70
     0
  3
Hidden __ __ __ __ __ __ __ __ __ __ __ __ __ _
 72
    65
 73
     2
 40
0.375
 49
0.25
 74
     0
 49
-0.125
 74
     0
  0
LTYPE
  5
33AF
330
3339
100
AcDbSymbolTableRecord
100
AcDbLinetypeTableRecord
  2
PHANTOM2
 70
     0
  3
Phantom (.5x) ___ _ _ ___ _ _ ___ _ _ ___ _ _
 72
    65
 73
     6
 40
1.25
 49
0.625
 74
     0
 49
-0.125
 74
     0
 49
0.125
 74
     0
 49
-0.125
 74
     0
 49
0.125
 74
     0
 49
-0.125
 74
     0
  0
LTYPE
  5
33B0
330
3339
100
AcDbSymbolTableRecord
100
AcDbLinetypeTableRecord
  2
CENTER
 70
     0
  3
Center ____ _ ____ _ ____ _ ____ _ ____ _ ____
 72
    65
 73
     4
 40
2.0
 49
1.25
 74
     0
 49
-0.25
 74
     0
 49
0.25
 74
     0
 49
-0.25
 74
     0
  0
LTYPE
  5
33B1
330
3339
100
AcDbSymbolTableRecord
100
AcDbLinetypeTableRecord
  2
ASULTYPE
 70
     0
  3
実線
 72
    65
 73
     2
 40
3.0
 49
2.5
 74
     0
 49
0.5
 74
     0
  0
LTYPE
  5
33B2
330
3339
100
AcDbSymbolTableRecord
100
AcDbLinetypeTableRecord
  2
ASVLTYPE
 70
     0
  3
__ __ __ __ __ __ __ __ __ __ __ __ __ __ __ __ __ __ __ __ __
 72
    65
 73
     2
 40
0.75
 49
0.5
 74
     0
 49
-0.25
 74
     0
  0
LTYPE
  5
33B3
330
3339
100
AcDbSymbolTableRecord
100
AcDbLinetypeTableRecord
  2
AM_ISO02W050
 70
     0
  3
__ __ __ __ __ __ __ __ __ __ __ __ __ __ __
 72
    65
 73
     2
 40
7.5
 49
6.0
 74
     0
 49
-1.5
 74
     0
  0
LTYPE
  5
33B4
330
3339
100
AcDbSymbolTableRecord
100
AcDbLinetypeTableRecord
  2
AM_ISO08W050
 70
     0
  3
____ . ____ . ____ . ____ . ____ . ____ . ____
 72
    65
 73
     4
 40
18.0
 49
12.0
 74
     0
 49
-1.5
 74
     0
 49
3.0
 74
     0
 49
-1.5
 74
     0
  0
LTYPE
  5
33B5
330
3339
100
AcDbSymbolTableRecord
100
AcDbLinetypeTableRecord
  2
AM_ISO09W050
 70
     0
  3
_____ . . _____ . . _____ . . ____ .. ____
 72
    65
 73
     6
 40
22.5
 49
12.0
 74
     0
 49
-1.5
 74
     0
 49
3.0
 74
     0
 49
-1.5
 74
     0
 49
3.0
 74
     0
 49
-1.5
 74
     0
  0
LTYPE
  5
33B6
330
3339
100
AcDbSymbolTableRecord
100
AcDbLinetypeTableRecord
  2
AMCONSTR
 70
     0
  3
_______________________
 72
    65
 73
     2
 40
9999.0
 49
9999.0
 74
     0
 49
0.0
 74
     0
  0
LTYPE
  5
33B7
330
3339
100
AcDbSymbolTableRecord
100
AcDbLinetypeTableRecord
  2
AM_ISO08W050X2
 70
     0
  3
__ . __ . __ . __ . __ . __
 72
    65
 73
     4
 40
9.0
 49
6.0
 74
     0
 49
-0.75
 74
     0
 49
1.5
 74
     0
 49
-0.75
 74
     0
  0
LTYPE
  5
33B8
330
3339
100
AcDbSymbolTableRecord
100
AcDbLinetypeTableRecord
  2
AM_ISO02W050X2
 70
     0
  3
 _ _ _ _ _ _ _ _ _ _ _ _
 72
    65
 73
     2
 40
3.75
 49
3.0
 74
     0
 49
-0.75
 74
     0
  0
LTYPE
  5
33B9
330
3339
100
AcDbSymbolTableRecord
100
AcDbLinetypeTableRecord
  2
AMZIGZAG
 70
     0
  3
/\/-/\/-/\/-/\/-/\/-/\/
 72
    65
 73
     2
 40
11.0001
 49
0.0001
 74
     0
 49
-11.0
 74
     0
  0
LTYPE
  5
33BA
330
3339
100
AcDbSymbolTableRecord
100
AcDbLinetypeTableRecord
  2
CENTER2
 70
     0
  3
Center (.5x) ___ _ ___ _ ___ _ ___ _ ___ _ ___
 72
    65
 73
     4
 40
1.125
 49
0.75
 74
     0
 49
-0.125
 74
     0
 49
0.125
 74
     0
 49
-0.125
 74
     0
  0
LTYPE
  5
33BB
330
3339
100
AcDbSymbolTableRecord
100
AcDbLinetypeTableRecord
  2
HIDDEN2
 70
     0
  3
Hidden (.5x) _ _ _ _ _ _ _ _ _ _ _ _ _ _ _ _ _
 72
    65
 73
     2
 40
0.1875
 49
0.125
 74
     0
 49
-0.0625
 74
     0
  0
LTYPE
  5
33BC
330
3339
100
AcDbSymbolTableRecord
100
AcDbLinetypeTableRecord
  2
AMZIGZAG2
 70
     0
  3
/\/-/\/-/\/-/\/-/\/-/\/
 72
    65
 73
     2
 40
0.4401
 49
0.0001
 74
     0
 49
-0.4400000000000003
 74
     0
  0
LTYPE
  5
33BD
330
3339
100
AcDbSymbolTableRecord
100
AcDbLinetypeTableRecord
  2
ACANSTGB
 70
     0
  3
__ . . __ . .
 72
    65
 73
     6
 40
0.35433070866
 49
0.15748031496
 74
     0
 49
-0.03937007874
 74
     0
 49
0.03937007874
 74
     0
 49
-0.03937007874
 74
     0
 49
0.03937007874
 74
     0
 49
-0.03937007874
 74
     0
  0
LTYPE
  5
33BE
330
3339
100
AcDbSymbolTableRecord
100
AcDbLinetypeTableRecord
  2
ACANSTGL
 70
     0
  3
_ _ _ _ _
 72
    65
 73
     2
 40
0.11811023622
 49
0.07874015748
 74
     0
 49
-0.03937007874
 74
     0
  0
ENDTAB
  0
TABLE
  2
LAYER
  5
3336
330
0
100
AcDbSymbolTable
 70
    13
  0
LAYER
  5
3390
102
{ACAD_XDICTIONARY
360
356B
102
}
330
3336
100
AcDbSymbolTableRecord
100
AcDbLayerTableRecord
  2
0
 70
     0
 62
     7
  6
CONTINUOUS
370
    -3
390
3343
  0
LAYER
  5
33BF
102
{ACAD_XDICTIONARY
360
356D
102
}
330
3336
100
AcDbSymbolTableRecord
100
AcDbLayerTableRecord
  2
OUTLINE
 70
     0
 62
     3
  6
CONTINUOUS
370
    -3
390
3343
  0
LAYER
  5
33C0
102
{ACAD_XDICTIONARY
360
356F
102
}
330
3336
100
AcDbSymbolTableRecord
100
AcDbLayerTableRecord
  2
SIZE
 70
     0
 62
    30
  6
CONTINUOUS
370
    -3
390
3343
  0
LAYER
  5
33C1
102
{ACAD_XDICTIONARY
360
3571
102
}
330
3336
100
AcDbSymbolTableRecord
100
AcDbLayerTableRecord
  2
BASIS
 70
     0
 62
     6
  6
DASHDOT
370
    -3
390
3343
  0
LAYER
  5
33C2
102
{ACAD_XDICTIONARY
360
3573
102
}
330
3336
100
AcDbSymbolTableRecord
100
AcDbLayerTableRecord
  2
DETAIL
 70
     0
 62
     5
  6
CONTINUOUS
370
    -3
390
3343
  0
LAYER
  5
33C3
102
{ACAD_XDICTIONARY
360
3575
102
}
330
3336
100
AcDbSymbolTableRecord
100
AcDbLayerTableRecord
  2
ARRANGE
 70
     0
 62
     1
  6
CONTINUOUS
370
    -3
390
3343
  0
LAYER
  5
33C4
330
3336
100
AcDbSymbolTableRecord
100
AcDbLayerTableRecord
  2
DEFPOINTS
 70
     0
 62
     7
  6
CONTINUOUS
290
     0
370
    -3
390
3343
  0
LAYER
  5
33C5
102
{ACAD_XDICTIONARY
360
3577
102
}
330
3336
100
AcDbSymbolTableRecord
100
AcDbLayerTableRecord
  2
ETC
 70
     0
 62
    61
  6
CONTINUOUS
370
    -3
390
3343
  0
LAYER
  5
33C6
102
{ACAD_XDICTIONARY
360
3579
102
}
330
3336
100
AcDbSymbolTableRecord
100
AcDbLayerTableRecord
  2
FIX
 70
     0
 62
    11
  6
CONTINUOUS
370
    -3
390
3343
  0
LAYER
  5
33C7
102
{ACAD_XDICTIONARY
360
357B
102
}
330
3336
100
AcDbSymbolTableRecord
100
AcDbLayerTableRecord
  2
NOTE
 70
     0
 62
     4
  6
CONTINUOUS
370
    -3
390
3343
  0
LAYER
  5
33C8
102
{ACAD_XDICTIONARY
360
357D
102
}
330
3336
100
AcDbSymbolTableRecord
100
AcDbLayerTableRecord
  2
SERVICESPACE
 70
     0
 62
     2
  6
DASHDOT
370
    -3
390
3343
  0
LAYER
  5
33C9
102
{ACAD_XDICTIONARY
360
357F
102
}
330
3336
100
AcDbSymbolTableRecord
100
AcDbLayerTableRecord
  2
SYMBOLLINE
 70
     0
 62
    15
  6
CONTINUOUS
370
    -3
390
3343
  0
LAYER
  5
33CA
102
{ACAD_XDICTIONARY
360
3581
102
}
330
3336
100
AcDbSymbolTableRecord
100
AcDbLayerTableRecord
  2
DETAIL___1
 70
     0
 62
     5
  6
CONTINUOUS
370
    -3
390
3343
  0
ENDTAB
  0
TABLE
  2
STYLE
  5
3337
330
0
100
AcDbSymbolTable
 70
     5
  0
STYLE
  5
3391
330
3337
100
AcDbSymbolTableRecord
100
AcDbTextStyleTableRecord
  2
STANDARD
 70
     0
 40
64.0
 41
0.9
 50
0.0
 71
     0
 42
64.0
  3
SIMPLEX.shx
  4
BIGFONT.shx
  0
STYLE
  5
3395
330
3337
100
AcDbSymbolTableRecord
100
AcDbTextStyleTableRecord
  2
ANNOTATIVE
 70
     0
 40
0.0
 41
1.0
 50
0.0
 71
     0
 42
0.2
  3
txt
  4

1001
ACADANNOTATIVE
1000
AnnotativeData
1002
{
1070
     1
1070
     1
1002
}
  0
STYLE
  5
33CB
330
3337
100
AcDbSymbolTableRecord
100
AcDbTextStyleTableRecord
  2

 70
     1
 40
0.0
 41
1.0
 50
0.0
 71
     0
 42
64.0
  3
genltshp.shx
  4

  0
STYLE
  5
33CC
330
3337
100
AcDbSymbolTableRecord
100
AcDbTextStyleTableRecord
  2
ACANSTS
 70
     0
 40
1.0
 41
1.0
 50
0.0
 71
     0
 42
64.0
  3
romans.shx
  4
extfont.shx
  0
STYLE
  5
33CD
330
3337
100
AcDbSymbolTableRecord
100
AcDbTextStyleTableRecord
  2
ACANSGDT
 70
     0
 40
0.0
 41
1.0
 50
0.0
 71
     0
 42
64.0
  3
amgdt.shx
  4

  0
ENDTAB
  0
TABLE
  2
VIEW
  5
333A
330
0
100
AcDbSymbolTable
 70
     1
  0
VIEW
  5
33CE
330
333A
100
AcDbSymbolTableRecord
100
AcDbViewTableRecord
  2
ALL
 70
     0
 40
4282.619807999997
 10
0.0
 20
41.30990399999999
 41
5940.0
 11
0.0
 21
0.0
 31
1.0
 12
0.0
 22
0.0
 32
0.0
 42
50.0
 43
0.0
 44
0.0
 50
0.0
 71
     0
281
     0
 72
     1
110
0.0
120
0.0
130
0.0
111
1.0
121
0.0
131
0.0
112
0.0
122
1.0
132
0.0
 79
     0
146
0.0
  0
ENDTAB
  0
TABLE
  2
UCS
  5
333B
330
0
100
AcDbSymbolTable
 70
     0
  0
ENDTAB
  0
TABLE
  2
APPID
  5
333D
330
0
100
AcDbSymbolTable
 70
    30
  0
APPID
  5
3392
330
333D
100
AcDbSymbolTableRecord
100
AcDbRegAppTableRecord
  2
ACAD
 70
     0
  0
APPID
  5
3399
330
333D
100
AcDbSymbolTableRecord
100
AcDbRegAppTableRecord
  2
ACADANNOTATIVE
 70
     0
  0
APPID
  5
33A3
330
333D
100
AcDbSymbolTableRecord
100
AcDbRegAppTableRecord
  2
ACAD_MLEADERVER
 70
     0
  0
APPID
  5
33CF
330
333D
100
AcDbSymbolTableRecord
100
AcDbRegAppTableRecord
  2
GENIUS_GENDIM_13
 70
     0
  0
APPID
  5
33D0
330
333D
100
AcDbSymbolTableRecord
100
AcDbRegAppTableRecord
  2
GENIUS_GENDTOL_13
 70
     0
  0
APPID
  5
33D1
330
333D
100
AcDbSymbolTableRecord
100
AcDbRegAppTableRecord
  2
GENIUS_GE3DTOL_13
 70
     0
  0
APPID
  5
33D2
330
333D
100
AcDbSymbolTableRecord
100
AcDbRegAppTableRecord
  2
MCAD_NO_VIS
 70
     0
  0
APPID
  5
33D3
330
333D
100
AcDbSymbolTableRecord
100
AcDbRegAppTableRecord
  2
ACAD_TEMP_GRAPHIC
 70
     0
  0
APPID
  5
33D4
330
333D
100
AcDbSymbolTableRecord
100
AcDbRegAppTableRecord
  2
AD_DRAW
 70
     0
  0
APPID
  5
33D5
330
333D
100
AcDbSymbolTableRecord
100
AcDbRegAppTableRecord
  2
ACATTRIBSERVICES
 70
     0
  0
APPID
  5
33D6
330
333D
100
AcDbSymbolTableRecord
100
AcDbRegAppTableRecord
  2
ASURF_PCURVE_APPNAME
 70
     0
  0
APPID
  5
33D7
330
333D
100
AcDbSymbolTableRecord
100
AcDbRegAppTableRecord
  2
AMG_3D2D_5_0
 70
     0
  0
APPID
  5
33D8
330
333D
100
AcDbSymbolTableRecord
100
AcDbRegAppTableRecord
  2
DESIGNERASSEMBLIES
 70
     0
  0
APPID
  5
33D9
330
333D
100
AcDbSymbolTableRecord
100
AcDbRegAppTableRecord
  2
ACADM_DIM_EDIT
 70
     0
  0
APPID
  5
33DA
330
333D
100
AcDbSymbolTableRecord
100
AcDbRegAppTableRecord
  2
AMDT_DM_ADJ
 70
     0
  0
APPID
  5
33DB
330
333D
100
AcDbSymbolTableRecord
100
AcDbRegAppTableRecord
  2
ACAD_DSTYLE_DIMARC_LENGTH_
 70
     0
  0
APPID
  5
33DC
330
333D
100
AcDbSymbolTableRecord
100
AcDbRegAppTableRecord
  2
ACAD_DSTYLE_DIMJOGGED_JOGA
 70
     0
  0
APPID
  5
33DD
330
333D
100
AcDbSymbolTableRecord
100
AcDbRegAppTableRecord
  2
ACAD_PSEXT
 70
     0
  0
APPID
  5
33DE
330
333D
100
AcDbSymbolTableRecord
100
AcDbRegAppTableRecord
  2
ACAD_EXEMPT_FROM_CAD_STANDARDS
 70
     0
  0
APPID
  5
33DF
330
333D
100
AcDbSymbolTableRecord
100
AcDbRegAppTableRecord
  2
ACAD_DSTYLE_DIMJAG
 70
     0
  0
APPID
  5
33E0
330
333D
100
AcDbSymbolTableRecord
100
AcDbRegAppTableRecord
  2
ACAD_DSTYLE_DIMTALN
 70
     0
  0
APPID
  5
33E1
330
333D
100
AcDbSymbolTableRecord
100
AcDbRegAppTableRecord
  2
AMG_3D2D_5_00
 70
     0
  0
APPID
  5
33E2
330
333D
100
AcDbSymbolTableRecord
100
AcDbRegAppTableRecord
  2
AMG_3D2D_5_01
 70
     0
  0
APPID
  5
33E3
330
333D
100
AcDbSymbolTableRecord
100
AcDbRegAppTableRecord
  2
AMG_3D2D_5_02
 70
     0
  0
APPID
  5
33E4
330
333D
100
AcDbSymbolTableRecord
100
AcDbRegAppTableRecord
  2
AMG_3D2D_5_03
 70
     0
  0
APPID
  5
3512
330
333D
100
AcDbSymbolTableRecord
100
AcDbRegAppTableRecord
  2
AMG_3D2D_5.0
 70
     0
  0
APPID
  5
35AB
330
333D
100
AcDbSymbolTableRecord
100
AcDbRegAppTableRecord
  2
ACAD_DSTYLE_DIMARC_LENGTH_SYMBOL
 70
     0
  0
APPID
  5
35AC
330
333D
100
AcDbSymbolTableRecord
100
AcDbRegAppTableRecord
  2
ACAD_DSTYLE_DIM_LINETYPE
 70
     0
  0
APPID
  5
35AD
330
333D
100
AcDbSymbolTableRecord
100
AcDbRegAppTableRecord
  2
ACAD_DSTYLE_DIM_EXT1_LINETYPE
 70
     0
  0
APPID
  5
35AE
330
333D
100
AcDbSymbolTableRecord
100
AcDbRegAppTableRecord
  2
ACAD_DSTYLE_DIM_EXT2_LINETYPE
 70
     0
  0
ENDTAB
  0
TABLE
  2
DIMSTYLE
  5
333E
330
0
100
AcDbSymbolTable
 70
    10
100
AcDbDimStyleTable
 71
     1
340
33E5
  0
DIMSTYLE
105
3393
330
333E
100
AcDbSymbolTableRecord
100
AcDbDimStyleTableRecord
  2
STANDARD
 70
     0
 41
12.0
 42
20.0
 44
20.0
 77
     1
 78
     8
140
64.0
141
0.0
147
10.0
275
     1
279
     2
284
     7
285
     7
286
     7
340
3391
  0
DIMSTYLE
105
3394
330
333E
100
AcDbSymbolTableRecord
100
AcDbDimStyleTableRecord
  2
ANNOTATIVE
 70
     0
275
     1
279
     2
284
     7
285
     7
286
     7
340
3391
1001
ACADANNOTATIVE
1000
AnnotativeData
1002
{
1070
     1
1070
     1
1002
}
  0
DIMSTYLE
105
33E5
330
333E
100
AcDbSymbolTableRecord
100
AcDbDimStyleTableRecord
  2
AM_ANSI
 70
     0
  4
mm
 41
0.12
 42
0.05
 43
0.5
 44
0.1
 47
0.1
 48
0.1
 78
     7
 79
     2
140
0.12
141
0.0
146
0.71
147
0.06
176
   256
177
   256
178
     2
274
     4
284
     7
340
3391
371
    -1
372
    -1
1001
ACAD_DSTYLE_DIMARC_LENGTH_SYMBOL
1070
   379
1070
     1
1001
ACAD_DSTYLE_DIM_LINETYPE
1070
   380
1005
3396
1001
ACAD_DSTYLE_DIM_EXT1_LINETYPE
1070
   381
1005
3396
1001
ACAD_DSTYLE_DIM_EXT2_LINETYPE
1070
   382
1005
3396
  0
DIMSTYLE
105
33E6
330
333E
100
AcDbSymbolTableRecord
100
AcDbDimStyleTableRecord
  2
AM_ANSI$3
 70
     0
  4
mm
 41
0.12
 42
0.05
 43
0.5
 44
0.1
 47
0.1
 48
0.1
 78
     7
 79
     2
140
0.12
141
0.0
146
0.71
147
0.06
176
   256
177
   256
178
     2
274
     4
284
     7
288
     1
289
     0
340
3391
371
    -1
372
    -1
1001
ACAD_DSTYLE_DIMARC_LENGTH_SYMBOL
1070
   379
1070
     1
1001
ACAD_DSTYLE_DIM_LINETYPE
1070
   380
1005
3396
1001
ACAD_DSTYLE_DIM_EXT1_LINETYPE
1070
   381
1005
3396
1001
ACAD_DSTYLE_DIM_EXT2_LINETYPE
1070
   382
1005
3396
  0
DIMSTYLE
105
33E7
330
333E
100
AcDbSymbolTableRecord
100
AcDbDimStyleTableRecord
  2
AM_ANSI$4
 70
     0
  4
mm
 41
0.12
 42
0.05
 43
0.5
 44
0.1
 47
0.1
 48
0.1
 78
     7
 79
     2
140
0.12
141
0.0
146
0.71
147
0.06
176
   256
177
   256
178
     2
274
     4
284
     7
340
3391
371
    -1
372
    -1
1001
ACAD_DSTYLE_DIMARC_LENGTH_SYMBOL
1070
   379
1070
     1
1001
ACAD_DSTYLE_DIM_LINETYPE
1070
   380
1005
3396
1001
ACAD_DSTYLE_DIM_EXT1_LINETYPE
1070
   381
1005
3396
1001
ACAD_DSTYLE_DIM_EXT2_LINETYPE
1070
   382
1005
3396
  0
DIMSTYLE
105
33E8
330
333E
100
AcDbSymbolTableRecord
100
AcDbDimStyleTableRecord
  2
AM_ANSI$7
 70
     0
  4
mm
 41
0.12
 42
0.05
 43
0.5
 44
0.1
 47
0.1
 48
0.1
 78
     7
 79
     2
140
0.12
141
0.0
146
0.71
147
0.06
176
   256
177
   256
178
     2
274
     4
284
     7
340
3391
371
    -1
372
    -1
1001
ACAD_DSTYLE_DIMARC_LENGTH_SYMBOL
1070
   379
1070
     1
1001
ACAD_DSTYLE_DIM_LINETYPE
1070
   380
1005
3396
1001
ACAD_DSTYLE_DIM_EXT1_LINETYPE
1070
   381
1005
3396
1001
ACAD_DSTYLE_DIM_EXT2_LINETYPE
1070
   382
1005
3396
  0
DIMSTYLE
105
33E9
330
333E
100
AcDbSymbolTableRecord
100
AcDbDimStyleTableRecord
  2
AM_ANSI$SF
 70
     0
  4
mm
 41
0.12
 42
0.05
 43
0.5
 44
0.1
 47
0.1
 48
0.1
 75
     1
 76
     1
 78
     7
 79
     2
140
0.12
141
0.0
146
0.71
147
0.06
176
   256
177
   256
178
     2
274
     4
284
     7
340
3391
371
    -1
372
    -1
1001
ACAD_DSTYLE_DIMARC_LENGTH_SYMBOL
1070
   379
1070
     1
1001
ACAD_DSTYLE_DIM_LINETYPE
1070
   380
1005
3396
1001
ACAD_DSTYLE_DIM_EXT1_LINETYPE
1070
   381
1005
3396
1001
ACAD_DSTYLE_DIM_EXT2_LINETYPE
1070
   382
1005
3396
  0
DIMSTYLE
105
33EA
330
333E
100
AcDbSymbolTableRecord
100
AcDbDimStyleTableRecord
  2
AM_ANSI$SH
 70
     0
  4
mm
 41
0.12
 42
0.05
 43
0.5
 44
0.1
 47
0.1
 48
0.1
 75
     1
 76
     1
 78
     7
 79
     2
140
0.12
141
0.0
146
0.71
147
0.06
173
     1
176
   256
177
   256
178
     2
274
     4
284
     7
340
3391
343
340A
371
    -1
372
    -1
1001
ACAD_DSTYLE_DIMARC_LENGTH_SYMBOL
1070
   379
1070
     1
1001
ACAD_DSTYLE_DIM_LINETYPE
1070
   380
1005
3396
1001
ACAD_DSTYLE_DIM_EXT1_LINETYPE
1070
   381
1005
3396
1001
ACAD_DSTYLE_DIM_EXT2_LINETYPE
1070
   382
1005
3396
  0
DIMSTYLE
105
33EB
330
333E
100
AcDbSymbolTableRecord
100
AcDbDimStyleTableRecord
  2
STANDARD1
 70
     0
 40
6.0
 41
2.5
 42
0.625
 43
6.0
 44
1.25
 47
1.0
 48
0.5
 77
     1
 78
     8
140
2.5
141
0.0
146
0.6
147
1.0
173
     1
275
     1
279
     2
284
     7
285
     7
286
     7
340
3391
  0
DIMSTYLE
105
33EC
330
333E
100
AcDbSymbolTableRecord
100
AcDbDimStyleTableRecord
  2
STANDARD$0
 70
     0
 41
12.0
 42
20.0
 44
20.0
 73
     0
 74
     0
 77
     1
 78
     8
140
64.0
141
0.0
147
10.0
275
     1
279
     2
284
     7
285
     7
286
     7
340
3391
  0
ENDTAB
  0
TABLE
  2
BLOCK_RECORD
  5
3335
330
0
100
AcDbSymbolTable
 70
    79
  0
BLOCK_RECORD
  5
33A8
102
{ACAD_XDICTIONARY
360
3583
102
}
330
3335
100
AcDbSymbolTableRecord
100
AcDbBlockTableRecord
  2
*Model_Space
340
33AB
  0
BLOCK_RECORD
  5
33A4
330
3335
100
AcDbSymbolTableRecord
100
AcDbBlockTableRecord
  2
*Paper_Space
340
33A7
  0
BLOCK_RECORD
  5
33F4
330
3335
100
AcDbSymbolTableRecord
100
AcDbBlockTableRecord
  2
$MODEL_SPACE
340
0
  0
BLOCK_RECORD
  5
33F6
330
3335
100
AcDbSymbolTableRecord
100
AcDbBlockTableRecord
  2
$PAPER_SPACE
340
0
  0
BLOCK_RECORD
  5
33F8
330
3335
100
AcDbSymbolTableRecord
100
AcDbBlockTableRecord
  2
_ORIGIN
340
0
  0
BLOCK_RECORD
  5
33FA
330
3335
100
AcDbSymbolTableRecord
100
AcDbBlockTableRecord
  2
_DOTBLANK
340
0
102
{BLKREFS
331
1299
331
129A
331
11AA
331
11AB
331
E80
331
E81
331
1123
331
1124
331
11C2
331
11C3
331
11EC
331
11ED
331
11F9
331
11FA
331
1287
331
1288
331
1417
331
1418
331
1423
331
1424
331
142F
331
1430
331
143B
331
143C
331
166E
331
166F
331
1677
331
1678
331
1680
331
1681
331
1689
331
168A
331
1696
331
1697
331
16A3
331
16A4
331
16AF
331
16B0
331
16BB
331
16BC
331
16C7
331
16C8
331
16D3
331
16D4
331
1D86
331
1D87
331
1D8F
331
1D90
331
1D98
331
1D99
331
1DA1
331
1DA2
331
1DAB
331
1DAC
331
1DB5
331
1DB6
331
32D4
331
32D5
331
32D9
331
32DA
331
32DE
331
32DF
331
32E3
331
32E4
331
32E8
331
32E9
102
}
  0
BLOCK_RECORD
  5
33FC
330
3335
100
AcDbSymbolTableRecord
100
AcDbBlockTableRecord
  2
_OPEN30
340
0
102
{BLKREFS
331
2087
331
2187
331
22A2
331
23C1
331
32F0
102
}
  0
BLOCK_RECORD
  5
33FE
330
3335
100
AcDbSymbolTableRecord
100
AcDbBlockTableRecord
  2
*D5
340
0
  0
BLOCK_RECORD
  5
3400
330
3335
100
AcDbSymbolTableRecord
100
AcDbBlockTableRecord
  2
*U6
340
0
102
{BLKREFS
331
129B
102
}
  0
BLOCK_RECORD
  5
3402
330
3335
100
AcDbSymbolTableRecord
100
AcDbBlockTableRecord
  2
*D7
340
0
  0
BLOCK_RECORD
  5
3404
330
3335
100
AcDbSymbolTableRecord
100
AcDbBlockTableRecord
  2
*U8
340
0
102
{BLKREFS
331
11AC
102
}
  0
BLOCK_RECORD
  5
3406
330
3335
100
AcDbSymbolTableRecord
100
AcDbBlockTableRecord
  2
*D9
340
0
  0
BLOCK_RECORD
  5
3408
330
3335
100
AcDbSymbolTableRecord
100
AcDbBlockTableRecord
  2
*U10
340
0
102
{BLKREFS
331
E82
102
}
  0
BLOCK_RECORD
  5
340A
330
3335
100
AcDbSymbolTableRecord
100
AcDbBlockTableRecord
  2
GENAXEH
340
0
  0
BLOCK_RECORD
  5
340C
330
3335
100
AcDbSymbolTableRecord
100
AcDbBlockTableRecord
  2
*D12
340
0
  0
BLOCK_RECORD
  5
340E
330
3335
100
AcDbSymbolTableRecord
100
AcDbBlockTableRecord
  2
*U13
340
0
102
{BLKREFS
331
1125
102
}
  0
BLOCK_RECORD
  5
3410
330
3335
100
AcDbSymbolTableRecord
100
AcDbBlockTableRecord
  2
*D14
340
0
  0
BLOCK_RECORD
  5
3412
330
3335
100
AcDbSymbolTableRecord
100
AcDbBlockTableRecord
  2
*U15
340
0
102
{BLKREFS
331
11C4
102
}
  0
BLOCK_RECORD
  5
3414
330
3335
100
AcDbSymbolTableRecord
100
AcDbBlockTableRecord
  2
*D16
340
0
  0
BLOCK_RECORD
  5
3416
330
3335
100
AcDbSymbolTableRecord
100
AcDbBlockTableRecord
  2
*U17
340
0
102
{BLKREFS
331
11EE
102
}
  0
BLOCK_RECORD
  5
3418
330
3335
100
AcDbSymbolTableRecord
100
AcDbBlockTableRecord
  2
*D18
340
0
  0
BLOCK_RECORD
  5
341A
330
3335
100
AcDbSymbolTableRecord
100
AcDbBlockTableRecord
  2
*U19
340
0
102
{BLKREFS
331
11FB
102
}
  0
BLOCK_RECORD
  5
341C
330
3335
100
AcDbSymbolTableRecord
100
AcDbBlockTableRecord
  2
*D20
340
0
  0
BLOCK_RECORD
  5
341E
330
3335
100
AcDbSymbolTableRecord
100
AcDbBlockTableRecord
  2
*U21
340
0
102
{BLKREFS
331
1289
102
}
  0
BLOCK_RECORD
  5
3420
330
3335
100
AcDbSymbolTableRecord
100
AcDbBlockTableRecord
  2
*D22
340
0
  0
BLOCK_RECORD
  5
3422
330
3335
100
AcDbSymbolTableRecord
100
AcDbBlockTableRecord
  2
*U23
340
0
102
{BLKREFS
331
1419
102
}
  0
BLOCK_RECORD
  5
3424
330
3335
100
AcDbSymbolTableRecord
100
AcDbBlockTableRecord
  2
*D24
340
0
  0
BLOCK_RECORD
  5
3426
330
3335
100
AcDbSymbolTableRecord
100
AcDbBlockTableRecord
  2
*U25
340
0
102
{BLKREFS
331
1425
102
}
  0
BLOCK_RECORD
  5
3428
330
3335
100
AcDbSymbolTableRecord
100
AcDbBlockTableRecord
  2
*D26
340
0
  0
BLOCK_RECORD
  5
342A
330
3335
100
AcDbSymbolTableRecord
100
AcDbBlockTableRecord
  2
*U27
340
0
102
{BLKREFS
331
1431
102
}
  0
BLOCK_RECORD
  5
342C
330
3335
100
AcDbSymbolTableRecord
100
AcDbBlockTableRecord
  2
*D28
340
0
  0
BLOCK_RECORD
  5
342E
330
3335
100
AcDbSymbolTableRecord
100
AcDbBlockTableRecord
  2
*U29
340
0
102
{BLKREFS
331
143D
102
}
  0
BLOCK_RECORD
  5
3430
330
3335
100
AcDbSymbolTableRecord
100
AcDbBlockTableRecord
  2
*D30
340
0
  0
BLOCK_RECORD
  5
3432
330
3335
100
AcDbSymbolTableRecord
100
AcDbBlockTableRecord
  2
*U31
340
0
102
{BLKREFS
331
1670
102
}
  0
BLOCK_RECORD
  5
3434
330
3335
100
AcDbSymbolTableRecord
100
AcDbBlockTableRecord
  2
*D32
340
0
  0
BLOCK_RECORD
  5
3436
330
3335
100
AcDbSymbolTableRecord
100
AcDbBlockTableRecord
  2
*U33
340
0
102
{BLKREFS
331
1679
102
}
  0
BLOCK_RECORD
  5
3438
330
3335
100
AcDbSymbolTableRecord
100
AcDbBlockTableRecord
  2
*D34
340
0
  0
BLOCK_RECORD
  5
343A
330
3335
100
AcDbSymbolTableRecord
100
AcDbBlockTableRecord
  2
*U35
340
0
102
{BLKREFS
331
1682
102
}
  0
BLOCK_RECORD
  5
343C
330
3335
100
AcDbSymbolTableRecord
100
AcDbBlockTableRecord
  2
*D36
340
0
  0
BLOCK_RECORD
  5
343E
330
3335
100
AcDbSymbolTableRecord
100
AcDbBlockTableRecord
  2
*U37
340
0
102
{BLKREFS
331
168B
102
}
  0
BLOCK_RECORD
  5
3440
330
3335
100
AcDbSymbolTableRecord
100
AcDbBlockTableRecord
  2
*U38
340
0
  0
BLOCK_RECORD
  5
3442
330
3335
100
AcDbSymbolTableRecord
100
AcDbBlockTableRecord
  2
*D39
340
0
  0
BLOCK_RECORD
  5
3444
330
3335
100
AcDbSymbolTableRecord
100
AcDbBlockTableRecord
  2
*U40
340
0
102
{BLKREFS
331
1698
102
}
  0
BLOCK_RECORD
  5
3446
330
3335
100
AcDbSymbolTableRecord
100
AcDbBlockTableRecord
  2
*D41
340
0
  0
BLOCK_RECORD
  5
3448
330
3335
100
AcDbSymbolTableRecord
100
AcDbBlockTableRecord
  2
*U42
340
0
102
{BLKREFS
331
16A5
102
}
  0
BLOCK_RECORD
  5
344A
330
3335
100
AcDbSymbolTableRecord
100
AcDbBlockTableRecord
  2
*D43
340
0
  0
BLOCK_RECORD
  5
344C
330
3335
100
AcDbSymbolTableRecord
100
AcDbBlockTableRecord
  2
*U44
340
0
102
{BLKREFS
331
16B1
102
}
  0
BLOCK_RECORD
  5
344E
330
3335
100
AcDbSymbolTableRecord
100
AcDbBlockTableRecord
  2
*D45
340
0
  0
BLOCK_RECORD
  5
3450
330
3335
100
AcDbSymbolTableRecord
100
AcDbBlockTableRecord
  2
*U46
340
0
102
{BLKREFS
331
16BD
102
}
  0
BLOCK_RECORD
  5
3452
330
3335
100
AcDbSymbolTableRecord
100
AcDbBlockTableRecord
  2
*D47
340
0
  0
BLOCK_RECORD
  5
3454
330
3335
100
AcDbSymbolTableRecord
100
AcDbBlockTableRecord
  2
*U48
340
0
102
{BLKREFS
331
16C9
102
}
  0
BLOCK_RECORD
  5
3456
330
3335
100
AcDbSymbolTableRecord
100
AcDbBlockTableRecord
  2
*D49
340
0
  0
BLOCK_RECORD
  5
3458
330
3335
100
AcDbSymbolTableRecord
100
AcDbBlockTableRecord
  2
*U50
340
0
102
{BLKREFS
331
16D5
102
}
  0
BLOCK_RECORD
  5
345A
330
3335
100
AcDbSymbolTableRecord
100
AcDbBlockTableRecord
  2
*D51
340
0
  0
BLOCK_RECORD
  5
345C
330
3335
100
AcDbSymbolTableRecord
100
AcDbBlockTableRecord
  2
*U52
340
0
102
{BLKREFS
331
1D88
102
}
  0
BLOCK_RECORD
  5
345E
330
3335
100
AcDbSymbolTableRecord
100
AcDbBlockTableRecord
  2
*D53
340
0
  0
BLOCK_RECORD
  5
3460
330
3335
100
AcDbSymbolTableRecord
100
AcDbBlockTableRecord
  2
*U54
340
0
102
{BLKREFS
331
1D91
102
}
  0
BLOCK_RECORD
  5
3462
330
3335
100
AcDbSymbolTableRecord
100
AcDbBlockTableRecord
  2
*D55
340
0
  0
BLOCK_RECORD
  5
3464
330
3335
100
AcDbSymbolTableRecord
100
AcDbBlockTableRecord
  2
*U56
340
0
102
{BLKREFS
331
1D9A
102
}
  0
BLOCK_RECORD
  5
3466
330
3335
100
AcDbSymbolTableRecord
100
AcDbBlockTableRecord
  2
*D57
340
0
  0
BLOCK_RECORD
  5
3468
330
3335
100
AcDbSymbolTableRecord
100
AcDbBlockTableRecord
  2
*U58
340
0
102
{BLKREFS
331
1DA3
102
}
  0
BLOCK_RECORD
  5
346A
330
3335
100
AcDbSymbolTableRecord
100
AcDbBlockTableRecord
  2
*D59
340
0
  0
BLOCK_RECORD
  5
346C
330
3335
100
AcDbSymbolTableRecord
100
AcDbBlockTableRecord
  2
*U60
340
0
102
{BLKREFS
331
1DAD
102
}
  0
BLOCK_RECORD
  5
346E
330
3335
100
AcDbSymbolTableRecord
100
AcDbBlockTableRecord
  2
*D61
340
0
  0
BLOCK_RECORD
  5
3470
330
3335
100
AcDbSymbolTableRecord
100
AcDbBlockTableRecord
  2
*U62
340
0
102
{BLKREFS
331
1DB7
102
}
  0
BLOCK_RECORD
  5
3472
330
3335
100
AcDbSymbolTableRecord
100
AcDbBlockTableRecord
  2
*U63
340
0
  0
BLOCK_RECORD
  5
3474
330
3335
100
AcDbSymbolTableRecord
100
AcDbBlockTableRecord
  2
*U64
340
0
  0
BLOCK_RECORD
  5
3476
330
3335
100
AcDbSymbolTableRecord
100
AcDbBlockTableRecord
  2
*U65
340
0
  0
BLOCK_RECORD
  5
3478
330
3335
100
AcDbSymbolTableRecord
100
AcDbBlockTableRecord
  2
*U66
340
0
  0
BLOCK_RECORD
  5
347A
330
3335
100
AcDbSymbolTableRecord
100
AcDbBlockTableRecord
  2
*U67
340
0
  0
BLOCK_RECORD
  5
347C
330
3335
100
AcDbSymbolTableRecord
100
AcDbBlockTableRecord
  2
*U68
340
0
  0
BLOCK_RECORD
  5
347E
330
3335
100
AcDbSymbolTableRecord
100
AcDbBlockTableRecord
  2
*U69
340
0
  0
BLOCK_RECORD
  5
3480
330
3335
100
AcDbSymbolTableRecord
100
AcDbBlockTableRecord
  2
*U70
340
0
  0
BLOCK_RECORD
  5
3482
330
3335
100
AcDbSymbolTableRecord
100
AcDbBlockTableRecord
  2
*U71
340
0
  0
BLOCK_RECORD
  5
3484
330
3335
100
AcDbSymbolTableRecord
100
AcDbBlockTableRecord
  2
*X72
340
0
  0
BLOCK_RECORD
  5
3486
330
3335
100
AcDbSymbolTableRecord
100
AcDbBlockTableRecord
  2
*X73
340
0
  0
BLOCK_RECORD
  5
3488
330
3335
100
AcDbSymbolTableRecord
100
AcDbBlockTableRecord
  2
*X74
340
0
  0
BLOCK_RECORD
  5
348A
330
3335
100
AcDbSymbolTableRecord
100
AcDbBlockTableRecord
  2
*X75
340
0
  0
BLOCK_RECORD
  5
348C
330
3335
100
AcDbSymbolTableRecord
100
AcDbBlockTableRecord
  2
*X76
340
0
102
{BLKREFS
331
329D
102
}
  0
BLOCK_RECORD
  5
348E
330
3335
100
AcDbSymbolTableRecord
100
AcDbBlockTableRecord
  2
*X77
340
0
102
{BLKREFS
331
329E
102
}
  0
ENDTAB
  0
ENDSEC
  0
SECTION
  2
BLOCKS
  0
BLOCK
  5
33A9
330
33A8
100
AcDbEntity
  8
0
100
AcDbBlockBegin
  2
*Model_Space
 70
     0
 10
0.0
 20
0.0
 30
0.0
  3
*Model_Space
  1

  0
ENDBLK
  5
33AA
330
33A8
100
AcDbEntity
  8
0
100
AcDbBlockEnd
  0
BLOCK
  5
33A5
330
33A4
100
AcDbEntity
 67
     1
  8
0
100
AcDbBlockBegin
  2
*Paper_Space
 70
     0
 10
0.0
 20
0.0
 30
0.0
  3
*Paper_Space
  1

  0
ENDBLK
  5
33A6
330
33A4
100
AcDbEntity
 67
     1
  8
0
100
AcDbBlockEnd
  0
BLOCK
  5
33F5
330
33F4
100
AcDbEntity
  8
0
100
AcDbBlockBegin
  2
$MODEL_SPACE
 70
     0
 10
0.0
 20
0.0
 30
0.0
  3
$MODEL_SPACE
  1

  0
ENDBLK
  5
2F14
330
33F4
100
AcDbEntity
  8
0
100
AcDbBlockEnd
  0
BLOCK
  5
33F7
330
33F6
100
AcDbEntity
  8
0
100
AcDbBlockBegin
  2
$PAPER_SPACE
 70
     0
 10
0.0
 20
0.0
 30
0.0
  3
$PAPER_SPACE
  1

  0
ENDBLK
  5
2F10
330
33F6
100
AcDbEntity
  8
0
100
AcDbBlockEnd
  0
BLOCK
  5
33F9
330
33F8
100
AcDbEntity
  8
0
100
AcDbBlockBegin
  2
_ORIGIN
 70
     0
 10
0.0
 20
0.0
 30
0.0
  3
_ORIGIN
  1

  0
CIRCLE
  5
880
330
33F8
100
AcDbEntity
  8
0
  6
Continuous
 62
     7
100
AcDbCircle
 10
0.0
 20
0.0
 30
0.0
 40
0.5
  0
LINE
  5
881
330
33F8
100
AcDbEntity
  8
0
  6
Continuous
 62
     7
100
AcDbLine
 10
0.0
 20
0.0
 30
0.0
 11
-1.0
 21
0.0
 31
0.0
  0
ENDBLK
  5
882
330
33F8
100
AcDbEntity
  8
0
100
AcDbBlockEnd
  0
BLOCK
  5
33FB
330
33FA
100
AcDbEntity
  8
0
 62
     1
100
AcDbBlockBegin
  2
_DOTBLANK
 70
     0
 10
0.0
 20
0.0
 30
0.0
  3
_DOTBLANK
  1

  0
CIRCLE
  5
AB3
330
33FA
100
AcDbEntity
  8
0
  6
ByBlock
 62
     0
100
AcDbCircle
 10
0.0
 20
0.0
 30
0.0
 40
0.5
  0
LINE
  5
AB4
330
33FA
100
AcDbEntity
  8
0
  6
ByBlock
 62
     0
100
AcDbLine
 10
-0.5
 20
0.0
 30
0.0
 11
-1.0
 21
0.0
 31
0.0
  0
ENDBLK
  5
AB6
330
33FA
100
AcDbEntity
  8
0
 62
     1
100
AcDbBlockEnd
  0
BLOCK
  5
33FD
330
33FC
100
AcDbEntity
  8
0
 62
     1
100
AcDbBlockBegin
  2
_OPEN30
 70
     0
 10
0.0
 20
0.0
 30
0.0
  3
_OPEN30
  1

  0
LINE
  5
AB8
330
33FC
100
AcDbEntity
  8
0
  6
ByBlock
 62
     0
100
AcDbLine
 10
-1.0
 20
0.26794919
 30
0.0
 11
0.0
 21
0.0
 31
0.0
  0
LINE
  5
AB9
330
33FC
100
AcDbEntity
  8
0
  6
ByBlock
 62
     0
100
AcDbLine
 10
0.0
 20
0.0
 30
0.0
 11
-1.0
 21
-0.26794919
 31
0.0
  0
LINE
  5
ABA
330
33FC
100
AcDbEntity
  8
0
  6
ByBlock
 62
     0
100
AcDbLine
 10
0.0
 20
0.0
 30
0.0
 11
-1.0
 21
0.0
 31
0.0
  0
ENDBLK
  5
ABC
330
33FC
100
AcDbEntity
  8
0
 62
     1
100
AcDbBlockEnd
  0
BLOCK
  5
33FF
330
33FE
100
AcDbEntity
  8
0
100
AcDbBlockBegin
  2
*D5
 70
     1
 10
0.0
 20
0.0
 30
0.0
  3
*D5
  1

  0
LINE
  5
1296
330
33FE
100
AcDbEntity
  8
SIZE
 62
     0
100
AcDbLine
 10
-134.5
 20
-320.0
 30
0.0
 11
-134.5
 21
-468.0173952306001
 31
0.0
  0
LINE
  5
1297
330
33FE
100
AcDbEntity
  8
SIZE
 62
     0
100
AcDbLine
 10
134.5
 20
-320.0
 30
0.0
 11
134.5
 21
-468.0173952306001
 31
0.0
  0
LINE
  5
1298
330
33FE
100
AcDbEntity
  8
SIZE
 62
     0
100
AcDbLine
 10
-122.5
 20
-448.0173952306
 30
0.0
 11
122.5
 21
-448.0173952306
 31
0.0
  0
INSERT
  5
1299
330
33FE
100
AcDbEntity
  8
SIZE
 62
     0
100
AcDbBlockReference
  2
_DOTBLANK
 10
-134.5
 20
-448.0173952306
 30
0.0
 41
12.0
 42
12.0
 43
12.0
 50
180.0
  0
INSERT
  5
129A
330
33FE
100
AcDbEntity
  8
SIZE
 62
     0
100
AcDbBlockReference
  2
_DOTBLANK
 10
134.5
 20
-448.0173952306
 30
0.0
 41
12.0
 42
12.0
 43
12.0
  0
INSERT
  5
129B
330
33FE
100
AcDbEntity
  8
0
100
AcDbBlockReference
  2
*U6
 10
0.0
 20
0.0
 30
0.0
  0
POINT
  5
129C
330
33FE
100
AcDbEntity
  8
DEFPOINTS
 62
     0
100
AcDbPoint
 10
-134.5
 20
-300.0
 30
0.0
  0
POINT
  5
129D
330
33FE
100
AcDbEntity
  8
DEFPOINTS
 62
     0
100
AcDbPoint
 10
134.5
 20
-300.0
 30
0.0
  0
POINT
  5
129E
330
33FE
100
AcDbEntity
  8
DEFPOINTS
 62
     0
100
AcDbPoint
 10
134.5
 20
-448.0173952306
 30
0.0
  0
ENDBLK
  5
D72
330
33FE
100
AcDbEntity
  8
0
100
AcDbBlockEnd
  0
BLOCK
  5
3401
330
3400
100
AcDbEntity
  8
0
100
AcDbBlockBegin
  2
*U6
 70
     1
 10
0.0
 20
0.0
 30
0.0
  3
*U6
  1

  0
TEXT
  5
1EF5
330
3400
100
AcDbEntity
  8
SIZE
 62
     0
100
AcDbText
 10
-72.68571428571426
 20
-438.0173952305999
 30
0.0
 40
64.0
  1
269
 41
0.9
100
AcDbText
  0
ENDBLK
  5
1EF7
330
3400
100
AcDbEntity
  8
0
100
AcDbBlockEnd
  0
BLOCK
  5
3403
330
3402
100
AcDbEntity
  8
0
100
AcDbBlockBegin
  2
*D7
 70
     1
 10
0.0
 20
0.0
 30
0.0
  3
*D7
  1

  0
LINE
  5
11A7
330
3402
100
AcDbEntity
  8
SIZE
  6
Continuous
 62
     0
100
AcDbLine
 10
143.5
 20
-300.0
 30
0.0
 11
304.6432844803791
 21
-300.0
 31
0.0
  0
LINE
  5
11A8
330
3402
100
AcDbEntity
  8
SIZE
  6
Continuous
 62
     0
100
AcDbLine
 10
177.5
 20
-0.0000000000000057
 30
0.0
 11
304.6432844803792
 21
-0.0000000000000417
 31
0.0
  0
LINE
  5
11A9
330
3402
100
AcDbEntity
  8
SIZE
  6
Continuous
 62
     0
100
AcDbLine
 10
284.6432844803791
 20
-288.0000000000001
 30
0.0
 11
284.6432844803792
 21
-12.00000000000003
 31
0.0
  0
INSERT
  5
11AA
330
3402
100
AcDbEntity
  8
SIZE
  6
Continuous
 62
     0
100
AcDbBlockReference
  2
_DOTBLANK
 10
284.6432844803791
 20
-300.0
 30
0.0
 41
12.0
 42
12.0
 43
12.0
 50
270.0
  0
INSERT
  5
11AB
330
3402
100
AcDbEntity
  8
SIZE
  6
Continuous
 62
     0
100
AcDbBlockReference
  2
_DOTBLANK
 10
284.6432844803792
 20
-0.000000000000036
 30
0.0
 41
12.0
 42
12.0
 43
12.0
 50
90.0
  0
INSERT
  5
11AC
330
3402
100
AcDbEntity
  8
0
100
AcDbBlockReference
  2
*U8
 10
0.0
 20
0.0
 30
0.0
  0
POINT
  5
11AD
330
3402
100
AcDbEntity
  8
DEFPOINTS
  6
Continuous
 62
     0
100
AcDbPoint
 10
123.5
 20
-300.0
 30
0.0
  0
POINT
  5
11AE
330
3402
100
AcDbEntity
  8
DEFPOINTS
  6
Continuous
 62
     0
100
AcDbPoint
 10
157.5
 20
0.0
 30
0.0
  0
POINT
  5
11AF
330
3402
100
AcDbEntity
  8
DEFPOINTS
  6
Continuous
 62
     0
100
AcDbPoint
 10
284.6432844803792
 20
-0.000000000000036
 30
0.0
  0
ENDBLK
  5
E11
330
3402
100
AcDbEntity
  8
0
100
AcDbBlockEnd
  0
BLOCK
  5
3405
330
3404
100
AcDbEntity
  8
0
100
AcDbBlockBegin
  2
*U8
 70
     1
 10
0.0
 20
0.0
 30
0.0
  3
*U8
  1

  0
TEXT
  5
1EE1
330
3404
100
AcDbEntity
  8
SIZE
 62
     0
100
AcDbText
 10
274.6432844803792
 20
-224.0571428571429
 30
0.0
 40
64.0
  1
300
 50
90.0
 41
0.9
100
AcDbText
  0
ENDBLK
  5
1EE3
330
3404
100
AcDbEntity
  8
0
100
AcDbBlockEnd
  0
BLOCK
  5
3407
330
3406
100
AcDbEntity
  8
0
100
AcDbBlockBegin
  2
*D9
 70
     1
 10
0.0
 20
0.0
 30
0.0
  3
*D9
  1

  0
LINE
  5
E7D
330
3406
100
AcDbEntity
  8
SIZE
 62
     0
100
AcDbLine
 10
-139.9999999999998
 20
32.46448280219375
 30
0.0
 11
-139.9999999999998
 21
136.4516878685508
 31
0.0
  0
LINE
  5
E7E
330
3406
100
AcDbEntity
  8
SIZE
 62
     0
100
AcDbLine
 10
140.0
 20
32.46448280219375
 30
0.0
 11
140.0
 21
136.4516878685508
 31
0.0
  0
LINE
  5
E7F
330
3406
100
AcDbEntity
  8
SIZE
 62
     0
100
AcDbLine
 10
-128.0
 20
116.4516878685508
 30
0.0
 11
128.0
 21
116.4516878685508
 31
0.0
  0
INSERT
  5
E80
330
3406
100
AcDbEntity
  8
SIZE
 62
     0
100
AcDbBlockReference
  2
_DOTBLANK
 10
-139.9999999999998
 20
116.4516878685508
 30
0.0
 41
12.0
 42
12.0
 43
12.0
 50
180.0
  0
INSERT
  5
E81
330
3406
100
AcDbEntity
  8
SIZE
 62
     0
100
AcDbBlockReference
  2
_DOTBLANK
 10
140.0
 20
116.4516878685508
 30
0.0
 41
12.0
 42
12.0
 43
12.0
  0
INSERT
  5
E82
330
3406
100
AcDbEntity
  8
0
100
AcDbBlockReference
  2
*U10
 10
0.0
 20
0.0
 30
0.0
  0
POINT
  5
E83
330
3406
100
AcDbEntity
  8
DEFPOINTS
 62
     0
100
AcDbPoint
 10
-139.9999999999998
 20
12.46448280219374
 30
0.0
  0
POINT
  5
E84
330
3406
100
AcDbEntity
  8
DEFPOINTS
 62
     0
100
AcDbPoint
 10
140.0
 20
12.46448280219374
 30
0.0
  0
POINT
  5
E85
330
3406
100
AcDbEntity
  8
DEFPOINTS
 62
     0
100
AcDbPoint
 10
140.0
 20
116.4516878685508
 30
0.0
  0
ENDBLK
  5
E7C
330
3406
100
AcDbEntity
  8
0
100
AcDbBlockEnd
  0
BLOCK
  5
3409
330
3408
100
AcDbEntity
  8
0
100
AcDbBlockBegin
  2
*U10
 70
     1
 10
0.0
 20
0.0
 30
0.0
  3
*U10
  1

  0
TEXT
  5
1ED8
330
3408
100
AcDbEntity
  8
SIZE
 62
     0
100
AcDbText
 10
-74.05714285714281
 20
126.4516878685508
 30
0.0
 40
64.0
  1
280
 41
0.9
100
AcDbText
  0
ENDBLK
  5
1EDA
330
3408
100
AcDbEntity
  8
0
100
AcDbBlockEnd
  0
BLOCK
  5
340B
330
340A
100
AcDbEntity
  8
0
100
AcDbBlockBegin
  2
GENAXEH
 70
     0
 10
0.0
 20
0.0
 30
0.0
  3
GENAXEH
  1

  0
LINE
  5
FDB
330
340A
100
AcDbEntity
  8
0
100
AcDbLine
 10
-1.0
 20
0.0
 30
0.0
 11
1.0
 21
0.0
 31
0.0
  0
ENDBLK
  5
FDD
330
340A
100
AcDbEntity
  8
0
100
AcDbBlockEnd
  0
BLOCK
  5
340D
330
340C
100
AcDbEntity
  8
0
100
AcDbBlockBegin
  2
*D12
 70
     1
 10
0.0
 20
0.0
 30
0.0
  3
*D12
  1

  0
LINE
  5
1120
330
340C
100
AcDbEntity
  8
SIZE
 62
     0
100
AcDbLine
 10
-157.5
 20
20.0
 30
0.0
 11
-157.5
 21
245.5794621189598
 31
0.0
  0
LINE
  5
1121
330
340C
100
AcDbEntity
  8
SIZE
 62
     0
100
AcDbLine
 10
157.5
 20
20.0
 30
0.0
 11
157.5
 21
245.5794621189598
 31
0.0
  0
LINE
  5
1122
330
340C
100
AcDbEntity
  8
SIZE
 62
     0
100
AcDbLine
 10
-145.5
 20
225.5794621189598
 30
0.0
 11
145.5
 21
225.5794621189598
 31
0.0
  0
INSERT
  5
1123
330
340C
100
AcDbEntity
  8
SIZE
 62
     0
100
AcDbBlockReference
  2
_DOTBLANK
 10
-157.5
 20
225.5794621189598
 30
0.0
 41
12.0
 42
12.0
 43
12.0
 50
180.0
  0
INSERT
  5
1124
330
340C
100
AcDbEntity
  8
SIZE
 62
     0
100
AcDbBlockReference
  2
_DOTBLANK
 10
157.5
 20
225.5794621189598
 30
0.0
 41
12.0
 42
12.0
 43
12.0
  0
INSERT
  5
1125
330
340C
100
AcDbEntity
  8
0
100
AcDbBlockReference
  2
*U13
 10
0.0
 20
0.0
 30
0.0
  0
POINT
  5
1126
330
340C
100
AcDbEntity
  8
DEFPOINTS
 62
     0
100
AcDbPoint
 10
-157.5
 20
0.0
 30
0.0
  0
POINT
  5
1127
330
340C
100
AcDbEntity
  8
DEFPOINTS
 62
     0
100
AcDbPoint
 10
157.5
 20
0.0
 30
0.0
  0
POINT
  5
1128
330
340C
100
AcDbEntity
  8
DEFPOINTS
 62
     0
100
AcDbPoint
 10
157.5
 20
225.5794621189598
 30
0.0
  0
ENDBLK
  5
111F
330
340C
100
AcDbEntity
  8
0
100
AcDbBlockEnd
  0
BLOCK
  5
340F
330
340E
100
AcDbEntity
  8
0
100
AcDbBlockBegin
  2
*U13
 70
     1
 10
0.0
 20
0.0
 30
0.0
  3
*U13
  1

  0
TEXT
  5
1EDD
330
340E
100
AcDbEntity
  8
SIZE
 62
     0
100
AcDbText
 10
-68.57142857142857
 20
235.5794621189599
 30
0.0
 40
64.0
  1
315
 41
0.9
100
AcDbText
  0
ENDBLK
  5
1EDF
330
340E
100
AcDbEntity
  8
0
100
AcDbBlockEnd
  0
BLOCK
  5
3411
330
3410
100
AcDbEntity
  8
0
100
AcDbBlockBegin
  2
*D14
 70
     1
 10
0.0
 20
0.0
 30
0.0
  3
*D14
  1

  0
LINE
  5
11BD
330
3410
100
AcDbEntity
  8
NOTE
 62
     0
100
AcDbLine
 10
-123.4999999999999
 20
-320.0
 30
0.0
 11
-123.4999999999999
 21
-354.9529861856111
 31
0.0
  0
LINE
  5
11BE
330
3410
100
AcDbEntity
  8
NOTE
 62
     0
100
AcDbLine
 10
-133.4999999999998
 20
-331.2126909923287
 30
0.0
 11
-133.4999999999998
 21
-354.9529861856111
 31
0.0
  0
LINE
  5
11BF
330
3410
100
AcDbEntity
  8
NOTE
 62
     0
100
AcDbLine
 10
-111.4999999999999
 20
-334.9529861856112
 30
0.0
 11
-99.4999999999999
 21
-334.9529861856112
 31
0.0
  0
LINE
  5
11C0
330
3410
100
AcDbEntity
  8
NOTE
 62
     0
100
AcDbLine
 10
-145.4999999999998
 20
-334.9529861856112
 30
0.0
 11
-157.4999999999998
 21
-334.9529861856112
 31
0.0
  0
LINE
  5
11C1
330
3410
100
AcDbEntity
  8
NOTE
 62
     0
100
AcDbLine
 10
-123.4999999999999
 20
-334.9529861856112
 30
0.0
 11
-133.4999999999998
 21
-334.9529861856112
 31
0.0
  0
INSERT
  5
11C2
330
3410
100
AcDbEntity
  8
NOTE
 62
     0
100
AcDbBlockReference
  2
_DOTBLANK
 10
-123.4999999999999
 20
-334.9529861856112
 30
0.0
 41
12.0
 42
12.0
 43
12.0
 50
180.0
  0
INSERT
  5
11C3
330
3410
100
AcDbEntity
  8
NOTE
 62
     0
100
AcDbBlockReference
  2
_DOTBLANK
 10
-133.4999999999998
 20
-334.9529861856112
 30
0.0
 41
12.0
 42
12.0
 43
12.0
  0
INSERT
  5
11C4
330
3410
100
AcDbEntity
  8
0
100
AcDbBlockReference
  2
*U15
 10
0.0
 20
0.0
 30
0.0
  0
POINT
  5
11C5
330
3410
100
AcDbEntity
  8
DEFPOINTS
 62
     0
100
AcDbPoint
 10
-123.4999999999999
 20
-300.0
 30
0.0
  0
POINT
  5
11C6
330
3410
100
AcDbEntity
  8
DEFPOINTS
 62
     0
100
AcDbPoint
 10
-133.4999999999998
 20
-311.2126909923287
 30
0.0
  0
POINT
  5
11C7
330
3410
100
AcDbEntity
  8
DEFPOINTS
 62
     0
100
AcDbPoint
 10
-133.4999999999998
 20
-334.9529861856112
 30
0.0
  0
ENDBLK
  5
11BC
330
3410
100
AcDbEntity
  8
0
100
AcDbBlockEnd
  0
BLOCK
  5
3413
330
3412
100
AcDbEntity
  8
0
100
AcDbBlockBegin
  2
*U15
 70
     1
 10
0.0
 20
0.0
 30
0.0
  3
*U15
  1

  0
TEXT
  5
1EE5
330
3412
100
AcDbEntity
  8
NOTE
 62
     0
100
AcDbText
 10
-169.642857142857
 20
-324.9529861856112
 30
0.0
 40
64.0
  1
10
 41
0.9
100
AcDbText
  0
ENDBLK
  5
1EE7
330
3412
100
AcDbEntity
  8
0
100
AcDbBlockEnd
  0
BLOCK
  5
3415
330
3414
100
AcDbEntity
  8
0
100
AcDbBlockBegin
  2
*D16
 70
     1
 10
0.0
 20
0.0
 30
0.0
  3
*D16
  1

  0
LINE
  5
11E7
330
3414
100
AcDbEntity
  8
NOTE
 62
     0
100
AcDbLine
 10
-135.5
 20
-333.2126909923287
 30
0.0
 11
-135.5
 21
-386.2569421441843
 31
0.0
  0
LINE
  5
11E8
330
3414
100
AcDbEntity
  8
NOTE
 62
     0
100
AcDbLine
 10
-123.4999999999999
 20
-320.0
 30
0.0
 11
-123.4999999999999
 21
-386.2569421441843
 31
0.0
  0
LINE
  5
11E9
330
3414
100
AcDbEntity
  8
NOTE
 62
     0
100
AcDbLine
 10
-147.5
 20
-366.2569421441844
 30
0.0
 11
-159.5
 21
-366.2569421441844
 31
0.0
  0
LINE
  5
11EA
330
3414
100
AcDbEntity
  8
NOTE
 62
     0
100
AcDbLine
 10
-111.4999999999999
 20
-366.2569421441844
 30
0.0
 11
-99.4999999999999
 21
-366.2569421441844
 31
0.0
  0
LINE
  5
11EB
330
3414
100
AcDbEntity
  8
NOTE
 62
     0
100
AcDbLine
 10
-135.5
 20
-366.2569421441844
 30
0.0
 11
-123.4999999999999
 21
-366.2569421441844
 31
0.0
  0
INSERT
  5
11EC
330
3414
100
AcDbEntity
  8
NOTE
 62
     0
100
AcDbBlockReference
  2
_DOTBLANK
 10
-135.5
 20
-366.2569421441844
 30
0.0
 41
12.0
 42
12.0
 43
12.0
  0
INSERT
  5
11ED
330
3414
100
AcDbEntity
  8
NOTE
 62
     0
100
AcDbBlockReference
  2
_DOTBLANK
 10
-123.4999999999999
 20
-366.2569421441844
 30
0.0
 41
12.0
 42
12.0
 43
12.0
 50
180.0
  0
INSERT
  5
11EE
330
3414
100
AcDbEntity
  8
0
100
AcDbBlockReference
  2
*U17
 10
0.0
 20
0.0
 30
0.0
  0
POINT
  5
11EF
330
3414
100
AcDbEntity
  8
DEFPOINTS
 62
     0
100
AcDbPoint
 10
-135.5
 20
-313.2126909923287
 30
0.0
  0
POINT
  5
11F0
330
3414
100
AcDbEntity
  8
DEFPOINTS
 62
     0
100
AcDbPoint
 10
-123.4999999999999
 20
-300.0
 30
0.0
  0
POINT
  5
11F1
330
3414
100
AcDbEntity
  8
DEFPOINTS
 62
     0
100
AcDbPoint
 10
-123.4999999999999
 20
-366.2569421441844
 30
0.0
  0
ENDBLK
  5
11E6
330
3414
100
AcDbEntity
  8
0
100
AcDbBlockEnd
  0
BLOCK
  5
3417
330
3416
100
AcDbEntity
  8
0
100
AcDbBlockBegin
  2
*U17
 70
     1
 10
0.0
 20
0.0
 30
0.0
  3
*U17
  1

  0
TEXT
  5
1EE9
330
3416
100
AcDbEntity
  8
NOTE
 62
     0
100
AcDbText
 10
-170.642857142857
 20
-356.2569421441843
 30
0.0
 40
64.0
  1
12
 41
0.9
100
AcDbText
  0
ENDBLK
  5
1EEB
330
3416
100
AcDbEntity
  8
0
100
AcDbBlockEnd
  0
BLOCK
  5
3419
330
3418
100
AcDbEntity
  8
0
100
AcDbBlockBegin
  2
*D18
 70
     1
 10
0.0
 20
0.0
 30
0.0
  3
*D18
  1

  0
LINE
  5
11F6
330
3418
100
AcDbEntity
  8
NOTE
 62
     0
100
AcDbLine
 10
-123.4999999999999
 20
-320.0
 30
0.0
 11
-123.4999999999999
 21
-583.8286022818904
 31
0.0
  0
LINE
  5
11F7
330
3418
100
AcDbEntity
  8
NOTE
 62
     0
100
AcDbLine
 10
123.5
 20
-320.0
 30
0.0
 11
123.5
 21
-583.8286022818904
 31
0.0
  0
LINE
  5
11F8
330
3418
100
AcDbEntity
  8
NOTE
 62
     0
100
AcDbLine
 10
-111.4999999999999
 20
-563.8286022818904
 30
0.0
 11
111.5
 21
-563.8286022818904
 31
0.0
  0
INSERT
  5
11F9
330
3418
100
AcDbEntity
  8
NOTE
 62
     0
100
AcDbBlockReference
  2
_DOTBLANK
 10
-123.4999999999999
 20
-563.8286022818904
 30
0.0
 41
12.0
 42
12.0
 43
12.0
 50
180.0
  0
INSERT
  5
11FA
330
3418
100
AcDbEntity
  8
NOTE
 62
     0
100
AcDbBlockReference
  2
_DOTBLANK
 10
123.5
 20
-563.8286022818904
 30
0.0
 41
12.0
 42
12.0
 43
12.0
  0
INSERT
  5
11FB
330
3418
100
AcDbEntity
  8
0
100
AcDbBlockReference
  2
*U19
 10
0.0
 20
0.0
 30
0.0
  0
POINT
  5
11FC
330
3418
100
AcDbEntity
  8
DEFPOINTS
 62
     0
100
AcDbPoint
 10
-123.4999999999999
 20
-300.0
 30
0.0
  0
POINT
  5
11FD
330
3418
100
AcDbEntity
  8
DEFPOINTS
 62
     0
100
AcDbPoint
 10
123.5
 20
-300.0
 30
0.0
  0
POINT
  5
11FE
330
3418
100
AcDbEntity
  8
DEFPOINTS
 62
     0
100
AcDbPoint
 10
123.5
 20
-563.8286022818904
 30
0.0
  0
ENDBLK
  5
11F5
330
3418
100
AcDbEntity
  8
0
100
AcDbBlockEnd
  0
BLOCK
  5
341B
330
341A
100
AcDbEntity
  8
0
100
AcDbBlockBegin
  2
*U19
 70
     1
 10
0.0
 20
0.0
 30
0.0
  3
*U19
  1

  0
TEXT
  5
1EED
330
341A
100
AcDbEntity
  8
NOTE
 62
     0
100
AcDbText
 10
-74.05714285714281
 20
-553.8286022818904
 30
0.0
 40
64.0
  1
247
 41
0.9
100
AcDbText
  0
ENDBLK
  5
1EEF
330
341A
100
AcDbEntity
  8
0
100
AcDbBlockEnd
  0
BLOCK
  5
341D
330
341C
100
AcDbEntity
  8
0
100
AcDbBlockBegin
  2
*D20
 70
     1
 10
0.0
 20
0.0
 30
0.0
  3
*D20
  1

  0
LINE
  5
1284
330
341C
100
AcDbEntity
  8
NOTE
 62
     0
100
AcDbLine
 10
-123.5
 20
12.0
 30
0.0
 11
-123.5
 21
71.83630134534229
 31
0.0
  0
LINE
  5
1285
330
341C
100
AcDbEntity
  8
NOTE
 62
     0
100
AcDbLine
 10
123.5
 20
12.0
 30
0.0
 11
123.5
 21
71.83630134534229
 31
0.0
  0
LINE
  5
1286
330
341C
100
AcDbEntity
  8
NOTE
 62
     0
100
AcDbLine
 10
-111.5
 20
51.83630134534229
 30
0.0
 11
111.5
 21
51.83630134534229
 31
0.0
  0
INSERT
  5
1287
330
341C
100
AcDbEntity
  8
NOTE
 62
     0
100
AcDbBlockReference
  2
_DOTBLANK
 10
-123.5
 20
51.83630134534229
 30
0.0
 41
12.0
 42
12.0
 43
12.0
 50
180.0
  0
INSERT
  5
1288
330
341C
100
AcDbEntity
  8
NOTE
 62
     0
100
AcDbBlockReference
  2
_DOTBLANK
 10
123.5
 20
51.83630134534229
 30
0.0
 41
12.0
 42
12.0
 43
12.0
  0
INSERT
  5
1289
330
341C
100
AcDbEntity
  8
0
100
AcDbBlockReference
  2
*U21
 10
0.0
 20
0.0
 30
0.0
  0
POINT
  5
128A
330
341C
100
AcDbEntity
  8
DEFPOINTS
 62
     0
100
AcDbPoint
 10
-123.5
 20
-8.0
 30
0.0
  0
POINT
  5
128B
330
341C
100
AcDbEntity
  8
DEFPOINTS
 62
     0
100
AcDbPoint
 10
123.5
 20
-8.0
 30
0.0
  0
POINT
  5
128C
330
341C
100
AcDbEntity
  8
DEFPOINTS
 62
     0
100
AcDbPoint
 10
123.5
 20
51.83630134534229
 30
0.0
  0
ENDBLK
  5
1283
330
341C
100
AcDbEntity
  8
0
100
AcDbBlockEnd
  0
BLOCK
  5
341F
330
341E
100
AcDbEntity
  8
0
100
AcDbBlockBegin
  2
*U21
 70
     1
 10
0.0
 20
0.0
 30
0.0
  3
*U21
  1

  0
TEXT
  5
1EF1
330
341E
100
AcDbEntity
  8
NOTE
 62
     0
100
AcDbText
 10
-74.05714285714283
 20
61.83630134534229
 30
0.0
 40
64.0
  1
247
 41
0.9
100
AcDbText
  0
ENDBLK
  5
1EF3
330
341E
100
AcDbEntity
  8
0
100
AcDbBlockEnd
  0
BLOCK
  5
3421
330
3420
100
AcDbEntity
  8
0
100
AcDbBlockBegin
  2
*D22
 70
     1
 10
0.0
 20
0.0
 30
0.0
  3
*D22
  1

  0
LINE
  5
1414
330
3420
100
AcDbEntity
  8
SIZE
 62
     0
100
AcDbLine
 10
-22313.11521613997
 20
7365.702971374808
 30
0.0
 11
-22313.11521613997
 21
7217.685576144207
 31
0.0
  0
LINE
  5
1415
330
3420
100
AcDbEntity
  8
SIZE
 62
     0
100
AcDbLine
 10
-22044.11521613997
 20
7365.702971374808
 30
0.0
 11
-22044.11521613997
 21
7217.685576144207
 31
0.0
  0
LINE
  5
1416
330
3420
100
AcDbEntity
  8
SIZE
 62
     0
100
AcDbLine
 10
-22301.11521613997
 20
7237.685576144207
 30
0.0
 11
-22056.11521613997
 21
7237.685576144207
 31
0.0
  0
INSERT
  5
1417
330
3420
100
AcDbEntity
  8
SIZE
 62
     0
100
AcDbBlockReference
  2
_DOTBLANK
 10
-22313.11521613997
 20
7237.685576144207
 30
0.0
 41
12.0
 42
12.0
 43
12.0
 50
180.0
  0
INSERT
  5
1418
330
3420
100
AcDbEntity
  8
SIZE
 62
     0
100
AcDbBlockReference
  2
_DOTBLANK
 10
-22044.11521613997
 20
7237.685576144207
 30
0.0
 41
12.0
 42
12.0
 43
12.0
  0
INSERT
  5
1419
330
3420
100
AcDbEntity
  8
0
100
AcDbBlockReference
  2
*U23
 10
0.0
 20
0.0
 30
0.0
  0
POINT
  5
141A
330
3420
100
AcDbEntity
  8
DEFPOINTS
 62
     0
100
AcDbPoint
 10
-22313.11521613997
 20
7385.702971374808
 30
0.0
  0
POINT
  5
141B
330
3420
100
AcDbEntity
  8
DEFPOINTS
 62
     0
100
AcDbPoint
 10
-22044.11521613997
 20
7385.702971374808
 30
0.0
  0
POINT
  5
141C
330
3420
100
AcDbEntity
  8
DEFPOINTS
 62
     0
100
AcDbPoint
 10
-22044.11521613997
 20
7237.685576144207
 30
0.0
  0
ENDBLK
  5
141D
330
3420
100
AcDbEntity
  8
0
100
AcDbBlockEnd
  0
BLOCK
  5
3423
330
3422
100
AcDbEntity
  8
0
100
AcDbBlockBegin
  2
*U23
 70
     1
 10
0.0
 20
0.0
 30
0.0
  3
*U23
  1

  0
TEXT
  5
1EF9
330
3422
100
AcDbEntity
  8
SIZE
 62
     0
100
AcDbText
 10
-22251.30093042568
 20
7247.685576144205
 30
0.0
 40
64.0
  1
269
 41
0.9
100
AcDbText
  0
ENDBLK
  5
1EFB
330
3422
100
AcDbEntity
  8
0
100
AcDbBlockEnd
  0
BLOCK
  5
3425
330
3424
100
AcDbEntity
  8
0
100
AcDbBlockBegin
  2
*D24
 70
     1
 10
0.0
 20
0.0
 30
0.0
  3
*D24
  1

  0
LINE
  5
1420
330
3424
100
AcDbEntity
  8
SIZE
  6
Continuous
 62
     0
100
AcDbLine
 10
-22035.11521613997
 20
7385.702971374808
 30
0.0
 11
-21873.97193165959
 21
7385.702971374808
 31
0.0
  0
LINE
  5
1421
330
3424
100
AcDbEntity
  8
SIZE
  6
Continuous
 62
     0
100
AcDbLine
 10
-22001.11521613997
 20
7685.702971374808
 30
0.0
 11
-21873.97193165959
 21
7685.702971374808
 31
0.0
  0
LINE
  5
1422
330
3424
100
AcDbEntity
  8
SIZE
  6
Continuous
 62
     0
100
AcDbLine
 10
-21893.97193165959
 20
7397.702971374808
 30
0.0
 11
-21893.97193165959
 21
7673.702971374808
 31
0.0
  0
INSERT
  5
1423
330
3424
100
AcDbEntity
  8
SIZE
  6
Continuous
 62
     0
100
AcDbBlockReference
  2
_DOTBLANK
 10
-21893.97193165959
 20
7385.702971374808
 30
0.0
 41
12.0
 42
12.0
 43
12.0
 50
270.0
  0
INSERT
  5
1424
330
3424
100
AcDbEntity
  8
SIZE
  6
Continuous
 62
     0
100
AcDbBlockReference
  2
_DOTBLANK
 10
-21893.97193165959
 20
7685.702971374808
 30
0.0
 41
12.0
 42
12.0
 43
12.0
 50
90.0
  0
INSERT
  5
1425
330
3424
100
AcDbEntity
  8
0
100
AcDbBlockReference
  2
*U25
 10
0.0
 20
0.0
 30
0.0
  0
POINT
  5
1426
330
3424
100
AcDbEntity
  8
DEFPOINTS
  6
Continuous
 62
     0
100
AcDbPoint
 10
-22055.11521613997
 20
7385.702971374808
 30
0.0
  0
POINT
  5
1427
330
3424
100
AcDbEntity
  8
DEFPOINTS
  6
Continuous
 62
     0
100
AcDbPoint
 10
-22021.11521613997
 20
7685.702971374808
 30
0.0
  0
POINT
  5
1428
330
3424
100
AcDbEntity
  8
DEFPOINTS
  6
Continuous
 62
     0
100
AcDbPoint
 10
-21893.97193165959
 20
7685.702971374808
 30
0.0
  0
ENDBLK
  5
1429
330
3424
100
AcDbEntity
  8
0
100
AcDbBlockEnd
  0
BLOCK
  5
3427
330
3426
100
AcDbEntity
  8
0
100
AcDbBlockBegin
  2
*U25
 70
     1
 10
0.0
 20
0.0
 30
0.0
  3
*U25
  1

  0
TEXT
  5
1EFD
330
3426
100
AcDbEntity
  8
SIZE
 62
     0
100
AcDbText
 10
-21903.97193165959
 20
7461.645828517662
 30
0.0
 40
64.0
  1
300
 50
90.0
 41
0.9
100
AcDbText
  0
ENDBLK
  5
1EFF
330
3426
100
AcDbEntity
  8
0
100
AcDbBlockEnd
  0
BLOCK
  5
3429
330
3428
100
AcDbEntity
  8
0
100
AcDbBlockBegin
  2
*D26
 70
     1
 10
0.0
 20
0.0
 30
0.0
  3
*D26
  1

  0
LINE
  5
142C
330
3428
100
AcDbEntity
  8
SIZE
 62
     0
100
AcDbLine
 10
-22318.61521613997
 20
7718.167454177002
 30
0.0
 11
-22318.61521613997
 21
7822.154659243358
 31
0.0
  0
LINE
  5
142D
330
3428
100
AcDbEntity
  8
SIZE
 62
     0
100
AcDbLine
 10
-22038.61521613997
 20
7718.167454177002
 30
0.0
 11
-22038.61521613997
 21
7822.154659243358
 31
0.0
  0
LINE
  5
142E
330
3428
100
AcDbEntity
  8
SIZE
 62
     0
100
AcDbLine
 10
-22306.61521613997
 20
7802.154659243358
 30
0.0
 11
-22050.61521613997
 21
7802.154659243358
 31
0.0
  0
INSERT
  5
142F
330
3428
100
AcDbEntity
  8
SIZE
 62
     0
100
AcDbBlockReference
  2
_DOTBLANK
 10
-22318.61521613997
 20
7802.154659243358
 30
0.0
 41
12.0
 42
12.0
 43
12.0
 50
180.0
  0
INSERT
  5
1430
330
3428
100
AcDbEntity
  8
SIZE
 62
     0
100
AcDbBlockReference
  2
_DOTBLANK
 10
-22038.61521613997
 20
7802.154659243358
 30
0.0
 41
12.0
 42
12.0
 43
12.0
  0
INSERT
  5
1431
330
3428
100
AcDbEntity
  8
0
100
AcDbBlockReference
  2
*U27
 10
0.0
 20
0.0
 30
0.0
  0
POINT
  5
1432
330
3428
100
AcDbEntity
  8
DEFPOINTS
 62
     0
100
AcDbPoint
 10
-22318.61521613997
 20
7698.167454177002
 30
0.0
  0
POINT
  5
1433
330
3428
100
AcDbEntity
  8
DEFPOINTS
 62
     0
100
AcDbPoint
 10
-22038.61521613997
 20
7698.167454177002
 30
0.0
  0
POINT
  5
1434
330
3428
100
AcDbEntity
  8
DEFPOINTS
 62
     0
100
AcDbPoint
 10
-22038.61521613997
 20
7802.154659243358
 30
0.0
  0
ENDBLK
  5
1435
330
3428
100
AcDbEntity
  8
0
100
AcDbBlockEnd
  0
BLOCK
  5
342B
330
342A
100
AcDbEntity
  8
0
100
AcDbBlockBegin
  2
*U27
 70
     1
 10
0.0
 20
0.0
 30
0.0
  3
*U27
  1

  0
TEXT
  5
1F01
330
342A
100
AcDbEntity
  8
SIZE
 62
     0
100
AcDbText
 10
-22252.6723589971
 20
7812.154659243358
 30
0.0
 40
64.0
  1
280
 41
0.9
100
AcDbText
  0
ENDBLK
  5
1F03
330
342A
100
AcDbEntity
  8
0
100
AcDbBlockEnd
  0
BLOCK
  5
342D
330
342C
100
AcDbEntity
  8
0
100
AcDbBlockBegin
  2
*D28
 70
     1
 10
0.0
 20
0.0
 30
0.0
  3
*D28
  1

  0
LINE
  5
1438
330
342C
100
AcDbEntity
  8
SIZE
 62
     0
100
AcDbLine
 10
-22336.11521613997
 20
7705.702971374808
 30
0.0
 11
-22336.11521613997
 21
7931.282433493766
 31
0.0
  0
LINE
  5
1439
330
342C
100
AcDbEntity
  8
SIZE
 62
     0
100
AcDbLine
 10
-22021.11521613997
 20
7705.702971374808
 30
0.0
 11
-22021.11521613997
 21
7931.282433493766
 31
0.0
  0
LINE
  5
143A
330
342C
100
AcDbEntity
  8
SIZE
 62
     0
100
AcDbLine
 10
-22324.11521613997
 20
7911.282433493766
 30
0.0
 11
-22033.11521613997
 21
7911.282433493766
 31
0.0
  0
INSERT
  5
143B
330
342C
100
AcDbEntity
  8
SIZE
 62
     0
100
AcDbBlockReference
  2
_DOTBLANK
 10
-22336.11521613997
 20
7911.282433493766
 30
0.0
 41
12.0
 42
12.0
 43
12.0
 50
180.0
  0
INSERT
  5
143C
330
342C
100
AcDbEntity
  8
SIZE
 62
     0
100
AcDbBlockReference
  2
_DOTBLANK
 10
-22021.11521613997
 20
7911.282433493766
 30
0.0
 41
12.0
 42
12.0
 43
12.0
  0
INSERT
  5
143D
330
342C
100
AcDbEntity
  8
0
100
AcDbBlockReference
  2
*U29
 10
0.0
 20
0.0
 30
0.0
  0
POINT
  5
143E
330
342C
100
AcDbEntity
  8
DEFPOINTS
 62
     0
100
AcDbPoint
 10
-22336.11521613997
 20
7685.702971374808
 30
0.0
  0
POINT
  5
143F
330
342C
100
AcDbEntity
  8
DEFPOINTS
 62
     0
100
AcDbPoint
 10
-22021.11521613997
 20
7685.702971374808
 30
0.0
  0
POINT
  5
1440
330
342C
100
AcDbEntity
  8
DEFPOINTS
 62
     0
100
AcDbPoint
 10
-22021.11521613997
 20
7911.282433493766
 30
0.0
  0
ENDBLK
  5
1441
330
342C
100
AcDbEntity
  8
0
100
AcDbBlockEnd
  0
BLOCK
  5
342F
330
342E
100
AcDbEntity
  8
0
100
AcDbBlockBegin
  2
*U29
 70
     1
 10
0.0
 20
0.0
 30
0.0
  3
*U29
  1

  0
TEXT
  5
1F05
330
342E
100
AcDbEntity
  8
SIZE
 62
     0
100
AcDbText
 10
-22247.18664471139
 20
7921.282433493766
 30
0.0
 40
64.0
  1
315
 41
0.9
100
AcDbText
  0
ENDBLK
  5
1F07
330
342E
100
AcDbEntity
  8
0
100
AcDbBlockEnd
  0
BLOCK
  5
3431
330
3430
100
AcDbEntity
  8
0
100
AcDbBlockBegin
  2
*D30
 70
     1
 10
0.0
 20
0.0
 30
0.0
  3
*D30
  1

  0
LINE
  5
166B
330
3430
100
AcDbEntity
  8
SIZE
 62
     0
100
AcDbLine
 10
-134.5
 20
-320.0
 30
0.0
 11
-134.5
 21
-468.0173952306001
 31
0.0
  0
LINE
  5
166C
330
3430
100
AcDbEntity
  8
SIZE
 62
     0
100
AcDbLine
 10
134.5
 20
-320.0
 30
0.0
 11
134.5
 21
-468.0173952306001
 31
0.0
  0
LINE
  5
166D
330
3430
100
AcDbEntity
  8
SIZE
 62
     0
100
AcDbLine
 10
-122.5
 20
-448.0173952306
 30
0.0
 11
122.5
 21
-448.0173952306
 31
0.0
  0
INSERT
  5
166E
330
3430
100
AcDbEntity
  8
SIZE
 62
     0
100
AcDbBlockReference
  2
_DOTBLANK
 10
-134.5
 20
-448.0173952306
 30
0.0
 41
12.0
 42
12.0
 43
12.0
 50
180.0
  0
INSERT
  5
166F
330
3430
100
AcDbEntity
  8
SIZE
 62
     0
100
AcDbBlockReference
  2
_DOTBLANK
 10
134.5
 20
-448.0173952306
 30
0.0
 41
12.0
 42
12.0
 43
12.0
  0
INSERT
  5
1670
330
3430
100
AcDbEntity
  8
0
100
AcDbBlockReference
  2
*U31
 10
0.0
 20
0.0
 30
0.0
  0
POINT
  5
1671
330
3430
100
AcDbEntity
  8
DEFPOINTS
 62
     0
100
AcDbPoint
 10
-134.5
 20
-300.0
 30
0.0
  0
POINT
  5
1672
330
3430
100
AcDbEntity
  8
DEFPOINTS
 62
     0
100
AcDbPoint
 10
134.5
 20
-300.0
 30
0.0
  0
POINT
  5
1673
330
3430
100
AcDbEntity
  8
DEFPOINTS
 62
     0
100
AcDbPoint
 10
134.5
 20
-448.0173952306
 30
0.0
  0
ENDBLK
  5
14A7
330
3430
100
AcDbEntity
  8
0
100
AcDbBlockEnd
  0
BLOCK
  5
3433
330
3432
100
AcDbEntity
  8
0
100
AcDbBlockBegin
  2
*U31
 70
     1
 10
0.0
 20
0.0
 30
0.0
  3
*U31
  1

  0
TEXT
  5
1F09
330
3432
100
AcDbEntity
  8
SIZE
 62
     0
100
AcDbText
 10
-72.68571428571426
 20
-438.0173952306002
 30
0.0
 40
64.0
  1
269
 41
0.9
100
AcDbText
  0
ENDBLK
  5
1F0B
330
3432
100
AcDbEntity
  8
0
100
AcDbBlockEnd
  0
BLOCK
  5
3435
330
3434
100
AcDbEntity
  8
0
100
AcDbBlockBegin
  2
*D32
 70
     1
 10
0.0
 20
0.0
 30
0.0
  3
*D32
  1

  0
LINE
  5
1674
330
3434
100
AcDbEntity
  8
SIZE
  6
Continuous
 62
     0
100
AcDbLine
 10
143.5
 20
-300.0
 30
0.0
 11
304.6432844803784
 21
-300.0
 31
0.0
  0
LINE
  5
1675
330
3434
100
AcDbEntity
  8
SIZE
  6
Continuous
 62
     0
100
AcDbLine
 10
177.5
 20
-0.0000000000000057
 30
0.0
 11
304.6432844803785
 21
-0.0000000000000417
 31
0.0
  0
LINE
  5
1676
330
3434
100
AcDbEntity
  8
SIZE
  6
Continuous
 62
     0
100
AcDbLine
 10
284.6432844803784
 20
-288.0000000000001
 30
0.0
 11
284.6432844803785
 21
-12.00000000000003
 31
0.0
  0
INSERT
  5
1677
330
3434
100
AcDbEntity
  8
SIZE
  6
Continuous
 62
     0
100
AcDbBlockReference
  2
_DOTBLANK
 10
284.6432844803784
 20
-300.0
 30
0.0
 41
12.0
 42
12.0
 43
12.0
 50
270.0
  0
INSERT
  5
1678
330
3434
100
AcDbEntity
  8
SIZE
  6
Continuous
 62
     0
100
AcDbBlockReference
  2
_DOTBLANK
 10
284.6432844803785
 20
-0.000000000000036
 30
0.0
 41
12.0
 42
12.0
 43
12.0
 50
90.0
  0
INSERT
  5
1679
330
3434
100
AcDbEntity
  8
0
100
AcDbBlockReference
  2
*U33
 10
0.0
 20
0.0
 30
0.0
  0
POINT
  5
167A
330
3434
100
AcDbEntity
  8
DEFPOINTS
  6
Continuous
 62
     0
100
AcDbPoint
 10
123.5
 20
-300.0
 30
0.0
  0
POINT
  5
167B
330
3434
100
AcDbEntity
  8
DEFPOINTS
  6
Continuous
 62
     0
100
AcDbPoint
 10
157.5
 20
0.0
 30
0.0
  0
POINT
  5
167C
330
3434
100
AcDbEntity
  8
DEFPOINTS
  6
Continuous
 62
     0
100
AcDbPoint
 10
284.6432844803785
 20
-0.000000000000036
 30
0.0
  0
ENDBLK
  5
14B3
330
3434
100
AcDbEntity
  8
0
100
AcDbBlockEnd
  0
BLOCK
  5
3437
330
3436
100
AcDbEntity
  8
0
100
AcDbBlockBegin
  2
*U33
 70
     1
 10
0.0
 20
0.0
 30
0.0
  3
*U33
  1

  0
TEXT
  5
1F0D
330
3436
100
AcDbEntity
  8
SIZE
 62
     0
100
AcDbText
 10
274.6432844803785
 20
-224.0571428571429
 30
0.0
 40
64.0
  1
300
 50
90.0
 41
0.9
100
AcDbText
  0
ENDBLK
  5
1F0F
330
3436
100
AcDbEntity
  8
0
100
AcDbBlockEnd
  0
BLOCK
  5
3439
330
3438
100
AcDbEntity
  8
0
100
AcDbBlockBegin
  2
*D34
 70
     1
 10
0.0
 20
0.0
 30
0.0
  3
*D34
  1

  0
LINE
  5
167D
330
3438
100
AcDbEntity
  8
SIZE
 62
     0
100
AcDbLine
 10
-140.0
 20
32.46448280219375
 30
0.0
 11
-140.0
 21
136.4516878685507
 31
0.0
  0
LINE
  5
167E
330
3438
100
AcDbEntity
  8
SIZE
 62
     0
100
AcDbLine
 10
140.0
 20
32.46448280219375
 30
0.0
 11
140.0
 21
136.4516878685507
 31
0.0
  0
LINE
  5
167F
330
3438
100
AcDbEntity
  8
SIZE
 62
     0
100
AcDbLine
 10
-128.0
 20
116.4516878685508
 30
0.0
 11
128.0
 21
116.4516878685508
 31
0.0
  0
INSERT
  5
1680
330
3438
100
AcDbEntity
  8
SIZE
 62
     0
100
AcDbBlockReference
  2
_DOTBLANK
 10
-140.0
 20
116.4516878685508
 30
0.0
 41
12.0
 42
12.0
 43
12.0
 50
180.0
  0
INSERT
  5
1681
330
3438
100
AcDbEntity
  8
SIZE
 62
     0
100
AcDbBlockReference
  2
_DOTBLANK
 10
140.0
 20
116.4516878685508
 30
0.0
 41
12.0
 42
12.0
 43
12.0
  0
INSERT
  5
1682
330
3438
100
AcDbEntity
  8
0
100
AcDbBlockReference
  2
*U35
 10
0.0
 20
0.0
 30
0.0
  0
POINT
  5
1683
330
3438
100
AcDbEntity
  8
DEFPOINTS
 62
     0
100
AcDbPoint
 10
-140.0
 20
12.46448280219374
 30
0.0
  0
POINT
  5
1684
330
3438
100
AcDbEntity
  8
DEFPOINTS
 62
     0
100
AcDbPoint
 10
140.0
 20
12.46448280219374
 30
0.0
  0
POINT
  5
1685
330
3438
100
AcDbEntity
  8
DEFPOINTS
 62
     0
100
AcDbPoint
 10
140.0
 20
116.4516878685508
 30
0.0
  0
ENDBLK
  5
14BF
330
3438
100
AcDbEntity
  8
0
100
AcDbBlockEnd
  0
BLOCK
  5
343B
330
343A
100
AcDbEntity
  8
0
100
AcDbBlockBegin
  2
*U35
 70
     1
 10
0.0
 20
0.0
 30
0.0
  3
*U35
  1

  0
TEXT
  5
1F11
330
343A
100
AcDbEntity
  8
SIZE
 62
     0
100
AcDbText
 10
-74.05714285714283
 20
126.4516878685507
 30
0.0
 40
64.0
  1
280
 41
0.9
100
AcDbText
  0
ENDBLK
  5
1F13
330
343A
100
AcDbEntity
  8
0
100
AcDbBlockEnd
  0
BLOCK
  5
343D
330
343C
100
AcDbEntity
  8
0
100
AcDbBlockBegin
  2
*D36
 70
     1
 10
0.0
 20
0.0
 30
0.0
  3
*D36
  1

  0
LINE
  5
1686
330
343C
100
AcDbEntity
  8
SIZE
 62
     0
100
AcDbLine
 10
-157.5
 20
20.0
 30
0.0
 11
-157.5
 21
245.5794621189598
 31
0.0
  0
LINE
  5
1687
330
343C
100
AcDbEntity
  8
SIZE
 62
     0
100
AcDbLine
 10
157.5
 20
20.0
 30
0.0
 11
157.5
 21
245.5794621189598
 31
0.0
  0
LINE
  5
1688
330
343C
100
AcDbEntity
  8
SIZE
 62
     0
100
AcDbLine
 10
-145.5
 20
225.5794621189598
 30
0.0
 11
145.5
 21
225.5794621189598
 31
0.0
  0
INSERT
  5
1689
330
343C
100
AcDbEntity
  8
SIZE
 62
     0
100
AcDbBlockReference
  2
_DOTBLANK
 10
-157.5
 20
225.5794621189598
 30
0.0
 41
12.0
 42
12.0
 43
12.0
 50
180.0
  0
INSERT
  5
168A
330
343C
100
AcDbEntity
  8
SIZE
 62
     0
100
AcDbBlockReference
  2
_DOTBLANK
 10
157.5
 20
225.5794621189598
 30
0.0
 41
12.0
 42
12.0
 43
12.0
  0
INSERT
  5
168B
330
343C
100
AcDbEntity
  8
0
100
AcDbBlockReference
  2
*U37
 10
0.0
 20
0.0
 30
0.0
  0
POINT
  5
168C
330
343C
100
AcDbEntity
  8
DEFPOINTS
 62
     0
100
AcDbPoint
 10
-157.5
 20
0.0
 30
0.0
  0
POINT
  5
168D
330
343C
100
AcDbEntity
  8
DEFPOINTS
 62
     0
100
AcDbPoint
 10
157.5
 20
0.0
 30
0.0
  0
POINT
  5
168E
330
343C
100
AcDbEntity
  8
DEFPOINTS
 62
     0
100
AcDbPoint
 10
157.5
 20
225.5794621189598
 30
0.0
  0
ENDBLK
  5
14CB
330
343C
100
AcDbEntity
  8
0
100
AcDbBlockEnd
  0
BLOCK
  5
343F
330
343E
100
AcDbEntity
  8
0
100
AcDbBlockBegin
  2
*U37
 70
     1
 10
0.0
 20
0.0
 30
0.0
  3
*U37
  1

  0
TEXT
  5
1F15
330
343E
100
AcDbEntity
  8
SIZE
 62
     0
100
AcDbText
 10
-68.57142857142857
 20
235.5794621189598
 30
0.0
 40
64.0
  1
315
 41
0.9
100
AcDbText
  0
ENDBLK
  5
1F17
330
343E
100
AcDbEntity
  8
0
100
AcDbBlockEnd
  0
BLOCK
  5
3441
330
3440
100
AcDbEntity
  8
0
100
AcDbBlockBegin
  2
*U38
 70
     1
 10
0.0
 20
0.0
 30
0.0
  3
*U38
  1

  0
ENDBLK
  5
15CF
330
3440
100
AcDbEntity
  8
0
100
AcDbBlockEnd
  0
BLOCK
  5
3443
330
3442
100
AcDbEntity
  8
0
100
AcDbBlockBegin
  2
*D39
 70
     1
 10
0.0
 20
0.0
 30
0.0
  3
*D39
  1

  0
LINE
  5
1692
330
3442
100
AcDbEntity
  8
SIZE
 62
     0
100
AcDbLine
 10
-25844.51823276502
 20
7685.702971374808
 30
0.0
 11
-25981.04465488371
 21
7685.702971374808
 31
0.0
  0
LINE
  5
1693
330
3442
100
AcDbEntity
  8
SIZE
 62
     0
100
AcDbLine
 10
-25844.51823276502
 20
7677.702971374808
 30
0.0
 11
-25981.04465488371
 21
7677.702971374808
 31
0.0
  0
LINE
  5
1694
330
3442
100
AcDbEntity
  8
SIZE
 62
     0
100
AcDbLine
 10
-25961.04465488371
 20
7697.702971374808
 30
0.0
 11
-25961.04465488371
 21
7709.702971374809
 31
0.0
  0
LINE
  5
1695
330
3442
100
AcDbEntity
  8
SIZE
 62
     0
100
AcDbLine
 10
-25961.04465488371
 20
7665.70297137481
 30
0.0
 11
-25961.04465488371
 21
7595.302971374808
 31
0.0
  0
INSERT
  5
1696
330
3442
100
AcDbEntity
  8
SIZE
 62
     0
100
AcDbBlockReference
  2
_DOTBLANK
 10
-25961.04465488371
 20
7685.702971374808
 30
0.0
 41
12.0
 42
12.0
 43
12.0
 50
270.0
  0
INSERT
  5
1697
330
3442
100
AcDbEntity
  8
SIZE
 62
     0
100
AcDbBlockReference
  2
_DOTBLANK
 10
-25961.04465488371
 20
7677.702971374808
 30
0.0
 41
12.0
 42
12.0
 43
12.0
 50
90.0
  0
INSERT
  5
1698
330
3442
100
AcDbEntity
  8
0
100
AcDbBlockReference
  2
*U40
 10
0.0
 20
0.0
 30
0.0
  0
POINT
  5
1699
330
3442
100
AcDbEntity
  8
DEFPOINTS
 62
     0
100
AcDbPoint
 10
-25824.51823276501
 20
7685.702971374808
 30
0.0
  0
POINT
  5
169A
330
3442
100
AcDbEntity
  8
DEFPOINTS
 62
     0
100
AcDbPoint
 10
-25824.51823276501
 20
7677.702971374808
 30
0.0
  0
POINT
  5
169B
330
3442
100
AcDbEntity
  8
DEFPOINTS
 62
     0
100
AcDbPoint
 10
-25961.04465488371
 20
7677.702971374808
 30
0.0
  0
ENDBLK
  5
169C
330
3442
100
AcDbEntity
  8
0
100
AcDbBlockEnd
  0
BLOCK
  5
3445
330
3444
100
AcDbEntity
  8
0
100
AcDbBlockBegin
  2
*U40
 70
     1
 10
0.0
 20
0.0
 30
0.0
  3
*U40
  1

  0
TEXT
  5
1F19
330
3444
100
AcDbEntity
  8
SIZE
 62
     0
100
AcDbText
 10
-25971.04465488371
 20
7605.302971374804
 30
0.0
 40
64.0
  1
8
 50
90.0
 41
0.9
100
AcDbText
  0
ENDBLK
  5
1F1B
330
3444
100
AcDbEntity
  8
0
100
AcDbBlockEnd
  0
BLOCK
  5
3447
330
3446
100
AcDbEntity
  8
0
100
AcDbBlockBegin
  2
*D41
 70
     1
 10
0.0
 20
0.0
 30
0.0
  3
*D41
  1

  0
LINE
  5
169F
330
3446
100
AcDbEntity
  8
SIZE
 62
     0
100
AcDbLine
 10
-25512.51823276502
 20
7385.702971374808
 30
0.0
 11
-25362.37494828464
 21
7385.702971374808
 31
0.0
  0
LINE
  5
16A0
330
3446
100
AcDbEntity
  8
SIZE
 62
     0
100
AcDbLine
 10
-25523.51823276501
 20
7373.702971374808
 30
0.0
 11
-25362.37494828464
 21
7373.702971374808
 31
0.0
  0
LINE
  5
16A1
330
3446
100
AcDbEntity
  8
SIZE
 62
     0
100
AcDbLine
 10
-25382.37494828464
 20
7397.702971374808
 30
0.0
 11
-25382.37494828464
 21
7409.70297137481
 31
0.0
  0
LINE
  5
16A2
330
3446
100
AcDbEntity
  8
SIZE
 62
     0
100
AcDbLine
 10
-25382.37494828464
 20
7361.702971374808
 30
0.0
 11
-25382.37494828464
 21
7244.674399946237
 31
0.0
  0
INSERT
  5
16A3
330
3446
100
AcDbEntity
  8
SIZE
 62
     0
100
AcDbBlockReference
  2
_DOTBLANK
 10
-25382.37494828464
 20
7385.702971374808
 30
0.0
 41
12.0
 42
12.0
 43
12.0
 50
270.0
  0
INSERT
  5
16A4
330
3446
100
AcDbEntity
  8
SIZE
 62
     0
100
AcDbBlockReference
  2
_DOTBLANK
 10
-25382.37494828464
 20
7373.702971374808
 30
0.0
 41
12.0
 42
12.0
 43
12.0
 50
90.0
  0
INSERT
  5
16A5
330
3446
100
AcDbEntity
  8
0
100
AcDbBlockReference
  2
*U42
 10
0.0
 20
0.0
 30
0.0
  0
POINT
  5
16A6
330
3446
100
AcDbEntity
  8
DEFPOINTS
 62
     0
100
AcDbPoint
 10
-25532.51823276502
 20
7385.702971374808
 30
0.0
  0
POINT
  5
16A7
330
3446
100
AcDbEntity
  8
DEFPOINTS
 62
     0
100
AcDbPoint
 10
-25543.51823276502
 20
7373.702971374808
 30
0.0
  0
POINT
  5
16A8
330
3446
100
AcDbEntity
  8
DEFPOINTS
 62
     0
100
AcDbPoint
 10
-25382.37494828464
 20
7373.702971374808
 30
0.0
  0
ENDBLK
  5
16A9
330
3446
100
AcDbEntity
  8
0
100
AcDbBlockEnd
  0
BLOCK
  5
3449
330
3448
100
AcDbEntity
  8
0
100
AcDbBlockBegin
  2
*U42
 70
     1
 10
0.0
 20
0.0
 30
0.0
  3
*U42
  1

  0
TEXT
  5
1F1D
330
3448
100
AcDbEntity
  8
SIZE
 62
     0
100
AcDbText
 10
-25392.37494828464
 20
7256.045828517662
 30
0.0
 40
64.0
  1
12
 50
90.0
 41
0.9
100
AcDbText
  0
ENDBLK
  5
1F1F
330
3448
100
AcDbEntity
  8
0
100
AcDbBlockEnd
  0
BLOCK
  5
344B
330
344A
100
AcDbEntity
  8
0
100
AcDbBlockBegin
  2
*D43
 70
     1
 10
0.0
 20
0.0
 30
0.0
  3
*D43
  1

  0
LINE
  5
16AC
330
344A
100
AcDbEntity
  8
SIZE
 62
     0
100
AcDbLine
 10
-25801.51823276501
 20
7365.702971374808
 30
0.0
 11
-25801.51823276501
 21
7217.685576144207
 31
0.0
  0
LINE
  5
16AD
330
344A
100
AcDbEntity
  8
SIZE
 62
     0
100
AcDbLine
 10
-25532.51823276502
 20
7365.702971374808
 30
0.0
 11
-25532.51823276502
 21
7217.685576144207
 31
0.0
  0
LINE
  5
16AE
330
344A
100
AcDbEntity
  8
SIZE
 62
     0
100
AcDbLine
 10
-25789.51823276502
 20
7237.685576144207
 30
0.0
 11
-25544.51823276501
 21
7237.685576144207
 31
0.0
  0
INSERT
  5
16AF
330
344A
100
AcDbEntity
  8
SIZE
 62
     0
100
AcDbBlockReference
  2
_DOTBLANK
 10
-25801.51823276501
 20
7237.685576144207
 30
0.0
 41
12.0
 42
12.0
 43
12.0
 50
180.0
  0
INSERT
  5
16B0
330
344A
100
AcDbEntity
  8
SIZE
 62
     0
100
AcDbBlockReference
  2
_DOTBLANK
 10
-25532.51823276502
 20
7237.685576144207
 30
0.0
 41
12.0
 42
12.0
 43
12.0
  0
INSERT
  5
16B1
330
344A
100
AcDbEntity
  8
0
100
AcDbBlockReference
  2
*U44
 10
0.0
 20
0.0
 30
0.0
  0
POINT
  5
16B2
330
344A
100
AcDbEntity
  8
DEFPOINTS
 62
     0
100
AcDbPoint
 10
-25801.51823276501
 20
7385.702971374808
 30
0.0
  0
POINT
  5
16B3
330
344A
100
AcDbEntity
  8
DEFPOINTS
 62
     0
100
AcDbPoint
 10
-25532.51823276502
 20
7385.702971374808
 30
0.0
  0
POINT
  5
16B4
330
344A
100
AcDbEntity
  8
DEFPOINTS
 62
     0
100
AcDbPoint
 10
-25532.51823276502
 20
7237.685576144207
 30
0.0
  0
ENDBLK
  5
16B5
330
344A
100
AcDbEntity
  8
0
100
AcDbBlockEnd
  0
BLOCK
  5
344D
330
344C
100
AcDbEntity
  8
0
100
AcDbBlockBegin
  2
*U44
 70
     1
 10
0.0
 20
0.0
 30
0.0
  3
*U44
  1

  0
TEXT
  5
1F21
330
344C
100
AcDbEntity
  8
SIZE
 62
     0
100
AcDbText
 10
-25739.70394705074
 20
7247.685576144205
 30
0.0
 40
64.0
  1
269
 41
0.9
100
AcDbText
  0
ENDBLK
  5
1F23
330
344C
100
AcDbEntity
  8
0
100
AcDbBlockEnd
  0
BLOCK
  5
344F
330
344E
100
AcDbEntity
  8
0
100
AcDbBlockBegin
  2
*D45
 70
     1
 10
0.0
 20
0.0
 30
0.0
  3
*D45
  1

  0
LINE
  5
16B8
330
344E
100
AcDbEntity
  8
SIZE
 62
     0
100
AcDbLine
 10
-25512.51823276502
 20
7385.702971374808
 30
0.0
 11
-25362.37494828464
 21
7385.702971374808
 31
0.0
  0
LINE
  5
16B9
330
344E
100
AcDbEntity
  8
SIZE
 62
     0
100
AcDbLine
 10
-25489.51823276501
 20
7685.702971374808
 30
0.0
 11
-25362.37494828464
 21
7685.702971374808
 31
0.0
  0
LINE
  5
16BA
330
344E
100
AcDbEntity
  8
SIZE
 62
     0
100
AcDbLine
 10
-25382.37494828464
 20
7397.702971374808
 30
0.0
 11
-25382.37494828464
 21
7673.702971374808
 31
0.0
  0
INSERT
  5
16BB
330
344E
100
AcDbEntity
  8
SIZE
 62
     0
100
AcDbBlockReference
  2
_DOTBLANK
 10
-25382.37494828464
 20
7385.702971374808
 30
0.0
 41
12.0
 42
12.0
 43
12.0
 50
270.0
  0
INSERT
  5
16BC
330
344E
100
AcDbEntity
  8
SIZE
 62
     0
100
AcDbBlockReference
  2
_DOTBLANK
 10
-25382.37494828464
 20
7685.702971374808
 30
0.0
 41
12.0
 42
12.0
 43
12.0
 50
90.0
  0
INSERT
  5
16BD
330
344E
100
AcDbEntity
  8
0
100
AcDbBlockReference
  2
*U46
 10
0.0
 20
0.0
 30
0.0
  0
POINT
  5
16BE
330
344E
100
AcDbEntity
  8
DEFPOINTS
 62
     0
100
AcDbPoint
 10
-25532.51823276502
 20
7385.702971374808
 30
0.0
  0
POINT
  5
16BF
330
344E
100
AcDbEntity
  8
DEFPOINTS
 62
     0
100
AcDbPoint
 10
-25509.51823276502
 20
7685.702971374808
 30
0.0
  0
POINT
  5
16C0
330
344E
100
AcDbEntity
  8
DEFPOINTS
 62
     0
100
AcDbPoint
 10
-25382.37494828464
 20
7685.702971374808
 30
0.0
  0
ENDBLK
  5
16C1
330
344E
100
AcDbEntity
  8
0
100
AcDbBlockEnd
  0
BLOCK
  5
3451
330
3450
100
AcDbEntity
  8
0
100
AcDbBlockBegin
  2
*U46
 70
     1
 10
0.0
 20
0.0
 30
0.0
  3
*U46
  1

  0
TEXT
  5
1F25
330
3450
100
AcDbEntity
  8
SIZE
 62
     0
100
AcDbText
 10
-25392.37494828464
 20
7461.645828517662
 30
0.0
 40
64.0
  1
300
 50
90.0
 41
0.9
100
AcDbText
  0
ENDBLK
  5
1F27
330
3450
100
AcDbEntity
  8
0
100
AcDbBlockEnd
  0
BLOCK
  5
3453
330
3452
100
AcDbEntity
  8
0
100
AcDbBlockBegin
  2
*D47
 70
     1
 10
0.0
 20
0.0
 30
0.0
  3
*D47
  1

  0
LINE
  5
16C4
330
3452
100
AcDbEntity
  8
SIZE
 62
     0
100
AcDbLine
 10
-25807.01823276501
 20
7718.167454177002
 30
0.0
 11
-25807.01823276501
 21
7822.154659243358
 31
0.0
  0
LINE
  5
16C5
330
3452
100
AcDbEntity
  8
SIZE
 62
     0
100
AcDbLine
 10
-25527.01823276501
 20
7718.167454177002
 30
0.0
 11
-25527.01823276501
 21
7822.154659243358
 31
0.0
  0
LINE
  5
16C6
330
3452
100
AcDbEntity
  8
SIZE
 62
     0
100
AcDbLine
 10
-25795.01823276502
 20
7802.154659243358
 30
0.0
 11
-25539.01823276501
 21
7802.154659243358
 31
0.0
  0
INSERT
  5
16C7
330
3452
100
AcDbEntity
  8
SIZE
 62
     0
100
AcDbBlockReference
  2
_DOTBLANK
 10
-25807.01823276501
 20
7802.154659243358
 30
0.0
 41
12.0
 42
12.0
 43
12.0
 50
180.0
  0
INSERT
  5
16C8
330
3452
100
AcDbEntity
  8
SIZE
 62
     0
100
AcDbBlockReference
  2
_DOTBLANK
 10
-25527.01823276501
 20
7802.154659243358
 30
0.0
 41
12.0
 42
12.0
 43
12.0
  0
INSERT
  5
16C9
330
3452
100
AcDbEntity
  8
0
100
AcDbBlockReference
  2
*U48
 10
0.0
 20
0.0
 30
0.0
  0
POINT
  5
16CA
330
3452
100
AcDbEntity
  8
DEFPOINTS
 62
     0
100
AcDbPoint
 10
-25807.01823276501
 20
7698.167454177002
 30
0.0
  0
POINT
  5
16CB
330
3452
100
AcDbEntity
  8
DEFPOINTS
 62
     0
100
AcDbPoint
 10
-25527.01823276501
 20
7698.167454177002
 30
0.0
  0
POINT
  5
16CC
330
3452
100
AcDbEntity
  8
DEFPOINTS
 62
     0
100
AcDbPoint
 10
-25527.01823276501
 20
7802.154659243358
 30
0.0
  0
ENDBLK
  5
16CD
330
3452
100
AcDbEntity
  8
0
100
AcDbBlockEnd
  0
BLOCK
  5
3455
330
3454
100
AcDbEntity
  8
0
100
AcDbBlockBegin
  2
*U48
 70
     1
 10
0.0
 20
0.0
 30
0.0
  3
*U48
  1

  0
TEXT
  5
1F29
330
3454
100
AcDbEntity
  8
SIZE
 62
     0
100
AcDbText
 10
-25741.07537562216
 20
7812.154659243358
 30
0.0
 40
64.0
  1
280
 41
0.9
100
AcDbText
  0
ENDBLK
  5
1F2B
330
3454
100
AcDbEntity
  8
0
100
AcDbBlockEnd
  0
BLOCK
  5
3457
330
3456
100
AcDbEntity
  8
0
100
AcDbBlockBegin
  2
*D49
 70
     1
 10
0.0
 20
0.0
 30
0.0
  3
*D49
  1

  0
LINE
  5
16D0
330
3456
100
AcDbEntity
  8
SIZE
 62
     0
100
AcDbLine
 10
-25824.51823276501
 20
7705.702971374808
 30
0.0
 11
-25824.51823276501
 21
7931.282433493766
 31
0.0
  0
LINE
  5
16D1
330
3456
100
AcDbEntity
  8
SIZE
 62
     0
100
AcDbLine
 10
-25509.51823276502
 20
7705.702971374808
 30
0.0
 11
-25509.51823276502
 21
7931.282433493766
 31
0.0
  0
LINE
  5
16D2
330
3456
100
AcDbEntity
  8
SIZE
 62
     0
100
AcDbLine
 10
-25812.51823276502
 20
7911.282433493766
 30
0.0
 11
-25521.51823276501
 21
7911.282433493766
 31
0.0
  0
INSERT
  5
16D3
330
3456
100
AcDbEntity
  8
SIZE
 62
     0
100
AcDbBlockReference
  2
_DOTBLANK
 10
-25824.51823276501
 20
7911.282433493766
 30
0.0
 41
12.0
 42
12.0
 43
12.0
 50
180.0
  0
INSERT
  5
16D4
330
3456
100
AcDbEntity
  8
SIZE
 62
     0
100
AcDbBlockReference
  2
_DOTBLANK
 10
-25509.51823276502
 20
7911.282433493766
 30
0.0
 41
12.0
 42
12.0
 43
12.0
  0
INSERT
  5
16D5
330
3456
100
AcDbEntity
  8
0
100
AcDbBlockReference
  2
*U50
 10
0.0
 20
0.0
 30
0.0
  0
POINT
  5
16D6
330
3456
100
AcDbEntity
  8
DEFPOINTS
 62
     0
100
AcDbPoint
 10
-25824.51823276501
 20
7685.702971374808
 30
0.0
  0
POINT
  5
16D7
330
3456
100
AcDbEntity
  8
DEFPOINTS
 62
     0
100
AcDbPoint
 10
-25509.51823276502
 20
7685.702971374808
 30
0.0
  0
POINT
  5
16D8
330
3456
100
AcDbEntity
  8
DEFPOINTS
 62
     0
100
AcDbPoint
 10
-25509.51823276502
 20
7911.282433493766
 30
0.0
  0
ENDBLK
  5
16D9
330
3456
100
AcDbEntity
  8
0
100
AcDbBlockEnd
  0
BLOCK
  5
3459
330
3458
100
AcDbEntity
  8
0
100
AcDbBlockBegin
  2
*U50
 70
     1
 10
0.0
 20
0.0
 30
0.0
  3
*U50
  1

  0
TEXT
  5
1F2D
330
3458
100
AcDbEntity
  8
SIZE
 62
     0
100
AcDbText
 10
-25735.58966133645
 20
7921.282433493766
 30
0.0
 40
64.0
  1
315
 41
0.9
100
AcDbText
  0
ENDBLK
  5
1F2F
330
3458
100
AcDbEntity
  8
0
100
AcDbBlockEnd
  0
BLOCK
  5
345B
330
345A
100
AcDbEntity
  8
0
100
AcDbBlockBegin
  2
*D51
 70
     1
 10
0.0
 20
0.0
 30
0.0
  3
*D51
  1

  0
LINE
  5
1D83
330
345A
100
AcDbEntity
  8
SIZE
 62
     0
100
AcDbLine
 10
-134.5
 20
-320.0
 30
0.0
 11
-134.5
 21
-468.0173952306001
 31
0.0
  0
LINE
  5
1D84
330
345A
100
AcDbEntity
  8
SIZE
 62
     0
100
AcDbLine
 10
134.5
 20
-320.0
 30
0.0
 11
134.5
 21
-468.0173952306001
 31
0.0
  0
LINE
  5
1D85
330
345A
100
AcDbEntity
  8
SIZE
 62
     0
100
AcDbLine
 10
-122.5
 20
-448.0173952306
 30
0.0
 11
122.5
 21
-448.0173952306
 31
0.0
  0
INSERT
  5
1D86
330
345A
100
AcDbEntity
  8
SIZE
 62
     0
100
AcDbBlockReference
  2
_DOTBLANK
 10
-134.5
 20
-448.0173952306
 30
0.0
 41
12.0
 42
12.0
 43
12.0
 50
180.0
  0
INSERT
  5
1D87
330
345A
100
AcDbEntity
  8
SIZE
 62
     0
100
AcDbBlockReference
  2
_DOTBLANK
 10
134.5
 20
-448.0173952306
 30
0.0
 41
12.0
 42
12.0
 43
12.0
  0
INSERT
  5
1D88
330
345A
100
AcDbEntity
  8
0
100
AcDbBlockReference
  2
*U52
 10
0.0
 20
0.0
 30
0.0
  0
POINT
  5
1D89
330
345A
100
AcDbEntity
  8
DEFPOINTS
 62
     0
100
AcDbPoint
 10
-134.5
 20
-300.0
 30
0.0
  0
POINT
  5
1D8A
330
345A
100
AcDbEntity
  8
DEFPOINTS
 62
     0
100
AcDbPoint
 10
134.5
 20
-300.0
 30
0.0
  0
POINT
  5
1D8B
330
345A
100
AcDbEntity
  8
DEFPOINTS
 62
     0
100
AcDbPoint
 10
134.5
 20
-448.0173952306
 30
0.0
  0
ENDBLK
  5
173D
330
345A
100
AcDbEntity
  8
0
100
AcDbBlockEnd
  0
BLOCK
  5
345D
330
345C
100
AcDbEntity
  8
0
100
AcDbBlockBegin
  2
*U52
 70
     1
 10
0.0
 20
0.0
 30
0.0
  3
*U52
  1

  0
TEXT
  5
1F31
330
345C
100
AcDbEntity
  8
SIZE
 62
     0
100
AcDbText
 10
-72.68571428571426
 20
-438.0173952306003
 30
0.0
 40
64.0
  1
269
 41
0.9
100
AcDbText
  0
ENDBLK
  5
1F33
330
345C
100
AcDbEntity
  8
0
100
AcDbBlockEnd
  0
BLOCK
  5
345F
330
345E
100
AcDbEntity
  8
0
100
AcDbBlockBegin
  2
*D53
 70
     1
 10
0.0
 20
0.0
 30
0.0
  3
*D53
  1

  0
LINE
  5
1D8C
330
345E
100
AcDbEntity
  8
SIZE
 62
     0
100
AcDbLine
 10
154.5
 20
-300.0
 30
0.0
 11
304.6432844803784
 21
-300.0
 31
0.0
  0
LINE
  5
1D8D
330
345E
100
AcDbEntity
  8
SIZE
 62
     0
100
AcDbLine
 10
177.5
 20
-0.0000000000000057
 30
0.0
 11
304.6432844803785
 21
-0.0000000000000417
 31
0.0
  0
LINE
  5
1D8E
330
345E
100
AcDbEntity
  8
SIZE
 62
     0
100
AcDbLine
 10
284.6432844803784
 20
-288.0
 30
0.0
 11
284.6432844803785
 21
-12.00000000000003
 31
0.0
  0
INSERT
  5
1D8F
330
345E
100
AcDbEntity
  8
SIZE
 62
     0
100
AcDbBlockReference
  2
_DOTBLANK
 10
284.6432844803784
 20
-300.0
 30
0.0
 41
12.0
 42
12.0
 43
12.0
 50
270.0
  0
INSERT
  5
1D90
330
345E
100
AcDbEntity
  8
SIZE
 62
     0
100
AcDbBlockReference
  2
_DOTBLANK
 10
284.6432844803785
 20
-0.000000000000036
 30
0.0
 41
12.0
 42
12.0
 43
12.0
 50
90.0
  0
INSERT
  5
1D91
330
345E
100
AcDbEntity
  8
0
100
AcDbBlockReference
  2
*U54
 10
0.0
 20
0.0
 30
0.0
  0
POINT
  5
1D92
330
345E
100
AcDbEntity
  8
DEFPOINTS
 62
     0
100
AcDbPoint
 10
134.5
 20
-300.0
 30
0.0
  0
POINT
  5
1D93
330
345E
100
AcDbEntity
  8
DEFPOINTS
 62
     0
100
AcDbPoint
 10
157.5
 20
0.0
 30
0.0
  0
POINT
  5
1D94
330
345E
100
AcDbEntity
  8
DEFPOINTS
 62
     0
100
AcDbPoint
 10
284.6432844803785
 20
-0.000000000000036
 30
0.0
  0
ENDBLK
  5
1749
330
345E
100
AcDbEntity
  8
0
100
AcDbBlockEnd
  0
BLOCK
  5
3461
330
3460
100
AcDbEntity
  8
0
100
AcDbBlockBegin
  2
*U54
 70
     1
 10
0.0
 20
0.0
 30
0.0
  3
*U54
  1

  0
TEXT
  5
1F35
330
3460
100
AcDbEntity
  8
SIZE
 62
     0
100
AcDbText
 10
274.6432844803785
 20
-224.0571428571429
 30
0.0
 40
64.0
  1
300
 50
90.0
 41
0.9
100
AcDbText
  0
ENDBLK
  5
1F37
330
3460
100
AcDbEntity
  8
0
100
AcDbBlockEnd
  0
BLOCK
  5
3463
330
3462
100
AcDbEntity
  8
0
100
AcDbBlockBegin
  2
*D55
 70
     1
 10
0.0
 20
0.0
 30
0.0
  3
*D55
  1

  0
LINE
  5
1D95
330
3462
100
AcDbEntity
  8
SIZE
 62
     0
100
AcDbLine
 10
-140.0
 20
32.46448280219375
 30
0.0
 11
-140.0
 21
136.4516878685508
 31
0.0
  0
LINE
  5
1D96
330
3462
100
AcDbEntity
  8
SIZE
 62
     0
100
AcDbLine
 10
140.0
 20
32.46448280219375
 30
0.0
 11
140.0
 21
136.4516878685508
 31
0.0
  0
LINE
  5
1D97
330
3462
100
AcDbEntity
  8
SIZE
 62
     0
100
AcDbLine
 10
-128.0
 20
116.4516878685508
 30
0.0
 11
128.0
 21
116.4516878685508
 31
0.0
  0
INSERT
  5
1D98
330
3462
100
AcDbEntity
  8
SIZE
 62
     0
100
AcDbBlockReference
  2
_DOTBLANK
 10
-140.0
 20
116.4516878685508
 30
0.0
 41
12.0
 42
12.0
 43
12.0
 50
180.0
  0
INSERT
  5
1D99
330
3462
100
AcDbEntity
  8
SIZE
 62
     0
100
AcDbBlockReference
  2
_DOTBLANK
 10
140.0
 20
116.4516878685508
 30
0.0
 41
12.0
 42
12.0
 43
12.0
  0
INSERT
  5
1D9A
330
3462
100
AcDbEntity
  8
0
100
AcDbBlockReference
  2
*U56
 10
0.0
 20
0.0
 30
0.0
  0
POINT
  5
1D9B
330
3462
100
AcDbEntity
  8
DEFPOINTS
 62
     0
100
AcDbPoint
 10
-140.0
 20
12.46448280219374
 30
0.0
  0
POINT
  5
1D9C
330
3462
100
AcDbEntity
  8
DEFPOINTS
 62
     0
100
AcDbPoint
 10
140.0
 20
12.46448280219374
 30
0.0
  0
POINT
  5
1D9D
330
3462
100
AcDbEntity
  8
DEFPOINTS
 62
     0
100
AcDbPoint
 10
140.0
 20
116.4516878685508
 30
0.0
  0
ENDBLK
  5
1755
330
3462
100
AcDbEntity
  8
0
100
AcDbBlockEnd
  0
BLOCK
  5
3465
330
3464
100
AcDbEntity
  8
0
100
AcDbBlockBegin
  2
*U56
 70
     1
 10
0.0
 20
0.0
 30
0.0
  3
*U56
  1

  0
TEXT
  5
1F39
330
3464
100
AcDbEntity
  8
SIZE
 62
     0
100
AcDbText
 10
-74.05714285714283
 20
126.4516878685508
 30
0.0
 40
64.0
  1
280
 41
0.9
100
AcDbText
  0
ENDBLK
  5
1F3B
330
3464
100
AcDbEntity
  8
0
100
AcDbBlockEnd
  0
BLOCK
  5
3467
330
3466
100
AcDbEntity
  8
0
100
AcDbBlockBegin
  2
*D57
 70
     1
 10
0.0
 20
0.0
 30
0.0
  3
*D57
  1

  0
LINE
  5
1D9E
330
3466
100
AcDbEntity
  8
SIZE
 62
     0
100
AcDbLine
 10
-157.5
 20
20.0
 30
0.0
 11
-157.5
 21
245.5794621189598
 31
0.0
  0
LINE
  5
1D9F
330
3466
100
AcDbEntity
  8
SIZE
 62
     0
100
AcDbLine
 10
157.5
 20
20.0
 30
0.0
 11
157.5
 21
245.5794621189598
 31
0.0
  0
LINE
  5
1DA0
330
3466
100
AcDbEntity
  8
SIZE
 62
     0
100
AcDbLine
 10
-145.5
 20
225.5794621189598
 30
0.0
 11
145.5
 21
225.5794621189598
 31
0.0
  0
INSERT
  5
1DA1
330
3466
100
AcDbEntity
  8
SIZE
 62
     0
100
AcDbBlockReference
  2
_DOTBLANK
 10
-157.5
 20
225.5794621189598
 30
0.0
 41
12.0
 42
12.0
 43
12.0
 50
180.0
  0
INSERT
  5
1DA2
330
3466
100
AcDbEntity
  8
SIZE
 62
     0
100
AcDbBlockReference
  2
_DOTBLANK
 10
157.5
 20
225.5794621189598
 30
0.0
 41
12.0
 42
12.0
 43
12.0
  0
INSERT
  5
1DA3
330
3466
100
AcDbEntity
  8
0
100
AcDbBlockReference
  2
*U58
 10
0.0
 20
0.0
 30
0.0
  0
POINT
  5
1DA4
330
3466
100
AcDbEntity
  8
DEFPOINTS
 62
     0
100
AcDbPoint
 10
-157.5
 20
0.0
 30
0.0
  0
POINT
  5
1DA5
330
3466
100
AcDbEntity
  8
DEFPOINTS
 62
     0
100
AcDbPoint
 10
157.5
 20
0.0
 30
0.0
  0
POINT
  5
1DA6
330
3466
100
AcDbEntity
  8
DEFPOINTS
 62
     0
100
AcDbPoint
 10
157.5
 20
225.5794621189598
 30
0.0
  0
ENDBLK
  5
1761
330
3466
100
AcDbEntity
  8
0
100
AcDbBlockEnd
  0
BLOCK
  5
3469
330
3468
100
AcDbEntity
  8
0
100
AcDbBlockBegin
  2
*U58
 70
     1
 10
0.0
 20
0.0
 30
0.0
  3
*U58
  1

  0
TEXT
  5
1F3D
330
3468
100
AcDbEntity
  8
SIZE
 62
     0
100
AcDbText
 10
-68.57142857142857
 20
235.5794621189599
 30
0.0
 40
64.0
  1
315
 41
0.9
100
AcDbText
  0
ENDBLK
  5
1F3F
330
3468
100
AcDbEntity
  8
0
100
AcDbBlockEnd
  0
BLOCK
  5
346B
330
346A
100
AcDbEntity
  8
0
100
AcDbBlockBegin
  2
*D59
 70
     1
 10
0.0
 20
0.0
 30
0.0
  3
*D59
  1

  0
LINE
  5
1DA7
330
346A
100
AcDbEntity
  8
SIZE
 62
     0
100
AcDbLine
 10
-177.5
 20
0.0000000000000057
 30
0.0
 11
-314.0264221186908
 21
0.0000000000000443
 31
0.0
  0
LINE
  5
1DA8
330
346A
100
AcDbEntity
  8
SIZE
 62
     0
100
AcDbLine
 10
-177.5
 20
-7.999999999999993
 30
0.0
 11
-314.0264221186908
 21
-7.999999999999958
 31
0.0
  0
LINE
  5
1DA9
330
346A
100
AcDbEntity
  8
SIZE
 62
     0
100
AcDbLine
 10
-294.0264221186908
 20
12.00000000000003
 30
0.0
 11
-294.0264221186908
 21
24.00000000000004
 31
0.0
  0
LINE
  5
1DAA
330
346A
100
AcDbEntity
  8
SIZE
 62
     0
100
AcDbLine
 10
-294.0264221186908
 20
-19.99999999999996
 30
0.0
 11
-294.0264221186908
 21
-90.39999999999997
 31
0.0
  0
INSERT
  5
1DAB
330
346A
100
AcDbEntity
  8
SIZE
 62
     0
100
AcDbBlockReference
  2
_DOTBLANK
 10
-294.0264221186908
 20
0.0000000000000387
 30
0.0
 41
12.0
 42
12.0
 43
12.0
 50
270.0
  0
INSERT
  5
1DAC
330
346A
100
AcDbEntity
  8
SIZE
 62
     0
100
AcDbBlockReference
  2
_DOTBLANK
 10
-294.0264221186908
 20
-7.999999999999961
 30
0.0
 41
12.0
 42
12.0
 43
12.0
 50
90.0
  0
INSERT
  5
1DAD
330
346A
100
AcDbEntity
  8
0
100
AcDbBlockReference
  2
*U60
 10
0.0
 20
0.0
 30
0.0
  0
POINT
  5
1DAE
330
346A
100
AcDbEntity
  8
DEFPOINTS
 62
     0
100
AcDbPoint
 10
-157.5
 20
0.0
 30
0.0
  0
POINT
  5
1DAF
330
346A
100
AcDbEntity
  8
DEFPOINTS
 62
     0
100
AcDbPoint
 10
-157.5
 20
-8.000000000000003
 30
0.0
  0
POINT
  5
1DB0
330
346A
100
AcDbEntity
  8
DEFPOINTS
 62
     0
100
AcDbPoint
 10
-294.0264221186908
 20
-7.999999999999961
 30
0.0
  0
ENDBLK
  5
176D
330
346A
100
AcDbEntity
  8
0
100
AcDbBlockEnd
  0
BLOCK
  5
346D
330
346C
100
AcDbEntity
  8
0
100
AcDbBlockBegin
  2
*U60
 70
     1
 10
0.0
 20
0.0
 30
0.0
  3
*U60
  1

  0
TEXT
  5
1F41
330
346C
100
AcDbEntity
  8
SIZE
 62
     0
100
AcDbText
 10
-304.0264221186908
 20
-80.4
 30
0.0
 40
64.0
  1
8
 50
90.0
 41
0.9
100
AcDbText
  0
ENDBLK
  5
1F43
330
346C
100
AcDbEntity
  8
0
100
AcDbBlockEnd
  0
BLOCK
  5
346F
330
346E
100
AcDbEntity
  8
0
100
AcDbBlockBegin
  2
*D61
 70
     1
 10
0.0
 20
0.0
 30
0.0
  3
*D61
  1

  0
LINE
  5
1DB1
330
346E
100
AcDbEntity
  8
SIZE
 62
     0
100
AcDbLine
 10
154.5
 20
-300.0
 30
0.0
 11
304.6432844803785
 21
-300.0
 31
0.0
  0
LINE
  5
1DB2
330
346E
100
AcDbEntity
  8
SIZE
 62
     0
100
AcDbLine
 10
143.5
 20
-312.0
 30
0.0
 11
304.6432844803785
 21
-312.0
 31
0.0
  0
LINE
  5
1DB3
330
346E
100
AcDbEntity
  8
SIZE
 62
     0
100
AcDbLine
 10
284.6432844803785
 20
-288.0
 30
0.0
 11
284.6432844803785
 21
-276.0
 31
0.0
  0
LINE
  5
1DB4
330
346E
100
AcDbEntity
  8
SIZE
 62
     0
100
AcDbLine
 10
284.6432844803785
 20
-324.0000000000001
 30
0.0
 11
284.6432844803784
 21
-438.2857142857143
 31
0.0
  0
INSERT
  5
1DB5
330
346E
100
AcDbEntity
  8
SIZE
 62
     0
100
AcDbBlockReference
  2
_DOTBLANK
 10
284.6432844803785
 20
-300.0
 30
0.0
 41
12.0
 42
12.0
 43
12.0
 50
270.0
  0
INSERT
  5
1DB6
330
346E
100
AcDbEntity
  8
SIZE
 62
     0
100
AcDbBlockReference
  2
_DOTBLANK
 10
284.6432844803785
 20
-312.0
 30
0.0
 41
12.0
 42
12.0
 43
12.0
 50
90.0
  0
INSERT
  5
1DB7
330
346E
100
AcDbEntity
  8
0
100
AcDbBlockReference
  2
*U62
 10
0.0
 20
0.0
 30
0.0
  0
POINT
  5
1DB8
330
346E
100
AcDbEntity
  8
DEFPOINTS
 62
     0
100
AcDbPoint
 10
134.5
 20
-300.0
 30
0.0
  0
POINT
  5
1DB9
330
346E
100
AcDbEntity
  8
DEFPOINTS
 62
     0
100
AcDbPoint
 10
123.5
 20
-312.0
 30
0.0
  0
POINT
  5
1DBA
330
346E
100
AcDbEntity
  8
DEFPOINTS
 62
     0
100
AcDbPoint
 10
284.6432844803785
 20
-312.0
 30
0.0
  0
ENDBLK
  5
177B
330
346E
100
AcDbEntity
  8
0
100
AcDbBlockEnd
  0
BLOCK
  5
3471
330
3470
100
AcDbEntity
  8
0
100
AcDbBlockBegin
  2
*U62
 70
     1
 10
0.0
 20
0.0
 30
0.0
  3
*U62
  1

  0
TEXT
  5
1F45
330
3470
100
AcDbEntity
  8
SIZE
 62
     0
100
AcDbText
 10
274.6432844803785
 20
-428.2857142857142
 30
0.0
 40
64.0
  1
12
 50
90.0
 41
0.9
100
AcDbText
  0
ENDBLK
  5
1F47
330
3470
100
AcDbEntity
  8
0
100
AcDbBlockEnd
  0
BLOCK
  5
3473
330
3472
100
AcDbEntity
  8
0
100
AcDbBlockBegin
  2
*U63
 70
     1
 10
0.0
 20
0.0
 30
0.0
  3
*U63
  1

  0
ENDBLK
  5
1D57
330
3472
100
AcDbEntity
  8
0
100
AcDbBlockEnd
  0
BLOCK
  5
3475
330
3474
100
AcDbEntity
  8
0
100
AcDbBlockBegin
  2
*U64
 70
     1
 10
0.0
 20
0.0
 30
0.0
  3
*U64
  1

  0
INSERT
  5
2087
330
3474
100
AcDbEntity
  8
NOTE
100
AcDbBlockReference
  2
_OPEN30
 10
140.0
 20
140.0000000000004
 30
0.0
 41
12.0
 42
12.0
 43
12.0
 50
232.3258907693334
  0
POLYLINE
  5
2088
330
3474
100
AcDbEntity
  8
NOTE
100
AcDb2dPolyline
 66
     1
 10
0.0
 20
0.0
 30
0.0
  0
VERTEX
  5
24DE
330
2088
100
AcDbEntity
  8
NOTE
100
AcDbVertex
100
AcDb2dVertex
 10
147.3340332839448
 20
149.4979974620968
 30
0.0
  0
VERTEX
  5
24DF
330
2088
100
AcDbEntity
  8
NOTE
100
AcDbVertex
100
AcDb2dVertex
 10
213.7628007872081
 20
235.527095058013
 30
0.0
  0
VERTEX
  5
24E0
330
2088
100
AcDbEntity
  8
NOTE
100
AcDbVertex
100
AcDb2dVertex
 10
759.6028007872081
 20
235.527095058013
 30
0.0
  0
SEQEND
  5
24E1
330
2088
100
AcDbEntity
  8
NOTE
  0
ENDBLK
  5
2089
330
3474
100
AcDbEntity
  8
0
100
AcDbBlockEnd
  0
BLOCK
  5
3477
330
3476
100
AcDbEntity
  8
0
100
AcDbBlockBegin
  2
*U65
 70
     1
 10
0.0
 20
0.0
 30
0.0
  3
*U65
  1

  0
TEXT
  5
208C
330
3476
100
AcDbEntity
  8
NOTE
100
AcDbText
 10
275.7628007872081
 20
253.5270950580129
 30
0.0
 40
64.0
  1
4×φ10取付穴
 41
0.9
100
AcDbText
  0
ENDBLK
  5
208D
330
3476
100
AcDbEntity
  8
0
100
AcDbBlockEnd
  0
BLOCK
  5
3479
330
3478
100
AcDbEntity
  8
0
100
AcDbBlockBegin
  2
*U66
 70
     1
 10
0.0
 20
0.0
 30
0.0
  3
*U66
  1

  0
INSERT
  5
2187
330
3478
100
AcDbEntity
  8
NOTE
100
AcDbBlockReference
  2
_OPEN30
 10
0.0
 20
140.0000000000002
 30
0.0
 41
12.0
 42
12.0
 43
12.0
 50
312.6090116116895
  0
POLYLINE
  5
2188
330
3478
100
AcDbEntity
  8
NOTE
100
AcDb2dPolyline
 66
     1
 10
0.0
 20
0.0
 30
0.0
  0
VERTEX
  5
24EC
330
2188
100
AcDbEntity
  8
NOTE
100
AcDbVertex
100
AcDb2dVertex
 10
-8.123900836189513
 20
148.8318874089156
 30
0.0
  0
VERTEX
  5
24ED
330
2188
100
AcDbEntity
  8
NOTE
100
AcDbVertex
100
AcDb2dVertex
 10
-87.86939999225436
 20
235.5270950580132
 30
0.0
  0
VERTEX
  5
24EE
330
2188
100
AcDbEntity
  8
NOTE
100
AcDbVertex
100
AcDb2dVertex
 10
-633.7093999922545
 20
235.5270950580132
 30
0.0
  0
SEQEND
  5
24EF
330
2188
100
AcDbEntity
  8
NOTE
  0
ENDBLK
  5
2189
330
3478
100
AcDbEntity
  8
0
100
AcDbBlockEnd
  0
BLOCK
  5
347B
330
347A
100
AcDbEntity
  8
0
100
AcDbBlockBegin
  2
*U67
 70
     1
 10
0.0
 20
0.0
 30
0.0
  3
*U67
  1

  0
TEXT
  5
218C
330
347A
100
AcDbEntity
  8
NOTE
100
AcDbText
 10
-633.7093999922545
 20
253.5270950580132
 30
0.0
 40
64.0
  1
4×φ10取付穴
 41
0.9
100
AcDbText
  0
ENDBLK
  5
218D
330
347A
100
AcDbEntity
  8
0
100
AcDbBlockEnd
  0
BLOCK
  5
347D
330
347C
100
AcDbEntity
  8
0
100
AcDbBlockBegin
  2
*U68
 70
     1
 10
0.0
 20
0.0
 30
0.0
  3
*U68
  1

  0
INSERT
  5
22A2
330
347C
100
AcDbEntity
  8
NOTE
100
AcDbBlockReference
  2
_OPEN30
 10
0.0
 20
140.0000000000002
 30
0.0
 41
12.0
 42
12.0
 43
12.0
 50
227.3909883883105
  0
POLYLINE
  5
22A3
330
347C
100
AcDbEntity
  8
NOTE
100
AcDb2dPolyline
 66
     1
 10
0.0
 20
0.0
 30
0.0
  0
VERTEX
  5
24F0
330
22A3
100
AcDbEntity
  8
NOTE
100
AcDbVertex
100
AcDb2dVertex
 10
8.123900836189513
 20
148.8318874089156
 30
0.0
  0
VERTEX
  5
24F1
330
22A3
100
AcDbEntity
  8
NOTE
100
AcDbVertex
100
AcDb2dVertex
 10
87.86939999225436
 20
235.5270950580132
 30
0.0
  0
VERTEX
  5
24F2
330
22A3
100
AcDbEntity
  8
NOTE
100
AcDbVertex
100
AcDb2dVertex
 10
633.7093999922545
 20
235.5270950580132
 30
0.0
  0
SEQEND
  5
24F3
330
22A3
100
AcDbEntity
  8
NOTE
  0
ENDBLK
  5
22A4
330
347C
100
AcDbEntity
  8
0
100
AcDbBlockEnd
  0
BLOCK
  5
347F
330
347E
100
AcDbEntity
  8
0
100
AcDbBlockBegin
  2
*U69
 70
     1
 10
0.0
 20
0.0
 30
0.0
  3
*U69
  1

  0
TEXT
  5
22A7
330
347E
100
AcDbEntity
  8
NOTE
100
AcDbText
 10
149.8693999922543
 20
253.5270950580132
 30
0.0
 40
64.0
  1
4×φ10取付穴
 41
0.9
100
AcDbText
  0
ENDBLK
  5
22A8
330
347E
100
AcDbEntity
  8
0
100
AcDbBlockEnd
  0
BLOCK
  5
3481
330
3480
100
AcDbEntity
  8
0
100
AcDbBlockBegin
  2
*U70
 70
     1
 10
0.0
 20
0.0
 30
0.0
  3
*U70
  1

  0
INSERT
  5
23C1
330
3480
100
AcDbEntity
  8
NOTE
100
AcDbBlockReference
  2
_OPEN30
 10
-140.0
 20
0.0000000986733539
 30
0.0
 41
12.0
 42
12.0
 43
12.0
 50
312.6090116116894
  0
POLYLINE
  5
23C2
330
3480
100
AcDbEntity
  8
NOTE
100
AcDb2dPolyline
 66
     1
 10
0.0
 20
0.0
 30
0.0
  0
VERTEX
  5
24F4
330
23C2
100
AcDbEntity
  8
NOTE
100
AcDbVertex
100
AcDb2dVertex
 10
-148.1239008361894
 20
8.831887507588826
 30
0.0
  0
VERTEX
  5
24F5
330
23C2
100
AcDbEntity
  8
NOTE
100
AcDbVertex
100
AcDb2dVertex
 10
-227.8693999922543
 20
95.52709515668672
 30
0.0
  0
VERTEX
  5
24F6
330
23C2
100
AcDbEntity
  8
NOTE
100
AcDbVertex
100
AcDb2dVertex
 10
-773.7093999922541
 20
95.52709515668672
 30
0.0
  0
SEQEND
  5
24F7
330
23C2
100
AcDbEntity
  8
NOTE
  0
ENDBLK
  5
23C3
330
3480
100
AcDbEntity
  8
0
100
AcDbBlockEnd
  0
BLOCK
  5
3483
330
3482
100
AcDbEntity
  8
0
100
AcDbBlockBegin
  2
*U71
 70
     1
 10
0.0
 20
0.0
 30
0.0
  3
*U71
  1

  0
TEXT
  5
23C6
330
3482
100
AcDbEntity
  8
NOTE
100
AcDbText
 10
-773.7093999922541
 20
113.5270951566867
 30
0.0
 40
64.0
  1
4×φ10取付穴
 41
0.9
100
AcDbText
  0
ENDBLK
  5
23C7
330
3482
100
AcDbEntity
  8
0
100
AcDbBlockEnd
  0
BLOCK
  5
3485
330
3484
100
AcDbEntity
  8
0
100
AcDbBlockBegin
  2
*X72
 70
     1
 10
0.0
 20
0.0
 30
0.0
  3
*X72
  1

  0
LINE
  5
23CA
330
3484
100
AcDbEntity
  8
0
 62
     0
100
AcDbLine
 10
-107.9000000000105
 20
-284.1876545535052
 30
0.0
 11
-107.4540745344257
 21
-284.3999999013267
 31
0.0
  0
LINE
  5
23CB
330
3484
100
AcDbEntity
  8
0
 62
     0
100
AcDbLine
 10
-107.9000000000105
 20
-274.1877028093704
 30
0.0
 11
-86.45416479743472
 21
-284.3999999013267
 31
0.0
  0
LINE
  5
23CC
330
3484
100
AcDbEntity
  8
0
 62
     0
100
AcDbLine
 10
-107.9000000000087
 20
-264.1877510652366
 30
0.0
 11
-65.45425506044376
 21
-284.3999999013267
 31
0.0
  0
LINE
  5
23CD
330
3484
100
AcDbEntity
  8
0
 62
     0
100
AcDbLine
 10
-107.9000000000105
 20
-254.187799321101
 30
0.0
 11
-44.4543453234528
 21
-284.3999999013267
 31
0.0
  0
LINE
  5
23CE
330
3484
100
AcDbEntity
  8
0
 62
     0
100
AcDbLine
 10
-107.9000000000087
 20
-244.187847576969
 30
0.0
 11
-23.45443558646184
 21
-284.3999999013286
 31
0.0
  0
LINE
  5
23CF
330
3484
100
AcDbEntity
  8
0
 62
     0
100
AcDbLine
 10
-107.9000000000105
 20
-234.1878958328333
 30
0.0
 11
-2.454525849469062
 21
-284.3999999013277
 31
0.0
  0
LINE
  5
23D0
330
3484
100
AcDbEntity
  8
0
 62
     0
100
AcDbLine
 10
-107.9000000000087
 20
-224.1879440886996
 30
0.0
 11
18.54538388752007
 21
-284.3999999013277
 31
0.0
  0
LINE
  5
23D1
330
3484
100
AcDbEntity
  8
0
 62
     0
100
AcDbLine
 10
-107.9000000000105
 20
-214.187992344564
 30
0.0
 11
39.54529362451103
 21
-284.3999999013277
 31
0.0
  0
LINE
  5
23D2
330
3484
100
AcDbEntity
  8
0
 62
     0
100
AcDbLine
 10
-107.9000000000105
 20
-204.1880406004284
 30
0.0
 11
60.54520336150381
 21
-284.3999999013277
 31
0.0
  0
LINE
  5
23D3
330
3484
100
AcDbEntity
  8
0
 62
     0
100
AcDbLine
 10
-107.9000000000123
 20
-194.1880888562964
 30
0.0
 11
81.54511309848748
 21
-284.3999999013267
 31
0.0
  0
LINE
  5
23D4
330
3484
100
AcDbEntity
  8
0
 62
     0
100
AcDbLine
 10
-107.9000000000105
 20
-184.1881371121608
 30
0.0
 11
102.5450228354784
 21
-284.3999999013258
 31
0.0
  0
LINE
  5
23D5
330
3484
100
AcDbEntity
  8
0
 62
     0
100
AcDbLine
 10
-107.9000000000087
 20
-174.188185368027
 30
0.0
 11
107.8999999999923
 21
-276.9500359384119
 31
0.0
  0
LINE
  5
23D6
330
3484
100
AcDbEntity
  8
0
 62
     0
100
AcDbLine
 10
-107.9000000000123
 20
-164.1882336238914
 30
0.0
 11
107.8999999999887
 21
-266.9500841942772
 31
0.0
  0
LINE
  5
23D7
330
3484
100
AcDbEntity
  8
0
 62
     0
100
AcDbLine
 10
-107.9000000000105
 20
-154.1882818797576
 30
0.0
 11
107.8999999999923
 21
-256.9501324501434
 31
0.0
  0
LINE
  5
23D8
330
3484
100
AcDbEntity
  8
0
 62
     0
100
AcDbLine
 10
-107.9000000000123
 20
-144.1883301356219
 30
0.0
 11
107.8999999999905
 21
-246.9501807060078
 31
0.0
  0
LINE
  5
23D9
330
3484
100
AcDbEntity
  8
0
 62
     0
100
AcDbLine
 10
-107.9000000000087
 20
-134.18837839149
 30
0.0
 11
107.8999999999905
 21
-236.9502289618758
 31
0.0
  0
LINE
  5
23DA
330
3484
100
AcDbEntity
  8
0
 62
     0
100
AcDbLine
 10
-107.9000000000087
 20
-124.1884266473544
 30
0.0
 11
107.8999999999923
 21
-226.9502772177402
 31
0.0
  0
LINE
  5
23DB
330
3484
100
AcDbEntity
  8
0
 62
     0
100
AcDbLine
 10
-107.9000000000123
 20
-114.1884749032187
 30
0.0
 11
107.8999999999923
 21
-216.9503254736064
 31
0.0
  0
LINE
  5
23DC
330
3484
100
AcDbEntity
  8
0
 62
     0
100
AcDbLine
 10
-107.9000000000105
 20
-104.188523159085
 30
0.0
 11
107.8999999999923
 21
-206.9503737294708
 31
0.0
  0
LINE
  5
23DD
330
3484
100
AcDbEntity
  8
0
 62
     0
100
AcDbLine
 10
-107.9000000000087
 20
-94.18857141494937
 30
0.0
 11
107.8999999999905
 21
-196.9504219853352
 31
0.0
  0
LINE
  5
23DE
330
3484
100
AcDbEntity
  8
0
 62
     0
100
AcDbLine
 10
-94.43609441574514
 20
-90.59999990132743
 30
0.0
 11
107.8999999999905
 21
-186.9504702412032
 31
0.0
  0
LINE
  5
23DF
330
3484
100
AcDbEntity
  8
0
 62
     0
100
AcDbLine
 10
-73.43618467875237
 20
-90.59999990132743
 30
0.0
 11
107.8999999999905
 21
-176.9505184970676
 31
0.0
  0
LINE
  5
23E0
330
3484
100
AcDbEntity
  8
0
 62
     0
100
AcDbLine
 10
-52.43627494176144
 20
-90.59999990132743
 30
0.0
 11
107.8999999999923
 21
-166.9505667529338
 31
0.0
  0
LINE
  5
23E1
330
3484
100
AcDbEntity
  8
0
 62
     0
100
AcDbLine
 10
-31.43636520477048
 20
-90.59999990132743
 30
0.0
 11
107.8999999999905
 21
-156.9506150087981
 31
0.0
  0
LINE
  5
23E2
330
3484
100
AcDbEntity
  8
0
 62
     0
100
AcDbLine
 10
-10.43645546777952
 20
-90.59999990132743
 30
0.0
 11
107.8999999999923
 21
-146.9506632646644
 31
0.0
  0
LINE
  5
23E3
330
3484
100
AcDbEntity
  8
0
 62
     0
100
AcDbLine
 10
10.56345426921325
 20
-90.59999990132743
 30
0.0
 11
107.8999999999905
 21
-136.9507115205288
 31
0.0
  0
LINE
  5
23E4
330
3484
100
AcDbEntity
  8
0
 62
     0
100
AcDbLine
 10
31.56336400620239
 20
-90.59999990132928
 30
0.0
 11
107.8999999999923
 21
-126.9507597763968
 31
0.0
  0
LINE
  5
23E5
330
3484
100
AcDbEntity
  8
0
 62
     0
100
AcDbLine
 10
52.56327374319335
 20
-90.59999990132832
 30
0.0
 11
107.8999999999905
 21
-116.9508080322612
 31
0.0
  0
LINE
  5
23E6
330
3484
100
AcDbEntity
  8
0
 62
     0
100
AcDbLine
 10
73.56318348018611
 20
-90.59999990132832
 30
0.0
 11
107.8999999999905
 21
-106.9508562881255
 31
0.0
  0
LINE
  5
23E7
330
3484
100
AcDbEntity
  8
0
 62
     0
100
AcDbLine
 10
94.56309321717162
 20
-90.59999990132743
 30
0.0
 11
107.8999999999905
 21
-96.95090454399178
 31
0.0
  0
ENDBLK
  5
23E8
330
3484
100
AcDbEntity
  8
0
100
AcDbBlockEnd
  0
BLOCK
  5
3487
330
3486
100
AcDbEntity
  8
0
100
AcDbBlockBegin
  2
*X73
 70
     1
 10
0.0
 20
0.0
 30
0.0
  3
*X73
  1

  0
LINE
  5
23EB
330
3486
100
AcDbEntity
  8
0
 62
     0
100
AcDbLine
 10
107.4107424549183
 20
-284.3999999013267
 30
0.0
 11
107.8999999999978
 21
-284.1670202408188
 31
0.0
  0
LINE
  5
23EC
330
3486
100
AcDbEntity
  8
0
 62
     0
100
AcDbLine
 10
86.41083271792741
 20
-284.3999999013267
 30
0.0
 11
107.8999999999942
 21
-274.1670684966848
 31
0.0
  0
LINE
  5
23ED
330
3486
100
AcDbEntity
  8
0
 62
     0
100
AcDbLine
 10
65.4109229809401
 20
-284.3999999013267
 30
0.0
 11
107.8999999999978
 21
-264.167116752551
 31
0.0
  0
LINE
  5
23EE
330
3486
100
AcDbEntity
  8
0
 62
     0
100
AcDbLine
 10
44.41101324394913
 20
-284.3999999013267
 30
0.0
 11
107.8999999999978
 21
-254.1671650084154
 31
0.0
  0
LINE
  5
23EF
330
3486
100
AcDbEntity
  8
0
 62
     0
100
AcDbLine
 10
23.41110350695817
 20
-284.3999999013267
 30
0.0
 11
107.8999999999978
 21
-244.1672132642816
 31
0.0
  0
LINE
  5
23F0
330
3486
100
AcDbEntity
  8
0
 62
     0
100
AcDbLine
 10
2.411193769967212
 20
-284.3999999013267
 30
0.0
 11
107.8999999999978
 21
-234.167261520146
 31
0.0
  0
LINE
  5
23F1
330
3486
100
AcDbEntity
  8
0
 62
     0
100
AcDbLine
 10
-18.58871596702375
 20
-284.3999999013267
 30
0.0
 11
107.8999999999978
 21
-224.1673097760122
 31
0.0
  0
LINE
  5
23F2
330
3486
100
AcDbEntity
  8
0
 62
     0
100
AcDbLine
 10
-39.58862570401834
 20
-284.3999999013267
 30
0.0
 11
107.8999999999978
 21
-214.1673580318766
 31
0.0
  0
LINE
  5
23F3
330
3486
100
AcDbEntity
  8
0
 62
     0
100
AcDbLine
 10
-60.58853544100566
 20
-284.3999999013249
 30
0.0
 11
107.8999999999978
 21
-204.1674062877428
 31
0.0
  0
LINE
  5
23F4
330
3486
100
AcDbEntity
  8
0
 62
     0
100
AcDbLine
 10
-81.58844517799298
 20
-284.3999999013249
 30
0.0
 11
107.8999999999978
 21
-194.1674545436072
 31
0.0
  0
LINE
  5
23F5
330
3486
100
AcDbEntity
  8
0
 62
     0
100
AcDbLine
 10
-102.5883549149875
 20
-284.3999999013267
 30
0.0
 11
107.8999999999942
 21
-184.1675027994751
 31
0.0
  0
LINE
  5
23F6
330
3486
100
AcDbEntity
  8
0
 62
     0
100
AcDbLine
 10
-107.9000000000014
 20
-276.9294016257227
 30
0.0
 11
107.8999999999978
 21
-174.1675510553396
 31
0.0
  0
LINE
  5
23F7
330
3486
100
AcDbEntity
  8
0
 62
     0
100
AcDbLine
 10
-107.8999999999978
 20
-266.9294498815889
 30
0.0
 11
107.9000000000014
 21
-164.1675993112057
 31
0.0
  0
LINE
  5
23F8
330
3486
100
AcDbEntity
  8
0
 62
     0
100
AcDbLine
 10
-107.9000000000014
 20
-256.9294981374551
 30
0.0
 11
107.8999999999942
 21
-154.1676475670719
 31
0.0
  0
LINE
  5
23F9
330
3486
100
AcDbEntity
  8
0
 62
     0
100
AcDbLine
 10
-107.8999999999978
 20
-246.9295463933195
 30
0.0
 11
107.8999999999978
 21
-144.1676958229363
 31
0.0
  0
LINE
  5
23FA
330
3486
100
AcDbEntity
  8
0
 62
     0
100
AcDbLine
 10
-107.9000000000014
 20
-236.9295946491857
 30
0.0
 11
107.8999999999978
 21
-134.1677440788025
 31
0.0
  0
LINE
  5
23FB
330
3486
100
AcDbEntity
  8
0
 62
     0
100
AcDbLine
 10
-107.9000000000014
 20
-226.9296429050501
 30
0.0
 11
107.8999999999978
 21
-124.1677923346669
 31
0.0
  0
LINE
  5
23FC
330
3486
100
AcDbEntity
  8
0
 62
     0
100
AcDbLine
 10
-107.9000000000014
 20
-216.9296911609162
 30
0.0
 11
107.8999999999978
 21
-114.1678405905331
 31
0.0
  0
LINE
  5
23FD
330
3486
100
AcDbEntity
  8
0
 62
     0
100
AcDbLine
 10
-107.9000000000014
 20
-206.9297394167807
 30
0.0
 11
107.8999999999942
 21
-104.1678888463975
 31
0.0
  0
LINE
  5
23FE
330
3486
100
AcDbEntity
  8
0
 62
     0
100
AcDbLine
 10
-107.9000000000014
 20
-196.9297876726468
 30
0.0
 11
107.8999999999942
 21
-94.16793710226377
 31
0.0
  0
LINE
  5
23FF
330
3486
100
AcDbEntity
  8
0
 62
     0
100
AcDbLine
 10
-107.9000000000014
 20
-186.9298359285149
 30
0.0
 11
94.39276233623969
 21
-90.59999990132565
 31
0.0
  0
LINE
  5
2400
330
3486
100
AcDbEntity
  8
0
 62
     0
100
AcDbLine
 10
-107.8999999999978
 20
-176.9298841843792
 30
0.0
 11
73.39285259925235
 21
-90.59999990132565
 31
0.0
  0
LINE
  5
2401
330
3486
100
AcDbEntity
  8
0
 62
     0
100
AcDbLine
 10
-107.9000000000014
 20
-166.9299324402454
 30
0.0
 11
52.39294286225778
 21
-90.59999990132565
 31
0.0
  0
LINE
  5
2402
330
3486
100
AcDbEntity
  8
0
 62
     0
100
AcDbLine
 10
-107.8999999999978
 20
-156.9299806961117
 30
0.0
 11
31.39303312526681
 21
-90.59999990132743
 31
0.0
  0
LINE
  5
2403
330
3486
100
AcDbEntity
  8
0
 62
     0
100
AcDbLine
 10
-107.9000000000014
 20
-146.9300289519779
 30
0.0
 11
10.39312338827221
 21
-90.59999990132743
 31
0.0
  0
LINE
  5
2404
330
3486
100
AcDbEntity
  8
0
 62
     0
100
AcDbLine
 10
-107.9000000000014
 20
-136.9300772078422
 30
0.0
 11
-10.6067863487151
 21
-90.59999990132743
 31
0.0
  0
LINE
  5
2405
330
3486
100
AcDbEntity
  8
0
 62
     0
100
AcDbLine
 10
-107.9000000000014
 20
-126.9301254637084
 30
0.0
 11
-31.60669608570605
 21
-90.59999990132743
 31
0.0
  0
LINE
  5
2406
330
3486
100
AcDbEntity
  8
0
 62
     0
100
AcDbLine
 10
-107.9000000000014
 20
-116.9301737195728
 30
0.0
 11
-52.60660582270065
 21
-90.59999990132743
 31
0.0
  0
LINE
  5
2407
330
3486
100
AcDbEntity
  8
0
 62
     0
100
AcDbLine
 10
-107.9000000000014
 20
-106.930221975439
 30
0.0
 11
-73.60651555968797
 21
-90.59999990132743
 31
0.0
  0
LINE
  5
2408
330
3486
100
AcDbEntity
  8
0
 62
     0
100
AcDbLine
 10
-107.8999999999978
 20
-96.93027023130344
 30
0.0
 11
-94.60642529667891
 21
-90.59999990132743
 31
0.0
  0
ENDBLK
  5
2409
330
3486
100
AcDbEntity
  8
0
100
AcDbBlockEnd
  0
BLOCK
  5
3489
330
3488
100
AcDbEntity
  8
0
100
AcDbBlockBegin
  2
*X74
 70
     1
 10
0.0
 20
0.0
 30
0.0
  3
*X74
  1

  0
LINE
  5
2D3F
330
3488
100
AcDbEntity
  8
0
 62
     0
100
AcDbLine
 10
-167.0000000000072
 20
-143.8519871847566
 30
0.0
 11
-126.7928417682415
 21
-162.9982429126185
 31
0.0
  0
LINE
  5
2D40
330
3488
100
AcDbEntity
  8
0
 62
     0
100
AcDbLine
 10
-167.0000000000054
 20
-133.8520354406228
 30
0.0
 11
-65.38953462282006
 21
-182.2379458181831
 31
0.0
  0
LINE
  5
2D41
330
3488
100
AcDbEntity
  8
0
 62
     0
100
AcDbLine
 10
-48.80000000000473
 20
-180.1377682999154
 30
0.0
 11
-32.28930472291177
 21
-187.9999999999982
 31
0.0
  0
LINE
  5
2D42
330
3488
100
AcDbEntity
  8
0
 62
     0
100
AcDbLine
 10
-167.0000000000054
 20
-123.8520836964881
 30
0.0
 11
-48.80000000000836
 21
-180.1377682999136
 31
0.0
  0
LINE
  5
2D43
330
3488
100
AcDbEntity
  8
0
 62
     0
100
AcDbLine
 10
-48.80000000000836
 20
-170.1378165557798
 30
0.0
 11
-11.28939498592081
 21
-187.9999999999982
 31
0.0
  0
LINE
  5
2D44
330
3488
100
AcDbEntity
  8
0
 62
     0
100
AcDbLine
 10
-167.0000000000054
 20
-113.8521319523543
 30
0.0
 11
-48.80000000001018
 21
-170.137816555778
 31
0.0
  0
LINE
  5
2D45
330
3488
100
AcDbEntity
  8
0
 62
     0
100
AcDbLine
 10
-48.80000000000473
 20
-160.137864811647
 30
0.0
 11
9.710514751070146
 21
-187.9999999999991
 31
0.0
  0
LINE
  5
2D46
330
3488
100
AcDbEntity
  8
0
 62
     0
100
AcDbLine
 10
-167.0000000000054
 20
-103.8521802082196
 30
0.0
 11
-48.80000000000836
 21
-160.1378648116451
 31
0.0
  0
LINE
  5
2D47
330
3488
100
AcDbEntity
  8
0
 62
     0
100
AcDbLine
 10
-48.80000000000654
 20
-150.1379130675113
 30
0.0
 11
30.71042448806293
 21
-187.9999999999991
 31
0.0
  0
LINE
  5
2D48
330
3488
100
AcDbEntity
  8
0
 62
     0
100
AcDbLine
 10
-167.0000000000036
 20
-93.85222846408579
 30
0.0
 11
-48.80000000001018
 21
-150.1379130675094
 31
0.0
  0
LINE
  5
2D49
330
3488
100
AcDbEntity
  8
0
 62
     0
100
AcDbLine
 10
-48.80000000000473
 20
-140.1379613233775
 30
0.0
 11
49.84097300316171
 21
-187.1098284590068
 31
0.0
  0
LINE
  5
2D4A
330
3488
100
AcDbEntity
  8
0
 62
     0
100
AcDbLine
 10
-167.0000000000072
 20
-83.85227671995014
 30
0.0
 11
-48.80000000000836
 21
-140.1379613233757
 31
0.0
  0
LINE
  5
2D4B
330
3488
100
AcDbEntity
  8
0
 62
     0
100
AcDbLine
 10
-48.80000000000654
 20
-130.1380095792428
 30
0.0
 11
62.50677839640776
 21
-183.141209435792
 31
0.0
  0
LINE
  5
2D4C
330
3488
100
AcDbEntity
  8
0
 62
     0
100
AcDbLine
 10
-167.0000000000072
 20
-73.85232497581545
 30
0.0
 11
-48.80000000001018
 21
-130.138009579241
 31
0.0
  0
LINE
  5
2D4D
330
3488
100
AcDbEntity
  8
0
 62
     0
100
AcDbLine
 10
-48.80000000000473
 20
-120.138057835109
 30
0.0
 11
75.17258378965012
 21
-179.1725904125742
 31
0.0
  0
LINE
  5
2D4E
330
3488
100
AcDbEntity
  8
0
 62
     0
100
AcDbLine
 10
-167.0000000000054
 20
-63.85237323168166
 30
0.0
 11
-48.80000000000654
 21
-120.1380578351072
 31
0.0
  0
LINE
  5
2D4F
330
3488
100
AcDbEntity
  8
0
 62
     0
100
AcDbLine
 10
-48.80000000000654
 20
-110.1381060909734
 30
0.0
 11
87.83838918289076
 21
-175.2039713893564
 31
0.0
  0
LINE
  5
2D50
330
3488
100
AcDbEntity
  8
0
 62
     0
100
AcDbLine
 10
-167.0000000000072
 20
-53.85242148754604
 30
0.0
 11
-48.80000000001018
 21
-110.1381060909725
 31
0.0
  0
LINE
  5
2D51
330
3488
100
AcDbEntity
  8
0
 62
     0
100
AcDbLine
 10
-48.80000000000473
 20
-100.1381543468405
 30
0.0
 11
100.5041945761368
 21
-171.2353523661413
 31
0.0
  0
LINE
  5
2D52
330
3488
100
AcDbEntity
  8
0
 62
     0
100
AcDbLine
 10
-167.0000000000054
 20
-43.85246974341315
 30
0.0
 11
-48.80000000000836
 21
-100.1381543468387
 31
0.0
  0
LINE
  5
2D53
330
3488
100
AcDbEntity
  8
0
 62
     0
100
AcDbLine
 10
-48.80000000000473
 20
-90.13820260270495
 30
0.0
 11
113.1699999693792
 21
-167.2667333429234
 31
0.0
  0
LINE
  5
2D54
330
3488
100
AcDbEntity
  8
0
 62
     0
100
AcDbLine
 10
-167.0000000000072
 20
-33.85251799927846
 30
0.0
 11
-48.80000000000473
 21
-90.13820260270495
 31
0.0
  0
LINE
  5
2D55
330
3488
100
AcDbEntity
  8
0
 62
     0
100
AcDbLine
 10
-48.80000000000654
 20
-80.13825085857019
 30
0.0
 11
125.8358053626289
 21
-163.2981143197094
 31
0.0
  0
LINE
  5
2D56
330
3488
100
AcDbEntity
  8
0
 62
     0
100
AcDbLine
 10
-167.0000000000036
 20
-23.85256625514376
 30
0.0
 11
-48.80000000000654
 21
-80.13825085857019
 31
0.0
  0
LINE
  5
2D57
330
3488
100
AcDbEntity
  8
0
 62
     0
100
AcDbLine
 10
-48.80000000000654
 20
-70.13829911443645
 30
0.0
 11
138.5016107558695
 21
-159.3294952964925
 31
0.0
  0
LINE
  5
2D58
330
3488
100
AcDbEntity
  8
0
 62
     0
100
AcDbLine
 10
-164.5904892024755
 20
-14.99999999999818
 30
0.0
 11
-48.80000000000654
 21
-70.13829911443645
 31
0.0
  0
LINE
  5
2D59
330
3488
100
AcDbEntity
  8
0
 62
     0
100
AcDbLine
 10
-113.7705637398885
 20
-29.199999999998
 30
0.0
 11
-48.80000000000654
 21
-60.13834737030174
 31
0.0
  0
LINE
  5
2D5A
330
3488
100
AcDbEntity
  8
0
 62
     0
100
AcDbLine
 10
-48.80000000000654
 20
-60.13834737030174
 30
0.0
 11
151.1674161491155
 21
-155.3608762732764
 31
0.0
  0
LINE
  5
2D5B
330
3488
100
AcDbEntity
  8
0
 62
     0
100
AcDbLine
 10
-143.5905794654827
 20
-14.99999999999818
 30
0.0
 11
-125.0000000000073
 21
-23.85265221986811
 31
0.0
  0
LINE
  5
2D5C
330
3488
100
AcDbEntity
  8
0
 62
     0
100
AcDbLine
 10
-48.80000000000473
 20
-50.13839562616793
 30
0.0
 11
163.8332215423597
 21
-151.3922572500614
 31
0.0
  0
LINE
  5
2D5D
330
3488
100
AcDbEntity
  8
0
 62
     0
100
AcDbLine
 10
-92.77065400289757
 20
-29.19999999999891
 30
0.0
 11
-48.80000000000473
 21
-50.13839562616793
 31
0.0
  0
LINE
  5
2D5E
330
3488
100
AcDbEntity
  8
0
 62
     0
100
AcDbLine
 10
-48.80000000000473
 20
-40.13844388203324
 30
0.0
 11
166.9999999999963
 21
-142.9002944524181
 31
0.0
  0
LINE
  5
2D5F
330
3488
100
AcDbEntity
  8
0
 62
     0
100
AcDbLine
 10
-71.77074426590479
 20
-29.19999999999891
 30
0.0
 11
-48.80000000000473
 21
-40.13844388203324
 31
0.0
  0
LINE
  5
2D60
330
3488
100
AcDbEntity
  8
0
 62
     0
100
AcDbLine
 10
-48.80000000000473
 20
-30.13849213789945
 30
0.0
 11
166.9999999999963
 21
-132.9003427082843
 31
0.0
  0
LINE
  5
2D61
330
3488
100
AcDbEntity
  8
0
 62
     0
100
AcDbLine
 10
-50.77083452891564
 20
-29.19999999999891
 30
0.0
 11
-48.80000000000473
 21
-30.13849213789945
 31
0.0
  0
LINE
  5
2D62
330
3488
100
AcDbEntity
  8
0
 62
     0
100
AcDbLine
 10
-29.77092479192469
 20
-29.19999999999983
 30
0.0
 11
166.9999999999963
 21
-122.9003909641496
 31
0.0
  0
LINE
  5
2D63
330
3488
100
AcDbEntity
  8
0
 62
     0
100
AcDbLine
 10
-8.771015054931922
 20
-29.19999999999891
 30
0.0
 11
166.9999999999944
 21
-112.900439220014
 31
0.0
  0
LINE
  5
2D64
330
3488
100
AcDbEntity
  8
0
 62
     0
100
AcDbLine
 10
12.2288946820572
 20
-29.19999999999891
 30
0.0
 11
166.9999999999927
 21
-102.9004874758793
 31
0.0
  0
LINE
  5
2D65
330
3488
100
AcDbEntity
  8
0
 62
     0
100
AcDbLine
 10
33.22880441904636
 20
-29.199999999998
 30
0.0
 11
166.9999999999944
 21
-92.90053573174557
 31
0.0
  0
LINE
  5
2D66
330
3488
100
AcDbEntity
  8
0
 62
     0
100
AcDbLine
 10
54.22871415603731
 20
-29.199999999998
 30
0.0
 11
166.9999999999927
 21
-82.90058398761084
 31
0.0
  0
LINE
  5
2D67
330
3488
100
AcDbEntity
  8
0
 62
     0
100
AcDbLine
 10
75.22862389302827
 20
-29.19999999999891
 30
0.0
 11
166.9999999999909
 21
-72.90063224347614
 31
0.0
  0
LINE
  5
2D68
330
3488
100
AcDbEntity
  8
0
 62
     0
100
AcDbLine
 10
96.22853363001921
 20
-29.19999999999891
 30
0.0
 11
166.9999999999927
 21
-62.90068049934234
 31
0.0
  0
LINE
  5
2D69
330
3488
100
AcDbEntity
  8
0
 62
     0
100
AcDbLine
 10
117.2284433670102
 20
-29.19999999999891
 30
0.0
 11
166.9999999999927
 21
-52.90072875520673
 31
0.0
  0
LINE
  5
2D6A
330
3488
100
AcDbEntity
  8
0
 62
     0
100
AcDbLine
 10
124.9999999999963
 20
-22.90078755808099
 30
0.0
 11
166.9999999999891
 21
-42.90077701107199
 31
0.0
  0
LINE
  5
2D6B
330
3488
100
AcDbEntity
  8
0
 62
     0
100
AcDbLine
 10
129.4082471153961
 20
-14.99999999999818
 30
0.0
 11
166.9999999999891
 21
-32.90082526693641
 31
0.0
  0
LINE
  5
2D6C
330
3488
100
AcDbEntity
  8
0
 62
     0
100
AcDbLine
 10
150.408156852387
 20
-14.99999999999818
 30
0.0
 11
166.9999999999872
 21
-22.90087352280079
 31
0.0
  0
ENDBLK
  5
2D6D
330
3488
100
AcDbEntity
  8
0
100
AcDbBlockEnd
  0
BLOCK
  5
348B
330
348A
100
AcDbEntity
  8
0
100
AcDbBlockBegin
  2
*X75
 70
     1
 10
0.0
 20
0.0
 30
0.0
  3
*X75
  1

  0
LINE
  5
2D70
330
348A
100
AcDbEntity
  8
0
 62
     0
100
AcDbLine
 10
148.8557061720584
 20
-156.0852120660884
 30
0.0
 11
166.9999999999909
 21
-147.4450767044063
 31
0.0
  0
LINE
  5
2D71
330
348A
100
AcDbEntity
  8
0
 62
     0
100
AcDbLine
 10
87.45239902663158
 20
-175.3249149716566
 30
0.0
 11
166.9999999999909
 21
-137.4451249602707
 31
0.0
  0
LINE
  5
2D72
330
348A
100
AcDbEntity
  8
0
 62
     0
100
AcDbLine
 10
39.83479669327607
 20
-187.9999999999991
 30
0.0
 11
166.9999999999944
 21
-127.445173216136
 31
0.0
  0
LINE
  5
2D73
330
348A
100
AcDbEntity
  8
0
 62
     0
100
AcDbLine
 10
18.8348869562833
 20
-187.9999999999991
 30
0.0
 11
166.9999999999927
 21
-117.4452214720022
 31
0.0
  0
LINE
  5
2D74
330
348A
100
AcDbEntity
  8
0
 62
     0
100
AcDbLine
 10
-2.165022780707658
 20
-188.0
 30
0.0
 11
166.9999999999927
 21
-107.4452697278675
 31
0.0
  0
LINE
  5
2D75
330
348A
100
AcDbEntity
  8
0
 62
     0
100
AcDbLine
 10
-23.1649325176968
 20
-188.0
 30
0.0
 11
166.9999999999927
 21
-97.44531798373373
 31
0.0
  0
LINE
  5
2D76
330
348A
100
AcDbEntity
  8
0
 62
     0
100
AcDbLine
 10
-44.16484225468592
 20
-187.9999999999982
 30
0.0
 11
166.9999999999927
 21
-87.4453662395981
 31
0.0
  0
LINE
  5
2D77
330
348A
100
AcDbEntity
  8
0
 62
     0
100
AcDbLine
 10
-48.8000000000011
 20
-180.2072650658464
 30
0.0
 11
166.9999999999944
 21
-77.44541449546341
 31
0.0
  0
LINE
  5
2D78
330
348A
100
AcDbEntity
  8
0
 62
     0
100
AcDbLine
 10
-57.95581917373056
 20
-184.5671766588966
 30
0.0
 11
-48.8000000000011
 21
-180.2072650658464
 31
0.0
  0
LINE
  5
2D79
330
348A
100
AcDbEntity
  8
0
 62
     0
100
AcDbLine
 10
-48.8000000000011
 20
-170.2073133217118
 30
0.0
 11
166.9999999999963
 21
-67.4454627513287
 31
0.0
  0
LINE
  5
2D7A
330
348A
100
AcDbEntity
  8
0
 62
     0
100
AcDbLine
 10
-70.62162456697476
 20
-180.5985576356803
 30
0.0
 11
-48.8000000000011
 21
-170.2073133217118
 31
0.0
  0
LINE
  5
2D7B
330
348A
100
AcDbEntity
  8
0
 62
     0
100
AcDbLine
 10
-48.79999999999927
 20
-160.2073615775771
 30
0.0
 11
166.9999999999944
 21
-57.44551100719401
 31
0.0
  0
LINE
  5
2D7C
330
348A
100
AcDbEntity
  8
0
 62
     0
100
AcDbLine
 10
-83.2874299602172
 20
-176.6299386124629
 30
0.0
 11
-48.79999999999927
 21
-160.2073615775771
 31
0.0
  0
LINE
  5
2D7D
330
348A
100
AcDbEntity
  8
0
 62
     0
100
AcDbLine
 10
-48.80000000000291
 20
-150.2074098334433
 30
0.0
 11
166.9999999999963
 21
-47.4455592630602
 31
0.0
  0
LINE
  5
2D7E
330
348A
100
AcDbEntity
  8
0
 62
     0
100
AcDbLine
 10
-95.95323535346688
 20
-172.6613195892496
 30
0.0
 11
-48.80000000000291
 21
-150.2074098334433
 31
0.0
  0
LINE
  5
2D7F
330
348A
100
AcDbEntity
  8
0
 62
     0
100
AcDbLine
 10
-48.8000000000011
 20
-140.2074580893085
 30
0.0
 11
166.9999999999963
 21
-37.44560751892458
 31
0.0
  0
LINE
  5
2D80
330
348A
100
AcDbEntity
  8
0
 62
     0
100
AcDbLine
 10
-108.6190407467093
 20
-168.6927005660318
 30
0.0
 11
-48.8000000000011
 21
-140.2074580893085
 31
0.0
  0
LINE
  5
2D81
330
348A
100
AcDbEntity
  8
0
 62
     0
100
AcDbLine
 10
-48.80000000000291
 20
-130.2075063451757
 30
0.0
 11
166.9999999999944
 21
-27.4456557747917
 31
0.0
  0
LINE
  5
2D82
330
348A
100
AcDbEntity
  8
0
 62
     0
100
AcDbLine
 10
-121.2848461399517
 20
-164.7240815428149
 30
0.0
 11
-48.80000000000291
 21
-130.2075063451757
 31
0.0
  0
LINE
  5
2D83
330
348A
100
AcDbEntity
  8
0
 62
     0
100
AcDbLine
 10
-48.8000000000011
 20
-120.2075546010401
 30
0.0
 11
166.9999999999963
 21
-17.44570403065609
 31
0.0
  0
LINE
  5
2D84
330
348A
100
AcDbEntity
  8
0
 62
     0
100
AcDbLine
 10
-133.9506515331959
 20
-160.7554625195988
 30
0.0
 11
-48.8000000000011
 21
-120.2075546010401
 31
0.0
  0
LINE
  5
2D85
330
348A
100
AcDbEntity
  8
0
 62
     0
100
AcDbLine
 10
-48.80000000000291
 20
-110.2076028569063
 30
0.0
 11
121.3160557102528
 21
-29.19999999999891
 31
0.0
  0
LINE
  5
2D86
330
348A
100
AcDbEntity
  8
0
 62
     0
100
AcDbLine
 10
125.0000000000018
 20
-27.44574173951332
 30
0.0
 11
151.1360714358434
 21
-15.0
 31
0.0
  0
LINE
  5
2D87
330
348A
100
AcDbEntity
  8
0
 62
     0
100
AcDbLine
 10
-146.6164569264383
 20
-156.7868434963811
 30
0.0
 11
-48.80000000000291
 21
-110.2076028569063
 31
0.0
  0
LINE
  5
2D88
330
348A
100
AcDbEntity
  8
0
 62
     0
100
AcDbLine
 10
-48.80000000000291
 20
-100.2076511127716
 30
0.0
 11
100.31614597326
 21
-29.19999999999983
 31
0.0
  0
LINE
  5
2D89
330
348A
100
AcDbEntity
  8
0
 62
     0
100
AcDbLine
 10
124.9999999999982
 20
-17.44578999538044
 30
0.0
 11
130.1361616988542
 21
-14.99999999999909
 31
0.0
  0
LINE
  5
2D8A
330
348A
100
AcDbEntity
  8
0
 62
     0
100
AcDbLine
 10
-159.2822623196844
 20
-152.8182244731661
 30
0.0
 11
-48.80000000000291
 21
-100.2076511127716
 31
0.0
  0
LINE
  5
2D8B
330
348A
100
AcDbEntity
  8
0
 62
     0
100
AcDbLine
 10
-48.79999999999927
 20
-90.20769936863599
 30
0.0
 11
79.31623623627091
 21
-29.19999999999983
 31
0.0
  0
LINE
  5
2D8C
330
348A
100
AcDbEntity
  8
0
 62
     0
100
AcDbLine
 10
-167.0
 20
-146.4933839720634
 30
0.0
 11
-48.79999999999927
 21
-90.20769936863599
 31
0.0
  0
LINE
  5
2D8D
330
348A
100
AcDbEntity
  8
0
 62
     0
100
AcDbLine
 10
-48.80000000000291
 20
-80.20774762450219
 30
0.0
 11
58.31632649927815
 21
-29.19999999999983
 31
0.0
  0
LINE
  5
2D8E
330
348A
100
AcDbEntity
  8
0
 62
     0
100
AcDbLine
 10
-167.0000000000036
 20
-136.4934322279296
 30
0.0
 11
-48.80000000000291
 21
-80.20774762450219
 31
0.0
  0
LINE
  5
2D8F
330
348A
100
AcDbEntity
  8
0
 62
     0
100
AcDbLine
 10
-48.8000000000011
 20
-70.20779588036749
 30
0.0
 11
37.31641676228719
 21
-29.19999999999983
 31
0.0
  0
LINE
  5
2D90
330
348A
100
AcDbEntity
  8
0
 62
     0
100
AcDbLine
 10
-167.0000000000018
 20
-126.4934804837949
 30
0.0
 11
-48.8000000000011
 21
-70.20779588036749
 31
0.0
  0
LINE
  5
2D91
330
348A
100
AcDbEntity
  8
0
 62
     0
100
AcDbLine
 10
-48.8000000000011
 20
-60.20784413623369
 30
0.0
 11
16.31650702529987
 21
-29.19999999999891
 31
0.0
  0
LINE
  5
2D92
330
348A
100
AcDbEntity
  8
0
 62
     0
100
AcDbLine
 10
-167.0000000000018
 20
-116.4935287396611
 30
0.0
 11
-48.8000000000011
 21
-60.20784413623369
 31
0.0
  0
LINE
  5
2D93
330
348A
100
AcDbEntity
  8
0
 62
     0
100
AcDbLine
 10
-48.8000000000011
 20
-50.20789239209896
 30
0.0
 11
-4.683402711687446
 21
-29.199999999998
 31
0.0
  0
LINE
  5
2D94
330
348A
100
AcDbEntity
  8
0
 62
     0
100
AcDbLine
 10
-167.0000000000018
 20
-106.4935769955263
 30
0.0
 11
-48.8000000000011
 21
-50.20789239209896
 31
0.0
  0
LINE
  5
2D95
330
348A
100
AcDbEntity
  8
0
 62
     0
100
AcDbLine
 10
-48.80000000000291
 20
-40.20794064796518
 30
0.0
 11
-25.68331244868023
 21
-29.199999999998
 31
0.0
  0
LINE
  5
2D96
330
348A
100
AcDbEntity
  8
0
 62
     0
100
AcDbLine
 10
-167.0000000000036
 20
-96.4936252513926
 30
0.0
 11
-48.80000000000291
 21
-40.20794064796518
 31
0.0
  0
LINE
  5
2D97
330
348A
100
AcDbEntity
  8
0
 62
     0
100
AcDbLine
 10
-48.8000000000011
 20
-30.20798890382958
 30
0.0
 11
-46.68322218566935
 21
-29.199999999998
 31
0.0
  0
LINE
  5
2D98
330
348A
100
AcDbEntity
  8
0
 62
     0
100
AcDbLine
 10
-167.0000000000018
 20
-86.49367350725698
 30
0.0
 11
-48.8000000000011
 21
-30.20798890382958
 31
0.0
  0
LINE
  5
2D99
330
348A
100
AcDbEntity
  8
0
 62
     0
100
AcDbLine
 10
-167.0
 20
-76.49372176312226
 30
0.0
 11
-67.68313192266214
 21
-29.199999999998
 31
0.0
  0
LINE
  5
2D9A
330
348A
100
AcDbEntity
  8
0
 62
     0
100
AcDbLine
 10
-167.0000000000036
 20
-66.49377001898847
 30
0.0
 11
-88.68304165965309
 21
-29.199999999998
 31
0.0
  0
LINE
  5
2D9B
330
348A
100
AcDbEntity
  8
0
 62
     0
100
AcDbLine
 10
-167.0000000000018
 20
-56.49381827485285
 30
0.0
 11
-109.682951396644
 21
-29.199999999998
 31
0.0
  0
LINE
  5
2D9C
330
348A
100
AcDbEntity
  8
0
 62
     0
100
AcDbLine
 10
-167.0000000000018
 20
-46.49386653071997
 30
0.0
 11
-125.0
 21
-26.49387707772439
 31
0.0
  0
LINE
  5
2D9D
330
348A
100
AcDbEntity
  8
0
 62
     0
100
AcDbLine
 10
-167.0000000000018
 20
-36.49391478658436
 30
0.0
 11
-124.9999999999982
 21
-16.49392533358877
 31
0.0
  0
LINE
  5
2D9E
330
348A
100
AcDbEntity
  8
0
 62
     0
100
AcDbLine
 10
-167.0000000000036
 20
-26.49396304245147
 30
0.0
 11
-142.8626648820244
 21
-15.0
 31
0.0
  0
LINE
  5
2D9F
330
348A
100
AcDbEntity
  8
0
 62
     0
100
AcDbLine
 10
-167.0000000000036
 20
-16.49401129831585
 30
0.0
 11
-163.8625746190118
 21
-14.99999999999818
 31
0.0
  0
ENDBLK
  5
2DA0
330
348A
100
AcDbEntity
  8
0
100
AcDbBlockEnd
  0
BLOCK
  5
348D
330
348C
100
AcDbEntity
  8
0
100
AcDbBlockBegin
  2
*X76
 70
     1
 10
0.0
 20
0.0
 30
0.0
  3
*X76
  1

  0
LINE
  5
30D3
330
348C
100
AcDbEntity
  8
0
 62
     0
100
AcDbLine
 10
160.9444192390037
 20
-152.2974153051108
 30
0.0
 11
166.9999999999891
 21
-148.2603717731708
 31
0.0
  0
LINE
  5
30D4
330
348C
100
AcDbEntity
  8
0
 62
     0
100
AcDbLine
 10
152.4539070053197
 20
-154.9577758049981
 30
0.0
 11
166.9999999999927
 21
-145.2604052377519
 31
0.0
  0
LINE
  5
30D5
330
348C
100
AcDbEntity
  8
0
 62
     0
100
AcDbLine
 10
143.9633947716284
 20
-157.6181363048871
 30
0.0
 11
166.9999999999927
 21
-142.2604387023348
 31
0.0
  0
LINE
  5
30D6
330
348C
100
AcDbEntity
  8
0
 62
     0
100
AcDbLine
 10
135.4728825379388
 20
-160.2784968047781
 30
0.0
 11
166.9999999999909
 21
-139.2604721669195
 31
0.0
  0
LINE
  5
30D7
330
348C
100
AcDbEntity
  8
0
 62
     0
100
AcDbLine
 10
126.9823703042493
 20
-162.9388573046672
 30
0.0
 11
166.9999999999927
 21
-136.2605056315024
 31
0.0
  0
LINE
  5
30D8
330
348C
100
AcDbEntity
  8
0
 62
     0
100
AcDbLine
 10
118.4918580705598
 20
-165.5992178045562
 30
0.0
 11
166.9999999999909
 21
-133.2605390960889
 31
0.0
  0
LINE
  5
30D9
330
348C
100
AcDbEntity
  8
0
 62
     0
100
AcDbLine
 10
110.0013458368721
 20
-168.2595783044434
 30
0.0
 11
166.9999999999909
 21
-130.2605725606699
 31
0.0
  0
LINE
  5
30DA
330
348C
100
AcDbEntity
  8
0
 62
     0
100
AcDbLine
 10
101.5108336031844
 20
-170.9199388043344
 30
0.0
 11
166.9999999999909
 21
-127.2606060252565
 31
0.0
  0
LINE
  5
30DB
330
348C
100
AcDbEntity
  8
0
 62
     0
100
AcDbLine
 10
93.02032136949488
 20
-173.5802993042234
 30
0.0
 11
166.9999999999927
 21
-124.2606394898375
 31
0.0
  0
LINE
  5
30DC
330
348C
100
AcDbEntity
  8
0
 62
     0
100
AcDbLine
 10
84.52980913580722
 20
-176.2406598041125
 30
0.0
 11
166.9999999999891
 21
-121.2606729544241
 31
0.0
  0
LINE
  5
30DD
330
348C
100
AcDbEntity
  8
0
 62
     0
100
AcDbLine
 10
76.0392969021177
 20
-178.9010203040016
 30
0.0
 11
166.9999999999909
 21
-118.2607064190069
 31
0.0
  0
LINE
  5
30DE
330
348C
100
AcDbEntity
  8
0
 62
     0
100
AcDbLine
 10
67.54878466843002
 20
-181.5613808038905
 30
0.0
 11
166.9999999999927
 21
-115.2607398835898
 31
0.0
  0
LINE
  5
30DF
330
348C
100
AcDbEntity
  8
0
 62
     0
100
AcDbLine
 10
59.05827243473869
 20
-184.2217413037797
 30
0.0
 11
166.9999999999909
 21
-112.2607733481745
 31
0.0
  0
LINE
  5
30E0
330
348C
100
AcDbEntity
  8
0
 62
     0
100
AcDbLine
 10
50.56776020105281
 20
-186.8821018036688
 30
0.0
 11
166.9999999999909
 21
-109.2608068127574
 31
0.0
  0
LINE
  5
30E1
330
348C
100
AcDbEntity
  8
0
 62
     0
100
AcDbLine
 10
44.39094733078671
 20
-188.0000000000016
 30
0.0
 11
166.9999999999909
 21
-106.2608402773421
 31
0.0
  0
LINE
  5
30E2
330
348C
100
AcDbEntity
  8
0
 62
     0
100
AcDbLine
 10
39.89098603690217
 20
-188.0000000000016
 30
0.0
 11
166.9999999999909
 21
-103.260873741925
 31
0.0
  0
LINE
  5
30E3
330
348C
100
AcDbEntity
  8
0
 62
     0
100
AcDbLine
 10
35.391024743014
 20
-188.0
 30
0.0
 11
166.9999999999891
 21
-100.2609072065097
 31
0.0
  0
LINE
  5
30E4
330
348C
100
AcDbEntity
  8
0
 62
     0
100
AcDbLine
 10
30.89106344913307
 20
-187.9999999999982
 30
0.0
 11
166.9999999999909
 21
-97.26094067109258
 31
0.0
  0
LINE
  5
30E5
330
348C
100
AcDbEntity
  8
0
 62
     0
100
AcDbLine
 10
26.39110215524488
 20
-188.0000000000016
 30
0.0
 11
166.9999999999909
 21
-94.26097413567731
 31
0.0
  0
LINE
  5
30E6
330
348C
100
AcDbEntity
  8
0
 62
     0
100
AcDbLine
 10
21.89114086136033
 20
-188.0
 30
0.0
 11
166.9999999999909
 21
-91.26100760026018
 31
0.0
  0
LINE
  5
30E7
330
348C
100
AcDbEntity
  8
0
 62
     0
100
AcDbLine
 10
17.39117956747212
 20
-188.0000000000016
 30
0.0
 11
166.9999999999909
 21
-88.26104106484306
 31
0.0
  0
LINE
  5
30E8
330
348C
100
AcDbEntity
  8
0
 62
     0
100
AcDbLine
 10
12.89121827358758
 20
-188.0
 30
0.0
 11
166.9999999999909
 21
-85.26107452942779
 31
0.0
  0
LINE
  5
30E9
330
348C
100
AcDbEntity
  8
0
 62
     0
100
AcDbLine
 10
8.39125697970303
 20
-188.0
 30
0.0
 11
166.9999999999909
 21
-82.26110799401251
 31
0.0
  0
LINE
  5
30EA
330
348C
100
AcDbEntity
  8
0
 62
     0
100
AcDbLine
 10
3.891295685816656
 20
-188.0
 30
0.0
 11
166.9999999999891
 21
-79.26114145859537
 31
0.0
  0
LINE
  5
30EB
330
348C
100
AcDbEntity
  8
0
 62
     0
100
AcDbLine
 10
-0.6086656080660761
 20
-188.0
 30
0.0
 11
166.9999999999909
 21
-76.26117492318008
 31
0.0
  0
LINE
  5
30EC
330
348C
100
AcDbEntity
  8
0
 62
     0
100
AcDbLine
 10
-5.108626901954265
 20
-188.0000000000016
 30
0.0
 11
166.9999999999909
 21
-73.26120838776296
 31
0.0
  0
LINE
  5
30ED
330
348C
100
AcDbEntity
  8
0
 62
     0
100
AcDbLine
 10
-9.608588195840637
 20
-188.0
 30
0.0
 11
166.9999999999891
 21
-70.26124185234767
 31
0.0
  0
LINE
  5
30EE
330
348C
100
AcDbEntity
  8
0
 62
     0
100
AcDbLine
 10
-14.10854948972519
 20
-188.0
 30
0.0
 11
166.9999999999891
 21
-67.26127531693236
 31
0.0
  0
LINE
  5
30EF
330
348C
100
AcDbEntity
  8
0
 62
     0
100
AcDbLine
 10
-18.60851078360974
 20
-188.0000000000016
 30
0.0
 11
166.9999999999909
 21
-64.26130878151524
 31
0.0
  0
LINE
  5
30F0
330
348C
100
AcDbEntity
  8
0
 62
     0
100
AcDbLine
 10
-23.10847207749794
 20
-188.0000000000016
 30
0.0
 11
166.9999999999927
 21
-61.26134224609813
 31
0.0
  0
LINE
  5
30F1
330
348C
100
AcDbEntity
  8
0
 62
     0
100
AcDbLine
 10
-27.60843337138249
 20
-188.0
 30
0.0
 11
166.9999999999891
 21
-58.26137571068102
 31
0.0
  0
LINE
  5
30F2
330
348C
100
AcDbEntity
  8
0
 62
     0
100
AcDbLine
 10
-32.10839466526703
 20
-188.0
 30
0.0
 11
166.9999999999927
 21
-55.26140917526571
 31
0.0
  0
LINE
  5
30F3
330
348C
100
AcDbEntity
  8
0
 62
     0
100
AcDbLine
 10
-36.60835595915342
 20
-188.0
 30
0.0
 11
166.9999999999891
 21
-52.26144263985043
 31
0.0
  0
LINE
  5
30F4
330
348C
100
AcDbEntity
  8
0
 62
     0
100
AcDbLine
 10
-41.10831725303795
 20
-188.0
 30
0.0
 11
166.9999999999909
 21
-49.26147610443329
 31
0.0
  0
LINE
  5
30F5
330
348C
100
AcDbEntity
  8
0
 62
     0
100
AcDbLine
 10
-45.60827854692433
 20
-188.0
 30
0.0
 11
166.9999999999891
 21
-46.26150956901802
 31
0.0
  0
LINE
  5
30F6
330
348C
100
AcDbEntity
  8
0
 62
     0
100
AcDbLine
 10
-48.80000000000836
 20
-187.1278423332151
 30
0.0
 11
166.9999999999927
 21
-43.2615430336009
 31
0.0
  0
LINE
  5
30F7
330
348C
100
AcDbEntity
  8
0
 62
     0
100
AcDbLine
 10
-49.11444714499157
 20
-187.3374732279062
 30
0.0
 11
-48.80000000000836
 21
-187.1278423332151
 31
0.0
  0
LINE
  5
30F8
330
348C
100
AcDbEntity
  8
0
 62
     0
100
AcDbLine
 10
-48.80000000000654
 20
-184.1278757977979
 30
0.0
 11
166.9999999999891
 21
-40.2615764981856
 31
0.0
  0
LINE
  5
30F9
330
348C
100
AcDbEntity
  8
0
 62
     0
100
AcDbLine
 10
-52.17564280483021
 20
-186.3782985878224
 30
0.0
 11
-48.80000000000654
 21
-184.1278757977979
 31
0.0
  0
LINE
  5
30FA
330
348C
100
AcDbEntity
  8
0
 62
     0
100
AcDbLine
 10
-48.80000000001018
 20
-181.1279092623825
 30
0.0
 11
166.9999999999909
 21
-37.26160996277033
 31
0.0
  0
LINE
  5
30FB
330
348C
100
AcDbEntity
  8
0
 62
     0
100
AcDbLine
 10
-55.23683846467065
 20
-185.4191239477404
 30
0.0
 11
-48.80000000001018
 21
-181.1279092623825
 31
0.0
  0
LINE
  5
30FC
330
348C
100
AcDbEntity
  8
0
 62
     0
100
AcDbLine
 10
-48.80000000000654
 20
-178.1279427269655
 30
0.0
 11
166.9999999999927
 21
-34.26164342735138
 31
0.0
  0
LINE
  5
30FD
330
348C
100
AcDbEntity
  8
0
 62
     0
100
AcDbLine
 10
-58.29803412450747
 20
-184.4599493076565
 30
0.0
 11
-48.80000000000654
 21
-178.1279427269655
 31
0.0
  0
LINE
  5
30FE
330
348C
100
AcDbEntity
  8
0
 62
     0
100
AcDbLine
 10
-48.80000000001018
 20
-175.1279761915521
 30
0.0
 11
166.9999999999909
 21
-31.2616768919379
 31
0.0
  0
LINE
  5
30FF
330
348C
100
AcDbEntity
  8
0
 62
     0
100
AcDbLine
 10
-61.3592297843461
 20
-183.5007746675765
 30
0.0
 11
-48.80000000001018
 21
-175.1279761915521
 31
0.0
  0
LINE
  5
3100
330
348C
100
AcDbEntity
  8
0
 62
     0
100
AcDbLine
 10
-48.80000000000836
 20
-172.1280096561331
 30
0.0
 11
166.9999999999909
 21
-28.26171035651896
 31
0.0
  0
LINE
  5
3101
330
348C
100
AcDbEntity
  8
0
 62
     0
100
AcDbLine
 10
-64.42042544418473
 20
-182.5416000274927
 30
0.0
 11
-48.80000000000836
 21
-172.1280096561331
 31
0.0
  0
LINE
  5
3102
330
348C
100
AcDbEntity
  8
0
 62
     0
100
AcDbLine
 10
-48.80000000001018
 20
-169.1280431207196
 30
0.0
 11
166.9999999999909
 21
-25.26174382110549
 31
0.0
  0
LINE
  5
3103
330
348C
100
AcDbEntity
  8
0
 62
     0
100
AcDbLine
 10
-67.48162110402336
 20
-181.5824253874107
 30
0.0
 11
-48.80000000001018
 21
-169.1280431207196
 31
0.0
  0
LINE
  5
3104
330
348C
100
AcDbEntity
  8
0
 62
     0
100
AcDbLine
 10
-48.80000000000654
 20
-166.1280765853007
 30
0.0
 11
166.9999999999927
 21
-22.26177728568837
 31
0.0
  0
LINE
  5
3105
330
348C
100
AcDbEntity
  8
0
 62
     0
100
AcDbLine
 10
-70.54281676386018
 20
-180.6232507473269
 30
0.0
 11
-48.80000000000654
 21
-166.1280765853007
 31
0.0
  0
LINE
  5
3106
330
348C
100
AcDbEntity
  8
0
 62
     0
100
AcDbLine
 10
-48.80000000000654
 20
-163.1281100498836
 30
0.0
 11
166.9999999999909
 21
-19.26181075027123
 31
0.0
  0
LINE
  5
3107
330
348C
100
AcDbEntity
  8
0
 62
     0
100
AcDbLine
 10
-73.60401242369878
 20
-179.6640761072431
 30
0.0
 11
-48.80000000001018
 21
-163.1281100498854
 31
0.0
  0
LINE
  5
3108
330
348C
100
AcDbEntity
  8
0
 62
     0
100
AcDbLine
 10
-48.80000000000836
 20
-160.1281435144683
 30
0.0
 11
166.9999999999909
 21
-16.26184421485595
 31
0.0
  0
LINE
  5
3109
330
348C
100
AcDbEntity
  8
0
 62
     0
100
AcDbLine
 10
-76.66520808353924
 20
-178.7049014671611
 30
0.0
 11
-48.80000000000836
 21
-160.1281435144683
 31
0.0
  0
LINE
  5
310A
330
348C
100
AcDbEntity
  8
0
 62
     0
100
AcDbLine
 10
-48.80000000000654
 20
-157.1281769790511
 30
0.0
 11
164.3928098616252
 21
-15.0
 31
0.0
  0
LINE
  5
310B
330
348C
100
AcDbEntity
  8
0
 62
     0
100
AcDbLine
 10
-79.72640374337607
 20
-177.7457268270791
 30
0.0
 11
-48.80000000001018
 21
-157.128176979053
 31
0.0
  0
LINE
  5
310C
330
348C
100
AcDbEntity
  8
0
 62
     0
100
AcDbLine
 10
-48.80000000000836
 20
-154.1282104436377
 30
0.0
 11
159.8928485677406
 21
-15.0
 31
0.0
  0
LINE
  5
310D
330
348C
100
AcDbEntity
  8
0
 62
     0
100
AcDbLine
 10
-82.78759940321107
 20
-176.7865521869952
 30
0.0
 11
-48.80000000000836
 21
-154.1282104436377
 31
0.0
  0
LINE
  5
310E
330
348C
100
AcDbEntity
  8
0
 62
     0
100
AcDbLine
 10
-48.80000000000836
 20
-151.1282439082188
 30
0.0
 11
155.3928872738524
 21
-15.0
 31
0.0
  0
LINE
  5
310F
330
348C
100
AcDbEntity
  8
0
 62
     0
100
AcDbLine
 10
-85.84879506305332
 20
-175.8273775469133
 30
0.0
 11
-48.80000000000836
 21
-151.1282439082188
 31
0.0
  0
LINE
  5
3110
330
348C
100
AcDbEntity
  8
0
 62
     0
100
AcDbLine
 10
-48.80000000000836
 20
-148.1282773728053
 30
0.0
 11
150.8929259799679
 21
-15.00000000000182
 31
0.0
  0
LINE
  5
3111
330
348C
100
AcDbEntity
  8
0
 62
     0
100
AcDbLine
 10
-88.90999072288833
 20
-174.8682029068295
 30
0.0
 11
-48.80000000000836
 21
-148.1282773728053
 31
0.0
  0
LINE
  5
3112
330
348C
100
AcDbEntity
  8
0
 62
     0
100
AcDbLine
 10
-48.80000000000654
 20
-145.1283108373863
 30
0.0
 11
146.3929646860852
 21
-15.0
 31
0.0
  0
LINE
  5
3113
330
348C
100
AcDbEntity
  8
0
 62
     0
100
AcDbLine
 10
-91.97118638272877
 20
-173.9090282667475
 30
0.0
 11
-48.80000000001018
 21
-145.12831083739
 31
0.0
  0
LINE
  5
3114
330
348C
100
AcDbEntity
  8
0
 62
     0
100
AcDbLine
 10
-48.80000000001018
 20
-142.1283443019729
 30
0.0
 11
120.5929490019844
 21
-29.20000000000255
 31
0.0
  0
LINE
  5
3115
330
348C
100
AcDbEntity
  8
0
 62
     0
100
AcDbLine
 10
124.9999999999927
 20
-26.26197350367147
 30
0.0
 11
141.893003392197
 21
-15.0
 31
0.0
  0
LINE
  5
3116
330
348C
100
AcDbEntity
  8
0
 62
     0
100
AcDbLine
 10
-95.0323820425674
 20
-172.9498536266637
 30
0.0
 11
-48.80000000001018
 21
-142.1283443019729
 31
0.0
  0
LINE
  5
3117
330
348C
100
AcDbEntity
  8
0
 62
     0
100
AcDbLine
 10
-48.80000000000836
 20
-139.1283777665558
 30
0.0
 11
116.0929877081034
 21
-29.19999999999891
 31
0.0
  0
LINE
  5
3118
330
348C
100
AcDbEntity
  8
0
 62
     0
100
AcDbLine
 10
124.9999999999945
 20
-23.26200696825436
 30
0.0
 11
137.3930420983106
 21
-15.0
 31
0.0
  0
LINE
  5
3119
330
348C
100
AcDbEntity
  8
0
 62
     0
100
AcDbLine
 10
-98.09357770240419
 20
-171.9906789865818
 30
0.0
 11
-48.80000000001199
 21
-139.1283777665576
 31
0.0
  0
LINE
  5
311A
330
348C
100
AcDbEntity
  8
0
 62
     0
100
AcDbLine
 10
-48.80000000000836
 20
-136.1284112311405
 30
0.0
 11
111.5930264142171
 21
-29.20000000000073
 31
0.0
  0
LINE
  5
311B
330
348C
100
AcDbEntity
  8
0
 62
     0
100
AcDbLine
 10
124.9999999999909
 20
-20.2620404328427
 30
0.0
 11
132.893080804426
 21
-15.00000000000182
 31
0.0
  0
LINE
  5
311C
330
348C
100
AcDbEntity
  8
0
 62
     0
100
AcDbLine
 10
-101.1547733622446
 20
-171.0315043465016
 30
0.0
 11
-48.80000000000836
 21
-136.1284112311405
 31
0.0
  0
LINE
  5
311D
330
348C
100
AcDbEntity
  8
0
 62
     0
100
AcDbLine
 10
-48.80000000000836
 20
-133.1284446957234
 30
0.0
 11
107.0930651203325
 21
-29.19999999999891
 31
0.0
  0
LINE
  5
311E
330
348C
100
AcDbEntity
  8
0
 62
     0
100
AcDbLine
 10
124.9999999999927
 20
-17.26207389742376
 30
0.0
 11
128.3931195105415
 21
-15.0
 31
0.0
  0
LINE
  5
311F
330
348C
100
AcDbEntity
  8
0
 62
     0
100
AcDbLine
 10
-104.2159690220796
 20
-170.072329706416
 30
0.0
 11
-48.80000000001199
 21
-133.1284446957252
 31
0.0
  0
LINE
  5
3120
330
348C
100
AcDbEntity
  8
0
 62
     0
100
AcDbLine
 10
-48.80000000000836
 20
-130.1284781603062
 30
0.0
 11
102.5931038264425
 21
-29.20000000000255
 31
0.0
  0
LINE
  5
3121
330
348C
100
AcDbEntity
  8
0
 62
     0
100
AcDbLine
 10
-107.2771646819219
 20
-169.1131550663358
 30
0.0
 11
-48.80000000001018
 21
-130.1284781603081
 31
0.0
  0
LINE
  5
3122
330
348C
100
AcDbEntity
  8
0
 62
     0
100
AcDbLine
 10
-48.80000000000836
 20
-127.1285116248909
 30
0.0
 11
98.09314253256157
 21
-29.20000000000073
 31
0.0
  0
LINE
  5
3123
330
348C
100
AcDbEntity
  8
0
 62
     0
100
AcDbLine
 10
-110.3383603417569
 20
-168.1539804262502
 30
0.0
 11
-48.80000000001199
 21
-127.1285116248928
 31
0.0
  0
LINE
  5
3124
330
348C
100
AcDbEntity
  8
0
 62
     0
100
AcDbLine
 10
-48.80000000000836
 20
-124.1285450894738
 30
0.0
 11
93.59318123867343
 21
-29.19999999999891
 31
0.0
  0
LINE
  5
3125
330
348C
100
AcDbEntity
  8
0
 62
     0
100
AcDbLine
 10
-113.3995560015955
 20
-167.1948057861682
 30
0.0
 11
-48.80000000001018
 21
-124.1285450894756
 31
0.0
  0
LINE
  5
3126
330
348C
100
AcDbEntity
  8
0
 62
     0
100
AcDbLine
 10
-48.80000000001018
 20
-121.1285785540585
 30
0.0
 11
89.09321994478707
 21
-29.20000000000073
 31
0.0
  0
LINE
  5
3127
330
348C
100
AcDbEntity
  8
0
 62
     0
100
AcDbLine
 10
-116.4607516614378
 20
-166.235631146088
 30
0.0
 11
-48.80000000001018
 21
-121.1285785540585
 31
0.0
  0
LINE
  5
3128
330
348C
100
AcDbEntity
  8
0
 62
     0
100
AcDbLine
 10
-48.80000000000836
 20
-118.1286120186414
 30
0.0
 11
84.5932586509007
 21
-29.20000000000073
 31
0.0
  0
LINE
  5
3129
330
348C
100
AcDbEntity
  8
0
 62
     0
100
AcDbLine
 10
-119.5219473212728
 20
-165.2764565060024
 30
0.0
 11
-48.80000000001018
 21
-118.1286120186432
 31
0.0
  0
LINE
  5
312A
330
348C
100
AcDbEntity
  8
0
 62
     0
100
AcDbLine
 10
-48.80000000000836
 20
-115.128645483226
 30
0.0
 11
80.09329735701976
 21
-29.20000000000073
 31
0.0
  0
LINE
  5
312B
330
348C
100
AcDbEntity
  8
0
 62
     0
100
AcDbLine
 10
-122.5831429811133
 20
-164.3172818659222
 30
0.0
 11
-48.80000000000836
 21
-115.128645483226
 31
0.0
  0
LINE
  5
312C
330
348C
100
AcDbEntity
  8
0
 62
     0
100
AcDbLine
 10
-48.80000000000836
 20
-112.128678947809
 30
0.0
 11
75.59333606313156
 21
-29.20000000000073
 31
0.0
  0
LINE
  5
312D
330
348C
100
AcDbEntity
  8
0
 62
     0
100
AcDbLine
 10
-125.6443386409482
 20
-163.3581072258366
 30
0.0
 11
-48.80000000001018
 21
-112.1286789478108
 31
0.0
  0
LINE
  5
312E
330
348C
100
AcDbEntity
  8
0
 62
     0
100
AcDbLine
 10
-48.80000000000654
 20
-109.1287124123937
 30
0.0
 11
71.0933747692452
 21
-29.20000000000073
 31
0.0
  0
LINE
  5
312F
330
348C
100
AcDbEntity
  8
0
 62
     0
100
AcDbLine
 10
-128.7055343007905
 20
-162.3989325857583
 30
0.0
 11
-48.80000000001018
 21
-109.1287124123955
 31
0.0
  0
LINE
  5
3130
330
348C
100
AcDbEntity
  8
0
 62
     0
100
AcDbLine
 10
-48.80000000000836
 20
-106.1287458769766
 30
0.0
 11
66.59341347536247
 21
-29.19999999999891
 31
0.0
  0
LINE
  5
3131
330
348C
100
AcDbEntity
  8
0
 62
     0
100
AcDbLine
 10
-131.7667299606255
 20
-161.4397579456727
 30
0.0
 11
-48.80000000001018
 21
-106.1287458769784
 31
0.0
  0
LINE
  5
3132
330
348C
100
AcDbEntity
  8
0
 62
     0
100
AcDbLine
 10
-48.80000000000654
 20
-103.1287793415613
 30
0.0
 11
62.0934521814761
 21
-29.20000000000073
 31
0.0
  0
LINE
  5
3133
330
348C
100
AcDbEntity
  8
0
 62
     0
100
AcDbLine
 10
-134.8279256204641
 20
-160.4805833055907
 30
0.0
 11
-48.80000000001018
 21
-103.1287793415631
 31
0.0
  0
LINE
  5
3134
330
348C
100
AcDbEntity
  8
0
 62
     0
100
AcDbLine
 10
-48.80000000001018
 20
-100.1288128061442
 30
0.0
 11
57.59349088758789
 21
-29.20000000000073
 31
0.0
  0
LINE
  5
3135
330
348C
100
AcDbEntity
  8
0
 62
     0
100
AcDbLine
 10
-137.8891212803045
 20
-159.5214086655069
 30
0.0
 11
-48.80000000001199
 21
-100.1288128061478
 31
0.0
  0
LINE
  5
3136
330
348C
100
AcDbEntity
  8
0
 62
     0
100
AcDbLine
 10
-48.80000000000654
 20
-97.12884627072892
 30
0.0
 11
53.09352959370336
 21
-29.20000000000255
 31
0.0
  0
LINE
  5
3137
330
348C
100
AcDbEntity
  8
0
 62
     0
100
AcDbLine
 10
-140.9503169401414
 20
-158.5622340254249
 30
0.0
 11
-48.80000000001018
 21
-97.12884627073073
 31
0.0
  0
LINE
  5
3138
330
348C
100
AcDbEntity
  8
0
 62
     0
100
AcDbLine
 10
-48.80000000000836
 20
-94.12887973531359
 30
0.0
 11
48.59356829982061
 21
-29.19999999999891
 31
0.0
  0
LINE
  5
3139
330
348C
100
AcDbEntity
  8
0
 62
     0
100
AcDbLine
 10
-144.0115125999781
 20
-157.6030593853429
 30
0.0
 11
-48.80000000001018
 21
-94.12887973531542
 31
0.0
  0
LINE
  5
313A
330
348C
100
AcDbEntity
  8
0
 62
     0
100
AcDbLine
 10
-48.80000000000654
 20
-91.12891319989648
 30
0.0
 11
44.09360700593423
 21
-29.20000000000073
 31
0.0
  0
LINE
  5
313B
330
348C
100
AcDbEntity
  8
0
 62
     0
100
AcDbLine
 10
-147.0727082598168
 20
-156.6438847452609
 30
0.0
 11
-48.80000000001018
 21
-91.12891319989831
 31
0.0
  0
LINE
  5
313C
330
348C
100
AcDbEntity
  8
0
 62
     0
100
AcDbLine
 10
-48.80000000001018
 20
-88.12894666448116
 30
0.0
 11
39.59364571204606
 21
-29.20000000000073
 31
0.0
  0
LINE
  5
313D
330
348C
100
AcDbEntity
  8
0
 62
     0
100
AcDbLine
 10
-150.1339039196573
 20
-155.684710105177
 30
0.0
 11
-48.80000000001018
 21
-88.12894666448116
 31
0.0
  0
LINE
  5
313E
330
348C
100
AcDbEntity
  8
0
 62
     0
100
AcDbLine
 10
-48.80000000000654
 20
-85.12898012906225
 30
0.0
 11
35.0936844181615
 21
-29.20000000000073
 31
0.0
  0
LINE
  5
313F
330
348C
100
AcDbEntity
  8
0
 62
     0
100
AcDbLine
 10
-153.1950995794941
 20
-154.7255354650933
 30
0.0
 11
-48.80000000001018
 21
-85.12898012906406
 31
0.0
  0
LINE
  5
3140
330
348C
100
AcDbEntity
  8
0
 62
     0
100
AcDbLine
 10
-48.80000000000654
 20
-82.12901359364696
 30
0.0
 11
30.59372312427695
 21
-29.20000000000073
 31
0.0
  0
LINE
  5
3141
330
348C
100
AcDbEntity
  8
0
 62
     0
100
AcDbLine
 10
-156.2562952393327
 20
-153.7663608250113
 30
0.0
 11
-48.80000000001018
 21
-82.12901359364876
 31
0.0
  0
LINE
  5
3142
330
348C
100
AcDbEntity
  8
0
 62
     0
100
AcDbLine
 10
-48.80000000001018
 20
-79.12904705823166
 30
0.0
 11
26.09376183038694
 21
-29.20000000000255
 31
0.0
  0
LINE
  5
3143
330
348C
100
AcDbEntity
  8
0
 62
     0
100
AcDbLine
 10
-159.3174908991714
 20
-152.8071861849275
 30
0.0
 11
-48.80000000001199
 21
-79.12904705823347
 31
0.0
  0
LINE
  5
3144
330
348C
100
AcDbEntity
  8
0
 62
     0
100
AcDbLine
 10
-48.80000000000654
 20
-76.12908052281453
 30
0.0
 11
21.59380053650421
 21
-29.20000000000073
 31
0.0
  0
LINE
  5
3145
330
348C
100
AcDbEntity
  8
0
 62
     0
100
AcDbLine
 10
-162.37868655901
 20
-151.8480115448474
 30
0.0
 11
-48.80000000001018
 21
-76.12908052281634
 31
0.0
  0
LINE
  5
3146
330
348C
100
AcDbEntity
  8
0
 62
     0
100
AcDbLine
 10
-48.80000000001018
 20
-73.12911398739925
 30
0.0
 11
17.09383924261783
 21
-29.20000000000073
 31
0.0
  0
LINE
  5
3147
330
348C
100
AcDbEntity
  8
0
 62
     0
100
AcDbLine
 10
-165.4398822188486
 20
-150.8888369047636
 30
0.0
 11
-48.80000000001199
 21
-73.12911398740107
 31
0.0
  0
LINE
  5
3148
330
348C
100
AcDbEntity
  8
0
 62
     0
100
AcDbLine
 10
-48.80000000000836
 20
-70.12914745198215
 30
0.0
 11
12.59387794873328
 21
-29.20000000000073
 31
0.0
  0
LINE
  5
3149
330
348C
100
AcDbEntity
  8
0
 62
     0
100
AcDbLine
 10
-167.0000000000072
 20
-148.9289462342531
 30
0.0
 11
-48.80000000001199
 21
-70.12914745198395
 31
0.0
  0
LINE
  5
314A
330
348C
100
AcDbEntity
  8
0
 62
     0
100
AcDbLine
 10
-48.80000000001018
 20
-67.12918091656684
 30
0.0
 11
8.093916654848726
 21
-29.20000000000073
 31
0.0
  0
LINE
  5
314B
330
348C
100
AcDbEntity
  8
0
 62
     0
100
AcDbLine
 10
-167.0000000000036
 20
-145.9289796988358
 30
0.0
 11
-48.80000000001564
 21
-67.12918091657048
 31
0.0
  0
LINE
  5
314C
330
348C
100
AcDbEntity
  8
0
 62
     0
100
AcDbLine
 10
-48.80000000000654
 20
-64.12921438115154
 30
0.0
 11
3.593955360962352
 21
-29.20000000000255
 31
0.0
  0
LINE
  5
314D
330
348C
100
AcDbEntity
  8
0
 62
     0
100
AcDbLine
 10
-167.0000000000054
 20
-142.9290131634225
 30
0.0
 11
-48.80000000001381
 21
-64.12921438115517
 31
0.0
  0
LINE
  5
314E
330
348C
100
AcDbEntity
  8
0
 62
     0
100
AcDbLine
 10
-48.80000000001018
 20
-61.12924784573444
 30
0.0
 11
-0.9060059329203795
 21
-29.19999999999891
 31
0.0
  0
LINE
  5
314F
330
348C
100
AcDbEntity
  8
0
 62
     0
100
AcDbLine
 10
-167.0000000000036
 20
-139.9290466280035
 30
0.0
 11
-48.80000000001564
 21
-61.12924784573806
 31
0.0
  0
LINE
  5
3150
330
348C
100
AcDbEntity
  8
0
 62
     0
100
AcDbLine
 10
-48.80000000000836
 20
-58.12928131031913
 30
0.0
 11
-5.405967226810387
 21
-29.20000000000255
 31
0.0
  0
LINE
  5
3151
330
348C
100
AcDbEntity
  8
0
 62
     0
100
AcDbLine
 10
-167.0000000000072
 20
-136.9290800925901
 30
0.0
 11
-48.80000000001564
 21
-58.12928131032276
 31
0.0
  0
LINE
  5
3152
330
348C
100
AcDbEntity
  8
0
 62
     0
100
AcDbLine
 10
-48.80000000000654
 20
-55.12931477490018
 30
0.0
 11
-9.905928520693123
 21
-29.20000000000073
 31
0.0
  0
LINE
  5
3153
330
348C
100
AcDbEntity
  8
0
 62
     0
100
AcDbLine
 10
-167.0000000000036
 20
-133.929113557171
 30
0.0
 11
-48.80000000001199
 21
-55.12931477490383
 31
0.0
  0
LINE
  5
3154
330
348C
100
AcDbEntity
  8
0
 62
     0
100
AcDbLine
 10
-48.80000000000836
 20
-52.12934823948671
 30
0.0
 11
-14.40588981457949
 21
-29.20000000000255
 31
0.0
  0
LINE
  5
3155
330
348C
100
AcDbEntity
  8
0
 62
     0
100
AcDbLine
 10
-167.0000000000072
 20
-130.9291470217576
 30
0.0
 11
-48.80000000001564
 21
-52.12934823949034
 31
0.0
  0
LINE
  5
3156
330
348C
100
AcDbEntity
  8
0
 62
     0
100
AcDbLine
 10
-48.80000000000836
 20
-49.12938170406778
 30
0.0
 11
-18.90585110846405
 21
-29.19999999999891
 31
0.0
  0
LINE
  5
3157
330
348C
100
AcDbEntity
  8
0
 62
     0
100
AcDbLine
 10
-167.0000000000054
 20
-127.9291804863387
 30
0.0
 11
-48.80000000001381
 21
-49.12938170407324
 31
0.0
  0
LINE
  5
3158
330
348C
100
AcDbEntity
  8
0
 62
     0
100
AcDbLine
 10
-48.80000000000836
 20
-46.12941516865246
 30
0.0
 11
-23.40581240235223
 21
-29.20000000000073
 31
0.0
  0
LINE
  5
3159
330
348C
100
AcDbEntity
  8
0
 62
     0
100
AcDbLine
 10
-167.0000000000072
 20
-124.9292139509234
 30
0.0
 11
-48.80000000001564
 21
-46.12941516865612
 31
0.0
  0
LINE
  5
315A
330
348C
100
AcDbEntity
  8
0
 62
     0
100
AcDbLine
 10
-48.80000000000654
 20
-43.12944863323719
 30
0.0
 11
-27.90577369623497
 21
-29.20000000000073
 31
0.0
  0
LINE
  5
315B
330
348C
100
AcDbEntity
  8
0
 62
     0
100
AcDbLine
 10
-167.0000000000036
 20
-121.9292474155081
 30
0.0
 11
-48.80000000001199
 21
-43.12944863324083
 31
0.0
  0
LINE
  5
315C
330
348C
100
AcDbEntity
  8
0
 62
     0
100
AcDbLine
 10
-48.80000000000836
 20
-40.12948209782007
 30
0.0
 11
-32.40573499012135
 21
-29.20000000000073
 31
0.0
  0
LINE
  5
315D
330
348C
100
AcDbEntity
  8
0
 62
     0
100
AcDbLine
 10
-167.0000000000036
 20
-118.9292808800892
 30
0.0
 11
-48.80000000001564
 21
-40.12948209782552
 31
0.0
  0
LINE
  5
315E
330
348C
100
AcDbEntity
  8
0
 62
     0
100
AcDbLine
 10
-48.80000000000836
 20
-37.12951556240478
 30
0.0
 11
-36.90569628400953
 21
-29.20000000000255
 31
0.0
  0
LINE
  5
315F
330
348C
100
AcDbEntity
  8
0
 62
     0
100
AcDbLine
 10
-167.0000000000054
 20
-115.9293143446757
 30
0.0
 11
-48.80000000001381
 21
-37.12951556240842
 31
0.0
  0
LINE
  5
3160
330
348C
100
AcDbEntity
  8
0
 62
     0
100
AcDbLine
 10
-48.80000000000654
 20
-34.12954902698584
 30
0.0
 11
-41.40565757789228
 21
-29.20000000000073
 31
0.0
  0
LINE
  5
3161
330
348C
100
AcDbEntity
  8
0
 62
     0
100
AcDbLine
 10
-167.0000000000036
 20
-112.9293478092568
 30
0.0
 11
-48.80000000001564
 21
-34.12954902699313
 31
0.0
  0
LINE
  5
3162
330
348C
100
AcDbEntity
  8
0
 62
     0
100
AcDbLine
 10
-48.80000000000836
 20
-31.12958249157236
 30
0.0
 11
-45.90561887177864
 21
-29.20000000000073
 31
0.0
  0
LINE
  5
3163
330
348C
100
AcDbEntity
  8
0
 62
     0
100
AcDbLine
 10
-167.0000000000054
 20
-109.9293812738433
 30
0.0
 11
-48.80000000001381
 21
-31.129582491576
 31
0.0
  0
LINE
  5
3164
330
348C
100
AcDbEntity
  8
0
 62
     0
100
AcDbLine
 10
-167.0000000000054
 20
-106.9294147384262
 30
0.0
 11
-50.40558016566317
 21
-29.19999999999891
 31
0.0
  0
LINE
  5
3165
330
348C
100
AcDbEntity
  8
0
 62
     0
100
AcDbLine
 10
-167.0000000000054
 20
-103.9294482030109
 30
0.0
 11
-54.90554145954774
 21
-29.20000000000073
 31
0.0
  0
LINE
  5
3166
330
348C
100
AcDbEntity
  8
0
 62
     0
100
AcDbLine
 10
-167.0000000000036
 20
-100.9294816675938
 30
0.0
 11
-59.40550275343412
 21
-29.20000000000073
 31
0.0
  0
LINE
  5
3167
330
348C
100
AcDbEntity
  8
0
 62
     0
100
AcDbLine
 10
-167.0000000000091
 20
-97.92951513217849
 30
0.0
 11
-63.90546404732231
 21
-29.20000000000255
 31
0.0
  0
LINE
  5
3168
330
348C
100
AcDbEntity
  8
0
 62
     0
100
AcDbLine
 10
-167.0000000000054
 20
-94.92954859676137
 30
0.0
 11
-68.40542534120505
 21
-29.19999999999891
 31
0.0
  0
LINE
  5
3169
330
348C
100
AcDbEntity
  8
0
 62
     0
100
AcDbLine
 10
-167.0000000000072
 20
-91.9295820613479
 30
0.0
 11
-72.9053866350896
 21
-29.20000000000073
 31
0.0
  0
LINE
  5
316A
330
348C
100
AcDbEntity
  8
0
 62
     0
100
AcDbLine
 10
-167.0000000000054
 20
-88.92961552592893
 30
0.0
 11
-77.40534792897597
 21
-29.20000000000073
 31
0.0
  0
LINE
  5
316B
330
348C
100
AcDbEntity
  8
0
 62
     0
100
AcDbLine
 10
-167.0000000000054
 20
-85.92964899051365
 30
0.0
 11
-81.90530922286416
 21
-29.20000000000255
 31
0.0
  0
LINE
  5
316C
330
348C
100
AcDbEntity
  8
0
 62
     0
100
AcDbLine
 10
-167.0000000000054
 20
-82.92968245509655
 30
0.0
 11
-86.40527051674689
 21
-29.19999999999891
 31
0.0
  0
LINE
  5
316D
330
348C
100
AcDbEntity
  8
0
 62
     0
100
AcDbLine
 10
-167.0000000000091
 20
-79.92971591968125
 30
0.0
 11
-90.90523181063691
 21
-29.20000000000073
 31
0.0
  0
LINE
  5
316E
330
348C
100
AcDbEntity
  8
0
 62
     0
100
AcDbLine
 10
-167.0000000000072
 20
-76.92974938426596
 30
0.0
 11
-95.40519310451964
 21
-29.20000000000073
 31
0.0
  0
LINE
  5
316F
330
348C
100
AcDbEntity
  8
0
 62
     0
100
AcDbLine
 10
-167.0000000000091
 20
-73.92978284884883
 30
0.0
 11
-99.90515439840599
 21
-29.20000000000073
 31
0.0
  0
LINE
  5
3170
330
348C
100
AcDbEntity
  8
0
 62
     0
100
AcDbLine
 10
-167.0000000000054
 20
-70.92981631343355
 30
0.0
 11
-104.4051156922887
 21
-29.20000000000073
 31
0.0
  0
LINE
  5
3171
330
348C
100
AcDbEntity
  8
0
 62
     0
100
AcDbLine
 10
-167.0000000000091
 20
-67.92984977801643
 30
0.0
 11
-108.9050769861751
 21
-29.20000000000073
 31
0.0
  0
LINE
  5
3172
330
348C
100
AcDbEntity
  8
0
 62
     0
100
AcDbLine
 10
-167.0000000000072
 20
-64.92988324260114
 30
0.0
 11
-113.4050382800615
 21
-29.20000000000073
 31
0.0
  0
LINE
  5
3173
330
348C
100
AcDbEntity
  8
0
 62
     0
100
AcDbLine
 10
-167.0000000000091
 20
-61.92991670718583
 30
0.0
 11
-117.9049995739442
 21
-29.19999999999891
 31
0.0
  0
LINE
  5
3174
330
348C
100
AcDbEntity
  8
0
 62
     0
100
AcDbLine
 10
-167.0000000000072
 20
-58.92995017176872
 30
0.0
 11
-122.4049608678324
 21
-29.20000000000073
 31
0.0
  0
LINE
  5
3175
330
348C
100
AcDbEntity
  8
0
 62
     0
100
AcDbLine
 10
-167.0000000000109
 20
-55.92998363635342
 30
0.0
 11
-125.0000000000073
 21
-27.93005513503704
 31
0.0
  0
LINE
  5
3176
330
348C
100
AcDbEntity
  8
0
 62
     0
100
AcDbLine
 10
-167.0000000000072
 20
-52.93001710093631
 30
0.0
 11
-125.0000000000091
 21
-24.93008859962174
 31
0.0
  0
LINE
  5
3177
330
348C
100
AcDbEntity
  8
0
 62
     0
100
AcDbLine
 10
-167.0000000000054
 20
-49.93005056551918
 30
0.0
 11
-125.0000000000091
 21
-21.93012206420644
 31
0.0
  0
LINE
  5
3178
330
348C
100
AcDbEntity
  8
0
 62
     0
100
AcDbLine
 10
-167.0000000000072
 20
-46.93008403010572
 30
0.0
 11
-125.0000000000109
 21
-18.93015552879296
 31
0.0
  0
LINE
  5
3179
330
348C
100
AcDbEntity
  8
0
 62
     0
100
AcDbLine
 10
-167.0000000000072
 20
-43.93011749468678
 30
0.0
 11
-125.0000000000109
 21
-15.93018899337403
 31
0.0
  0
LINE
  5
317A
330
348C
100
AcDbEntity
  8
0
 62
     0
100
AcDbLine
 10
-167.0000000000072
 20
-40.93015095927149
 30
0.0
 11
-128.1046742409344
 21
-15.0
 31
0.0
  0
LINE
  5
317B
330
348C
100
AcDbEntity
  8
0
 62
     0
100
AcDbLine
 10
-167.0000000000072
 20
-37.93018442385437
 30
0.0
 11
-132.6046355348208
 21
-15.0
 31
0.0
  0
LINE
  5
317C
330
348C
100
AcDbEntity
  8
0
 62
     0
100
AcDbLine
 10
-167.0000000000091
 20
-34.93021788843908
 30
0.0
 11
-137.1045968287053
 21
-14.99999999999818
 31
0.0
  0
LINE
  5
317D
330
348C
100
AcDbEntity
  8
0
 62
     0
100
AcDbLine
 10
-167.0000000000072
 20
-31.93025135302378
 30
0.0
 11
-141.6045581225934
 21
-15.00000000000182
 31
0.0
  0
LINE
  5
317E
330
348C
100
AcDbEntity
  8
0
 62
     0
100
AcDbLine
 10
-167.0000000000091
 20
-28.93028481760666
 30
0.0
 11
-146.104519416478
 21
-15.0
 31
0.0
  0
LINE
  5
317F
330
348C
100
AcDbEntity
  8
0
 62
     0
100
AcDbLine
 10
-167.0000000000091
 20
-25.93031828219138
 30
0.0
 11
-150.6044807103644
 21
-15.00000000000182
 31
0.0
  0
LINE
  5
3180
330
348C
100
AcDbEntity
  8
0
 62
     0
100
AcDbLine
 10
-167.0000000000091
 20
-22.93035174677425
 30
0.0
 11
-155.1044420042472
 21
-14.99999999999818
 31
0.0
  0
LINE
  5
3181
330
348C
100
AcDbEntity
  8
0
 62
     0
100
AcDbLine
 10
-167.0000000000072
 20
-19.93038521135895
 30
0.0
 11
-159.6044032981353
 21
-15.00000000000182
 31
0.0
  0
LINE
  5
3182
330
348C
100
AcDbEntity
  8
0
 62
     0
100
AcDbLine
 10
-167.0000000000072
 20
-16.93041867594184
 30
0.0
 11
-164.1043645920199
 21
-15.0
 31
0.0
  0
ENDBLK
  5
3183
330
348C
100
AcDbEntity
  8
0
100
AcDbBlockEnd
  0
BLOCK
  5
348F
330
348E
100
AcDbEntity
  8
0
100
AcDbBlockBegin
  2
*X77
 70
     1
 10
0.0
 20
0.0
 30
0.0
  3
*X77
  1

  0
LINE
  5
3186
330
348E
100
AcDbEntity
  8
0
 62
     0
100
AcDbLine
 10
-166.9999999999963
 20
-149.0539611863422
 30
0.0
 11
-163.1904378333929
 21
-151.5936628122034
 31
0.0
  0
LINE
  5
3187
330
348E
100
AcDbEntity
  8
0
 62
     0
100
AcDbLine
 10
-166.9999999999963
 20
-146.053994650927
 30
0.0
 11
-154.6999255997052
 21
-154.2540233120944
 31
0.0
  0
LINE
  5
3188
330
348E
100
AcDbEntity
  8
0
 62
     0
100
AcDbLine
 10
-166.9999999999982
 20
-143.0540281155099
 30
0.0
 11
-146.2094133660157
 21
-156.9143838119835
 31
0.0
  0
LINE
  5
3189
330
348E
100
AcDbEntity
  8
0
 62
     0
100
AcDbLine
 10
-166.9999999999982
 20
-140.0540615800928
 30
0.0
 11
-137.718901132328
 21
-159.5747443118725
 31
0.0
  0
LINE
  5
318A
330
348E
100
AcDbEntity
  8
0
 62
     0
100
AcDbLine
 10
-166.9999999999982
 20
-137.0540950446775
 30
0.0
 11
-129.2283888986403
 21
-162.2351048117598
 31
0.0
  0
LINE
  5
318B
330
348E
100
AcDbEntity
  8
0
 62
     0
100
AcDbLine
 10
-166.9999999999982
 20
-134.0541285092622
 30
0.0
 11
-120.7378766649508
 21
-164.8954653116507
 31
0.0
  0
LINE
  5
318C
330
348E
100
AcDbEntity
  8
0
 62
     0
100
AcDbLine
 10
-166.9999999999982
 20
-131.0541619738451
 30
0.0
 11
-112.2473644312649
 21
-167.5558258115379
 31
0.0
  0
LINE
  5
318D
330
348E
100
AcDbEntity
  8
0
 62
     0
100
AcDbLine
 10
-166.9999999999963
 20
-128.054195438428
 30
0.0
 11
-103.7568521975736
 21
-170.216186311427
 31
0.0
  0
LINE
  5
318E
330
348E
100
AcDbEntity
  8
0
 62
     0
100
AcDbLine
 10
-166.9999999999982
 20
-125.0542289030127
 30
0.0
 11
-95.26633996388772
 21
-172.876546811316
 31
0.0
  0
LINE
  5
318F
330
348E
100
AcDbEntity
  8
0
 62
     0
100
AcDbLine
 10
-166.9999999999982
 20
-122.0542623675956
 30
0.0
 11
-86.77582773019821
 21
-175.5369073112051
 31
0.0
  0
LINE
  5
3190
330
348E
100
AcDbEntity
  8
0
 62
     0
100
AcDbLine
 10
-166.9999999999982
 20
-119.0542958321803
 30
0.0
 11
-78.28531549651052
 21
-178.1972678110941
 31
0.0
  0
LINE
  5
3191
330
348E
100
AcDbEntity
  8
0
 62
     0
100
AcDbLine
 10
-166.9999999999982
 20
-116.0543292967632
 30
0.0
 11
-69.79480326281919
 21
-180.8576283109833
 31
0.0
  0
LINE
  5
3192
330
348E
100
AcDbEntity
  8
0
 62
     0
100
AcDbLine
 10
-167.0
 20
-113.0543627613479
 30
0.0
 11
-61.30429102913149
 21
-183.5179888108741
 31
0.0
  0
LINE
  5
3193
330
348E
100
AcDbEntity
  8
0
 62
     0
100
AcDbLine
 10
-166.9999999999982
 20
-110.0543962259307
 30
0.0
 11
-52.81377879544016
 21
-186.1783493107632
 31
0.0
  0
LINE
  5
3194
330
348E
100
AcDbEntity
  8
0
 62
     0
100
AcDbLine
 10
-48.79999999999927
 20
-185.8542284727864
 30
0.0
 11
-45.58133449023443
 21
-188.0000000000016
 31
0.0
  0
LINE
  5
3195
330
348E
100
AcDbEntity
  8
0
 62
     0
100
AcDbLine
 10
-166.9999999999982
 20
-107.0544296905154
 30
0.0
 11
-48.8000000000011
 21
-185.8542284727844
 31
0.0
  0
LINE
  5
3196
330
348E
100
AcDbEntity
  8
0
 62
     0
100
AcDbLine
 10
-48.8000000000011
 20
-182.8542619373693
 30
0.0
 11
-41.0813731963517
 21
-188.0
 31
0.0
  0
LINE
  5
3197
330
348E
100
AcDbEntity
  8
0
 62
     0
100
AcDbLine
 10
-166.9999999999982
 20
-104.0544631550983
 30
0.0
 11
-48.8000000000011
 21
-182.8542619373693
 31
0.0
  0
LINE
  5
3198
330
348E
100
AcDbEntity
  8
0
 62
     0
100
AcDbLine
 10
-48.8000000000011
 20
-179.854295401954
 30
0.0
 11
-36.58141190246534
 21
-188.0000000000036
 31
0.0
  0
LINE
  5
3199
330
348E
100
AcDbEntity
  8
0
 62
     0
100
AcDbLine
 10
-166.9999999999982
 20
-101.054496619683
 30
0.0
 11
-48.80000000000291
 21
-179.854295401954
 31
0.0
  0
LINE
  5
319A
330
348E
100
AcDbEntity
  8
0
 62
     0
100
AcDbLine
 10
-48.79999999999927
 20
-176.8543288665368
 30
0.0
 11
-32.08145060857715
 21
-188.0000000000016
 31
0.0
  0
LINE
  5
319B
330
348E
100
AcDbEntity
  8
0
 62
     0
100
AcDbLine
 10
-166.9999999999963
 20
-98.05453008426592
 30
0.0
 11
-48.79999999999927
 21
-176.8543288665368
 31
0.0
  0
LINE
  5
319C
330
348E
100
AcDbEntity
  8
0
 62
     0
100
AcDbLine
 10
-48.79999999999927
 20
-173.8543623311216
 30
0.0
 11
-27.58148931469259
 21
-188.0000000000016
 31
0.0
  0
LINE
  5
319D
330
348E
100
AcDbEntity
  8
0
 62
     0
100
AcDbLine
 10
-166.9999999999982
 20
-95.05456354885064
 30
0.0
 11
-48.8000000000011
 21
-173.8543623311216
 31
0.0
  0
LINE
  5
319E
330
348E
100
AcDbEntity
  8
0
 62
     0
100
AcDbLine
 10
-48.8000000000011
 20
-170.8543957957044
 30
0.0
 11
-23.08152802080986
 21
-188.0
 31
0.0
  0
LINE
  5
319F
330
348E
100
AcDbEntity
  8
0
 62
     0
100
AcDbLine
 10
-167.0
 20
-92.05459701343349
 30
0.0
 11
-48.8000000000011
 21
-170.8543957957044
 31
0.0
  0
LINE
  5
31A0
330
348E
100
AcDbEntity
  8
0
 62
     0
100
AcDbLine
 10
-48.8000000000011
 20
-167.8544292602873
 30
0.0
 11
-18.58156672692348
 21
-188.0
 31
0.0
  0
LINE
  5
31A1
330
348E
100
AcDbEntity
  8
0
 62
     0
100
AcDbLine
 10
-166.9999999999982
 20
-89.05463047801642
 30
0.0
 11
-48.8000000000011
 21
-167.8544292602873
 31
0.0
  0
LINE
  5
31A2
330
348E
100
AcDbEntity
  8
0
 62
     0
100
AcDbLine
 10
-48.79999999999927
 20
-164.854462724872
 30
0.0
 11
-14.08160543303711
 21
-188.0000000000016
 31
0.0
  0
LINE
  5
31A3
330
348E
100
AcDbEntity
  8
0
 62
     0
100
AcDbLine
 10
-166.9999999999982
 20
-86.0546639426011
 30
0.0
 11
-48.79999999999927
 21
-164.854462724872
 31
0.0
  0
LINE
  5
31A4
330
348E
100
AcDbEntity
  8
0
 62
     0
100
AcDbLine
 10
-48.8000000000011
 20
-161.8544961894549
 30
0.0
 11
-9.581644139152558
 21
-188.0
 31
0.0
  0
LINE
  5
31A5
330
348E
100
AcDbEntity
  8
0
 62
     0
100
AcDbLine
 10
-166.9999999999982
 20
-83.05469740718399
 30
0.0
 11
-48.80000000000291
 21
-161.8544961894549
 31
0.0
  0
LINE
  5
31A6
330
348E
100
AcDbEntity
  8
0
 62
     0
100
AcDbLine
 10
-48.79999999999927
 20
-158.8545296540396
 30
0.0
 11
-5.081682845268003
 21
-188.0
 31
0.0
  0
LINE
  5
31A7
330
348E
100
AcDbEntity
  8
0
 62
     0
100
AcDbLine
 10
-167.0
 20
-80.05473087176687
 30
0.0
 11
-48.8000000000011
 21
-158.8545296540396
 31
0.0
  0
LINE
  5
31A8
330
348E
100
AcDbEntity
  8
0
 62
     0
100
AcDbLine
 10
-48.79999999999927
 20
-155.8545631186225
 30
0.0
 11
-0.5817215513798148
 21
-188.0
 31
0.0
  0
LINE
  5
31A9
330
348E
100
AcDbEntity
  8
0
 62
     0
100
AcDbLine
 10
-167.0
 20
-77.05476433634976
 30
0.0
 11
-48.8000000000011
 21
-155.8545631186225
 31
0.0
  0
LINE
  5
31AA
330
348E
100
AcDbEntity
  8
0
 62
     0
100
AcDbLine
 10
-48.79999999999927
 20
-152.854596583209
 30
0.0
 11
3.918239742504736
 21
-188.0000000000016
 31
0.0
  0
LINE
  5
31AB
330
348E
100
AcDbEntity
  8
0
 62
     0
100
AcDbLine
 10
-167.0000000000018
 20
-74.05479780093445
 30
0.0
 11
-48.8000000000011
 21
-152.8545965832072
 31
0.0
  0
LINE
  5
31AC
330
348E
100
AcDbEntity
  8
0
 62
     0
100
AcDbLine
 10
-48.8000000000011
 20
-149.8546300477919
 30
0.0
 11
8.418201036389291
 21
-188.0
 31
0.0
  0
LINE
  5
31AD
330
348E
100
AcDbEntity
  8
0
 62
     0
100
AcDbLine
 10
-167.0000000000036
 20
-71.05483126551733
 30
0.0
 11
-48.80000000000291
 21
-149.8546300477901
 31
0.0
  0
LINE
  5
31AE
330
348E
100
AcDbEntity
  8
0
 62
     0
100
AcDbLine
 10
-48.79999999999927
 20
-146.8546635123766
 30
0.0
 11
12.91816233027384
 21
-188.0
 31
0.0
  0
LINE
  5
31AF
330
348E
100
AcDbEntity
  8
0
 62
     0
100
AcDbLine
 10
-167.0000000000018
 20
-68.05486473010204
 30
0.0
 11
-48.8000000000011
 21
-146.8546635123748
 31
0.0
  0
LINE
  5
31B0
330
348E
100
AcDbEntity
  8
0
 62
     0
100
AcDbLine
 10
-48.8000000000011
 20
-143.8546969769577
 30
0.0
 11
17.41812362416203
 21
-188.0000000000016
 31
0.0
  0
LINE
  5
31B1
330
348E
100
AcDbEntity
  8
0
 62
     0
100
AcDbLine
 10
-167.0000000000018
 20
-65.05489819468492
 30
0.0
 11
-48.8000000000011
 21
-143.8546969769577
 31
0.0
  0
LINE
  5
31B2
330
348E
100
AcDbEntity
  8
0
 62
     0
100
AcDbLine
 10
-48.8000000000011
 20
-140.8547304415424
 30
0.0
 11
21.91808491804659
 21
-188.0000000000016
 31
0.0
  0
LINE
  5
31B3
330
348E
100
AcDbEntity
  8
0
 62
     0
100
AcDbLine
 10
-167.0000000000018
 20
-62.05493165926964
 30
0.0
 11
-48.8000000000011
 21
-140.8547304415424
 31
0.0
  0
LINE
  5
31B4
330
348E
100
AcDbEntity
  8
0
 62
     0
100
AcDbLine
 10
-48.8000000000011
 20
-137.8547639061253
 30
0.0
 11
26.41804621193296
 21
-188.0
 31
0.0
  0
LINE
  5
31B5
330
348E
100
AcDbEntity
  8
0
 62
     0
100
AcDbLine
 10
-167.0000000000018
 20
-59.05496512385251
 30
0.0
 11
-48.8000000000011
 21
-137.8547639061253
 31
0.0
  0
LINE
  5
31B6
330
348E
100
AcDbEntity
  8
0
 62
     0
100
AcDbLine
 10
-48.79999999999927
 20
-134.8547973707118
 30
0.0
 11
30.91800750581751
 21
-188.0000000000016
 31
0.0
  0
LINE
  5
31B7
330
348E
100
AcDbEntity
  8
0
 62
     0
100
AcDbLine
 10
-167.0
 20
-56.05499858843722
 30
0.0
 11
-48.8000000000011
 21
-134.85479737071
 31
0.0
  0
LINE
  5
31B8
330
348E
100
AcDbEntity
  8
0
 62
     0
100
AcDbLine
 10
-48.8000000000011
 20
-131.8548308352947
 30
0.0
 11
35.41796879970389
 21
-188.0000000000016
 31
0.0
  0
LINE
  5
31B9
330
348E
100
AcDbEntity
  8
0
 62
     0
100
AcDbLine
 10
-167.0000000000018
 20
-53.05503205302191
 30
0.0
 11
-48.8000000000011
 21
-131.8548308352929
 31
0.0
  0
LINE
  5
31BA
330
348E
100
AcDbEntity
  8
0
 62
     0
100
AcDbLine
 10
-48.8000000000011
 20
-128.8548642998794
 30
0.0
 11
39.91793009358844
 21
-188.0000000000016
 31
0.0
  0
LINE
  5
31BB
330
348E
100
AcDbEntity
  8
0
 62
     0
100
AcDbLine
 10
-167.0000000000036
 20
-50.05506551760482
 30
0.0
 11
-48.80000000000291
 21
-128.8548642998776
 31
0.0
  0
LINE
  5
31BC
330
348E
100
AcDbEntity
  8
0
 62
     0
100
AcDbLine
 10
-48.79999999999927
 20
-125.8548977644623
 30
0.0
 11
44.41789138747481
 21
-188.0
 31
0.0
  0
LINE
  5
31BD
330
348E
100
AcDbEntity
  8
0
 62
     0
100
AcDbLine
 10
-167.0000000000018
 20
-47.0550989821877
 30
0.0
 11
-48.79999999999927
 21
-125.8548977644605
 31
0.0
  0
LINE
  5
31BE
330
348E
100
AcDbEntity
  8
0
 62
     0
100
AcDbLine
 10
-48.79999999999927
 20
-122.8549312290452
 30
0.0
 11
48.30466062282902
 21
-187.5912063381802
 31
0.0
  0
LINE
  5
31BF
330
348E
100
AcDbEntity
  8
0
 62
     0
100
AcDbLine
 10
-167.0000000000018
 20
-44.05513244677059
 30
0.0
 11
-48.8000000000011
 21
-122.8549312290433
 31
0.0
  0
LINE
  5
31C0
330
348E
100
AcDbEntity
  8
0
 62
     0
100
AcDbLine
 10
-48.8000000000011
 20
-119.8549646936299
 30
0.0
 11
51.36585628266584
 21
-186.6320316980981
 31
0.0
  0
LINE
  5
31C1
330
348E
100
AcDbEntity
  8
0
 62
     0
100
AcDbLine
 10
-167.0000000000018
 20
-41.05516591135528
 30
0.0
 11
-48.8000000000011
 21
-119.8549646936299
 31
0.0
  0
LINE
  5
31C2
330
348E
100
AcDbEntity
  8
0
 62
     0
100
AcDbLine
 10
-48.8000000000011
 20
-116.8549981582126
 30
0.0
 11
54.42705194250628
 21
-185.6728570580144
 31
0.0
  0
LINE
  5
31C3
330
348E
100
AcDbEntity
  8
0
 62
     0
100
AcDbLine
 10
-167.0000000000018
 20
-38.05519937593999
 30
0.0
 11
-48.8000000000011
 21
-116.8549981582126
 31
0.0
  0
LINE
  5
31C4
330
348E
100
AcDbEntity
  8
0
 62
     0
100
AcDbLine
 10
-48.79999999999927
 20
-113.8550316227974
 30
0.0
 11
57.48824760234493
 21
-184.7136824179341
 31
0.0
  0
LINE
  5
31C5
330
348E
100
AcDbEntity
  8
0
 62
     0
100
AcDbLine
 10
-167.0
 20
-35.05523284052471
 30
0.0
 11
-48.79999999999927
 21
-113.8550316227974
 31
0.0
  0
LINE
  5
31C6
330
348E
100
AcDbEntity
  8
0
 62
     0
100
AcDbLine
 10
-48.8000000000011
 20
-110.8550650873803
 30
0.0
 11
60.54944326217992
 21
-183.7545077778486
 31
0.0
  0
LINE
  5
31C7
330
348E
100
AcDbEntity
  8
0
 62
     0
100
AcDbLine
 10
-167.0000000000018
 20
-32.05526630510758
 30
0.0
 11
-48.8000000000011
 21
-110.8550650873803
 31
0.0
  0
LINE
  5
31C8
330
348E
100
AcDbEntity
  8
0
 62
     0
100
AcDbLine
 10
-48.79999999999927
 20
-107.855098551965
 30
0.0
 11
63.61063892202219
 21
-182.7953331377685
 31
0.0
  0
LINE
  5
31C9
330
348E
100
AcDbEntity
  8
0
 62
     0
100
AcDbLine
 10
-167.0000000000018
 20
-29.05529976969047
 30
0.0
 11
-48.79999999999927
 21
-107.855098551965
 31
0.0
  0
LINE
  5
31CA
330
348E
100
AcDbEntity
  8
0
 62
     0
100
AcDbLine
 10
-48.79999999999927
 20
-104.8551320165479
 30
0.0
 11
66.67183458185717
 21
-181.8361584976828
 31
0.0
  0
LINE
  5
31CB
330
348E
100
AcDbEntity
  8
0
 62
     0
100
AcDbLine
 10
-167.0000000000018
 20
-26.05533323427335
 30
0.0
 11
-48.8000000000011
 21
-104.8551320165461
 31
0.0
  0
LINE
  5
31CC
330
348E
100
AcDbEntity
  8
0
 62
     0
100
AcDbLine
 10
-48.79999999999927
 20
-101.8551654811326
 30
0.0
 11
69.73303024169763
 21
-180.8769838576027
 31
0.0
  0
LINE
  5
31CD
330
348E
100
AcDbEntity
  8
0
 62
     0
100
AcDbLine
 10
-167.0000000000018
 20
-23.05536669885805
 30
0.0
 11
-48.8000000000011
 21
-101.8551654811326
 31
0.0
  0
LINE
  5
31CE
330
348E
100
AcDbEntity
  8
0
 62
     0
100
AcDbLine
 10
-48.8000000000011
 20
-98.85519894571554
 30
0.0
 11
72.79422590153443
 21
-179.9178092175188
 31
0.0
  0
LINE
  5
31CF
330
348E
100
AcDbEntity
  8
0
 62
     0
100
AcDbLine
 10
-167.0000000000036
 20
-20.05540016344276
 30
0.0
 11
-48.80000000000291
 21
-98.85519894571554
 31
0.0
  0
LINE
  5
31D0
330
348E
100
AcDbEntity
  8
0
 62
     0
100
AcDbLine
 10
-48.8000000000011
 20
-95.85523241030021
 30
0.0
 11
75.85542156137127
 21
-178.9586345774369
 31
0.0
  0
LINE
  5
31D1
330
348E
100
AcDbEntity
  8
0
 62
     0
100
AcDbLine
 10
-167.0000000000018
 20
-17.05543362802746
 30
0.0
 11
-48.8000000000011
 21
-95.85523241030021
 31
0.0
  0
LINE
  5
31D2
330
348E
100
AcDbEntity
  8
0
 62
     0
100
AcDbLine
 10
-48.8000000000011
 20
-92.85526587488311
 30
0.0
 11
78.9166172212117
 21
-177.9994599373531
 31
0.0
  0
LINE
  5
31D3
330
348E
100
AcDbEntity
  8
0
 62
     0
100
AcDbLine
 10
-165.5831970210729
 20
-15.00000000000182
 30
0.0
 11
-48.8000000000011
 21
-92.85526587488311
 31
0.0
  0
LINE
  5
31D4
330
348E
100
AcDbEntity
  8
0
 62
     0
100
AcDbLine
 10
-48.8000000000011
 20
-89.8552993394678
 30
0.0
 11
81.97781288104852
 21
-177.0402852972711
 31
0.0
  0
LINE
  5
31D5
330
348E
100
AcDbEntity
  8
0
 62
     0
100
AcDbLine
 10
-161.0832357271902
 20
-15.00000000000182
 30
0.0
 11
-48.8000000000011
 21
-89.8552993394678
 31
0.0
  0
LINE
  5
31D6
330
348E
100
AcDbEntity
  8
0
 62
     0
100
AcDbLine
 10
-48.8000000000011
 20
-86.85533280405072
 30
0.0
 11
85.03900854088898
 21
-176.0811106571891
 31
0.0
  0
LINE
  5
31D7
330
348E
100
AcDbEntity
  8
0
 62
     0
100
AcDbLine
 10
-156.5832744333038
 20
-15.00000000000182
 30
0.0
 11
-48.8000000000011
 21
-86.85533280405072
 31
0.0
  0
LINE
  5
31D8
330
348E
100
AcDbEntity
  8
0
 62
     0
100
AcDbLine
 10
-48.79999999999927
 20
-83.85536626863359
 30
0.0
 11
88.1002042007276
 21
-175.1219360171053
 31
0.0
  0
LINE
  5
31D9
330
348E
100
AcDbEntity
  8
0
 62
     0
100
AcDbLine
 10
-152.0833131394156
 20
-15.0
 30
0.0
 11
-48.79999999999927
 21
-83.85536626863359
 31
0.0
  0
LINE
  5
31DA
330
348E
100
AcDbEntity
  8
0
 62
     0
100
AcDbLine
 10
-48.8000000000011
 20
-80.85539973321829
 30
0.0
 11
91.1613998605644
 21
-174.1627613770233
 31
0.0
  0
LINE
  5
31DB
330
348E
100
AcDbEntity
  8
0
 62
     0
100
AcDbLine
 10
-147.5833518455329
 20
-15.00000000000182
 30
0.0
 11
-48.8000000000011
 21
-80.85539973321829
 31
0.0
  0
LINE
  5
31DC
330
348E
100
AcDbEntity
  8
0
 62
     0
100
AcDbLine
 10
-121.7833361614357
 20
-29.20000000000073
 30
0.0
 11
-48.8000000000011
 21
-77.85543319780117
 31
0.0
  0
LINE
  5
31DD
330
348E
100
AcDbEntity
  8
0
 62
     0
100
AcDbLine
 10
-48.8000000000011
 20
-77.85543319780117
 30
0.0
 11
94.22259552040305
 21
-173.2035867369395
 31
0.0
  0
LINE
  5
31DE
330
348E
100
AcDbEntity
  8
0
 62
     0
100
AcDbLine
 10
-143.0833905516483
 20
-15.0
 30
0.0
 11
-125.0000000000035
 21
-27.05556291684298
 31
0.0
  0
LINE
  5
31DF
330
348E
100
AcDbEntity
  8
0
 62
     0
100
AcDbLine
 10
-117.2833748675512
 20
-29.20000000000255
 30
0.0
 11
-48.8000000000011
 21
-74.85546666238589
 31
0.0
  0
LINE
  5
31E0
330
348E
100
AcDbEntity
  8
0
 62
     0
100
AcDbLine
 10
-48.8000000000011
 20
-74.8554666623877
 30
0.0
 11
97.2837911802417
 21
-172.2444120968594
 31
0.0
  0
LINE
  5
31E1
330
348E
100
AcDbEntity
  8
0
 62
     0
100
AcDbLine
 10
-138.5834292577619
 20
-15.0
 30
0.0
 11
-125.0000000000035
 21
-24.05559638142768
 31
0.0
  0
LINE
  5
31E2
330
348E
100
AcDbEntity
  8
0
 62
     0
100
AcDbLine
 10
-112.7834135736648
 20
-29.20000000000073
 30
0.0
 11
-48.8000000000011
 21
-71.85550012696876
 31
0.0
  0
LINE
  5
31E3
330
348E
100
AcDbEntity
  8
0
 62
     0
100
AcDbLine
 10
-48.79999999999927
 20
-71.85550012697058
 30
0.0
 11
100.3449868400803
 21
-171.2852374567756
 31
0.0
  0
LINE
  5
31E4
330
348E
100
AcDbEntity
  8
0
 62
     0
100
AcDbLine
 10
-134.0834679638738
 20
-15.00000000000182
 30
0.0
 11
-125.0000000000054
 21
-21.05562984600874
 31
0.0
  0
LINE
  5
31E5
330
348E
100
AcDbEntity
  8
0
 62
     0
100
AcDbLine
 10
-108.283452279782
 20
-29.20000000000073
 30
0.0
 11
-48.8000000000011
 21
-68.85553359155345
 31
0.0
  0
LINE
  5
31E6
330
348E
100
AcDbEntity
  8
0
 62
     0
100
AcDbLine
 10
-48.8000000000011
 20
-68.85553359155345
 30
0.0
 11
103.4061824999189
 21
-170.3260628166936
 31
0.0
  0
LINE
  5
31E7
330
348E
100
AcDbEntity
  8
0
 62
     0
100
AcDbLine
 10
-129.583506669991
 20
-15.00000000000182
 30
0.0
 11
-125.0000000000073
 21
-18.05566331059344
 31
0.0
  0
LINE
  5
31E8
330
348E
100
AcDbEntity
  8
0
 62
     0
100
AcDbLine
 10
-103.783490985892
 20
-29.20000000000073
 30
0.0
 11
-48.8000000000011
 21
-65.85556705613635
 31
0.0
  0
LINE
  5
31E9
330
348E
100
AcDbEntity
  8
0
 62
     0
100
AcDbLine
 10
-48.8000000000011
 20
-65.85556705613635
 30
0.0
 11
106.4673781597575
 21
-169.3668881766098
 31
0.0
  0
LINE
  5
31EA
330
348E
100
AcDbEntity
  8
0
 62
     0
100
AcDbLine
 10
-125.0835453761046
 20
-15.0
 30
0.0
 11
-125.0000000000054
 21
-15.05569677517633
 31
0.0
  0
LINE
  5
31EB
330
348E
100
AcDbEntity
  8
0
 62
     0
100
AcDbLine
 10
-48.79999999999927
 20
-62.85560052072105
 30
0.0
 11
109.5285738195962
 21
-168.4077135365278
 31
0.0
  0
LINE
  5
31EC
330
348E
100
AcDbEntity
  8
0
 62
     0
100
AcDbLine
 10
-99.28352969200751
 20
-29.20000000000255
 30
0.0
 11
-48.79999999999927
 21
-62.85560052072105
 31
0.0
  0
LINE
  5
31ED
330
348E
100
AcDbEntity
  8
0
 62
     0
100
AcDbLine
 10
-48.8000000000011
 20
-59.85563398530394
 30
0.0
 11
112.589769479433
 21
-167.448538896444
 31
0.0
  0
LINE
  5
31EE
330
348E
100
AcDbEntity
  8
0
 62
     0
100
AcDbLine
 10
-94.78356839812295
 20
-29.20000000000073
 30
0.0
 11
-48.8000000000011
 21
-59.85563398530394
 31
0.0
  0
LINE
  5
31EF
330
348E
100
AcDbEntity
  8
0
 62
     0
100
AcDbLine
 10
-48.8000000000011
 20
-56.85566744989046
 30
0.0
 11
115.6509651392698
 21
-166.489364256362
 31
0.0
  0
LINE
  5
31F0
330
348E
100
AcDbEntity
  8
0
 62
     0
100
AcDbLine
 10
-90.28360710424021
 20
-29.20000000000073
 30
0.0
 11
-48.8000000000011
 21
-56.85566744989046
 31
0.0
  0
LINE
  5
31F1
330
348E
100
AcDbEntity
  8
0
 62
     0
100
AcDbLine
 10
-48.79999999999927
 20
-53.85570091447334
 30
0.0
 11
118.7121607991103
 21
-165.5301896162782
 31
0.0
  0
LINE
  5
31F2
330
348E
100
AcDbEntity
  8
0
 62
     0
100
AcDbLine
 10
-85.78364581034838
 20
-29.20000000000255
 30
0.0
 11
-48.79999999999927
 21
-53.85570091447334
 31
0.0
  0
LINE
  5
31F3
330
348E
100
AcDbEntity
  8
0
 62
     0
100
AcDbLine
 10
-48.79999999999927
 20
-50.85573437905805
 30
0.0
 11
121.7733564589471
 21
-164.5710149761962
 31
0.0
  0
LINE
  5
31F4
330
348E
100
AcDbEntity
  8
0
 62
     0
100
AcDbLine
 10
-81.28368451646565
 20
-29.20000000000255
 30
0.0
 11
-48.79999999999927
 21
-50.85573437905805
 31
0.0
  0
LINE
  5
31F5
330
348E
100
AcDbEntity
  8
0
 62
     0
100
AcDbLine
 10
-48.80000000000291
 20
-47.8557678436391
 30
0.0
 11
124.8345521187857
 21
-163.6118403361142
 31
0.0
  0
LINE
  5
31F6
330
348E
100
AcDbEntity
  8
0
 62
     0
100
AcDbLine
 10
-76.78372322258109
 20
-29.20000000000073
 30
0.0
 11
-48.80000000000291
 21
-47.8557678436391
 31
0.0
  0
LINE
  5
31F7
330
348E
100
AcDbEntity
  8
0
 62
     0
100
AcDbLine
 10
-48.8000000000011
 20
-44.85580130822198
 30
0.0
 11
127.8957477786243
 21
-162.6526656960304
 31
0.0
  0
LINE
  5
31F8
330
348E
100
AcDbEntity
  8
0
 62
     0
100
AcDbLine
 10
-72.28376192869473
 20
-29.20000000000073
 30
0.0
 11
-48.8000000000011
 21
-44.85580130822198
 31
0.0
  0
LINE
  5
31F9
330
348E
100
AcDbEntity
  8
0
 62
     0
100
AcDbLine
 10
-48.8000000000011
 20
-41.85583477280852
 30
0.0
 11
130.956943438463
 21
-161.6934910559485
 31
0.0
  0
LINE
  5
31FA
330
348E
100
AcDbEntity
  8
0
 62
     0
100
AcDbLine
 10
-67.78380063480835
 20
-29.20000000000073
 30
0.0
 11
-48.8000000000011
 21
-41.85583477280852
 31
0.0
  0
LINE
  5
31FB
330
348E
100
AcDbEntity
  8
0
 62
     0
100
AcDbLine
 10
-48.8000000000011
 20
-38.85586823739141
 30
0.0
 11
134.0181390983016
 21
-160.7343164158646
 31
0.0
  0
LINE
  5
31FC
330
348E
100
AcDbEntity
  8
0
 62
     0
100
AcDbLine
 10
-63.28383934092562
 20
-29.20000000000073
 30
0.0
 11
-48.8000000000011
 21
-38.85586823739141
 31
0.0
  0
LINE
  5
31FD
330
348E
100
AcDbEntity
  8
0
 62
     0
100
AcDbLine
 10
-48.8000000000011
 20
-35.85590170197611
 30
0.0
 11
137.079334758142
 21
-159.7751417757845
 31
0.0
  0
LINE
  5
31FE
330
348E
100
AcDbEntity
  8
0
 62
     0
100
AcDbLine
 10
-58.78387804703925
 20
-29.20000000000073
 30
0.0
 11
-48.8000000000011
 21
-35.85590170197611
 31
0.0
  0
LINE
  5
31FF
330
348E
100
AcDbEntity
  8
0
 62
     0
100
AcDbLine
 10
-48.79999999999927
 20
-32.85593516655899
 30
0.0
 11
140.1405304179789
 21
-158.8159671357006
 31
0.0
  0
LINE
  5
3200
330
348E
100
AcDbEntity
  8
0
 62
     0
100
AcDbLine
 10
-54.28391675315106
 20
-29.20000000000073
 30
0.0
 11
-48.79999999999927
 21
-32.85593516655899
 31
0.0
  0
LINE
  5
3201
330
348E
100
AcDbEntity
  8
0
 62
     0
100
AcDbLine
 10
-48.8000000000011
 20
-29.8559686311437
 30
0.0
 11
143.2017260778175
 21
-157.8567924956187
 31
0.0
  0
LINE
  5
3202
330
348E
100
AcDbEntity
  8
0
 62
     0
100
AcDbLine
 10
-49.7839554592665
 20
-29.20000000000255
 30
0.0
 11
-48.8000000000011
 21
-29.8559686311437
 31
0.0
  0
LINE
  5
3203
330
348E
100
AcDbEntity
  8
0
 62
     0
100
AcDbLine
 10
-45.28399416538377
 20
-29.20000000000073
 30
0.0
 11
146.2629217376543
 21
-156.8976178555349
 31
0.0
  0
LINE
  5
3204
330
348E
100
AcDbEntity
  8
0
 62
     0
100
AcDbLine
 10
-40.78403287149738
 20
-29.20000000000073
 30
0.0
 11
149.3241173974911
 21
-155.9384432154529
 31
0.0
  0
LINE
  5
3205
330
348E
100
AcDbEntity
  8
0
 62
     0
100
AcDbLine
 10
-36.28407157760921
 20
-29.20000000000255
 30
0.0
 11
152.3853130573334
 21
-154.9792685753709
 31
0.0
  0
LINE
  5
3206
330
348E
100
AcDbEntity
  8
0
 62
     0
100
AcDbLine
 10
-31.78411028372467
 20
-29.20000000000255
 30
0.0
 11
155.4465087171684
 21
-154.0200939352871
 31
0.0
  0
LINE
  5
3207
330
348E
100
AcDbEntity
  8
0
 62
     0
100
AcDbLine
 10
-27.28414898984012
 20
-29.20000000000073
 30
0.0
 11
158.5077043770106
 21
-153.0609192952051
 31
0.0
  0
LINE
  5
3208
330
348E
100
AcDbEntity
  8
0
 62
     0
100
AcDbLine
 10
-22.78418769595191
 20
-29.20000000000255
 30
0.0
 11
161.5689000368456
 21
-152.1017446551213
 31
0.0
  0
LINE
  5
3209
330
348E
100
AcDbEntity
  8
0
 62
     0
100
AcDbLine
 10
-18.28422640206918
 20
-29.20000000000073
 30
0.0
 11
164.6300956966824
 21
-151.1425700150394
 31
0.0
  0
LINE
  5
320A
330
348E
100
AcDbEntity
  8
0
 62
     0
100
AcDbLine
 10
-13.78426510818463
 20
-29.19999999999891
 30
0.0
 11
166.9999999999982
 21
-149.7225356474264
 31
0.0
  0
LINE
  5
320B
330
348E
100
AcDbEntity
  8
0
 62
     0
100
AcDbLine
 10
-9.284303814298255
 20
-29.20000000000073
 30
0.0
 11
167.0
 21
-146.7225691120111
 31
0.0
  0
LINE
  5
320C
330
348E
100
AcDbEntity
  8
0
 62
     0
100
AcDbLine
 10
-4.784342520411883
 20
-29.20000000000073
 30
0.0
 11
167.0
 21
-143.722602576594
 31
0.0
  0
LINE
  5
320D
330
348E
100
AcDbEntity
  8
0
 62
     0
100
AcDbLine
 10
-0.28438122652733
 20
-29.20000000000073
 30
0.0
 11
166.9999999999982
 21
-140.7226360411787
 31
0.0
  0
LINE
  5
320E
330
348E
100
AcDbEntity
  8
0
 62
     0
100
AcDbLine
 10
4.215580067359042
 20
-29.20000000000073
 30
0.0
 11
166.9999999999982
 21
-137.7226695057616
 31
0.0
  0
LINE
  5
320F
330
348E
100
AcDbEntity
  8
0
 62
     0
100
AcDbLine
 10
8.715541361243595
 20
-29.20000000000073
 30
0.0
 11
167.0
 21
-134.7227029703463
 31
0.0
  0
LINE
  5
3210
330
348E
100
AcDbEntity
  8
0
 62
     0
100
AcDbLine
 10
13.21550265512996
 20
-29.20000000000073
 30
0.0
 11
166.9999999999982
 21
-131.7227364349291
 31
0.0
  0
LINE
  5
3211
330
348E
100
AcDbEntity
  8
0
 62
     0
100
AcDbLine
 10
17.71546394901634
 20
-29.20000000000255
 30
0.0
 11
167.0
 21
-128.7227698995138
 31
0.0
  0
LINE
  5
3212
330
348E
100
AcDbEntity
  8
0
 62
     0
100
AcDbLine
 10
22.21542524290271
 20
-29.20000000000073
 30
0.0
 11
167.0
 21
-125.7228033640967
 31
0.0
  0
LINE
  5
3213
330
348E
100
AcDbEntity
  8
0
 62
     0
100
AcDbLine
 10
26.71538653678908
 20
-29.20000000000255
 30
0.0
 11
167.0
 21
-122.7228368286814
 31
0.0
  0
LINE
  5
3214
330
348E
100
AcDbEntity
  8
0
 62
     0
100
AcDbLine
 10
31.21534783067182
 20
-29.20000000000255
 30
0.0
 11
166.9999999999982
 21
-119.7228702932642
 31
0.0
  0
LINE
  5
3215
330
348E
100
AcDbEntity
  8
0
 62
     0
100
AcDbLine
 10
35.71530912455819
 20
-29.20000000000255
 30
0.0
 11
167.0
 21
-116.722903757849
 31
0.0
  0
LINE
  5
3216
330
348E
100
AcDbEntity
  8
0
 62
     0
100
AcDbLine
 10
40.21527041844456
 20
-29.20000000000073
 30
0.0
 11
167.0
 21
-113.7229372224337
 31
0.0
  0
LINE
  5
3217
330
348E
100
AcDbEntity
  8
0
 62
     0
100
AcDbLine
 10
44.71523171232911
 20
-29.20000000000073
 30
0.0
 11
166.9999999999982
 21
-110.7229706870148
 31
0.0
  0
LINE
  5
3218
330
348E
100
AcDbEntity
  8
0
 62
     0
100
AcDbLine
 10
49.21519300621365
 20
-29.20000000000073
 30
0.0
 11
166.9999999999982
 21
-107.7230041515995
 31
0.0
  0
LINE
  5
3219
330
348E
100
AcDbEntity
  8
0
 62
     0
100
AcDbLine
 10
53.71515430010004
 20
-29.19999999999891
 30
0.0
 11
167.0
 21
-104.7230376161824
 31
0.0
  0
LINE
  5
321A
330
348E
100
AcDbEntity
  8
0
 62
     0
100
AcDbLine
 10
58.2151155939864
 20
-29.20000000000255
 30
0.0
 11
166.9999999999982
 21
-101.7230710807671
 31
0.0
  0
LINE
  5
321B
330
348E
100
AcDbEntity
  8
0
 62
     0
100
AcDbLine
 10
62.71507688787096
 20
-29.20000000000073
 30
0.0
 11
166.9999999999982
 21
-98.72310454535178
 31
0.0
  0
LINE
  5
321C
330
348E
100
AcDbEntity
  8
0
 62
     0
100
AcDbLine
 10
67.21503818175552
 20
-29.20000000000073
 30
0.0
 11
166.9999999999982
 21
-95.72313800993653
 31
0.0
  0
LINE
  5
321D
330
348E
100
AcDbEntity
  8
0
 62
     0
100
AcDbLine
 10
71.71499947564189
 20
-29.20000000000073
 30
0.0
 11
167.0
 21
-92.72317147451941
 31
0.0
  0
LINE
  5
321E
330
348E
100
AcDbEntity
  8
0
 62
     0
100
AcDbLine
 10
76.21496076952826
 20
-29.20000000000255
 30
0.0
 11
166.9999999999982
 21
-89.72320493910409
 31
0.0
  0
LINE
  5
321F
330
348E
100
AcDbEntity
  8
0
 62
     0
100
AcDbLine
 10
80.71492206341462
 20
-29.20000000000073
 30
0.0
 11
167.0
 21
-86.72323840368695
 31
0.0
  0
LINE
  5
3220
330
348E
100
AcDbEntity
  8
0
 62
     0
100
AcDbLine
 10
85.21488335729918
 20
-29.20000000000255
 30
0.0
 11
167.0
 21
-83.72327186826987
 31
0.0
  0
LINE
  5
3221
330
348E
100
AcDbEntity
  8
0
 62
     0
100
AcDbLine
 10
89.71484465118374
 20
-29.20000000000073
 30
0.0
 11
166.9999999999982
 21
-80.72330533285457
 31
0.0
  0
LINE
  5
3222
330
348E
100
AcDbEntity
  8
0
 62
     0
100
AcDbLine
 10
94.2148059450683
 20
-29.20000000000255
 30
0.0
 11
166.9999999999982
 21
-77.72333879743928
 31
0.0
  0
LINE
  5
3223
330
348E
100
AcDbEntity
  8
0
 62
     0
100
AcDbLine
 10
98.71476723895648
 20
-29.20000000000073
 30
0.0
 11
167.0
 21
-74.72337226202213
 31
0.0
  0
LINE
  5
3224
330
348E
100
AcDbEntity
  8
0
 62
     0
100
AcDbLine
 10
103.214728532841
 20
-29.20000000000073
 30
0.0
 11
167.0
 21
-71.72340572660687
 31
0.0
  0
LINE
  5
3225
330
348E
100
AcDbEntity
  8
0
 62
     0
100
AcDbLine
 10
107.7146898267274
 20
-29.20000000000255
 30
0.0
 11
166.9999999999982
 21
-68.72343919118975
 31
0.0
  0
LINE
  5
3226
330
348E
100
AcDbEntity
  8
0
 62
     0
100
AcDbLine
 10
112.2146511206119
 20
-29.20000000000073
 30
0.0
 11
167.0
 21
-65.72347265577263
 31
0.0
  0
LINE
  5
3227
330
348E
100
AcDbEntity
  8
0
 62
     0
100
AcDbLine
 10
116.7146124144983
 20
-29.20000000000073
 30
0.0
 11
167.0
 21
-62.72350612035734
 31
0.0
  0
LINE
  5
3228
330
348E
100
AcDbEntity
  8
0
 62
     0
100
AcDbLine
 10
121.214573708381
 20
-29.20000000000073
 30
0.0
 11
166.9999999999982
 21
-59.72353958494021
 31
0.0
  0
LINE
  5
3229
330
348E
100
AcDbEntity
  8
0
 62
     0
100
AcDbLine
 10
125.0000000000018
 20
-28.72364454821219
 30
0.0
 11
166.9999999999982
 21
-56.72357304952493
 31
0.0
  0
LINE
  5
322A
330
348E
100
AcDbEntity
  8
0
 62
     0
100
AcDbLine
 10
125.0000000000035
 20
-25.72367801279507
 30
0.0
 11
167.0
 21
-53.7236065141078
 31
0.0
  0
LINE
  5
322B
330
348E
100
AcDbEntity
  8
0
 62
     0
100
AcDbLine
 10
125.0000000000018
 20
-22.72371147737977
 30
0.0
 11
166.9999999999982
 21
-50.72363997869253
 31
0.0
  0
LINE
  5
322C
330
348E
100
AcDbEntity
  8
0
 62
     0
100
AcDbLine
 10
124.9999999999963
 20
-19.72374494196083
 30
0.0
 11
166.9999999999982
 21
-47.72367344327538
 31
0.0
  0
LINE
  5
322D
330
348E
100
AcDbEntity
  8
0
 62
     0
100
AcDbLine
 10
124.9999999999982
 20
-16.72377840654553
 30
0.0
 11
166.9999999999982
 21
-44.7237069078601
 31
0.0
  0
LINE
  5
322E
330
348E
100
AcDbEntity
  8
0
 62
     0
100
AcDbLine
 10
126.9142870814867
 20
-15.00000000000182
 30
0.0
 11
167.0
 21
-41.72374037244297
 31
0.0
  0
LINE
  5
322F
330
348E
100
AcDbEntity
  8
0
 62
     0
100
AcDbLine
 10
131.4142483753712
 20
-15.00000000000182
 30
0.0
 11
166.9999999999982
 21
-38.72377383702769
 31
0.0
  0
LINE
  5
3230
330
348E
100
AcDbEntity
  8
0
 62
     0
100
AcDbLine
 10
135.9142096692576
 20
-15.0
 30
0.0
 11
166.9999999999982
 21
-35.72380730161058
 31
0.0
  0
LINE
  5
3231
330
348E
100
AcDbEntity
  8
0
 62
     0
100
AcDbLine
 10
140.4141709631421
 20
-15.00000000000182
 30
0.0
 11
166.9999999999982
 21
-32.72384076619528
 31
0.0
  0
LINE
  5
3232
330
348E
100
AcDbEntity
  8
0
 62
     0
100
AcDbLine
 10
144.9141322570285
 20
-15.00000000000182
 30
0.0
 11
166.9999999999982
 21
-29.72387423077817
 31
0.0
  0
LINE
  5
3233
330
348E
100
AcDbEntity
  8
0
 62
     0
100
AcDbLine
 10
149.4140935509131
 20
-15.0
 30
0.0
 11
166.9999999999982
 21
-26.72390769536105
 31
0.0
  0
LINE
  5
3234
330
348E
100
AcDbEntity
  8
0
 62
     0
100
AcDbLine
 10
153.9140548448013
 20
-15.0
 30
0.0
 11
167.0
 21
-23.72394115994575
 31
0.0
  0
LINE
  5
3235
330
348E
100
AcDbEntity
  8
0
 62
     0
100
AcDbLine
 10
158.414016138684
 20
-15.0
 30
0.0
 11
167.0
 21
-20.72397462452864
 31
0.0
  0
LINE
  5
3236
330
348E
100
AcDbEntity
  8
0
 62
     0
100
AcDbLine
 10
162.9139774325704
 20
-15.00000000000182
 30
0.0
 11
166.9999999999982
 21
-17.72400808911516
 31
0.0
  0
ENDBLK
  5
3237
330
348E
100
AcDbEntity
  8
0
100
AcDbBlockEnd
  0
ENDSEC
  0
SECTION
  2
ENTITIES
  0
TEXT
  5
953
330
33A8
100
AcDbEntity
  8
OUTLINE
  6
Continuous
 62
     3
100
AcDbText
 10
-418.231467
 20
13.715189
 30
0.0
 40
64.0
  1
 
 41
0.9
100
AcDbText
  0
TEXT
  5
954
330
33A8
100
AcDbEntity
  8
OUTLINE
  6
Continuous
 62
     3
100
AcDbText
 10
-418.231467
 20
13.715189
 30
0.0
 40
64.0
  1
 
 41
0.9
100
AcDbText
  0
TEXT
  5
955
330
33A8
100
AcDbEntity
  8
OUTLINE
  6
Continuous
 62
     3
100
AcDbText
 10
1341.41903
 20
-706.0588199999997
 30
0.0
 40
64.0
  1
 
 41
0.9
100
AcDbText
  0
TEXT
  5
956
330
33A8
100
AcDbEntity
  8
OUTLINE
  6
Continuous
 62
     3
100
AcDbText
 10
1341.41903
 20
-706.0588199999997
 30
0.0
 40
64.0
  1
 
 41
0.9
100
AcDbText
  0
TEXT
  5
957
330
33A8
100
AcDbEntity
  8
OUTLINE
  6
Continuous
 62
     3
100
AcDbText
 10
1341.41903
 20
-706.0588199999997
 30
0.0
 40
64.0
  1
 
 41
0.9
100
AcDbText
  0
TEXT
  5
958
330
33A8
100
AcDbEntity
  8
OUTLINE
  6
Continuous
 62
     3
100
AcDbText
 10
1341.41903
 20
-706.0588199999997
 30
0.0
 40
64.0
  1
 
 41
0.9
100
AcDbText
  0
INSERT
  5
329D
330
33A8
100
AcDbEntity
  8
DETAIL___1
  6
Continuous
100
AcDbBlockReference
  2
*X76
 10
0.0
 20
0.0
 30
0.0
1001
ACADANNOTATIVE
1000
AnnotativeData
1002
{
1070
     1
1070
     0
1002
}
1001
ACAD
1000
HATCH
1002
{
1070
    19
1000
LINE
1040
19.969
1040
0.5880014249968896
1000
R14_HATCH_DATA
1000
27EA
1011
1.0
1021
0.0
1031
0.0
1011
0.0
1021
1.0
1031
0.0
1011
0.0
1021
0.0
1031
1.0
1040
0.0
1010
0.0
1020
0.0
1030
1.0
1000
LINE
1070
     0
1070
     0
1071
        2
1071
        7
1070
     0
1070
     1
1071
        6
1040
-48.79999999999927
1040
-29.19999999999983
1040
-125.0
1040
-29.20000000000005
1040
-125.0000000000035
1040
-15.0
1040
-167.0
1040
-15.0
1040
-166.9999999999963
1040
-150.400000000001
1040
-48.79999999999927
1040
-187.4359999999999
1071
        0
1071
        1
1071
        8
1070
     1
1040
-48.79999999999927
1040
-187.436
1040
-47.0
1040
-188.0
1070
     1
1040
-47.0
1040
-188.0
1040
47.0
1040
-188.0
1070
     1
1040
47.0
1040
-188.0
1040
167.0
1040
-150.4000000000007
1070
     1
1040
167.0
1040
-150.4000000000007
1040
167.0
1040
-14.99999999999977
1070
     1
1040
167.0
1040
-14.99999999999977
1040
125.0
1040
-15.0
1070
     1
1040
125.0
1040
-15.0
1040
125.0000000000035
1040
-29.20000000000005
1070
     1
1040
125.0000000000035
1040
-29.20000000000005
1040
-48.80000000000654
1040
-29.20000000000005
1070
     1
1040
-48.80000000000654
1040
-29.20000000000005
1040
-48.79999999999927
1040
-187.436
1071
        0
1070
     0
1070
     1
1040
0.5880014249968896
1040
19.969
1070
     0
1070
     1
1040
0.5880014249968896
1040
19425.7377121242
1040
1545.989638799858
1040
-1.384598579568018
1040
2.076903172775084
1070
     0
1040
0.8057291330771219
1071
        2
1040
-111.3549900707767
1040
-101.9765031190531
1040
0.0
1040
97.58330888504859
1040
-133.7214214842229
1040
0.0
1002
}
  0
INSERT
  5
329E
330
33A8
100
AcDbEntity
  8
DETAIL___1
  6
Continuous
100
AcDbBlockReference
  2
*X77
 10
0.0
 20
0.0
 30
0.0
1001
ACADANNOTATIVE
1000
AnnotativeData
1002
{
1070
     1
1070
     0
1002
}
1001
ACAD
1000
HATCH
1002
{
1070
    19
1000
LINE
1040
19.969
1040
5.695183882182695
1000
R14_HATCH_DATA
1000
27F0
1011
1.0
1021
0.0
1031
0.0
1011
0.0
1021
1.0
1031
0.0
1011
0.0
1021
0.0
1031
1.0
1040
0.0
1010
0.0
1020
0.0
1030
1.0
1000
LINE
1070
     0
1070
     0
1071
        2
1071
        7
1070
     0
1070
     1
1071
        6
1040
-48.79999999999927
1040
-29.20000000000005
1040
-125.0
1040
-29.20000000000005
1040
-125.0000000000035
1040
-15.0
1040
-167.0
1040
-15.0
1040
-166.9999999999963
1040
-150.400000000001
1040
-48.79999999999927
1040
-187.4359999999999
1071
        0
1071
        1
1071
        8
1070
     1
1040
-48.79999999999927
1040
-187.4360000000028
1040
-47.0
1040
-188.0
1070
     1
1040
-47.0
1040
-188.0
1040
47.0
1040
-188.0
1070
     1
1040
47.0
1040
-188.0
1040
167.0
1040
-150.4000000000007
1070
     1
1040
167.0
1040
-150.4000000000007
1040
167.0
1040
-14.99999999999977
1070
     1
1040
167.0
1040
-14.99999999999977
1040
125.0
1040
-15.0
1070
     1
1040
125.0
1040
-15.0
1040
125.0000000000035
1040
-29.20000000000005
1070
     1
1040
125.0000000000035
1040
-29.20000000000005
1040
-48.79999999999927
1040
-29.20000000000005
1070
     1
1040
-48.79999999999927
1040
-29.20000000000005
1040
-48.79999999999927
1040
-187.4360000000028
1071
        0
1070
     0
1070
     1
1040
5.695183882182695
1040
19.969
1070
     0
1070
     1
1040
5.695183882182695
1040
19425.7377121242
1040
1545.989638799858
1040
1.384598579568018
1040
2.076903172775084
1070
     0
1040
0.5195192585952623
1071
        2
1040
-99.60756302949812
1040
-81.31447435665767
1040
0.0
1040
62.57801823268528
1040
-60.3693230282429
1040
0.0
1002
}
  0
TEXT
  5
329F
330
33A8
100
AcDbEntity
  8
ETC
100
AcDbText
 10
184.3397020011471
 20
557.1554227717106
 30
0.0
 40
64.0
  1
システム部材
 41
0.9
100
AcDbText
  0
TEXT
  5
32A0
330
33A8
100
AcDbEntity
  8
ETC
100
AcDbText
 10
190.5477000011451
 20
658.0387487717104
 30
0.0
 40
64.0
  1
UW-25SDHM_6
 41
0.9
100
AcDbText
  0
TEXT
  5
32A1
330
33A8
100
AcDbEntity
  8
ETC
100
AcDbText
 10
190.5477000011451
 20
458.0387487717102
 30
0.0
 40
64.0
  1
UW-25SDHM
 41
0.9
100
AcDbText
  0
CIRCLE
  5
32A2
330
33A8
100
AcDbEntity
  8
ARRANGE
100
AcDbCircle
 10
0.0
 20
0.0000000986735813
 30
0.0
 40
40.0
  0
LINE
  5
32A3
330
33A8
100
AcDbEntity
  8
BASIS
100
AcDbLine
 10
0.0
 20
-231.9999999999998
 30
0.0
 11
0.0
 21
25.0
 31
0.0
  0
POINT
  5
32A4
330
33A8
100
AcDbEntity
  8
ARRANGE
100
AcDbPoint
 10
0.0
 20
0.0
 30
0.0
 39
50.0
  0
ARC
  5
32A5
330
33A8
100
AcDbEntity
  8
DETAIL
100
AcDbCircle
 10
0.0
 20
553.0000000000001
 30
0.0
 40
760.0
100
AcDbArc
 50
257.8784494301744
 51
282.1215505698256
  0
ARC
  5
32A6
330
33A8
100
AcDbEntity
  8
DETAIL
100
AcDbCircle
 10
153.4999999999963
 20
-161.7018609182436
 30
0.0
 40
29.0
100
AcDbArc
 50
282.1215505698256
 51
0.0
  0
ARC
  5
32A7
330
33A8
100
AcDbEntity
  8
DETAIL
100
AcDbCircle
 10
-153.5
 20
-161.701860918243
 30
0.0
 40
29.0
100
AcDbArc
 50
180.0
 51
257.8784494301744
  0
LINE
  5
32A8
330
33A8
100
AcDbEntity
  8
DETAIL
100
AcDbLine
 10
-182.5
 20
0.0
 30
0.0
 11
182.5
 21
0.0
 31
0.0
  0
LINE
  5
32A9
330
33A8
100
AcDbEntity
  8
DETAIL
100
AcDbLine
 10
-167.0
 20
-15.0
 30
0.0
 11
167.0
 21
-15.0
 31
0.0
  0
LINE
  5
32AA
330
33A8
100
AcDbEntity
  8
DETAIL
100
AcDbLine
 10
-125.0
 20
-29.20000000000005
 30
0.0
 11
125.0
 21
-29.20000000000005
 31
0.0
  0
LINE
  5
32AB
330
33A8
100
AcDbEntity
  8
DETAIL
100
AcDbLine
 10
-47.0
 20
-188.0
 30
0.0
 11
47.0
 21
-188.0
 31
0.0
  0
LINE
  5
32AC
330
33A8
100
AcDbEntity
  8
DETAIL
100
AcDbLine
 10
-182.5
 20
0.0
 30
0.0
 11
-182.5
 21
-161.701860918243
 31
0.0
  0
LINE
  5
32AD
330
33A8
100
AcDbEntity
  8
DETAIL
100
AcDbLine
 10
-167.0
 20
-15.0
 30
0.0
 11
-166.9999999999963
 21
-150.4000000000001
 31
0.0
  0
LINE
  5
32AE
330
33A8
100
AcDbEntity
  8
DETAIL
100
AcDbLine
 10
-125.0
 20
-15.0
 30
0.0
 11
-125.0
 21
-29.20000000000005
 31
0.0
  0
LINE
  5
32AF
330
33A8
100
AcDbEntity
  8
DETAIL
100
AcDbLine
 10
125.0
 20
-15.0
 30
0.0
 11
125.0
 21
-29.20000000000005
 31
0.0
  0
LINE
  5
32B0
330
33A8
100
AcDbEntity
  8
DETAIL
100
AcDbLine
 10
182.5
 20
0.0
 30
0.0
 11
182.5
 21
-161.7018609182436
 31
0.0
  0
LINE
  5
32B1
330
33A8
100
AcDbEntity
  8
DETAIL
100
AcDbLine
 10
167.0
 20
-15.0
 30
0.0
 11
166.9999999999963
 21
-150.400000000001
 31
0.0
  0
LINE
  5
32B2
330
33A8
100
AcDbEntity
  8
NOTE
100
AcDbLine
 10
-165.0
 20
-12.5
 30
0.0
 11
-165.0
 21
12.5
 31
0.0
  0
LINE
  5
32B3
330
33A8
100
AcDbEntity
  8
NOTE
100
AcDbLine
 10
165.0
 20
-12.5
 30
0.0
 11
165.0
 21
12.5
 31
0.0
  0
LINE
  5
32B4
330
33A8
100
AcDbEntity
  8
NOTE
100
AcDbLine
 39
50.0
 10
-177.5
 20
0.0
 30
0.0
 11
-152.5
 21
0.0
 31
0.0
  0
LINE
  5
32B5
330
33A8
100
AcDbEntity
  8
NOTE
100
AcDbLine
 39
50.0
 10
152.5
 20
0.0
 30
0.0
 11
177.5
 21
0.0
 31
0.0
  0
LINE
  5
32B6
330
33A8
100
AcDbEntity
  8
OUTLINE
100
AcDbLine
 39
50.0
 10
-182.5
 20
0.0
 30
0.0
 11
182.5
 21
0.0
 31
0.0
  0
ARC
  5
32B7
330
33A8
100
AcDbEntity
  8
OUTLINE
100
AcDbCircle
 10
0.0
 20
553.0000000000001
 30
0.0
 40
760.0
100
AcDbArc
 50
257.8784494301744
 51
282.1215505698256
  0
ARC
  5
32B8
330
33A8
100
AcDbEntity
  8
OUTLINE
100
AcDbCircle
 10
153.4999999999963
 20
-161.7018609182436
 30
0.0
 40
29.0
100
AcDbArc
 50
282.1215505698256
 51
0.0
  0
ARC
  5
32B9
330
33A8
100
AcDbEntity
  8
OUTLINE
100
AcDbCircle
 10
-153.5
 20
-161.701860918243
 30
0.0
 40
29.0
100
AcDbArc
 50
180.0
 51
257.8784494301744
  0
LINE
  5
32BA
330
33A8
100
AcDbEntity
  8
OUTLINE
100
AcDbLine
 10
-182.5
 20
0.0
 30
0.0
 11
-182.5
 21
-161.701860918243
 31
0.0
  0
LINE
  5
32BB
330
33A8
100
AcDbEntity
  8
OUTLINE
100
AcDbLine
 10
182.5
 20
0.0
 30
0.0
 11
182.5
 21
-161.7018609182436
 31
0.0
  0
LINE
  5
32BC
330
33A8
100
AcDbEntity
  8
DETAIL
100
AcDbLine
 39
50.0
 10
-167.0
 20
-150.4000000000001
 30
0.0
 11
-47.0
 21
-188.0
 31
0.0
  0
LINE
  5
32BD
330
33A8
100
AcDbEntity
  8
DETAIL
100
AcDbLine
 39
50.0
 10
47.0
 20
-188.0
 30
0.0
 11
167.0
 21
-150.4000000000001
 31
0.0
  0
LINE
  5
32BE
330
33A8
100
AcDbEntity
  8
DETAIL
100
AcDbLine
 39
50.0
 10
-167.0
 20
-15.0
 30
0.0
 11
-125.0
 21
-15.0
 31
0.0
  0
LINE
  5
32BF
330
33A8
100
AcDbEntity
  8
DETAIL
100
AcDbLine
 39
50.0
 10
-125.0
 20
-15.0
 30
0.0
 11
-125.0
 21
-29.20000000000005
 31
0.0
  0
LINE
  5
32C0
330
33A8
100
AcDbEntity
  8
DETAIL
100
AcDbLine
 39
50.0
 10
-125.0
 20
-29.20000000000005
 30
0.0
 11
125.0
 21
-29.20000000000005
 31
0.0
  0
LINE
  5
32C1
330
33A8
100
AcDbEntity
  8
DETAIL
100
AcDbLine
 39
50.0
 10
125.0
 20
-29.20000000000005
 30
0.0
 11
125.0
 21
-15.0
 31
0.0
  0
LINE
  5
32C2
330
33A8
100
AcDbEntity
  8
DETAIL
100
AcDbLine
 39
50.0
 10
125.0
 20
-15.0
 30
0.0
 11
167.0
 21
-15.0
 31
0.0
  0
LINE
  5
32C3
330
33A8
100
AcDbEntity
  8
DETAIL
100
AcDbLine
 39
50.0
 10
167.0
 20
-15.0
 30
0.0
 11
167.0
 21
-150.4000000000001
 31
0.0
  0
LINE
  5
32C4
330
33A8
100
AcDbEntity
  8
DETAIL
100
AcDbLine
 39
50.0
 10
167.0
 20
-150.4000000000001
 30
0.0
 11
47.0
 21
-188.0
 31
0.0
  0
LINE
  5
32C5
330
33A8
100
AcDbEntity
  8
DETAIL
100
AcDbLine
 39
50.0
 10
47.0
 20
-188.0
 30
0.0
 11
-47.0
 21
-188.0
 31
0.0
  0
LINE
  5
32C6
330
33A8
100
AcDbEntity
  8
DETAIL
100
AcDbLine
 39
50.0
 10
-47.0
 20
-188.0
 30
0.0
 11
-167.0
 21
-150.4000000000001
 31
0.0
  0
LINE
  5
32C7
330
33A8
100
AcDbEntity
  8
DETAIL
100
AcDbLine
 39
50.0
 10
-167.0
 20
-150.4000000000001
 30
0.0
 11
-167.0
 21
-15.0
 31
0.0
  0
LINE
  5
32C8
330
33A8
100
AcDbEntity
  8
OUTLINE
100
AcDbLine
 39
50.0
 10
-167.0
 20
-15.0
 30
0.0
 11
-167.0
 21
-150.4000000000001
 31
0.0
  0
LINE
  5
32C9
330
33A8
100
AcDbEntity
  8
OUTLINE
100
AcDbLine
 39
50.0
 10
-167.0
 20
-150.4000000000001
 30
0.0
 11
-47.0
 21
-188.0
 31
0.0
  0
LINE
  5
32CA
330
33A8
100
AcDbEntity
  8
OUTLINE
100
AcDbLine
 39
50.0
 10
-47.0
 20
-188.0
 30
0.0
 11
47.0
 21
-188.0
 31
0.0
  0
LINE
  5
32CB
330
33A8
100
AcDbEntity
  8
OUTLINE
100
AcDbLine
 39
50.0
 10
47.0
 20
-188.0
 30
0.0
 11
167.0
 21
-150.4000000000001
 31
0.0
  0
LINE
  5
32CC
330
33A8
100
AcDbEntity
  8
OUTLINE
100
AcDbLine
 39
50.0
 10
167.0
 20
-150.4000000000001
 30
0.0
 11
167.0
 21
-15.0
 31
0.0
  0
LINE
  5
32CD
330
33A8
100
AcDbEntity
  8
OUTLINE
100
AcDbLine
 39
50.0
 10
167.0
 20
-15.0
 30
0.0
 11
-167.0
 21
-15.0
 31
0.0
  0
LINE
  5
32CE
330
33A8
100
AcDbEntity
  8
OUTLINE
100
AcDbLine
 39
50.0
 10
-125.0
 20
-15.0
 30
0.0
 11
-125.0
 21
-29.20000000000005
 31
0.0
  0
LINE
  5
32CF
330
33A8
100
AcDbEntity
  8
OUTLINE
100
AcDbLine
 39
50.0
 10
-125.0
 20
-29.20000000000005
 30
0.0
 11
125.0
 21
-29.20000000000005
 31
0.0
  0
LINE
  5
32D0
330
33A8
100
AcDbEntity
  8
OUTLINE
100
AcDbLine
 39
50.0
 10
125.0
 20
-29.20000000000005
 30
0.0
 11
125.0
 21
-15.0
 31
0.0
  0
LINE
  5
32D1
330
33A8
100
AcDbEntity
  8
SIZE
100
AcDbLine
 10
20.0
 20
-206.9999999999998
 30
0.0
 11
360.4216807056653
 21
-206.9999999999999
 31
0.0
  0
LINE
  5
32D2
330
33A8
100
AcDbEntity
  8
SIZE
100
AcDbLine
 10
202.5
 20
0.0
 30
0.0
 11
360.4216807056653
 21
-0.0000000000000568
 31
0.0
  0
LINE
  5
32D3
330
33A8
100
AcDbEntity
  8
SIZE
100
AcDbLine
 10
340.4216807056652
 20
-194.9999999999999
 30
0.0
 11
340.4216807056652
 21
-12.00000000000005
 31
0.0
  0
INSERT
  5
32D4
330
33A8
100
AcDbEntity
  8
SIZE
100
AcDbBlockReference
  2
_DOTBLANK
 10
340.4216807056652
 20
-206.9999999999999
 30
0.0
 41
12.0
 42
12.0
 43
12.0
 50
270.0
  0
INSERT
  5
32D5
330
33A8
100
AcDbEntity
  8
SIZE
100
AcDbBlockReference
  2
_DOTBLANK
 10
340.4216807056652
 20
-0.0000000000000568
 30
0.0
 41
12.0
 42
12.0
 43
12.0
 50
90.0
  0
LINE
  5
32D6
330
33A8
100
AcDbEntity
  8
SIZE
100
AcDbLine
 10
-165.0
 20
32.5
 30
0.0
 11
-165.0
 21
108.3745606247332
 31
0.0
  0
LINE
  5
32D7
330
33A8
100
AcDbEntity
  8
SIZE
100
AcDbLine
 10
165.0
 20
32.5
 30
0.0
 11
165.0
 21
108.3745606247332
 31
0.0
  0
LINE
  5
32D8
330
33A8
100
AcDbEntity
  8
SIZE
100
AcDbLine
 10
-153.0
 20
88.37456062473327
 30
0.0
 11
153.0
 21
88.37456062473327
 31
0.0
  0
INSERT
  5
32D9
330
33A8
100
AcDbEntity
  8
SIZE
100
AcDbBlockReference
  2
_DOTBLANK
 10
-165.0
 20
88.37456062473327
 30
0.0
 41
12.0
 42
12.0
 43
12.0
 50
180.0
  0
INSERT
  5
32DA
330
33A8
100
AcDbEntity
  8
SIZE
100
AcDbBlockReference
  2
_DOTBLANK
 10
165.0
 20
88.37456062473327
 30
0.0
 41
12.0
 42
12.0
 43
12.0
  0
LINE
  5
32DB
330
33A8
100
AcDbEntity
  8
SIZE
100
AcDbLine
 10
-182.5
 20
20.0
 30
0.0
 11
-182.5
 21
206.205513907207
 31
0.0
  0
LINE
  5
32DC
330
33A8
100
AcDbEntity
  8
SIZE
100
AcDbLine
 10
182.5
 20
20.0
 30
0.0
 11
182.5
 21
206.205513907207
 31
0.0
  0
LINE
  5
32DD
330
33A8
100
AcDbEntity
  8
SIZE
100
AcDbLine
 10
-170.5
 20
186.205513907207
 30
0.0
 11
170.5
 21
186.205513907207
 31
0.0
  0
INSERT
  5
32DE
330
33A8
100
AcDbEntity
  8
SIZE
100
AcDbBlockReference
  2
_DOTBLANK
 10
-182.5
 20
186.205513907207
 30
0.0
 41
12.0
 42
12.0
 43
12.0
 50
180.0
  0
INSERT
  5
32DF
330
33A8
100
AcDbEntity
  8
SIZE
100
AcDbBlockReference
  2
_DOTBLANK
 10
182.5
 20
186.205513907207
 30
0.0
 41
12.0
 42
12.0
 43
12.0
  0
LINE
  5
32E0
330
33A8
100
AcDbEntity
  8
SIZE
100
AcDbLine
 10
-187.0
 20
-15.0
 30
0.0
 11
-292.212065527765
 21
-14.99999999999994
 31
0.0
  0
LINE
  5
32E1
330
33A8
100
AcDbEntity
  8
SIZE
100
AcDbLine
 10
-66.99999999999636
 20
-187.9999999999999
 30
0.0
 11
-292.212065527765
 21
-187.9999999999999
 31
0.0
  0
LINE
  5
32E2
330
33A8
100
AcDbEntity
  8
SIZE
100
AcDbLine
 10
-272.2120655277649
 20
-26.99999999999994
 30
0.0
 11
-272.2120655277649
 21
-175.9999999999999
 31
0.0
  0
INSERT
  5
32E3
330
33A8
100
AcDbEntity
  8
SIZE
100
AcDbBlockReference
  2
_DOTBLANK
 10
-272.2120655277649
 20
-14.99999999999994
 30
0.0
 41
12.0
 42
12.0
 43
12.0
 50
90.0
  0
INSERT
  5
32E4
330
33A8
100
AcDbEntity
  8
SIZE
100
AcDbBlockReference
  2
_DOTBLANK
 10
-272.2120655277649
 20
-187.9999999999999
 30
0.0
 41
12.0
 42
12.0
 43
12.0
 50
270.0
  0
LINE
  5
32E5
330
33A8
100
AcDbEntity
  8
SIZE
100
AcDbLine
 10
-167.0
 20
-170.4000000000001
 30
0.0
 11
-167.0
 21
-374.4744596477152
 31
0.0
  0
LINE
  5
32E6
330
33A8
100
AcDbEntity
  8
SIZE
100
AcDbLine
 10
167.0
 20
-170.4000000000001
 30
0.0
 11
167.0
 21
-374.4744596477152
 31
0.0
  0
LINE
  5
32E7
330
33A8
100
AcDbEntity
  8
SIZE
100
AcDbLine
 10
-155.0
 20
-354.4744596477152
 30
0.0
 11
155.0
 21
-354.4744596477152
 31
0.0
  0
INSERT
  5
32E8
330
33A8
100
AcDbEntity
  8
SIZE
100
AcDbBlockReference
  2
_DOTBLANK
 10
-167.0
 20
-354.4744596477152
 30
0.0
 41
12.0
 42
12.0
 43
12.0
 50
180.0
  0
INSERT
  5
32E9
330
33A8
100
AcDbEntity
  8
SIZE
100
AcDbBlockReference
  2
_DOTBLANK
 10
167.0
 20
-354.4744596477152
 30
0.0
 41
12.0
 42
12.0
 43
12.0
  0
TEXT
  5
32EA
330
33A8
100
AcDbEntity
  8
SIZE
100
AcDbText
 10
-75.42857142857133
 20
-344.4744596477152
 30
0.0
 40
64.0
  1
334
 41
0.9
100
AcDbText
  0
TEXT
  5
32EB
330
33A8
100
AcDbEntity
  8
SIZE
100
AcDbText
 10
-282.2120655277649
 20
-172.0714285714282
 30
0.0
 40
64.0
  1
173
 50
90.0
 41
0.9
100
AcDbText
  0
TEXT
  5
32EC
330
33A8
100
AcDbEntity
  8
SIZE
100
AcDbText
 10
-74.05714285714293
 20
98.37456062473322
 30
0.0
 40
64.0
  1
330
 41
0.9
100
AcDbText
  0
TEXT
  5
32ED
330
33A8
100
AcDbEntity
  8
SIZE
100
AcDbText
 10
-74.05714285714272
 20
196.205513907207
 30
0.0
 40
64.0
  1
365
 41
0.9
100
AcDbText
  0
TEXT
  5
32EE
330
33A8
100
AcDbEntity
  8
SIZE
100
AcDbText
 10
330.4216807056653
 20
-177.5571428571428
 30
0.0
 40
64.0
  1
207
 50
90.0
 41
0.9
100
AcDbText
  0
TEXT
  5
32EF
330
33A8
100
AcDbEntity
  8
NOTE
100
AcDbText
 10
314.8693999922543
 20
113.5270950580129
 30
0.0
 40
64.0
  1
4×φ10取付穴
 41
0.9
100
AcDbText
  0
INSERT
  5
32F0
330
33A8
100
AcDbEntity
  8
NOTE
100
AcDbBlockReference
  2
_OPEN30
 10
165.0
 20
0.0
 30
0.0
 41
11.99999999999998
 42
12.0
 43
12.0
 50
227.3909883883106
1001
ACAD
1000
DSTYLE
1002
{
1070
    41
1040
12.0
1070
    42
1040
20.0
1070
    43
1040
200.0
1070
    44
1040
20.0
1070
    73
1070
     0
1070
    74
1070
     0
1070
    77
1070
     1
1070
    78
1070
     8
1070
   140
1040
64.0
1070
   147
1040
50.0
1070
   172
1070
     1
1070
   174
1070
     1
1070
   275
1070
     0
1070
   284
1070
     0
1070
   285
1070
     0
1070
   286
1070
     0
1070
   341
1005
0
1070
   342
1005
0
1002
}
  0
POLYLINE
  5
32F1
330
33A8
100
AcDbEntity
  8
NOTE
100
AcDb2dPolyline
 66
     1
 10
0.0
 20
0.0
 30
0.0
1001
ACAD
1000
DSTYLE
1002
{
1070
    41
1040
12.0
1070
    42
1040
20.0
1070
    43
1040
200.0
1070
    44
1040
20.0
1070
    73
1070
     0
1070
    74
1070
     0
1070
    77
1070
     1
1070
    78
1070
     8
1070
   140
1040
64.0
1070
   147
1040
50.0
1070
   172
1070
     1
1070
   174
1070
     1
1070
   275
1070
     0
1070
   284
1070
     0
1070
   285
1070
     0
1070
   286
1070
     0
1070
   341
1005
0
1070
   342
1005
0
1002
}
  0
VERTEX
  5
32F2
330
32F1
100
AcDbEntity
  8
NOTE
100
AcDbVertex
100
AcDb2dVertex
 10
173.1239008361894
 20
8.831887408915461
 30
0.0
  0
VERTEX
  5
32F3
330
32F1
100
AcDbEntity
  8
NOTE
100
AcDbVertex
100
AcDb2dVertex
 10
252.8693999922541
 20
95.52709505801294
 30
0.0
  0
VERTEX
  5
32F4
330
32F1
100
AcDbEntity
  8
NOTE
100
AcDbVertex
100
AcDb2dVertex
 10
798.7093999922541
 20
95.52709505801294
 30
0.0
  0
SEQEND
  5
32F5
330
32F1
100
AcDbEntity
  8
NOTE
  0
ENDSEC
  0
SECTION
  2
OBJECTS
  0
DICTIONARY
  5
3340
330
0
100
AcDbDictionary
281
     1
  3
ACAD_2007HEADERVARS_RT
350
359E
  3
ACAD_COLOR
350
339E
  3
ACAD_GROUP
350
3341
  3
ACAD_LAYOUT
350
339D
  3
ACAD_MATERIAL
350
3344
  3
ACAD_MLEADERSTYLE
350
33A1
  3
ACAD_MLINESTYLE
350
339A
  3
ACAD_PLOTSETTINGS
350
339C
  3
ACAD_PLOTSTYLENAME
350
3342
  3
ACAD_SCALELIST
350
336E
  3
ACAD_TABLESTYLE
350
339F
  3
ACAD_VISUALSTYLE
350
335D
  3
ACDB_RECOMPOSE_DATA
350
359C
  3
AcDbVariableDictionary
350
3593
  3
AcmDictionary
350
3543
  3
AMG
350
3490
  3
DWGPROPS
350
359D
  3
MAPISURF_MODULE
350
3510
  0
DICTIONARY
  5
356B
330
3390
100
AcDbDictionary
280
     1
281
     1
  3
ADSK_XREC_LAYER_RECONCILED
360
356C
  0
DICTIONARY
  5
356D
330
33BF
100
AcDbDictionary
280
     1
281
     1
  3
ADSK_XREC_LAYER_RECONCILED
360
356E
  0
DICTIONARY
  5
356F
330
33C0
100
AcDbDictionary
280
     1
281
     1
  3
ADSK_XREC_LAYER_RECONCILED
360
3570
  0
DICTIONARY
  5
3571
330
33C1
100
AcDbDictionary
280
     1
281
     1
  3
ADSK_XREC_LAYER_RECONCILED
360
3572
  0
DICTIONARY
  5
3573
330
33C2
100
AcDbDictionary
280
     1
281
     1
  3
ADSK_XREC_LAYER_RECONCILED
360
3574
  0
DICTIONARY
  5
3575
330
33C3
100
AcDbDictionary
280
     1
281
     1
  3
ADSK_XREC_LAYER_RECONCILED
360
3576
  0
DICTIONARY
  5
3577
330
33C5
100
AcDbDictionary
280
     1
281
     1
  3
ADSK_XREC_LAYER_RECONCILED
360
3578
  0
DICTIONARY
  5
3579
330
33C6
100
AcDbDictionary
280
     1
281
     1
  3
ADSK_XREC_LAYER_RECONCILED
360
357A
  0
DICTIONARY
  5
357B
330
33C7
100
AcDbDictionary
280
     1
281
     1
  3
ADSK_XREC_LAYER_RECONCILED
360
357C
  0
DICTIONARY
  5
357D
330
33C8
100
AcDbDictionary
280
     1
281
     1
  3
ADSK_XREC_LAYER_RECONCILED
360
357E
  0
DICTIONARY
  5
357F
330
33C9
100
AcDbDictionary
280
     1
281
     1
  3
ADSK_XREC_LAYER_RECONCILED
360
3580
  0
DICTIONARY
  5
3581
330
33CA
100
AcDbDictionary
280
     1
281
     1
  3
ADSK_XREC_LAYER_RECONCILED
360
3582
  0
DICTIONARY
  5
3583
330
33A8
100
AcDbDictionary
280
     1
281
     1
  3
ACAD_INDEX
360
3584
  0
DICTIONARY
  5
359E
102
{ACAD_REACTORS
330
3340
102
}
330
3340
100
AcDbDictionary
281
     1
  3
DIMARCSYM
350
359F
  3
DIMLTEX1
350
35A1
  3
DIMLTEX2
350
35A2
  3
DIMLTYPE
350
35A0
  0
DICTIONARY
  5
339E
102
{ACAD_REACTORS
330
3340
102
}
330
3340
100
AcDbDictionary
281
     1
  0
DICTIONARY
  5
3341
102
{ACAD_REACTORS
330
3340
102
}
330
3340
100
AcDbDictionary
281
     1
  0
DICTIONARY
  5
339D
102
{ACAD_REACTORS
330
3340
102
}
330
3340
100
AcDbDictionary
281
     1
  3
Model
350
33AB
  3
レイアウト1
350
33A7
  0
DICTIONARY
  5
3344
102
{ACAD_REACTORS
330
3340
102
}
330
3340
100
AcDbDictionary
281
     1
  3
ByBlock
350
334D
  3
ByLayer
350
3345
  3
Global
350
3355
  0
DICTIONARY
  5
33A1
102
{ACAD_REACTORS
330
3340
102
}
330
3340
100
AcDbDictionary
281
     1
  3
Standard
350
33A2
  0
DICTIONARY
  5
339A
102
{ACAD_REACTORS
330
3340
102
}
330
3340
100
AcDbDictionary
281
     1
  3
Standard
350
339B
  0
DICTIONARY
  5
339C
102
{ACAD_REACTORS
330
3340
102
}
330
3340
100
AcDbDictionary
281
     1
  0
ACDBDICTIONARYWDFLT
  5
3342
102
{ACAD_REACTORS
330
3340
102
}
330
3340
100
AcDbDictionary
281
     1
  3
Normal
350
3343
100
AcDbDictionaryWithDefault
340
3343
  0
DICTIONARY
  5
336E
102
{ACAD_REACTORS
330
3340
102
}
330
3340
100
AcDbDictionary
281
     1
  3
A0
350
336F
  3
A1
350
3370
  3
A2
350
3371
  3
A3
350
3372
  3
A4
350
3373
  3
A5
350
3374
  3
A6
350
3375
  3
A7
350
3376
  3
A8
350
3377
  3
A9
350
3378
  3
B0
350
3379
  3
B1
350
337A
  3
B2
350
337B
  3
B3
350
337C
  3
B4
350
337D
  3
B5
350
337E
  3
B6
350
337F
  3
B7
350
3380
  3
B8
350
3381
  3
B9
350
3382
  3
C0
350
3383
  3
C1
350
3384
  3
C2
350
3385
  3
C3
350
3386
  3
C4
350
3387
  3
C5
350
3388
  3
C6
350
3389
  3
C7
350
338A
  3
C8
350
338B
  3
C9
350
338C
  3
D0
350
338D
  3
D1
350
338E
  3
D2
350
338F
  0
DICTIONARY
  5
339F
102
{ACAD_REACTORS
330
3340
102
}
330
3340
100
AcDbDictionary
281
     1
  3
Standard
350
33A0
  0
DICTIONARY
  5
335D
102
{ACAD_REACTORS
330
3340
102
}
330
3340
100
AcDbDictionary
281
     1
  3
2dWireframe
350
3363
  3
3D Hidden
350
3365
  3
3dWireframe
350
3364
  3
Basic
350
3362
  3
Brighten
350
3369
  3
ColorChange
350
336D
  3
Conceptual
350
3366
  3
Dim
350
3368
  3
Facepattern
350
336C
  3
Flat
350
335E
  3
FlatWithEdges
350
335F
  3
Gouraud
350
3360
  3
GouraudWithEdges
350
3361
  3
Linepattern
350
336B
  3
Realistic
350
3367
  3
Thicken
350
336A
  0
XRECORD
  5
359C
102
{ACAD_REACTORS
330
3340
102
}
330
3340
100
AcDbXrecord
280
     1
 90
        1
330
33A0
  0
DICTIONARY
  5
3593
102
{ACAD_REACTORS
330
3340
102
}
330
3340
100
AcDbDictionary
281
     1
  3
CANNOSCALE
350
3596
  3
CMLEADERSTYLE
350
3595
  3
CTABLESTYLE
350
3594
  3
DIMASSOC
350
3599
  3
INDEXCTL
350
3598
  3
SORTENTS
350
3597
  0
DICTIONARY
  5
3543
102
{ACAD_REACTORS
330
3340
102
}
330
3340
100
AcDbDictionary
281
     1
  3
AcmStdDictionary
350
3551
  0
DICTIONARY
  5
3490
102
{ACAD_REACTORS
330
3340
102
}
330
3340
100
AcDbDictionary
281
     1
  3
AcMgSettings
350
3491
  0
XRECORD
  5
359D
102
{ACAD_REACTORS
330
3340
102
}
330
3340
100
AcDbXrecord
280
     1
  1
DWGPROPS COOKIE
  2

  3

  4

  6

  7

  8
A090053
  9

300
AmdtFileType=84
301
=
302
=
303
=
304
=
305
=
306
=
307
=
308
=
309
=
 40
1.046169710648148
 41
2452321.396199653
 42
2456213.423734317
  1

 90
        1
  0
XRECORD
  5
356C
102
{ACAD_REACTORS
330
356B
102
}
330
356B
100
AcDbXrecord
280
     1
290
     1
  0
XRECORD
  5
356E
102
{ACAD_REACTORS
330
356D
102
}
330
356D
100
AcDbXrecord
280
     1
290
     1
  0
XRECORD
  5
3570
102
{ACAD_REACTORS
330
356F
102
}
330
356F
100
AcDbXrecord
280
     1
290
     1
  0
XRECORD
  5
3572
102
{ACAD_REACTORS
330
3571
102
}
330
3571
100
AcDbXrecord
280
     1
290
     1
  0
XRECORD
  5
3574
102
{ACAD_REACTORS
330
3573
102
}
330
3573
100
AcDbXrecord
280
     1
290
     1
  0
XRECORD
  5
3576
102
{ACAD_REACTORS
330
3575
102
}
330
3575
100
AcDbXrecord
280
     1
290
     1
  0
XRECORD
  5
3578
102
{ACAD_REACTORS
330
3577
102
}
330
3577
100
AcDbXrecord
280
     1
290
     1
  0
XRECORD
  5
357A
102
{ACAD_REACTORS
330
3579
102
}
330
3579
100
AcDbXrecord
280
     1
290
     1
  0
XRECORD
  5
357C
102
{ACAD_REACTORS
330
357B
102
}
330
357B
100
AcDbXrecord
280
     1
290
     1
  0
XRECORD
  5
357E
102
{ACAD_REACTORS
330
357D
102
}
330
357D
100
AcDbXrecord
280
     1
290
     1
  0
XRECORD
  5
3580
102
{ACAD_REACTORS
330
357F
102
}
330
357F
100
AcDbXrecord
280
     1
290
     1
  0
XRECORD
  5
3582
102
{ACAD_REACTORS
330
3581
102
}
330
3581
100
AcDbXrecord
280
     1
290
     1
  0
DICTIONARY
  5
3584
102
{ACAD_REACTORS
330
3583
102
}
330
3583
100
AcDbDictionary
281
     1
  3
*A1
350
3585
  0
XRECORD
  5
359F
102
{ACAD_REACTORS
330
359E
102
}
330
359E
100
AcDbXrecord
280
     1
 70
     1
  0
XRECORD
  5
35A1
102
{ACAD_REACTORS
330
359E
102
}
330
359E
100
AcDbXrecord
280
     1
340
3396
  0
XRECORD
  5
35A2
102
{ACAD_REACTORS
330
359E
102
}
330
359E
100
AcDbXrecord
280
     1
340
3396
  0
XRECORD
  5
35A0
102
{ACAD_REACTORS
330
359E
102
}
330
359E
100
AcDbXrecord
280
     1
340
3396
  0
LAYOUT
  5
33AB
102
{ACAD_XDICTIONARY
360
35A9
102
}
102
{ACAD_REACTORS
330
339D
102
}
330
339D
100
AcDbPlotSettings
  1

  2
自動 EPSON LP-9600S (W2450527 上)
  4

  6

 40
0.0
 41
0.0
 42
0.0
 43
0.0
 44
0.0
 45
0.0
 46
0.0
 47
0.0
 48
0.0
 49
0.0
140
0.0
141
0.0
142
1.0
143
1.0
 70
  1712
 72
     0
 73
     0
 74
     0
  7

 75
     0
147
1.0
148
0.0
149
0.0
100
AcDbLayout
  1
Model
 70
     1
 71
     0
 10
0.0
 20
0.0
 11
12.0
 21
9.0
 12
0.0
 22
0.0
 32
0.0
 14
0.0
 24
0.0
 34
0.0
 15
0.0
 25
0.0
 35
0.0
146
0.0
 13
0.0
 23
0.0
 33
0.0
 16
1.0
 26
0.0
 36
0.0
 17
0.0
 27
1.0
 37
0.0
 76
     0
330
33A8
331
33AC
  0
LAYOUT
  5
33A7
102
{ACAD_XDICTIONARY
360
35A7
102
}
102
{ACAD_REACTORS
330
339D
102
}
330
339D
100
AcDbPlotSettings
  1

  2
自動 EPSON LP-9600S (W2450527 上)
  4

  6

 40
0.0
 41
0.0
 42
0.0
 43
0.0
 44
0.0
 45
0.0
 46
0.0
 47
0.0
 48
0.0
 49
0.0
140
0.0
141
0.0
142
1.0
143
1.0
 70
   688
 72
     0
 73
     0
 74
     5
  7

 75
    16
147
1.0
148
0.0
149
0.0
100
AcDbLayout
  1
レイアウト1
 70
     1
 71
     1
 10
0.0
 20
0.0
 11
12.0
 21
9.0
 12
0.0
 22
0.0
 32
0.0
 14
1.000000000000000E+20
 24
1.000000000000000E+20
 34
1.000000000000000E+20
 15
-1.000000000000000E+20
 25
-1.000000000000000E+20
 35
-1.000000000000000E+20
146
0.0
 13
0.0
 23
0.0
 33
0.0
 16
1.0
 26
0.0
 36
0.0
 17
0.0
 27
1.0
 37
0.0
 76
     0
330
33A4
  0
MATERIAL
  5
334D
102
{ACAD_XDICTIONARY
360
334E
102
}
102
{ACAD_REACTORS
330
3344
102
}
330
3344
100
AcDbMaterial
  1
ByBlock
 72
     0
 43
0.0208333333333333
 43
0.0
 43
0.0
 43
0.0
 43
0.0
 43
0.0208333333333333
 43
0.0
 43
0.0
 43
0.0
 43
0.0
 43
1.0
 43
0.0
 43
0.0
 43
0.0
 43
0.0
 43
1.0
 77
     0
 47
0.0208333333333333
 47
0.0
 47
0.0
 47
0.0
 47
0.0
 47
0.0208333333333333
 47
0.0
 47
0.0
 47
0.0
 47
0.0
 47
1.0
 47
0.0
 47
0.0
 47
0.0
 47
0.0
 47
1.0
171
     0
 49
0.0208333333333333
 49
0.0
 49
0.0
 49
0.0
 49
0.0
 49
0.0208333333333333
 49
0.0
 49
0.0
 49
0.0
 49
0.0
 49
1.0
 49
0.0
 49
0.0
 49
0.0
 49
0.0
 49
1.0
175
     0
142
0.0208333333333333
142
0.0
142
0.0
142
0.0
142
0.0
142
0.0208333333333333
142
0.0
142
0.0
142
0.0
142
0.0
142
1.0
142
0.0
142
0.0
142
0.0
142
0.0
142
1.0
179
     0
144
0.0208333333333333
144
0.0
144
0.0
144
0.0
144
0.0
144
0.0208333333333333
144
0.0
144
0.0
144
0.0
144
0.0
144
1.0
144
0.0
144
0.0
144
0.0
144
0.0
144
1.0
147
0.0208333333333333
147
0.0
147
0.0
147
0.0
147
0.0
147
0.0208333333333333
147
0.0
147
0.0
147
0.0
147
0.0
147
1.0
147
0.0
147
0.0
147
0.0
147
0.0
147
1.0
  0
MATERIAL
  5
3345
102
{ACAD_XDICTIONARY
360
3346
102
}
102
{ACAD_REACTORS
330
3344
102
}
330
3344
100
AcDbMaterial
  1
ByLayer
 72
     0
 43
0.0208333333333333
 43
0.0
 43
0.0
 43
0.0
 43
0.0
 43
0.0208333333333333
 43
0.0
 43
0.0
 43
0.0
 43
0.0
 43
1.0
 43
0.0
 43
0.0
 43
0.0
 43
0.0
 43
1.0
 77
     0
 47
0.0208333333333333
 47
0.0
 47
0.0
 47
0.0
 47
0.0
 47
0.0208333333333333
 47
0.0
 47
0.0
 47
0.0
 47
0.0
 47
1.0
 47
0.0
 47
0.0
 47
0.0
 47
0.0
 47
1.0
171
     0
 49
0.0208333333333333
 49
0.0
 49
0.0
 49
0.0
 49
0.0
 49
0.0208333333333333
 49
0.0
 49
0.0
 49
0.0
 49
0.0
 49
1.0
 49
0.0
 49
0.0
 49
0.0
 49
0.0
 49
1.0
175
     0
142
0.0208333333333333
142
0.0
142
0.0
142
0.0
142
0.0
142
0.0208333333333333
142
0.0
142
0.0
142
0.0
142
0.0
142
1.0
142
0.0
142
0.0
142
0.0
142
0.0
142
1.0
179
     0
144
0.0208333333333333
144
0.0
144
0.0
144
0.0
144
0.0
144
0.0208333333333333
144
0.0
144
0.0
144
0.0
144
0.0
144
1.0
144
0.0
144
0.0
144
0.0
144
0.0
144
1.0
147
0.0208333333333333
147
0.0
147
0.0
147
0.0
147
0.0
147
0.0208333333333333
147
0.0
147
0.0
147
0.0
147
0.0
147
1.0
147
0.0
147
0.0
147
0.0
147
0.0
147
1.0
  0
MATERIAL
  5
3355
102
{ACAD_XDICTIONARY
360
3356
102
}
102
{ACAD_REACTORS
330
3344
102
}
330
3344
100
AcDbMaterial
  1
Global
 72
     0
 43
0.0208333333333333
 43
0.0
 43
0.0
 43
0.0
 43
0.0
 43
0.0208333333333333
 43
0.0
 43
0.0
 43
0.0
 43
0.0
 43
1.0
 43
0.0
 43
0.0
 43
0.0
 43
0.0
 43
1.0
 77
     0
 47
0.0208333333333333
 47
0.0
 47
0.0
 47
0.0
 47
0.0
 47
0.0208333333333333
 47
0.0
 47
0.0
 47
0.0
 47
0.0
 47
1.0
 47
0.0
 47
0.0
 47
0.0
 47
0.0
 47
1.0
171
     0
 49
0.0208333333333333
 49
0.0
 49
0.0
 49
0.0
 49
0.0
 49
0.0208333333333333
 49
0.0
 49
0.0
 49
0.0
 49
0.0
 49
1.0
 49
0.0
 49
0.0
 49
0.0
 49
0.0
 49
1.0
175
     0
142
0.0208333333333333
142
0.0
142
0.0
142
0.0
142
0.0
142
0.0208333333333333
142
0.0
142
0.0
142
0.0
142
0.0
142
1.0
142
0.0
142
0.0
142
0.0
142
0.0
142
1.0
179
     0
144
0.0208333333333333
144
0.0
144
0.0
144
0.0
144
0.0
144
0.0208333333333333
144
0.0
144
0.0
144
0.0
144
0.0
144
1.0
144
0.0
144
0.0
144
0.0
144
0.0
144
1.0
147
0.0208333333333333
147
0.0
147
0.0
147
0.0
147
0.0
147
0.0208333333333333
147
0.0
147
0.0
147
0.0
147
0.0
147
1.0
147
0.0
147
0.0
147
0.0
147
0.0
147
1.0
  0
MLEADERSTYLE
  5
33A2
102
{ACAD_REACTORS
330
33A1
102
}
330
33A1
100
AcDbMLeaderStyle
170
     2
171
     1
172
     0
 90
        2
 40
0.0
 41
0.0
173
     1
 91
-1056964608
340
3396
 92
       -2
290
     1
 42
0.09
291
     1
 43
0.36
  3
Standard
 44
0.18
300

342
3391
174
     1
178
     6
175
     1
176
     0
 93
-1056964608
 45
0.18
292
     0
297
     0
 46
0.18
 94
-1056964608
 47
1.0
 49
1.0
140
1.0
293
     1
141
0.0
294
     1
177
     0
142
1.0
295
     0
296
     0
143
0.125
1001
ACAD_MLEADERVER
1070
     2
  0
MLINESTYLE
  5
339B
102
{ACAD_REACTORS
330
339A
102
}
330
339A
100
AcDbMlineStyle
  2
STANDARD
 70
     0
  3

 62
   256
 51
90.0
 52
90.0
 71
     2
 49
0.5
 62
   256
  6
BYLAYER
 49
-0.5
 62
   256
  6
BYLAYER
  0
ACDBPLACEHOLDER
  5
3343
102
{ACAD_REACTORS
330
3342
102
}
330
3342
  0
SCALE
  5
336F
102
{ACAD_REACTORS
330
336E
102
}
330
336E
100
AcDbScale
 70
     0
300
1:1
140
1.0
141
1.0
290
     1
  0
SCALE
  5
3370
102
{ACAD_REACTORS
330
336E
102
}
330
336E
100
AcDbScale
 70
     0
300
1:2
140
1.0
141
2.0
290
     0
  0
SCALE
  5
3371
102
{ACAD_REACTORS
330
336E
102
}
330
336E
100
AcDbScale
 70
     0
300
1:4
140
1.0
141
4.0
290
     0
  0
SCALE
  5
3372
102
{ACAD_REACTORS
330
336E
102
}
330
336E
100
AcDbScale
 70
     0
300
1:5
140
1.0
141
5.0
290
     0
  0
SCALE
  5
3373
102
{ACAD_REACTORS
330
336E
102
}
330
336E
100
AcDbScale
 70
     0
300
1:8
140
1.0
141
8.0
290
     0
  0
SCALE
  5
3374
102
{ACAD_REACTORS
330
336E
102
}
330
336E
100
AcDbScale
 70
     0
300
1:10
140
1.0
141
10.0
290
     0
  0
SCALE
  5
3375
102
{ACAD_REACTORS
330
336E
102
}
330
336E
100
AcDbScale
 70
     0
300
1:16
140
1.0
141
16.0
290
     0
  0
SCALE
  5
3376
102
{ACAD_REACTORS
330
336E
102
}
330
336E
100
AcDbScale
 70
     0
300
1:20
140
1.0
141
20.0
290
     0
  0
SCALE
  5
3377
102
{ACAD_REACTORS
330
336E
102
}
330
336E
100
AcDbScale
 70
     0
300
1:30
140
1.0
141
30.0
290
     0
  0
SCALE
  5
3378
102
{ACAD_REACTORS
330
336E
102
}
330
336E
100
AcDbScale
 70
     0
300
1:40
140
1.0
141
40.0
290
     0
  0
SCALE
  5
3379
102
{ACAD_REACTORS
330
336E
102
}
330
336E
100
AcDbScale
 70
     0
300
1:50
140
1.0
141
50.0
290
     0
  0
SCALE
  5
337A
102
{ACAD_REACTORS
330
336E
102
}
330
336E
100
AcDbScale
 70
     0
300
1:100
140
1.0
141
100.0
290
     0
  0
SCALE
  5
337B
102
{ACAD_REACTORS
330
336E
102
}
330
336E
100
AcDbScale
 70
     0
300
2:1
140
2.0
141
1.0
290
     0
  0
SCALE
  5
337C
102
{ACAD_REACTORS
330
336E
102
}
330
336E
100
AcDbScale
 70
     0
300
4:1
140
4.0
141
1.0
290
     0
  0
SCALE
  5
337D
102
{ACAD_REACTORS
330
336E
102
}
330
336E
100
AcDbScale
 70
     0
300
8:1
140
8.0
141
1.0
290
     0
  0
SCALE
  5
337E
102
{ACAD_REACTORS
330
336E
102
}
330
336E
100
AcDbScale
 70
     0
300
10:1
140
10.0
141
1.0
290
     0
  0
SCALE
  5
337F
102
{ACAD_REACTORS
330
336E
102
}
330
336E
100
AcDbScale
 70
     0
300
100:1
140
100.0
141
1.0
290
     0
  0
SCALE
  5
3380
102
{ACAD_REACTORS
330
336E
102
}
330
336E
100
AcDbScale
 70
     0
300
1/128" = 1'-0"
140
0.0078125
141
12.0
290
     0
  0
SCALE
  5
3381
102
{ACAD_REACTORS
330
336E
102
}
330
336E
100
AcDbScale
 70
     0
300
1/64" = 1'-0"
140
0.015625
141
12.0
290
     0
  0
SCALE
  5
3382
102
{ACAD_REACTORS
330
336E
102
}
330
336E
100
AcDbScale
 70
     0
300
1/32" = 1'-0"
140
0.03125
141
12.0
290
     0
  0
SCALE
  5
3383
102
{ACAD_REACTORS
330
336E
102
}
330
336E
100
AcDbScale
 70
     0
300
1/16" = 1'-0"
140
0.0625
141
12.0
290
     0
  0
SCALE
  5
3384
102
{ACAD_REACTORS
330
336E
102
}
330
336E
100
AcDbScale
 70
     0
300
3/32" = 1'-0"
140
0.09375
141
12.0
290
     0
  0
SCALE
  5
3385
102
{ACAD_REACTORS
330
336E
102
}
330
336E
100
AcDbScale
 70
     0
300
1/8" = 1'-0"
140
0.125
141
12.0
290
     0
  0
SCALE
  5
3386
102
{ACAD_REACTORS
330
336E
102
}
330
336E
100
AcDbScale
 70
     0
300
3/16" = 1'-0"
140
0.1875
141
12.0
290
     0
  0
SCALE
  5
3387
102
{ACAD_REACTORS
330
336E
102
}
330
336E
100
AcDbScale
 70
     0
300
1/4" = 1'-0"
140
0.25
141
12.0
290
     0
  0
SCALE
  5
3388
102
{ACAD_REACTORS
330
336E
102
}
330
336E
100
AcDbScale
 70
     0
300
3/8" = 1'-0"
140
0.375
141
12.0
290
     0
  0
SCALE
  5
3389
102
{ACAD_REACTORS
330
336E
102
}
330
336E
100
AcDbScale
 70
     0
300
1/2" = 1'-0"
140
0.5
141
12.0
290
     0
  0
SCALE
  5
338A
102
{ACAD_REACTORS
330
336E
102
}
330
336E
100
AcDbScale
 70
     0
300
3/4" = 1'-0"
140
0.75
141
12.0
290
     0
  0
SCALE
  5
338B
102
{ACAD_REACTORS
330
336E
102
}
330
336E
100
AcDbScale
 70
     0
300
1" = 1'-0"
140
1.0
141
12.0
290
     0
  0
SCALE
  5
338C
102
{ACAD_REACTORS
330
336E
102
}
330
336E
100
AcDbScale
 70
     0
300
1-1/2" = 1'-0"
140
1.5
141
12.0
290
     0
  0
SCALE
  5
338D
102
{ACAD_REACTORS
330
336E
102
}
330
336E
100
AcDbScale
 70
     0
300
3" = 1'-0"
140
3.0
141
12.0
290
     0
  0
SCALE
  5
338E
102
{ACAD_REACTORS
330
336E
102
}
330
336E
100
AcDbScale
 70
     0
300
6" = 1'-0"
140
6.0
141
12.0
290
     0
  0
SCALE
  5
338F
102
{ACAD_REACTORS
330
336E
102
}
330
336E
100
AcDbScale
 70
     0
300
1'-0" = 1'-0"
140
12.0
141
12.0
290
     0
  0
TABLESTYLE
  5
33A0
102
{ACAD_XDICTIONARY
360
359A
102
}
102
{ACAD_REACTORS
330
339F
102
}
330
339F
100
AcDbTableStyle
  3
Standard
 70
     0
 71
     0
 40
0.06
 41
0.06
280
     0
281
     0
  7
STANDARD
140
0.18
170
     2
 62
     0
 63
     7
283
     0
274
    -2
284
     1
 64
     0
275
    -2
285
     1
 65
     0
276
    -2
286
     1
 66
     0
277
    -2
287
     1
 67
     0
278
    -2
288
     1
 68
     0
279
    -2
289
     1
 69
     0
  7
STANDARD
140
0.25
170
     5
 62
     0
 63
     7
283
     0
274
    -2
284
     1
 64
     0
275
    -2
285
     1
 65
     0
276
    -2
286
     1
 66
     0
277
    -2
287
     1
 67
     0
278
    -2
288
     1
 68
     0
279
    -2
289
     1
 69
     0
  7
STANDARD
140
0.18
170
     5
 62
     0
 63
     7
283
     0
274
    -2
284
     1
 64
     0
275
    -2
285
     1
 65
     0
276
    -2
286
     1
 66
     0
277
    -2
287
     1
 67
     0
278
    -2
288
     1
 68
     0
279
    -2
289
     1
 69
     0
  0
VISUALSTYLE
  5
3363
102
{ACAD_REACTORS
330
335D
102
}
330
335D
100
AcDbVisualStyle
  2
2dWireframe
 70
     4
 71
     0
 72
     2
 73
     0
 90
        0
 40
-0.6
 41
-30.0
 62
     5
 63
     7
 74
     1
 91
        4
 64
     7
 65
   257
 75
     1
175
     1
 42
1.0
 92
        0
 66
   257
 43
1.0
 76
     1
 77
     6
 78
     2
 67
     7
 79
     5
170
     0
171
     0
290
     0
174
     0
 93
        1
 44
0.0
173
     0
291
     0
 45
0.0
1001
ACAD
1000
AcDbSavedByObjectVersion
1070
     0
  0
VISUALSTYLE
  5
3365
102
{ACAD_REACTORS
330
335D
102
}
330
335D
100
AcDbVisualStyle
  2
3D Hidden
 70
     6
 71
     1
 72
     2
 73
     2
 90
        0
 40
-0.6
 41
-30.0
 62
     5
 63
     7
 74
     2
 91
        2
 64
     7
 65
   257
 75
     2
175
     1
 42
40.0
 92
        0
 66
   257
 43
1.0
 76
     1
 77
     6
 78
     2
 67
     7
 79
     3
170
     0
171
     0
290
     0
174
     0
 93
        1
 44
0.0
173
     0
291
     0
 45
0.0
1001
ACAD
1000
AcDbSavedByObjectVersion
1070
     0
  0
VISUALSTYLE
  5
3364
102
{ACAD_REACTORS
330
335D
102
}
330
335D
100
AcDbVisualStyle
  2
3dWireframe
 70
     5
 71
     0
 72
     2
 73
     0
 90
        0
 40
-0.6
 41
-30.0
 62
     5
 63
     7
 74
     1
 91
        4
 64
     7
 65
   257
 75
     1
175
     1
 42
1.0
 92
        0
 66
   257
 43
1.0
 76
     1
 77
     6
 78
     2
 67
     7
 79
     5
170
     0
171
     0
290
     0
174
     0
 93
        1
 44
0.0
173
     0
291
     0
 45
0.0
1001
ACAD
1000
AcDbSavedByObjectVersion
1070
     0
  0
VISUALSTYLE
  5
3362
102
{ACAD_REACTORS
330
335D
102
}
330
335D
100
AcDbVisualStyle
  2
Basic
 70
     7
 71
     1
 72
     0
 73
     1
 90
        0
 40
-0.6
 41
-30.0
 62
     5
 63
     7
 74
     0
 91
        4
 64
     7
 65
   257
 75
     1
175
     1
 42
1.0
 92
        8
 66
     7
 43
1.0
 76
     1
 77
     6
 78
     2
 67
     7
 79
     5
170
     0
171
     0
290
     0
174
     0
 93
        1
 44
0.0
173
     0
291
     1
 45
0.0
1001
ACAD
1000
AcDbSavedByObjectVersion
1070
     0
  0
VISUALSTYLE
  5
3369
102
{ACAD_REACTORS
330
335D
102
}
330
335D
100
AcDbVisualStyle
  2
Brighten
 70
    12
 71
     2
 72
     2
 73
     0
 90
        0
 40
-0.6
 41
-30.0
 62
     5
 63
     7
 74
     1
 91
        4
 64
     7
 65
   257
 75
     1
175
     1
 42
1.0
 92
        8
 66
     7
 43
1.0
 76
     1
 77
     6
 78
     2
 67
     7
 79
     5
170
     0
171
     0
290
     0
174
     0
 93
        1
 44
50.0
173
     0
291
     1
 45
0.0
1001
ACAD
1000
AcDbSavedByObjectVersion
1070
     0
  0
VISUALSTYLE
  5
336D
102
{ACAD_REACTORS
330
335D
102
}
330
335D
100
AcDbVisualStyle
  2
ColorChange
 70
    16
 71
     2
 72
     2
 73
     3
 90
        0
 40
-0.6
 41
-30.0
 62
     5
 63
     8
 74
     1
 91
        4
 64
     7
 65
   257
 75
     1
175
     1
 42
1.0
 92
        8
 66
     8
 43
1.0
 76
     1
 77
     6
 78
     2
 67
     7
 79
     5
170
     0
171
     0
290
     0
174
     0
 93
        1
 44
0.0
173
     0
291
     1
 45
0.0
1001
ACAD
1000
AcDbSavedByObjectVersion
1070
     0
  0
VISUALSTYLE
  5
3366
102
{ACAD_REACTORS
330
335D
102
}
330
335D
100
AcDbVisualStyle
  2
Conceptual
 70
     9
 71
     3
 72
     2
 73
     0
 90
        0
 40
-0.6
 41
-30.0
 62
     5
 63
     7
 74
     2
 91
        2
 64
     7
 65
   257
 75
     1
175
     1
 42
40.0
 92
        8
 66
     7
 43
1.0
 76
     1
 77
     6
 78
     2
 67
     7
 79
     3
170
     0
171
     0
290
     0
174
     0
 93
        1
 44
0.0
173
     0
291
     0
 45
0.0
1001
ACAD
1000
AcDbSavedByObjectVersion
1070
     0
  0
VISUALSTYLE
  5
3368
102
{ACAD_REACTORS
330
335D
102
}
330
335D
100
AcDbVisualStyle
  2
Dim
 70
    11
 71
     2
 72
     2
 73
     0
 90
        0
 40
-0.6
 41
-30.0
 62
     5
 63
     7
 74
     1
 91
        4
 64
     7
 65
   257
 75
     1
175
     1
 42
1.0
 92
        8
 66
     7
 43
1.0
 76
     1
 77
     6
 78
     2
 67
     7
 79
     5
170
     0
171
     0
290
     0
174
     0
 93
        1
 44
-50.0
173
     0
291
     1
 45
0.0
1001
ACAD
1000
AcDbSavedByObjectVersion
1070
     0
  0
VISUALSTYLE
  5
336C
102
{ACAD_REACTORS
330
335D
102
}
330
335D
100
AcDbVisualStyle
  2
Facepattern
 70
    15
 71
     2
 72
     2
 73
     0
 90
        0
 40
-0.6
 41
-30.0
 62
     5
 63
     7
 74
     1
 91
        4
 64
     7
 65
   257
 75
     1
175
     1
 42
1.0
 92
        8
 66
     7
 43
1.0
 76
     1
 77
     6
 78
     2
 67
     7
 79
     5
170
     0
171
     0
290
     0
174
     0
 93
        1
 44
0.0
173
     0
291
     1
 45
0.0
1001
ACAD
1000
AcDbSavedByObjectVersion
1070
     0
  0
VISUALSTYLE
  5
335E
102
{ACAD_REACTORS
330
335D
102
}
330
335D
100
AcDbVisualStyle
  2
Flat
 70
     0
 71
     2
 72
     1
 73
     1
 90
        2
 40
-0.6
 41
30.0
 62
     5
 63
     7
 74
     0
 91
        4
 64
     7
 65
   257
 75
     1
175
     1
 42
1.0
 92
        8
 66
     7
 43
1.0
 76
     1
 77
     6
 78
     2
 67
     7
 79
     5
170
     0
171
     0
290
     0
174
     0
 93
       13
 44
0.0
173
     0
291
     1
 45
0.0
1001
ACAD
1000
AcDbSavedByObjectVersion
1070
     0
  0
VISUALSTYLE
  5
335F
102
{ACAD_REACTORS
330
335D
102
}
330
335D
100
AcDbVisualStyle
  2
FlatWithEdges
 70
     1
 71
     2
 72
     1
 73
     1
 90
        2
 40
-0.6
 41
30.0
 62
     5
 63
     7
 74
     1
 91
        4
 64
     7
 65
   257
 75
     1
175
     1
 42
1.0
 92
        0
 66
   257
 43
1.0
 76
     1
 77
     6
 78
     2
 67
     7
 79
     5
170
     0
171
     0
290
     0
174
     0
 93
       13
 44
0.0
173
     0
291
     1
 45
0.0
1001
ACAD
1000
AcDbSavedByObjectVersion
1070
     0
  0
VISUALSTYLE
  5
3360
102
{ACAD_REACTORS
330
335D
102
}
330
335D
100
AcDbVisualStyle
  2
Gouraud
 70
     2
 71
     2
 72
     2
 73
     1
 90
        2
 40
-0.6
 41
30.0
 62
     5
 63
     7
 74
     0
 91
        4
 64
     7
 65
   257
 75
     1
175
     1
 42
1.0
 92
        0
 66
     7
 43
1.0
 76
     1
 77
     6
 78
     2
 67
     7
 79
     5
170
     0
171
     0
290
     0
174
     0
 93
       13
 44
0.0
173
     0
291
     1
 45
0.0
1001
ACAD
1000
AcDbSavedByObjectVersion
1070
     0
  0
VISUALSTYLE
  5
3361
102
{ACAD_REACTORS
330
335D
102
}
330
335D
100
AcDbVisualStyle
  2
GouraudWithEdges
 70
     3
 71
     2
 72
     2
 73
     1
 90
        2
 40
-0.6
 41
30.0
 62
     5
 63
     7
 74
     1
 91
        4
 64
     7
 65
   257
 75
     1
175
     1
 42
1.0
 92
        0
 66
   257
 43
1.0
 76
     1
 77
     6
 78
     2
 67
     7
 79
     5
170
     0
171
     0
290
     0
174
     0
 93
       13
 44
0.0
173
     0
291
     1
 45
0.0
1001
ACAD
1000
AcDbSavedByObjectVersion
1070
     0
  0
VISUALSTYLE
  5
336B
102
{ACAD_REACTORS
330
335D
102
}
330
335D
100
AcDbVisualStyle
  2
Linepattern
 70
    14
 71
     2
 72
     2
 73
     0
 90
        0
 40
-0.6
 41
-30.0
 62
     5
 63
     7
 74
     1
 91
        4
 64
     7
 65
   257
 75
     7
175
     7
 42
1.0
 92
        8
 66
     7
 43
1.0
 76
     1
 77
     6
 78
     2
 67
     7
 79
     5
170
     0
171
     0
290
     0
174
     0
 93
        1
 44
0.0
173
     0
291
     1
 45
0.0
1001
ACAD
1000
AcDbSavedByObjectVersion
1070
     0
  0
VISUALSTYLE
  5
3367
102
{ACAD_REACTORS
330
335D
102
}
330
335D
100
AcDbVisualStyle
  2
Realistic
 70
     8
 71
     2
 72
     2
 73
     0
 90
        0
 40
-0.6
 41
-30.0
 62
     5
 63
     7
 74
     1
 91
        0
 64
     7
 65
   257
 75
     1
175
     1
 42
1.0
 92
        8
 66
     8
 43
1.0
 76
     1
 77
     6
 78
     2
 67
     7
 79
     5
170
     0
171
     0
290
     0
174
     0
 93
       13
 44
0.0
173
     0
291
     0
 45
0.0
1001
ACAD
1000
AcDbSavedByObjectVersion
1070
     0
  0
VISUALSTYLE
  5
336A
102
{ACAD_REACTORS
330
335D
102
}
330
335D
100
AcDbVisualStyle
  2
Thicken
 70
    13
 71
     2
 72
     2
 73
     0
 90
        0
 40
-0.6
 41
-30.0
 62
     5
 63
     7
 74
     1
 91
        4
 64
     7
 65
   257
 75
     1
175
     1
 42
1.0
 92
       12
 66
     7
 43
1.0
 76
     1
 77
     6
 78
     2
 67
     7
 79
     5
170
     0
171
     0
290
     0
174
     0
 93
        1
 44
0.0
173
     0
291
     1
 45
0.0
1001
ACAD
1000
AcDbSavedByObjectVersion
1070
     0
  0
DICTIONARYVAR
  5
3596
102
{ACAD_REACTORS
330
3593
102
}
330
3593
100
DictionaryVariables
280
     0
  1
1:1
  0
DICTIONARYVAR
  5
3595
102
{ACAD_REACTORS
330
3593
102
}
330
3593
100
DictionaryVariables
280
     0
  1
STANDARD
  0
DICTIONARYVAR
  5
3594
102
{ACAD_REACTORS
330
3593
102
}
330
3593
100
DictionaryVariables
280
     0
  1
STANDARD
  0
DICTIONARYVAR
  5
3599
102
{ACAD_REACTORS
330
3593
102
}
330
3593
100
DictionaryVariables
280
     0
  1
1
  0
DICTIONARYVAR
  5
3598
102
{ACAD_REACTORS
330
3593
102
}
330
3593
100
DictionaryVariables
280
     0
  1
1
  0
DICTIONARYVAR
  5
3597
102
{ACAD_REACTORS
330
3593
102
}
330
3593
100
DictionaryVariables
280
     0
  1
127
  0
DICTIONARY
  5
3551
102
{ACAD_REACTORS
330
3543
102
}
330
3543
100
AcDbDictionary
281
     1
  0
DICTIONARY
  5
3491
102
{ACAD_REACTORS
330
3490
102
}
330
3490
100
AcDbDictionary
281
     1
  3
DWGSETTINGS
350
3492
  3
TRANSSETTINGS
350
3493
  0
LAYER_INDEX
  5
3585
102
{ACAD_REACTORS
330
3584
102
}
330
3584
100
AcDbIndex
 40
2456213.423734317
100
AcDbLayerIndex
  8
0
360
3586
 90
        0
  8
OUTLINE
360
3587
 90
       21
  8
SIZE
360
3588
 90
       30
  8
BASIS
360
3589
 90
        1
  8
DETAIL
360
358A
 90
       25
  8
ARRANGE
360
358B
 90
        2
  8
DEFPOINTS
360
358C
 90
        0
  8
ETC
360
358D
 90
        3
  8
FIX
360
358E
 90
        0
  8
NOTE
360
358F
 90
        7
  8
SERVICESPACE
360
3590
 90
        0
  8
SYMBOLLINE
360
3591
 90
        0
  8
DETAIL___1
360
3592
 90
        2
  0
DICTIONARY
  5
35A9
330
33AB
100
AcDbDictionary
280
     1
281
     1
  3
ACAD_XREC_ROUNDTRIP
360
35AA
  0
DICTIONARY
  5
35A7
330
33A7
100
AcDbDictionary
280
     1
281
     1
  3
ACAD_XREC_ROUNDTRIP
360
35A8
  0
DICTIONARY
  5
334E
330
334D
100
AcDbDictionary
280
     1
281
     1
  3
ACAD_XREC_ROUNDTRIP
360
35A4
  3
BUMPTILE
360
3350
  3
DIFFUSETILE
360
334F
  3
OPACITYTILE
360
3353
  3
REFLECTIONTILE
360
3352
  3
REFRACTIONTILE
360
3354
  3
SPECULARTILE
360
3351
  0
DICTIONARY
  5
3346
330
3345
100
AcDbDictionary
280
     1
281
     1
  3
ACAD_XREC_ROUNDTRIP
360
35A3
  3
BUMPTILE
360
3348
  3
DIFFUSETILE
360
3347
  3
OPACITYTILE
360
334B
  3
REFLECTIONTILE
360
334A
  3
REFRACTIONTILE
360
334C
  3
SPECULARTILE
360
3349
  0
DICTIONARY
  5
3356
330
3355
100
AcDbDictionary
280
     1
281
     1
  3
ACAD_XREC_ROUNDTRIP
360
35A5
  3
BUMPTILE
360
3358
  3
DIFFUSETILE
360
3357
  3
OPACITYTILE
360
335B
  3
REFLECTIONTILE
360
335A
  3
REFRACTIONTILE
360
335C
  3
SPECULARTILE
360
3359
  0
DICTIONARY
  5
359A
330
33A0
100
AcDbDictionary
280
     1
281
     1
  3
ACAD_ROUNDTRIP_2008_TABLESTYLE_CELLSTYLEMAP
360
359B
  3
ACAD_XREC_ROUNDTRIP
360
35A6
  0
IDBUFFER
  5
3586
330
0
100
AcDbIdBuffer
  0
IDBUFFER
  5
3587
330
0
100
AcDbIdBuffer
330
32CC
330
32CD
330
32CE
330
32CF
330
32D0
330
953
330
954
330
955
330
956
330
957
330
958
330
32B6
330
32B7
330
32B8
330
32B9
330
32BA
330
32BB
330
32C8
330
32C9
330
32CA
330
32CB
  0
IDBUFFER
  5
3588
330
0
100
AcDbIdBuffer
330
32E1
330
32E2
330
32E3
330
32E4
330
32E5
330
32E6
330
32E7
330
32E8
330
32E9
330
32EA
330
32EB
330
32EC
330
32ED
330
32EE
330
32D1
330
32D2
330
32D3
330
32D4
330
32D5
330
32D6
330
32D7
330
32D8
330
32D9
330
32DA
330
32DB
330
32DC
330
32DD
330
32DE
330
32DF
330
32E0
  0
IDBUFFER
  5
3589
330
0
100
AcDbIdBuffer
330
32A3
  0
IDBUFFER
  5
358A
330
0
100
AcDbIdBuffer
330
32BF
330
32C0
330
32C1
330
32C2
330
32C3
330
32C4
330
32C5
330
32C6
330
32C7
330
32A5
330
32A6
330
32A7
330
32A8
330
32A9
330
32AA
330
32AB
330
32AC
330
32AD
330
32AE
330
32AF
330
32B0
330
32B1
330
32BC
330
32BD
330
32BE
  0
IDBUFFER
  5
358B
330
0
100
AcDbIdBuffer
330
32A2
330
32A4
  0
IDBUFFER
  5
358C
330
0
100
AcDbIdBuffer
  0
IDBUFFER
  5
358D
330
0
100
AcDbIdBuffer
330
329F
330
32A0
330
32A1
  0
IDBUFFER
  5
358E
330
0
100
AcDbIdBuffer
  0
IDBUFFER
  5
358F
330
0
100
AcDbIdBuffer
330
32B2
330
32B3
330
32B4
330
32B5
330
32EF
330
32F0
330
32F1
  0
IDBUFFER
  5
3590
330
0
100
AcDbIdBuffer
  0
IDBUFFER
  5
3591
330
0
100
AcDbIdBuffer
  0
IDBUFFER
  5
3592
330
0
100
AcDbIdBuffer
330
329D
330
329E
  0
XRECORD
  5
35AA
102
{ACAD_REACTORS
330
35A9
102
}
330
35A9
100
AcDbXrecord
280
     1
102
SHADEPLOT
 70
     0
102
SHADEPLOTRESLEVEL
 70
     2
102
SHADEPLOTCUSTOMDPI
 70
   300
  0
XRECORD
  5
35A8
102
{ACAD_REACTORS
330
35A7
102
}
330
35A7
100
AcDbXrecord
280
     1
102
SHADEPLOT
 70
     0
102
SHADEPLOTRESLEVEL
 70
     2
102
SHADEPLOTCUSTOMDPI
 70
   300
  0
XRECORD
  5
35A4
102
{ACAD_REACTORS
330
334E
102
}
330
334E
100
AcDbXrecord
280
     1
102
MATERIAL
148
0.0
149
0.0
149
0.0
 93
        0
 94
      127
282
     0
 72
     0
 77
     0
171
     0
175
     0
179
     0
273
     0
  0
XRECORD
  5
3350
102
{ACAD_REACTORS
330
334E
102
}
330
334E
100
AcDbXrecord
280
     1
270
     1
271
     1
  0
XRECORD
  5
334F
102
{ACAD_REACTORS
330
334E
102
}
330
334E
100
AcDbXrecord
280
     1
270
     1
271
     1
  0
XRECORD
  5
3353
102
{ACAD_REACTORS
330
334E
102
}
330
334E
100
AcDbXrecord
280
     1
270
     1
271
     1
  0
XRECORD
  5
3352
102
{ACAD_REACTORS
330
334E
102
}
330
334E
100
AcDbXrecord
280
     1
270
     1
271
     1
  0
XRECORD
  5
3354
102
{ACAD_REACTORS
330
334E
102
}
330
334E
100
AcDbXrecord
280
     1
270
     1
271
     1
  0
XRECORD
  5
3351
102
{ACAD_REACTORS
330
334E
102
}
330
334E
100
AcDbXrecord
280
     1
270
     1
271
     1
  0
XRECORD
  5
35A3
102
{ACAD_REACTORS
330
3346
102
}
330
3346
100
AcDbXrecord
280
     1
102
MATERIAL
148
0.0
149
0.0
149
0.0
 93
        0
 94
      127
282
     0
 72
     0
 77
     0
171
     0
175
     0
179
     0
273
     0
  0
XRECORD
  5
3348
102
{ACAD_REACTORS
330
3346
102
}
330
3346
100
AcDbXrecord
280
     1
270
     1
271
     1
  0
XRECORD
  5
3347
102
{ACAD_REACTORS
330
3346
102
}
330
3346
100
AcDbXrecord
280
     1
270
     1
271
     1
  0
XRECORD
  5
334B
102
{ACAD_REACTORS
330
3346
102
}
330
3346
100
AcDbXrecord
280
     1
270
     1
271
     1
  0
XRECORD
  5
334A
102
{ACAD_REACTORS
330
3346
102
}
330
3346
100
AcDbXrecord
280
     1
270
     1
271
     1
  0
XRECORD
  5
334C
102
{ACAD_REACTORS
330
3346
102
}
330
3346
100
AcDbXrecord
280
     1
270
     1
271
     1
  0
XRECORD
  5
3349
102
{ACAD_REACTORS
330
3346
102
}
330
3346
100
AcDbXrecord
280
     1
270
     1
271
     1
  0
XRECORD
  5
35A5
102
{ACAD_REACTORS
330
3356
102
}
330
3356
100
AcDbXrecord
280
     1
102
MATERIAL
148
0.0
149
0.0
149
0.0
 93
        0
 94
      127
282
     0
 72
     0
 77
     0
171
     0
175
     0
179
     0
273
     0
  0
XRECORD
  5
3358
102
{ACAD_REACTORS
330
3356
102
}
330
3356
100
AcDbXrecord
280
     1
270
     1
271
     1
  0
XRECORD
  5
3357
102
{ACAD_REACTORS
330
3356
102
}
330
3356
100
AcDbXrecord
280
     1
270
     1
271
     1
  0
XRECORD
  5
335B
102
{ACAD_REACTORS
330
3356
102
}
330
3356
100
AcDbXrecord
280
     1
270
     1
271
     1
  0
XRECORD
  5
335A
102
{ACAD_REACTORS
330
3356
102
}
330
3356
100
AcDbXrecord
280
     1
270
     1
271
     1
  0
XRECORD
  5
335C
102
{ACAD_REACTORS
330
3356
102
}
330
3356
100
AcDbXrecord
280
     1
270
     1
271
     1
  0
XRECORD
  5
3359
102
{ACAD_REACTORS
330
3356
102
}
330
3356
100
AcDbXrecord
280
     1
270
     1
271
     1
  0
CELLSTYLEMAP
  5
359B
102
{ACAD_REACTORS
330
359A
102
}
330
359A
100
AcDbCellStyleMap
 90
        3
300
CELLSTYLE
  1
TABLEFORMAT_BEGIN
 90
        5
170
     1
 91
        0
 92
    32768
 62
   257
 93
        1
300
CONTENTFORMAT
  1
CONTENTFORMAT_BEGIN
 90
        0
 91
        0
 92
      512
 93
        0
300

 40
0.0
140
1.0
 94
        5
 62
     0
340
3391
144
0.25
309
CONTENTFORMAT_END
171
     0
 94
        0
309
TABLEFORMAT_END
  1
CELLSTYLE_BEGIN
 90
        1
 91
        1
300
_TITLE
309
CELLSTYLE_END
300
CELLSTYLE
  1
TABLEFORMAT_BEGIN
 90
        5
170
     1
 91
        0
 92
        0
 62
   257
 93
        1
300
CONTENTFORMAT
  1
CONTENTFORMAT_BEGIN
 90
        0
 91
        0
 92
      512
 93
        0
300

 40
0.0
140
1.0
 94
        5
 62
     0
340
3391
144
0.18
309
CONTENTFORMAT_END
171
     0
 94
        0
309
TABLEFORMAT_END
  1
CELLSTYLE_BEGIN
 90
        2
 91
        1
300
_HEADER
309
CELLSTYLE_END
300
CELLSTYLE
  1
TABLEFORMAT_BEGIN
 90
        5
170
     1
 91
        0
 92
        0
 62
   257
 93
        1
300
CONTENTFORMAT
  1
CONTENTFORMAT_BEGIN
 90
        0
 91
        0
 92
      512
 93
        0
300

 40
0.0
140
1.0
 94
        2
 62
     0
340
3391
144
0.18
309
CONTENTFORMAT_END
171
     0
 94
        0
309
TABLEFORMAT_END
  1
CELLSTYLE_BEGIN
 90
        3
 91
        2
300
_DATA
309
CELLSTYLE_END
  0
XRECORD
  5
35A6
102
{ACAD_REACTORS
330
359A
102
}
330
359A
100
AcDbXrecord
280
     1
102
ACAD_ROUNDTRIP_PRE2007_TABLESTYLE
 90
      512
 91
        0
  1

 92
      512
 93
        0
  2

 94
      512
 95
        0
  3

  0
ENDSEC
  0
EOF
