  0
SECTION
  2
HEADER
  9
$ACADVER
  1
AC1015
  9
$ACADMAINTVER
 70
    20
  9
$DWGCODEPAGE
  3
ANSI_932
  9
$INSBASE
 10
0.0
 20
0.0
 30
0.0
  9
$EXTMIN
 10
-358.2972213200047
 20
-406.0517033765471
 30
0.0
  9
$EXTMAX
 10
969.1830846270896
 20
589.0931943581075
 30
50.0
  9
$LIMMIN
 10
-2970.0
 20
-2100.0
  9
$LIMMAX
 10
2970.0
 20
2100.0
  9
$ORTHOMODE
 70
     1
  9
$REGENMODE
 70
     0
  9
$FILLMODE
 70
     1
  9
$QTEXTMODE
 70
     0
  9
$MIRRTEXT
 70
     0
  9
$LTSCALE
 40
20.0
  9
$ATTMODE
 70
     1
  9
$TEXTSIZE
 40
64.0
  9
$TRACEWID
 40
0.05
  9
$TEXTSTYLE
  7
STANDARD
  9
$CLAYER
  8
0
  9
$CELTYPE
  6
ByLayer
  9
$CECOLOR
 62
   256
  9
$CELTSCALE
 40
1.0
  9
$DISPSILH
 70
     0
  9
$DIMSCALE
 40
1.0
  9
$DIMASZ
 40
0.12
  9
$DIMEXO
 40
0.05
  9
$DIMDLI
 40
0.5
  9
$DIMRND
 40
0.0
  9
$DIMDLE
 40
0.0
  9
$DIMEXE
 40
0.1
  9
$DIMTP
 40
0.1
  9
$DIMTM
 40
0.1
  9
$DIMTXT
 40
0.12
  9
$DIMCEN
 40
0.0
  9
$DIMTSZ
 40
0.0
  9
$DIMTOL
 70
     0
  9
$DIMLIM
 70
     0
  9
$DIMTIH
 70
     1
  9
$DIMTOH
 70
     1
  9
$DIMSE1
 70
     0
  9
$DIMSE2
 70
     0
  9
$DIMTAD
 70
     0
  9
$DIMZIN
 70
     7
  9
$DIMBLK
  1

  9
$DIMASO
 70
     1
  9
$DIMSHO
 70
     0
  9
$DIMPOST
  1

  9
$DIMAPOST
  1
mm
  9
$DIMALT
 70
     0
  9
$DIMALTD
 70
     2
  9
$DIMALTF
 40
25.4
  9
$DIMLFAC
 40
1.0
  9
$DIMTOFL
 70
     0
  9
$DIMTVP
 40
0.0
  9
$DIMTIX
 70
     0
  9
$DIMSOXD
 70
     0
  9
$DIMSAH
 70
     0
  9
$DIMBLK1
  1

  9
$DIMBLK2
  1

  9
$DIMSTYLE
  2
AM_ANSI
  9
$DIMCLRD
 70
   256
  9
$DIMCLRE
 70
   256
  9
$DIMCLRT
 70
     2
  9
$DIMTFAC
 40
0.71
  9
$DIMGAP
 40
0.06
  9
$DIMJUST
 70
     0
  9
$DIMSD1
 70
     0
  9
$DIMSD2
 70
     0
  9
$DIMTOLJ
 70
     1
  9
$DIMTZIN
 70
     7
  9
$DIMALTZ
 70
     0
  9
$DIMALTTZ
 70
     0
  9
$DIMUPT
 70
     0
  9
$DIMDEC
 70
     4
  9
$DIMTDEC
 70
     4
  9
$DIMALTU
 70
     2
  9
$DIMALTTD
 70
     4
  9
$DIMTXSTY
  7
STANDARD
  9
$DIMAUNIT
 70
     0
  9
$DIMADEC
 70
     0
  9
$DIMALTRND
 40
0.0
  9
$DIMAZIN
 70
     2
  9
$DIMDSEP
 70
    46
  9
$DIMATFIT
 70
     3
  9
$DIMFRAC
 70
     0
  9
$DIMLDRBLK
  1

  9
$DIMLUNIT
 70
     2
  9
$DIMLWD
 70
    -1
  9
$DIMLWE
 70
    -1
  9
$DIMTMOVE
 70
     0
  9
$LUNITS
 70
     2
  9
$LUPREC
 70
     4
  9
$SKETCHINC
 40
0.1
  9
$FILLETRAD
 40
4.0
  9
$AUNITS
 70
     1
  9
$AUPREC
 70
     3
  9
$MENU
  1
ACAD
  9
$ELEVATION
 40
0.0
  9
$PELEVATION
 40
0.0
  9
$THICKNESS
 40
50.0
  9
$LIMCHECK
 70
     0
  9
$CHAMFERA
 40
0.0
  9
$CHAMFERB
 40
0.0
  9
$CHAMFERC
 40
0.0
  9
$CHAMFERD
 40
0.0
  9
$SKPOLY
 70
     0
  9
$TDCREATE
 40
2452321.396199653
  9
$TDUCREATE
 40
2452321.021199653
  9
$TDUPDATE
 40
2456213.439154665
  9
$TDUUPDATE
 40
2456213.064154665
  9
$TDINDWG
 40
1.0429757870
  9
$TDUSRTIMER
 40
1.0429698611
  9
$USRTIMER
 70
     1
  9
$ANGBASE
 50
0.0
  9
$ANGDIR
 70
     0
  9
$PDMODE
 70
     3
  9
$PDSIZE
 40
-2.0
  9
$PLINEWID
 40
0.0
  9
$SPLFRAME
 70
     0
  9
$SPLINETYPE
 70
     6
  9
$SPLINESEGS
 70
     8
  9
$HANDSEED
  5
33A4
  9
$SURFTAB1
 70
     6
  9
$SURFTAB2
 70
     6
  9
$SURFTYPE
 70
     6
  9
$SURFU
 70
     6
  9
$SURFV
 70
     6
  9
$UCSBASE
  2

  9
$UCSNAME
  2

  9
$UCSORG
 10
0.0
 20
0.0
 30
0.0
  9
$UCSXDIR
 10
1.0
 20
0.0
 30
0.0
  9
$UCSYDIR
 10
0.0
 20
1.0
 30
0.0
  9
$UCSORTHOREF
  2

  9
$UCSORTHOVIEW
 70
     0
  9
$UCSORGTOP
 10
0.0
 20
0.0
 30
0.0
  9
$UCSORGBOTTOM
 10
0.0
 20
0.0
 30
0.0
  9
$UCSORGLEFT
 10
0.0
 20
0.0
 30
0.0
  9
$UCSORGRIGHT
 10
0.0
 20
0.0
 30
0.0
  9
$UCSORGFRONT
 10
0.0
 20
0.0
 30
0.0
  9
$UCSORGBACK
 10
0.0
 20
0.0
 30
0.0
  9
$PUCSBASE
  2

  9
$PUCSNAME
  2

  9
$PUCSORG
 10
0.0
 20
0.0
 30
0.0
  9
$PUCSXDIR
 10
1.0
 20
0.0
 30
0.0
  9
$PUCSYDIR
 10
0.0
 20
1.0
 30
0.0
  9
$PUCSORTHOREF
  2

  9
$PUCSORTHOVIEW
 70
     0
  9
$PUCSORGTOP
 10
0.0
 20
0.0
 30
0.0
  9
$PUCSORGBOTTOM
 10
0.0
 20
0.0
 30
0.0
  9
$PUCSORGLEFT
 10
0.0
 20
0.0
 30
0.0
  9
$PUCSORGRIGHT
 10
0.0
 20
0.0
 30
0.0
  9
$PUCSORGFRONT
 10
0.0
 20
0.0
 30
0.0
  9
$PUCSORGBACK
 10
0.0
 20
0.0
 30
0.0
  9
$USERI1
 70
     0
  9
$USERI2
 70
     0
  9
$USERI3
 70
     0
  9
$USERI4
 70
     0
  9
$USERI5
 70
     0
  9
$USERR1
 40
20.0
  9
$USERR2
 40
0.0
  9
$USERR3
 40
0.0
  9
$USERR4
 40
0.0
  9
$USERR5
 40
0.0
  9
$WORLDVIEW
 70
     1
  9
$SHADEDGE
 70
     3
  9
$SHADEDIF
 70
    70
  9
$TILEMODE
 70
     1
  9
$MAXACTVP
 70
    64
  9
$PINSBASE
 10
0.0
 20
0.0
 30
0.0
  9
$PLIMCHECK
 70
     0
  9
$PEXTMIN
 10
1.000000000000000E+20
 20
1.000000000000000E+20
 30
1.000000000000000E+20
  9
$PEXTMAX
 10
-1.000000000000000E+20
 20
-1.000000000000000E+20
 30
-1.000000000000000E+20
  9
$PLIMMIN
 10
0.0
 20
0.0
  9
$PLIMMAX
 10
12.0
 20
9.0
  9
$UNITMODE
 70
     0
  9
$VISRETAIN
 70
     1
  9
$PLINEGEN
 70
     0
  9
$PSLTSCALE
 70
     1
  9
$TREEDEPTH
 70
  3020
  9
$CMLSTYLE
  2
Standard
  9
$CMLJUST
 70
     0
  9
$CMLSCALE
 40
1.0
  9
$PROXYGRAPHICS
 70
     1
  9
$MEASUREMENT
 70
     0
  9
$CELWEIGHT
370
    -1
  9
$ENDCAPS
280
     0
  9
$JOINSTYLE
280
     0
  9
$LWDISPLAY
290
     0
  9
$INSUNITS
 70
     0
  9
$HYPERLINKBASE
  1

  9
$STYLESHEET
  1

  9
$XEDIT
290
     1
  9
$CEPSNTYPE
380
     0
  9
$PSTYLEMODE
290
     1
  9
$FINGERPRINTGUID
  2
{0FEBEE03-E2C3-4E0B-9EEF-47B7564D32D5}
  9
$VERSIONGUID
  2
{AD1021FE-B60F-4BF2-A3FA-87AA19740EAC}
  9
$EXTNAMES
290
     1
  9
$PSVPSCALE
 40
0.0
  9
$OLESTARTUP
290
     0
  0
ENDSEC
  0
SECTION
  2
CLASSES
  0
CLASS
  1
ACDBDICTIONARYWDFLT
  2
AcDbDictionaryWithDefault
  3
ObjectDBX Classes
 90
        0
280
     0
281
     0
  0
CLASS
  1
MATERIAL
  2
AcDbMaterial
  3
ObjectDBX Classes
 90
     1153
280
     0
281
     0
  0
CLASS
  1
VISUALSTYLE
  2
AcDbVisualStyle
  3
ObjectDBX Classes
 90
     4095
280
     0
281
     0
  0
CLASS
  1
SCALE
  2
AcDbScale
  3
ObjectDBX Classes
 90
     1153
280
     0
281
     0
  0
CLASS
  1
TABLESTYLE
  2
AcDbTableStyle
  3
ObjectDBX Classes
 90
     4095
280
     0
281
     0
  0
CLASS
  1
MLEADERSTYLE
  2
AcDbMLeaderStyle
  3
ACDB_MLEADERSTYLE_CLASS
 90
     4095
280
     0
281
     0
  0
CLASS
  1
AMGSETTINGSOBJ
  2
AmgSettingsObj
  3
"AcadM|Product Description: AutoCAD Mechanical|Company: Autodesk, Inc."
 90
     1024
280
     0
281
     0
  0
CLASS
  1
ACME_DOCUMENT
  2
AcMeDbDoc
  3
AcMeServices
 90
     1024
280
     0
281
     0
  0
CLASS
  1
ACMESCOPE
  2
AcMeScope
  3
AcMeServices
 90
     1024
280
     0
281
     0
  0
CLASS
  1
ACMECOMMANDHISTORY
  2
AcMeCommandHistory
  3
AcMeServices
 90
     1024
280
     0
281
     0
  0
CLASS
  1
ACIMSYSVARMAN
  2
AcImSysVarManager
  3
AcMeServices
 90
     1024
280
     0
281
     0
  0
CLASS
  1
ACIMREALSYSVAR
  2
AcImRealSysVar
  3
AcMeServices
 90
     1024
280
     0
281
     0
  0
CLASS
  1
ACIMINTSYSVAR
  2
AcImIntSysVar
  3
AcMeServices
 90
     1024
280
     0
281
     0
  0
CLASS
  1
ACMEDRAWINGMAN
  2
AcMeDrawingMan
  3
AcMeServices
 90
     1024
280
     0
281
     0
  0
CLASS
  1
ACMEVIEW
  2
AcMeView
  3
AcMeServices
 90
     1024
280
     0
281
     0
  0
CLASS
  1
ACDBENTITYCACHE
  2
AcMeEntityCache
  3
AcMeServices
 90
     1024
280
     0
281
     0
  0
CLASS
  1
GSMANAGER
  2
AcMeGSManager
  3
AcMeServices
 90
     1024
280
     0
281
     0
  0
CLASS
  1
AMDTINTERNALREACTOR
  2
AmdtInternalReactor
  3
AcMeServices
 90
     1024
280
     0
281
     0
  0
CLASS
  1
ACMESTATEMGR
  2
AcMeStateMgr
  3
AcMeServices
 90
     1024
280
     0
281
     0
  0
CLASS
  1
ACGREFMASTER
  2
AcGrefMaster
  3
AcAttribServices
 90
     1024
280
     0
281
     0
  0
CLASS
  1
AM_DRAWING_MGR
  2
AcDmDwgMgr
  3
AcMechDwgViewMgmt
 90
     1024
280
     0
281
     0
  0
CLASS
  1
AM_DWG_DOCUMENT
  2
AcDmDwgDocument
  3
AcMechDwgViewMgmt
 90
     1024
280
     0
281
     0
  0
CLASS
  1
AM_DWG_SHEET
  2
AcDmSheet
  3
AcMechDwgViewMgmt
 90
     1024
280
     0
281
     0
  0
CLASS
  1
AM_VIEWDIMPARMAP
  2
AcDmViewDimParMap
  3
AcMechDwgViewMgmt
 90
     1024
280
     0
281
     0
  0
CLASS
  1
AM_DWGMGR_NAME
  2
AcDmDwgMgrName
  3
AcMechDwgViewMgmt
 90
     1024
280
     0
281
     0
  0
CLASS
  1
ACME_DATABASE
  2
AcMeDbDatabase
  3
AcMeServices
 90
     1024
280
     0
281
     0
  0
CLASS
  1
ACRFINSADJUSTERMGR
  2
AcRfInsAdjusterMgr
  3
AcMeServices
 90
     1024
280
     0
281
     0
  0
CLASS
  1
ACGREFACADMASTER
  2
AcGrefacadMaster
  3
AcGrefServices
 90
     1024
280
     0
281
     0
  0
CLASS
  1
AMDTMENUSTATEMGR
  2
AmdtMenuStateMgr
  3
McadcomServices
 90
     1024
280
     0
281
     0
  0
CLASS
  1
AMDTMCOMMENUSTATE
  2
AmdtMcomMenuState
  3
McadcomServices
 90
     1024
280
     0
281
     0
  0
CLASS
  1
AMIMASTER
  2
AmiMaster
  3
AmiServices
 90
     1024
280
     0
281
     0
  0
CLASS
  1
ASAPP
  2
AcAsAppObject
  3
AutoSurfServices
 90
     1024
280
     0
281
     0
  0
CLASS
  1
IM_STATIC_MAN
  2
AcImStaticVarManager
  3
AcMeServices
 90
     1024
280
     0
281
     0
  0
CLASS
  1
ACIMSTRSYSVAR
  2
AcImStrSysVar
  3
AcMeServices
 90
     1024
280
     0
281
     0
  0
CLASS
  1
ACIMDBLSTATICVAR
  2
AcImDblStaticVar
  3
AcMeServices
 90
     1024
280
     0
281
     0
  0
CLASS
  1
ACIMSTRSTATICVAR
  2
AcImStrStaticVar
  3
AcMeServices
 90
     1024
280
     0
281
     0
  0
CLASS
  1
ACIMINTSTATICVAR
  2
AcImIntStaticVar
  3
AcMeServices
 90
     1024
280
     0
281
     0
  0
CLASS
  1
ACASGREFMASTER
  2
AcAsGrefMaster
  3
AutoSurfResolverServices
 90
     1024
280
     0
281
     0
  0
CLASS
  1
ACADGREFMODULE
  2
AcAdGrefModule
  3
AdGrefServices
 90
     1024
280
     0
281
     0
  0
CLASS
  1
AMDTMAPISURFMOUDULE
  2
AmdtMApiSurfModule
  3
MApiSurfServices
 90
     1024
280
     0
281
     0
  0
CLASS
  1
MAPIAMMOUDLE
  2
MApiAmModule
  3
MApiAmServices
 90
     1024
280
     0
281
     0
  0
CLASS
  1
AMDTADMENUSTATE
  2
AmdtAdMenuState
  3
DesignerServices
 90
     1024
280
     0
281
     0
  0
CLASS
  1
ADAPPL
  2
AcAdAppl
  3
DesignerServices
 90
     1024
280
     0
281
     0
  0
CLASS
  1
DEPMGR
  2
AcAdDepMgr
  3
DesignerServices
 90
     1024
280
     0
281
     0
  0
CLASS
  1
PARAMMGR
  2
AcAdParamMgr
  3
DesignerServices
 90
     1024
280
     0
281
     0
  0
CLASS
  1
PARAMSCOPE
  2
AcAdParamScope
  3
DesignerServices
 90
     1024
280
     0
281
     0
  0
CLASS
  1
NAMEDAPPL
  2
AcAdNamedAppl
  3
DesignerServices
 90
     1024
280
     0
281
     0
  0
CLASS
  1
AMDTDMMENUSTATE
  2
AmdtDmMenuState
  3
AcMechDwgViewMgmt
 90
     1024
280
     0
281
     0
  0
CLASS
  1
MAPIADMODULE
  2
MApiAdModule
  3
MApiAdServices
 90
     1024
280
     0
281
     0
  0
CLASS
  1
AMDTAMMENUSTATE
  2
AmdtAmMenuState
  3
DesignerAssemblies
 90
     1024
280
     0
281
     0
  0
CLASS
  1
ACAMPROJECT
  2
AcAmProject
  3
DesignerAssemblies
 90
     1024
280
     0
281
     0
  0
CLASS
  1
ACAMGRCOMPDEF
  2
AcAmGrCompDef
  3
DesignerAssemblies
 90
     1024
280
     0
281
     0
  0
CLASS
  1
ACCMCONTEXT
  2
AcCmContext
  3
DesignerAssemblies
 90
     1024
280
     0
281
     0
  0
CLASS
  1
ACAMCOMPDEF
  2
AcAmCompDef
  3
DesignerAssemblies
 90
     1024
280
     0
281
     0
  0
CLASS
  1
ACAMCOMPDEFMGR
  2
AcAmCompDefMgr
  3
DesignerAssemblies
 90
     1024
280
     0
281
     0
  0
CLASS
  1
AMCONTEXTMGR
  2
AcAmContextMgr
  3
DesignerAssemblies
 90
     1024
280
     0
281
     0
  0
CLASS
  1
ACAMCONTEXTMODELER
  2
AcAmContextModeler
  3
DesignerAssemblies
 90
     1024
280
     0
281
     0
  0
CLASS
  1
ACMDATADICTIONARY
  2
AcmDataDictionary
  3
"AcmSymBB|Product Description: AutoCAD Mechanical|Company: Autodesk, Inc."
 90
     1024
280
     0
281
     0
  0
CLASS
  1
ACMDATAENTRYBLOCK
  2
AcmDataEntryBlock
  3
AcmSymBB|Product Description: AutoCAD Mechanical|Company: Autodesk, Inc.
 90
     1024
280
     0
281
     0
  0
CLASS
  1
ACRFATTGENMGR
  2
AcRfAttGeneralMgr
  3
AcAttribServices
 90
     1024
280
     0
281
     0
  0
CLASS
  1
ACRFOBJATTMGR
  2
AcRfObjAttGroupMgr
  3
AcAttribServices
 90
     1024
280
     0
281
     0
  0
CLASS
  1
ACRFMCADAPIATTHOLDER
  2
AcRfMCADAPIAttHolder
  3
AcAttribServices
 90
     1024
280
     0
281
     0
  0
CLASS
  1
AMDTSYSATTR
  2
AmdtSystemAttribute
  3
AcAttribServices
 90
     1024
280
     0
281
     0
  0
CLASS
  1
CATALOGSTATE
  2
AcAmCatalogState
  3
DesignerAssemblies
 90
     1024
280
     0
281
     0
  0
CLASS
  1
ACAMGRCOMPDEFSET
  2
AcAmGrCompDefSet
  3
DesignerAssemblies
 90
     1024
280
     0
281
     0
  0
CLASS
  1
AMDTBROWSERDBTAB
  2
AmdtBrowserDbTab
  3
McadcomServices
 90
     1024
280
     0
281
     0
  0
CLASS
  1
CBROWSERAPPOBJECT
  2
CBrowserAppObject
  3
McadcomServices
 90
     1024
280
     0
281
     0
  0
CLASS
  1
DM_PLACEHOLDER
  2
AcDmSelsetPlaceholder
  3
AcMechDwgViewMgmt
 90
     1024
280
     0
281
     0
  0
CLASS
  1
ACMSTANDARDANSI
  2
AcmStandardANSI
  3
"Amdt_StdImp|Product Description: AutoCAD Mechanical|Company: Autodesk, Inc."
 90
     1024
280
     0
281
     0
  0
CLASS
  1
ACMSURFSTANDARDANSI
  2
AcmSurfTextStdANSI
  3
"Amdt_StdImp|Product Description: AutoCAD Mechanical|Company: Autodesk, Inc."
 90
     1024
280
     0
281
     0
  0
CLASS
  1
ACMFCFSTANDARDANSI
  2
AcmFCFStdANSI
  3
"Amdt_StdImp|Product Description: AutoCAD Mechanical|Company: Autodesk, Inc."
 90
     1024
280
     0
281
     0
  0
CLASS
  1
ACMWELDSTANDARDANSI
  2
AcmWeldingStdANSI
  3
"Amdt_StdImp|Product Description: AutoCAD Mechanical|Company: Autodesk, Inc."
 90
     1024
280
     0
281
     0
  0
CLASS
  1
ACMIDSTANDARDANSI
  2
AcmIdStdANSI
  3
"Amdt_StdImp|Product Description: AutoCAD Mechanical|Company: Autodesk, Inc."
 90
     1024
280
     0
281
     0
  0
CLASS
  1
ACMDATUMSTANDARDANSI
  2
AcmDatumStdANSI
  3
"Amdt_StdImp|Product Description: AutoCAD Mechanical|Company: Autodesk, Inc."
 90
     1024
280
     0
281
     0
  0
CLASS
  1
ACMBOMSTANDARDANSI
  2
AcmBOMStdANSI
  3
"Amdt_StdImp|Product Description: AutoCAD Mechanical|Company: Autodesk, Inc."
 90
     1024
280
     0
281
     0
  0
CLASS
  1
ACMDETAILSTANDARDANSI
  2
AmdtDetailSymStdANSI
  3
"Amdt_StdImp|Product Description: AutoCAD Mechanical|Company: Autodesk, Inc."
 90
     1024
280
     0
281
     0
  0
CLASS
  1
ACMSECTIONSTANDARDANSI
  2
AmdtSectionSymStdANSI
  3
"Amdt_StdImp|Product Description: AutoCAD Mechanical|Company: Autodesk, Inc."
 90
     1024
280
     0
281
     0
  0
CLASS
  1
ACMCENTERLINESTANDARDANSI
  2
AmdtCenterLineStdANSI
  3
"Amdt_StdImp|Product Description: AutoCAD Mechanical|Company: Autodesk, Inc."
 90
     1024
280
     0
281
     0
  0
CLASS
  1
ACMTHREADLINESTANDARDANSI
  2
AmdtThreadLineStdANSI
  3
"Amdt_StdImp|Product Description: AutoCAD Mechanical|Company: Autodesk, Inc."
 90
     1024
280
     0
281
     0
  0
CLASS
  1
ACMNOTESTANDARDANSI
  2
AmdtNoteStdANSI
  3
"Amdt_StdImp|Product Description: AutoCAD Mechanical|Company: Autodesk, Inc."
 90
     1024
280
     0
281
     0
  0
CLASS
  1
ACMTAPERSTANDARDANSI
  2
AcmTaperStdANSI
  3
"Amdt_StdImp|Product Description: AutoCAD Mechanical|Company: Autodesk, Inc."
 90
     1024
280
     0
281
     0
  0
CLASS
  1
ACMANOOTATIONVIEWSTANDARDANSI
  2
AmdtAnViewStdANSI
  3
"Amdt_StdImp|Product Description: AutoCAD Mechanical|Company: Autodesk, Inc."
 90
     1024
280
     0
281
     0
  0
CLASS
  1
ACAMGLAYSTD
  2
AcAmgLayStd
  3
"AmgLay|Product Description: AutoCAD Mechanical|Company: Autodesk, Inc."
 90
     1024
280
     0
281
     0
  0
CLASS
  1
ACAMGDIMSTD
  2
AcAmgDimStd
  3
"AmgDim|Product Description: AutoCAD Mechanical|Company: Autodesk, Inc."
 90
     1024
280
     0
281
     0
  0
CLASS
  1
ACAMGHOLECHARTSTDANSI
  2
AcAmgHoleChartStdANSI
  3
AmgDim|Product Description: AutoCAD Mechanical|Company: Autodesk, Inc.
 90
     1024
280
     0
281
     0
  0
CLASS
  1
AMGOBJPROPCFG
  2
AmgObjPropCfg
  3
"AmgLay|Product Description: AutoCAD Mechanical|Company: Autodesk, Inc."
 90
     1025
280
     0
281
     0
  0
CLASS
  1
ACAMGTITLESTD
  2
AcAmgTitleStd
  3
"AmgTitle|Product Description: AutoCAD Mechanical|Company: Autodesk, Inc."
 90
     4095
280
     0
281
     0
  0
CLASS
  1
AMDTNOTETEMPLATEDB
  2
AmdtNoteTemplateDB
  3
AcmSymBB|Product Description: AutoCAD Mechanical|Company: Autodesk, Inc.
 90
     1024
280
     0
281
     0
  0
CLASS
  1
LAYER_INDEX
  2
AcDbLayerIndex
  3
ObjectDBX Classes
 90
        0
280
     0
281
     0
  0
CLASS
  1
IDBUFFER
  2
AcDbIdBuffer
  3
ObjectDBX Classes
 90
        0
280
     0
281
     0
  0
CLASS
  1
DICTIONARYVAR
  2
AcDbDictionaryVar
  3
ObjectDBX Classes
 90
        0
280
     0
281
     0
  0
CLASS
  1
CELLSTYLEMAP
  2
AcDbCellStyleMap
  3
ObjectDBX Classes
 90
     1152
280
     0
281
     0
  0
CLASS
  1
ACDBPLACEHOLDER
  2
AcDbPlaceHolder
  3
ObjectDBX Classes
 90
        0
280
     0
281
     0
  0
CLASS
  1
LAYOUT
  2
AcDbLayout
  3
ObjectDBX Classes
 90
        0
280
     0
281
     0
  0
ENDSEC
  0
SECTION
  2
TABLES
  0
TABLE
  2
VPORT
  5
3135
330
0
100
AcDbSymbolTable
 70
     1
  0
VPORT
  5
31A5
330
3135
100
AcDbSymbolTableRecord
100
AcDbViewportTableRecord
  2
*ACTIVE
 70
     0
 10
0.0
 20
0.0
 11
1.0
 21
1.0
 12
0.0
 22
0.0
 13
0.0
 23
0.0
 14
1.0
 24
1.0
 15
0.0
 25
0.0
 16
0.0
 26
0.0
 36
1.0
 17
308.1665180951415
 27
91.48407970960668
 37
0.0
 40
1002.161758746885
 41
1.712555066079295
 42
50.0
 43
0.0
 44
0.0
 50
0.0
 51
0.0
 71
     0
 72
   100
 73
     1
 74
     0
 75
     0
 76
     0
 77
     0
 78
     0
281
     0
 65
     0
110
0.0
120
0.0
130
0.0
111
1.0
121
0.0
131
0.0
112
0.0
122
1.0
132
0.0
 79
     0
146
0.0
  0
ENDTAB
  0
TABLE
  2
LTYPE
  5
3132
330
0
100
AcDbSymbolTable
 70
    19
  0
LTYPE
  5
318F
330
3132
100
AcDbSymbolTableRecord
100
AcDbLinetypeTableRecord
  2
ByBlock
 70
     0
  3

 72
    65
 73
     0
 40
0.0
  0
LTYPE
  5
3190
330
3132
100
AcDbSymbolTableRecord
100
AcDbLinetypeTableRecord
  2
ByLayer
 70
     0
  3

 72
    65
 73
     0
 40
0.0
  0
LTYPE
  5
3191
330
3132
100
AcDbSymbolTableRecord
100
AcDbLinetypeTableRecord
  2
CONTINUOUS
 70
     0
  3
実線
 72
    65
 73
     0
 40
0.0
  0
LTYPE
  5
31A6
330
3132
100
AcDbSymbolTableRecord
100
AcDbLinetypeTableRecord
  2
DASHDOT
 70
     0
  3
____ _ ____ _ ____ _ ____ _ ____ _ ____ _ ____
 72
    65
 73
     4
 40
5.5
 49
4.0
 74
     0
 49
-0.6
 74
     0
 49
0.3
 74
     0
 49
-0.6
 74
     0
  0
LTYPE
  5
31A7
330
3132
100
AcDbSymbolTableRecord
100
AcDbLinetypeTableRecord
  2
HIDDEN
 70
     0
  3
Hidden __ __ __ __ __ __ __ __ __ __ __ __ __ _
 72
    65
 73
     2
 40
0.375
 49
0.25
 74
     0
 49
-0.125
 74
     0
  0
LTYPE
  5
31A8
330
3132
100
AcDbSymbolTableRecord
100
AcDbLinetypeTableRecord
  2
PHANTOM2
 70
     0
  3
Phantom (.5x) ___ _ _ ___ _ _ ___ _ _ ___ _ _
 72
    65
 73
     6
 40
1.25
 49
0.625
 74
     0
 49
-0.125
 74
     0
 49
0.125
 74
     0
 49
-0.125
 74
     0
 49
0.125
 74
     0
 49
-0.125
 74
     0
  0
LTYPE
  5
31A9
330
3132
100
AcDbSymbolTableRecord
100
AcDbLinetypeTableRecord
  2
CENTER
 70
     0
  3
Center ____ _ ____ _ ____ _ ____ _ ____ _ ____
 72
    65
 73
     4
 40
2.0
 49
1.25
 74
     0
 49
-0.25
 74
     0
 49
0.25
 74
     0
 49
-0.25
 74
     0
  0
LTYPE
  5
31AA
330
3132
100
AcDbSymbolTableRecord
100
AcDbLinetypeTableRecord
  2
ASULTYPE
 70
     0
  3
実線
 72
    65
 73
     2
 40
3.0
 49
2.5
 74
     0
 49
0.5
 74
     0
  0
LTYPE
  5
31AB
330
3132
100
AcDbSymbolTableRecord
100
AcDbLinetypeTableRecord
  2
ASVLTYPE
 70
     0
  3
__ __ __ __ __ __ __ __ __ __ __ __ __ __ __ __ __ __ __ __ __
 72
    65
 73
     2
 40
0.75
 49
0.5
 74
     0
 49
-0.25
 74
     0
  0
LTYPE
  5
31AC
330
3132
100
AcDbSymbolTableRecord
100
AcDbLinetypeTableRecord
  2
AM_ISO02W050
 70
     0
  3
__ __ __ __ __ __ __ __ __ __ __ __ __ __ __
 72
    65
 73
     2
 40
7.5
 49
6.0
 74
     0
 49
-1.5
 74
     0
  0
LTYPE
  5
31AD
330
3132
100
AcDbSymbolTableRecord
100
AcDbLinetypeTableRecord
  2
AM_ISO08W050
 70
     0
  3
____ . ____ . ____ . ____ . ____ . ____ . ____
 72
    65
 73
     4
 40
18.0
 49
12.0
 74
     0
 49
-1.5
 74
     0
 49
3.0
 74
     0
 49
-1.5
 74
     0
  0
LTYPE
  5
31AE
330
3132
100
AcDbSymbolTableRecord
100
AcDbLinetypeTableRecord
  2
AM_ISO09W050
 70
     0
  3
_____ . . _____ . . _____ . . ____ .. ____
 72
    65
 73
     6
 40
22.5
 49
12.0
 74
     0
 49
-1.5
 74
     0
 49
3.0
 74
     0
 49
-1.5
 74
     0
 49
3.0
 74
     0
 49
-1.5
 74
     0
  0
LTYPE
  5
31AF
330
3132
100
AcDbSymbolTableRecord
100
AcDbLinetypeTableRecord
  2
AMCONSTR
 70
     0
  3
_______________________
 72
    65
 73
     2
 40
9999.0
 49
9999.0
 74
     0
 49
0.0
 74
     0
  0
LTYPE
  5
31B0
330
3132
100
AcDbSymbolTableRecord
100
AcDbLinetypeTableRecord
  2
AM_ISO08W050X2
 70
     0
  3
__ . __ . __ . __ . __ . __
 72
    65
 73
     4
 40
9.0
 49
6.0
 74
     0
 49
-0.75
 74
     0
 49
1.5
 74
     0
 49
-0.75
 74
     0
  0
LTYPE
  5
31B1
330
3132
100
AcDbSymbolTableRecord
100
AcDbLinetypeTableRecord
  2
AM_ISO02W050X2
 70
     0
  3
 _ _ _ _ _ _ _ _ _ _ _ _
 72
    65
 73
     2
 40
3.75
 49
3.0
 74
     0
 49
-0.75
 74
     0
  0
LTYPE
  5
31B2
330
3132
100
AcDbSymbolTableRecord
100
AcDbLinetypeTableRecord
  2
AMZIGZAG
 70
     0
  3
/\/-/\/-/\/-/\/-/\/-/\/
 72
    65
 73
     2
 40
11.0001
 49
0.0001
 74
     0
 49
-11.0
 74
     0
  0
LTYPE
  5
31B3
330
3132
100
AcDbSymbolTableRecord
100
AcDbLinetypeTableRecord
  2
CENTER2
 70
     0
  3
Center (.5x) ___ _ ___ _ ___ _ ___ _ ___ _ ___
 72
    65
 73
     4
 40
1.125
 49
0.75
 74
     0
 49
-0.125
 74
     0
 49
0.125
 74
     0
 49
-0.125
 74
     0
  0
LTYPE
  5
31B4
330
3132
100
AcDbSymbolTableRecord
100
AcDbLinetypeTableRecord
  2
HIDDEN2
 70
     0
  3
Hidden (.5x) _ _ _ _ _ _ _ _ _ _ _ _ _ _ _ _ _
 72
    65
 73
     2
 40
0.1875
 49
0.125
 74
     0
 49
-0.0625
 74
     0
  0
LTYPE
  5
31B5
330
3132
100
AcDbSymbolTableRecord
100
AcDbLinetypeTableRecord
  2
AMZIGZAG2
 70
     0
  3
/\/-/\/-/\/-/\/-/\/-/\/
 72
    65
 73
     2
 40
0.4401
 49
0.0001
 74
     0
 49
-0.4400000000000003
 74
     0
  0
LTYPE
  5
31B6
330
3132
100
AcDbSymbolTableRecord
100
AcDbLinetypeTableRecord
  2
ACANSTGB
 70
     0
  3
__ . . __ . .
 72
    65
 73
     6
 40
0.35433070866
 49
0.15748031496
 74
     0
 49
-0.03937007874
 74
     0
 49
0.03937007874
 74
     0
 49
-0.03937007874
 74
     0
 49
0.03937007874
 74
     0
 49
-0.03937007874
 74
     0
  0
LTYPE
  5
31B7
330
3132
100
AcDbSymbolTableRecord
100
AcDbLinetypeTableRecord
  2
ACANSTGL
 70
     0
  3
_ _ _ _ _
 72
    65
 73
     2
 40
0.11811023622
 49
0.07874015748
 74
     0
 49
-0.03937007874
 74
     0
  0
ENDTAB
  0
TABLE
  2
LAYER
  5
312F
330
0
100
AcDbSymbolTable
 70
    13
  0
LAYER
  5
3189
102
{ACAD_XDICTIONARY
360
3360
102
}
330
312F
100
AcDbSymbolTableRecord
100
AcDbLayerTableRecord
  2
0
 70
     0
 62
     7
  6
CONTINUOUS
370
    -3
390
313C
  0
LAYER
  5
31B8
102
{ACAD_XDICTIONARY
360
3362
102
}
330
312F
100
AcDbSymbolTableRecord
100
AcDbLayerTableRecord
  2
OUTLINE
 70
     0
 62
     3
  6
CONTINUOUS
370
    -3
390
313C
  0
LAYER
  5
31B9
102
{ACAD_XDICTIONARY
360
3364
102
}
330
312F
100
AcDbSymbolTableRecord
100
AcDbLayerTableRecord
  2
SIZE
 70
     0
 62
    30
  6
CONTINUOUS
370
    -3
390
313C
  0
LAYER
  5
31BA
102
{ACAD_XDICTIONARY
360
3366
102
}
330
312F
100
AcDbSymbolTableRecord
100
AcDbLayerTableRecord
  2
BASIS
 70
     0
 62
     6
  6
DASHDOT
370
    -3
390
313C
  0
LAYER
  5
31BB
102
{ACAD_XDICTIONARY
360
3368
102
}
330
312F
100
AcDbSymbolTableRecord
100
AcDbLayerTableRecord
  2
DETAIL
 70
     0
 62
     5
  6
CONTINUOUS
370
    -3
390
313C
  0
LAYER
  5
31BC
102
{ACAD_XDICTIONARY
360
336A
102
}
330
312F
100
AcDbSymbolTableRecord
100
AcDbLayerTableRecord
  2
ARRANGE
 70
     0
 62
     1
  6
CONTINUOUS
370
    -3
390
313C
  0
LAYER
  5
31BD
330
312F
100
AcDbSymbolTableRecord
100
AcDbLayerTableRecord
  2
DEFPOINTS
 70
     0
 62
     7
  6
CONTINUOUS
290
     0
370
    -3
390
313C
  0
LAYER
  5
31BE
102
{ACAD_XDICTIONARY
360
336C
102
}
330
312F
100
AcDbSymbolTableRecord
100
AcDbLayerTableRecord
  2
ETC
 70
     0
 62
    61
  6
CONTINUOUS
370
    -3
390
313C
  0
LAYER
  5
31BF
102
{ACAD_XDICTIONARY
360
336E
102
}
330
312F
100
AcDbSymbolTableRecord
100
AcDbLayerTableRecord
  2
FIX
 70
     0
 62
    11
  6
CONTINUOUS
370
    -3
390
313C
  0
LAYER
  5
31C0
102
{ACAD_XDICTIONARY
360
3370
102
}
330
312F
100
AcDbSymbolTableRecord
100
AcDbLayerTableRecord
  2
NOTE
 70
     0
 62
     4
  6
CONTINUOUS
370
    -3
390
313C
  0
LAYER
  5
31C1
102
{ACAD_XDICTIONARY
360
3372
102
}
330
312F
100
AcDbSymbolTableRecord
100
AcDbLayerTableRecord
  2
SERVICESPACE
 70
     0
 62
     2
  6
DASHDOT
370
    -3
390
313C
  0
LAYER
  5
31C2
102
{ACAD_XDICTIONARY
360
3374
102
}
330
312F
100
AcDbSymbolTableRecord
100
AcDbLayerTableRecord
  2
SYMBOLLINE
 70
     0
 62
    15
  6
CONTINUOUS
370
    -3
390
313C
  0
LAYER
  5
31C3
102
{ACAD_XDICTIONARY
360
3376
102
}
330
312F
100
AcDbSymbolTableRecord
100
AcDbLayerTableRecord
  2
DETAIL___1
 70
     0
 62
     5
  6
CONTINUOUS
370
    -3
390
313C
  0
ENDTAB
  0
TABLE
  2
STYLE
  5
3130
330
0
100
AcDbSymbolTable
 70
     5
  0
STYLE
  5
318A
330
3130
100
AcDbSymbolTableRecord
100
AcDbTextStyleTableRecord
  2
STANDARD
 70
     0
 40
64.0
 41
0.9
 50
0.0
 71
     0
 42
64.0
  3
SIMPLEX.shx
  4
BIGFONT.shx
  0
STYLE
  5
318E
330
3130
100
AcDbSymbolTableRecord
100
AcDbTextStyleTableRecord
  2
ANNOTATIVE
 70
     0
 40
0.0
 41
1.0
 50
0.0
 71
     0
 42
0.2
  3
txt
  4

1001
ACADANNOTATIVE
1000
AnnotativeData
1002
{
1070
     1
1070
     1
1002
}
  0
STYLE
  5
31C4
330
3130
100
AcDbSymbolTableRecord
100
AcDbTextStyleTableRecord
  2

 70
     1
 40
0.0
 41
1.0
 50
0.0
 71
     0
 42
64.0
  3
genltshp.shx
  4

  0
STYLE
  5
31C5
330
3130
100
AcDbSymbolTableRecord
100
AcDbTextStyleTableRecord
  2
ACANSTS
 70
     0
 40
1.0
 41
1.0
 50
0.0
 71
     0
 42
64.0
  3
romans.shx
  4
extfont.shx
  0
STYLE
  5
31C6
330
3130
100
AcDbSymbolTableRecord
100
AcDbTextStyleTableRecord
  2
ACANSGDT
 70
     0
 40
0.0
 41
1.0
 50
0.0
 71
     0
 42
64.0
  3
amgdt.shx
  4

  0
ENDTAB
  0
TABLE
  2
VIEW
  5
3133
330
0
100
AcDbSymbolTable
 70
     1
  0
VIEW
  5
31C7
330
3133
100
AcDbSymbolTableRecord
100
AcDbViewTableRecord
  2
ALL
 70
     0
 40
4282.619807999997
 10
0.0
 20
41.30990399999999
 41
5940.0
 11
0.0
 21
0.0
 31
1.0
 12
0.0
 22
0.0
 32
0.0
 42
50.0
 43
0.0
 44
0.0
 50
0.0
 71
     0
281
     0
 72
     1
110
0.0
120
0.0
130
0.0
111
1.0
121
0.0
131
0.0
112
0.0
122
1.0
132
0.0
 79
     0
146
0.0
  0
ENDTAB
  0
TABLE
  2
UCS
  5
3134
330
0
100
AcDbSymbolTable
 70
     0
  0
ENDTAB
  0
TABLE
  2
APPID
  5
3136
330
0
100
AcDbSymbolTable
 70
    30
  0
APPID
  5
318B
330
3136
100
AcDbSymbolTableRecord
100
AcDbRegAppTableRecord
  2
ACAD
 70
     0
  0
APPID
  5
3192
330
3136
100
AcDbSymbolTableRecord
100
AcDbRegAppTableRecord
  2
ACADANNOTATIVE
 70
     0
  0
APPID
  5
319C
330
3136
100
AcDbSymbolTableRecord
100
AcDbRegAppTableRecord
  2
ACAD_MLEADERVER
 70
     0
  0
APPID
  5
31C8
330
3136
100
AcDbSymbolTableRecord
100
AcDbRegAppTableRecord
  2
GENIUS_GENDIM_13
 70
     0
  0
APPID
  5
31C9
330
3136
100
AcDbSymbolTableRecord
100
AcDbRegAppTableRecord
  2
GENIUS_GENDTOL_13
 70
     0
  0
APPID
  5
31CA
330
3136
100
AcDbSymbolTableRecord
100
AcDbRegAppTableRecord
  2
GENIUS_GE3DTOL_13
 70
     0
  0
APPID
  5
31CB
330
3136
100
AcDbSymbolTableRecord
100
AcDbRegAppTableRecord
  2
MCAD_NO_VIS
 70
     0
  0
APPID
  5
31CC
330
3136
100
AcDbSymbolTableRecord
100
AcDbRegAppTableRecord
  2
ACAD_TEMP_GRAPHIC
 70
     0
  0
APPID
  5
31CD
330
3136
100
AcDbSymbolTableRecord
100
AcDbRegAppTableRecord
  2
AD_DRAW
 70
     0
  0
APPID
  5
31CE
330
3136
100
AcDbSymbolTableRecord
100
AcDbRegAppTableRecord
  2
ACATTRIBSERVICES
 70
     0
  0
APPID
  5
31CF
330
3136
100
AcDbSymbolTableRecord
100
AcDbRegAppTableRecord
  2
ASURF_PCURVE_APPNAME
 70
     0
  0
APPID
  5
31D0
330
3136
100
AcDbSymbolTableRecord
100
AcDbRegAppTableRecord
  2
AMG_3D2D_5_0
 70
     0
  0
APPID
  5
31D1
330
3136
100
AcDbSymbolTableRecord
100
AcDbRegAppTableRecord
  2
DESIGNERASSEMBLIES
 70
     0
  0
APPID
  5
31D2
330
3136
100
AcDbSymbolTableRecord
100
AcDbRegAppTableRecord
  2
ACADM_DIM_EDIT
 70
     0
  0
APPID
  5
31D3
330
3136
100
AcDbSymbolTableRecord
100
AcDbRegAppTableRecord
  2
AMDT_DM_ADJ
 70
     0
  0
APPID
  5
31D4
330
3136
100
AcDbSymbolTableRecord
100
AcDbRegAppTableRecord
  2
ACAD_DSTYLE_DIMARC_LENGTH_
 70
     0
  0
APPID
  5
31D5
330
3136
100
AcDbSymbolTableRecord
100
AcDbRegAppTableRecord
  2
ACAD_DSTYLE_DIMJOGGED_JOGA
 70
     0
  0
APPID
  5
31D6
330
3136
100
AcDbSymbolTableRecord
100
AcDbRegAppTableRecord
  2
ACAD_PSEXT
 70
     0
  0
APPID
  5
31D7
330
3136
100
AcDbSymbolTableRecord
100
AcDbRegAppTableRecord
  2
ACAD_EXEMPT_FROM_CAD_STANDARDS
 70
     0
  0
APPID
  5
31D8
330
3136
100
AcDbSymbolTableRecord
100
AcDbRegAppTableRecord
  2
ACAD_DSTYLE_DIMJAG
 70
     0
  0
APPID
  5
31D9
330
3136
100
AcDbSymbolTableRecord
100
AcDbRegAppTableRecord
  2
ACAD_DSTYLE_DIMTALN
 70
     0
  0
APPID
  5
31DA
330
3136
100
AcDbSymbolTableRecord
100
AcDbRegAppTableRecord
  2
AMG_3D2D_5_00
 70
     0
  0
APPID
  5
31DB
330
3136
100
AcDbSymbolTableRecord
100
AcDbRegAppTableRecord
  2
AMG_3D2D_5_01
 70
     0
  0
APPID
  5
31DC
330
3136
100
AcDbSymbolTableRecord
100
AcDbRegAppTableRecord
  2
AMG_3D2D_5_02
 70
     0
  0
APPID
  5
31DD
330
3136
100
AcDbSymbolTableRecord
100
AcDbRegAppTableRecord
  2
AMG_3D2D_5_03
 70
     0
  0
APPID
  5
3307
330
3136
100
AcDbSymbolTableRecord
100
AcDbRegAppTableRecord
  2
AMG_3D2D_5.0
 70
     0
  0
APPID
  5
33A0
330
3136
100
AcDbSymbolTableRecord
100
AcDbRegAppTableRecord
  2
ACAD_DSTYLE_DIMARC_LENGTH_SYMBOL
 70
     0
  0
APPID
  5
33A1
330
3136
100
AcDbSymbolTableRecord
100
AcDbRegAppTableRecord
  2
ACAD_DSTYLE_DIM_LINETYPE
 70
     0
  0
APPID
  5
33A2
330
3136
100
AcDbSymbolTableRecord
100
AcDbRegAppTableRecord
  2
ACAD_DSTYLE_DIM_EXT1_LINETYPE
 70
     0
  0
APPID
  5
33A3
330
3136
100
AcDbSymbolTableRecord
100
AcDbRegAppTableRecord
  2
ACAD_DSTYLE_DIM_EXT2_LINETYPE
 70
     0
  0
ENDTAB
  0
TABLE
  2
DIMSTYLE
  5
3137
330
0
100
AcDbSymbolTable
 70
    10
100
AcDbDimStyleTable
 71
     1
340
31DE
  0
DIMSTYLE
105
318C
330
3137
100
AcDbSymbolTableRecord
100
AcDbDimStyleTableRecord
  2
STANDARD
 70
     0
 41
12.0
 42
20.0
 44
20.0
 77
     1
 78
     8
140
64.0
141
0.0
147
10.0
275
     1
279
     2
284
     7
285
     7
286
     7
340
318A
  0
DIMSTYLE
105
318D
330
3137
100
AcDbSymbolTableRecord
100
AcDbDimStyleTableRecord
  2
ANNOTATIVE
 70
     0
275
     1
279
     2
284
     7
285
     7
286
     7
340
318A
1001
ACADANNOTATIVE
1000
AnnotativeData
1002
{
1070
     1
1070
     1
1002
}
  0
DIMSTYLE
105
31DE
330
3137
100
AcDbSymbolTableRecord
100
AcDbDimStyleTableRecord
  2
AM_ANSI
 70
     0
  4
mm
 41
0.12
 42
0.05
 43
0.5
 44
0.1
 47
0.1
 48
0.1
 78
     7
 79
     2
140
0.12
141
0.0
146
0.71
147
0.06
176
   256
177
   256
178
     2
274
     4
284
     7
340
318A
371
    -1
372
    -1
1001
ACAD_DSTYLE_DIMARC_LENGTH_SYMBOL
1070
   379
1070
     1
1001
ACAD_DSTYLE_DIM_LINETYPE
1070
   380
1005
318F
1001
ACAD_DSTYLE_DIM_EXT1_LINETYPE
1070
   381
1005
318F
1001
ACAD_DSTYLE_DIM_EXT2_LINETYPE
1070
   382
1005
318F
  0
DIMSTYLE
105
31DF
330
3137
100
AcDbSymbolTableRecord
100
AcDbDimStyleTableRecord
  2
AM_ANSI$3
 70
     0
  4
mm
 41
0.12
 42
0.05
 43
0.5
 44
0.1
 47
0.1
 48
0.1
 78
     7
 79
     2
140
0.12
141
0.0
146
0.71
147
0.06
176
   256
177
   256
178
     2
274
     4
284
     7
288
     1
289
     0
340
318A
371
    -1
372
    -1
1001
ACAD_DSTYLE_DIMARC_LENGTH_SYMBOL
1070
   379
1070
     1
1001
ACAD_DSTYLE_DIM_LINETYPE
1070
   380
1005
318F
1001
ACAD_DSTYLE_DIM_EXT1_LINETYPE
1070
   381
1005
318F
1001
ACAD_DSTYLE_DIM_EXT2_LINETYPE
1070
   382
1005
318F
  0
DIMSTYLE
105
31E0
330
3137
100
AcDbSymbolTableRecord
100
AcDbDimStyleTableRecord
  2
AM_ANSI$4
 70
     0
  4
mm
 41
0.12
 42
0.05
 43
0.5
 44
0.1
 47
0.1
 48
0.1
 78
     7
 79
     2
140
0.12
141
0.0
146
0.71
147
0.06
176
   256
177
   256
178
     2
274
     4
284
     7
340
318A
371
    -1
372
    -1
1001
ACAD_DSTYLE_DIMARC_LENGTH_SYMBOL
1070
   379
1070
     1
1001
ACAD_DSTYLE_DIM_LINETYPE
1070
   380
1005
318F
1001
ACAD_DSTYLE_DIM_EXT1_LINETYPE
1070
   381
1005
318F
1001
ACAD_DSTYLE_DIM_EXT2_LINETYPE
1070
   382
1005
318F
  0
DIMSTYLE
105
31E1
330
3137
100
AcDbSymbolTableRecord
100
AcDbDimStyleTableRecord
  2
AM_ANSI$7
 70
     0
  4
mm
 41
0.12
 42
0.05
 43
0.5
 44
0.1
 47
0.1
 48
0.1
 78
     7
 79
     2
140
0.12
141
0.0
146
0.71
147
0.06
176
   256
177
   256
178
     2
274
     4
284
     7
340
318A
371
    -1
372
    -1
1001
ACAD_DSTYLE_DIMARC_LENGTH_SYMBOL
1070
   379
1070
     1
1001
ACAD_DSTYLE_DIM_LINETYPE
1070
   380
1005
318F
1001
ACAD_DSTYLE_DIM_EXT1_LINETYPE
1070
   381
1005
318F
1001
ACAD_DSTYLE_DIM_EXT2_LINETYPE
1070
   382
1005
318F
  0
DIMSTYLE
105
31E2
330
3137
100
AcDbSymbolTableRecord
100
AcDbDimStyleTableRecord
  2
AM_ANSI$SF
 70
     0
  4
mm
 41
0.12
 42
0.05
 43
0.5
 44
0.1
 47
0.1
 48
0.1
 75
     1
 76
     1
 78
     7
 79
     2
140
0.12
141
0.0
146
0.71
147
0.06
176
   256
177
   256
178
     2
274
     4
284
     7
340
318A
371
    -1
372
    -1
1001
ACAD_DSTYLE_DIMARC_LENGTH_SYMBOL
1070
   379
1070
     1
1001
ACAD_DSTYLE_DIM_LINETYPE
1070
   380
1005
318F
1001
ACAD_DSTYLE_DIM_EXT1_LINETYPE
1070
   381
1005
318F
1001
ACAD_DSTYLE_DIM_EXT2_LINETYPE
1070
   382
1005
318F
  0
DIMSTYLE
105
31E3
330
3137
100
AcDbSymbolTableRecord
100
AcDbDimStyleTableRecord
  2
AM_ANSI$SH
 70
     0
  4
mm
 41
0.12
 42
0.05
 43
0.5
 44
0.1
 47
0.1
 48
0.1
 75
     1
 76
     1
 78
     7
 79
     2
140
0.12
141
0.0
146
0.71
147
0.06
173
     1
176
   256
177
   256
178
     2
274
     4
284
     7
340
318A
343
3203
371
    -1
372
    -1
1001
ACAD_DSTYLE_DIMARC_LENGTH_SYMBOL
1070
   379
1070
     1
1001
ACAD_DSTYLE_DIM_LINETYPE
1070
   380
1005
318F
1001
ACAD_DSTYLE_DIM_EXT1_LINETYPE
1070
   381
1005
318F
1001
ACAD_DSTYLE_DIM_EXT2_LINETYPE
1070
   382
1005
318F
  0
DIMSTYLE
105
31E4
330
3137
100
AcDbSymbolTableRecord
100
AcDbDimStyleTableRecord
  2
STANDARD1
 70
     0
 40
6.0
 41
2.5
 42
0.625
 43
6.0
 44
1.25
 47
1.0
 48
0.5
 77
     1
 78
     8
140
2.5
141
0.0
146
0.6
147
1.0
173
     1
275
     1
279
     2
284
     7
285
     7
286
     7
340
318A
  0
DIMSTYLE
105
31E5
330
3137
100
AcDbSymbolTableRecord
100
AcDbDimStyleTableRecord
  2
STANDARD$0
 70
     0
 41
12.0
 42
20.0
 44
20.0
 73
     0
 74
     0
 77
     1
 78
     8
140
64.0
141
0.0
147
10.0
275
     1
279
     2
284
     7
285
     7
286
     7
340
318A
  0
ENDTAB
  0
TABLE
  2
BLOCK_RECORD
  5
312E
330
0
100
AcDbSymbolTable
 70
    77
  0
BLOCK_RECORD
  5
31A1
102
{ACAD_XDICTIONARY
360
3378
102
}
330
312E
100
AcDbSymbolTableRecord
100
AcDbBlockTableRecord
  2
*Model_Space
340
31A4
  0
BLOCK_RECORD
  5
319D
330
312E
100
AcDbSymbolTableRecord
100
AcDbBlockTableRecord
  2
*Paper_Space
340
31A0
  0
BLOCK_RECORD
  5
31ED
330
312E
100
AcDbSymbolTableRecord
100
AcDbBlockTableRecord
  2
$MODEL_SPACE
340
0
  0
BLOCK_RECORD
  5
31EF
330
312E
100
AcDbSymbolTableRecord
100
AcDbBlockTableRecord
  2
$PAPER_SPACE
340
0
  0
BLOCK_RECORD
  5
31F1
330
312E
100
AcDbSymbolTableRecord
100
AcDbBlockTableRecord
  2
_ORIGIN
340
0
  0
BLOCK_RECORD
  5
31F3
330
312E
100
AcDbSymbolTableRecord
100
AcDbBlockTableRecord
  2
_DOTBLANK
340
0
102
{BLKREFS
331
1299
331
129A
331
11AA
331
11AB
331
E80
331
E81
331
1123
331
1124
331
11C2
331
11C3
331
11EC
331
11ED
331
11F9
331
11FA
331
1287
331
1288
331
1417
331
1418
331
1423
331
1424
331
142F
331
1430
331
143B
331
143C
331
166E
331
166F
331
1677
331
1678
331
1680
331
1681
331
1689
331
168A
331
1696
331
1697
331
16A3
331
16A4
331
16AF
331
16B0
331
16BB
331
16BC
331
16C7
331
16C8
331
16D3
331
16D4
331
1D86
331
1D87
331
1D8F
331
1D90
331
1D98
331
1D99
331
1DA1
331
1DA2
331
1DAB
331
1DAC
331
1DB5
331
1DB6
331
2E56
331
2E57
331
2E5B
331
2E5C
331
2E60
331
2E61
331
2E65
331
2E66
331
2E6A
331
2E6B
102
}
  0
BLOCK_RECORD
  5
31F5
330
312E
100
AcDbSymbolTableRecord
100
AcDbBlockTableRecord
  2
_OPEN30
340
0
102
{BLKREFS
331
2087
331
2187
331
22A2
331
23C1
331
2E72
102
}
  0
BLOCK_RECORD
  5
31F7
330
312E
100
AcDbSymbolTableRecord
100
AcDbBlockTableRecord
  2
*D5
340
0
  0
BLOCK_RECORD
  5
31F9
330
312E
100
AcDbSymbolTableRecord
100
AcDbBlockTableRecord
  2
*U6
340
0
102
{BLKREFS
331
129B
102
}
  0
BLOCK_RECORD
  5
31FB
330
312E
100
AcDbSymbolTableRecord
100
AcDbBlockTableRecord
  2
*D7
340
0
  0
BLOCK_RECORD
  5
31FD
330
312E
100
AcDbSymbolTableRecord
100
AcDbBlockTableRecord
  2
*U8
340
0
102
{BLKREFS
331
11AC
102
}
  0
BLOCK_RECORD
  5
31FF
330
312E
100
AcDbSymbolTableRecord
100
AcDbBlockTableRecord
  2
*D9
340
0
  0
BLOCK_RECORD
  5
3201
330
312E
100
AcDbSymbolTableRecord
100
AcDbBlockTableRecord
  2
*U10
340
0
102
{BLKREFS
331
E82
102
}
  0
BLOCK_RECORD
  5
3203
330
312E
100
AcDbSymbolTableRecord
100
AcDbBlockTableRecord
  2
GENAXEH
340
0
  0
BLOCK_RECORD
  5
3205
330
312E
100
AcDbSymbolTableRecord
100
AcDbBlockTableRecord
  2
*D12
340
0
  0
BLOCK_RECORD
  5
3207
330
312E
100
AcDbSymbolTableRecord
100
AcDbBlockTableRecord
  2
*U13
340
0
102
{BLKREFS
331
1125
102
}
  0
BLOCK_RECORD
  5
3209
330
312E
100
AcDbSymbolTableRecord
100
AcDbBlockTableRecord
  2
*D14
340
0
  0
BLOCK_RECORD
  5
320B
330
312E
100
AcDbSymbolTableRecord
100
AcDbBlockTableRecord
  2
*U15
340
0
102
{BLKREFS
331
11C4
102
}
  0
BLOCK_RECORD
  5
320D
330
312E
100
AcDbSymbolTableRecord
100
AcDbBlockTableRecord
  2
*D16
340
0
  0
BLOCK_RECORD
  5
320F
330
312E
100
AcDbSymbolTableRecord
100
AcDbBlockTableRecord
  2
*U17
340
0
102
{BLKREFS
331
11EE
102
}
  0
BLOCK_RECORD
  5
3211
330
312E
100
AcDbSymbolTableRecord
100
AcDbBlockTableRecord
  2
*D18
340
0
  0
BLOCK_RECORD
  5
3213
330
312E
100
AcDbSymbolTableRecord
100
AcDbBlockTableRecord
  2
*U19
340
0
102
{BLKREFS
331
11FB
102
}
  0
BLOCK_RECORD
  5
3215
330
312E
100
AcDbSymbolTableRecord
100
AcDbBlockTableRecord
  2
*D20
340
0
  0
BLOCK_RECORD
  5
3217
330
312E
100
AcDbSymbolTableRecord
100
AcDbBlockTableRecord
  2
*U21
340
0
102
{BLKREFS
331
1289
102
}
  0
BLOCK_RECORD
  5
3219
330
312E
100
AcDbSymbolTableRecord
100
AcDbBlockTableRecord
  2
*D22
340
0
  0
BLOCK_RECORD
  5
321B
330
312E
100
AcDbSymbolTableRecord
100
AcDbBlockTableRecord
  2
*U23
340
0
102
{BLKREFS
331
1419
102
}
  0
BLOCK_RECORD
  5
321D
330
312E
100
AcDbSymbolTableRecord
100
AcDbBlockTableRecord
  2
*D24
340
0
  0
BLOCK_RECORD
  5
321F
330
312E
100
AcDbSymbolTableRecord
100
AcDbBlockTableRecord
  2
*U25
340
0
102
{BLKREFS
331
1425
102
}
  0
BLOCK_RECORD
  5
3221
330
312E
100
AcDbSymbolTableRecord
100
AcDbBlockTableRecord
  2
*D26
340
0
  0
BLOCK_RECORD
  5
3223
330
312E
100
AcDbSymbolTableRecord
100
AcDbBlockTableRecord
  2
*U27
340
0
102
{BLKREFS
331
1431
102
}
  0
BLOCK_RECORD
  5
3225
330
312E
100
AcDbSymbolTableRecord
100
AcDbBlockTableRecord
  2
*D28
340
0
  0
BLOCK_RECORD
  5
3227
330
312E
100
AcDbSymbolTableRecord
100
AcDbBlockTableRecord
  2
*U29
340
0
102
{BLKREFS
331
143D
102
}
  0
BLOCK_RECORD
  5
3229
330
312E
100
AcDbSymbolTableRecord
100
AcDbBlockTableRecord
  2
*D30
340
0
  0
BLOCK_RECORD
  5
322B
330
312E
100
AcDbSymbolTableRecord
100
AcDbBlockTableRecord
  2
*U31
340
0
102
{BLKREFS
331
1670
102
}
  0
BLOCK_RECORD
  5
322D
330
312E
100
AcDbSymbolTableRecord
100
AcDbBlockTableRecord
  2
*D32
340
0
  0
BLOCK_RECORD
  5
322F
330
312E
100
AcDbSymbolTableRecord
100
AcDbBlockTableRecord
  2
*U33
340
0
102
{BLKREFS
331
1679
102
}
  0
BLOCK_RECORD
  5
3231
330
312E
100
AcDbSymbolTableRecord
100
AcDbBlockTableRecord
  2
*D34
340
0
  0
BLOCK_RECORD
  5
3233
330
312E
100
AcDbSymbolTableRecord
100
AcDbBlockTableRecord
  2
*U35
340
0
102
{BLKREFS
331
1682
102
}
  0
BLOCK_RECORD
  5
3235
330
312E
100
AcDbSymbolTableRecord
100
AcDbBlockTableRecord
  2
*D36
340
0
  0
BLOCK_RECORD
  5
3237
330
312E
100
AcDbSymbolTableRecord
100
AcDbBlockTableRecord
  2
*U37
340
0
102
{BLKREFS
331
168B
102
}
  0
BLOCK_RECORD
  5
3239
330
312E
100
AcDbSymbolTableRecord
100
AcDbBlockTableRecord
  2
*U38
340
0
  0
BLOCK_RECORD
  5
323B
330
312E
100
AcDbSymbolTableRecord
100
AcDbBlockTableRecord
  2
*D39
340
0
  0
BLOCK_RECORD
  5
323D
330
312E
100
AcDbSymbolTableRecord
100
AcDbBlockTableRecord
  2
*U40
340
0
102
{BLKREFS
331
1698
102
}
  0
BLOCK_RECORD
  5
323F
330
312E
100
AcDbSymbolTableRecord
100
AcDbBlockTableRecord
  2
*D41
340
0
  0
BLOCK_RECORD
  5
3241
330
312E
100
AcDbSymbolTableRecord
100
AcDbBlockTableRecord
  2
*U42
340
0
102
{BLKREFS
331
16A5
102
}
  0
BLOCK_RECORD
  5
3243
330
312E
100
AcDbSymbolTableRecord
100
AcDbBlockTableRecord
  2
*D43
340
0
  0
BLOCK_RECORD
  5
3245
330
312E
100
AcDbSymbolTableRecord
100
AcDbBlockTableRecord
  2
*U44
340
0
102
{BLKREFS
331
16B1
102
}
  0
BLOCK_RECORD
  5
3247
330
312E
100
AcDbSymbolTableRecord
100
AcDbBlockTableRecord
  2
*D45
340
0
  0
BLOCK_RECORD
  5
3249
330
312E
100
AcDbSymbolTableRecord
100
AcDbBlockTableRecord
  2
*U46
340
0
102
{BLKREFS
331
16BD
102
}
  0
BLOCK_RECORD
  5
324B
330
312E
100
AcDbSymbolTableRecord
100
AcDbBlockTableRecord
  2
*D47
340
0
  0
BLOCK_RECORD
  5
324D
330
312E
100
AcDbSymbolTableRecord
100
AcDbBlockTableRecord
  2
*U48
340
0
102
{BLKREFS
331
16C9
102
}
  0
BLOCK_RECORD
  5
324F
330
312E
100
AcDbSymbolTableRecord
100
AcDbBlockTableRecord
  2
*D49
340
0
  0
BLOCK_RECORD
  5
3251
330
312E
100
AcDbSymbolTableRecord
100
AcDbBlockTableRecord
  2
*U50
340
0
102
{BLKREFS
331
16D5
102
}
  0
BLOCK_RECORD
  5
3253
330
312E
100
AcDbSymbolTableRecord
100
AcDbBlockTableRecord
  2
*D51
340
0
  0
BLOCK_RECORD
  5
3255
330
312E
100
AcDbSymbolTableRecord
100
AcDbBlockTableRecord
  2
*U52
340
0
102
{BLKREFS
331
1D88
102
}
  0
BLOCK_RECORD
  5
3257
330
312E
100
AcDbSymbolTableRecord
100
AcDbBlockTableRecord
  2
*D53
340
0
  0
BLOCK_RECORD
  5
3259
330
312E
100
AcDbSymbolTableRecord
100
AcDbBlockTableRecord
  2
*U54
340
0
102
{BLKREFS
331
1D91
102
}
  0
BLOCK_RECORD
  5
325B
330
312E
100
AcDbSymbolTableRecord
100
AcDbBlockTableRecord
  2
*D55
340
0
  0
BLOCK_RECORD
  5
325D
330
312E
100
AcDbSymbolTableRecord
100
AcDbBlockTableRecord
  2
*U56
340
0
102
{BLKREFS
331
1D9A
102
}
  0
BLOCK_RECORD
  5
325F
330
312E
100
AcDbSymbolTableRecord
100
AcDbBlockTableRecord
  2
*D57
340
0
  0
BLOCK_RECORD
  5
3261
330
312E
100
AcDbSymbolTableRecord
100
AcDbBlockTableRecord
  2
*U58
340
0
102
{BLKREFS
331
1DA3
102
}
  0
BLOCK_RECORD
  5
3263
330
312E
100
AcDbSymbolTableRecord
100
AcDbBlockTableRecord
  2
*D59
340
0
  0
BLOCK_RECORD
  5
3265
330
312E
100
AcDbSymbolTableRecord
100
AcDbBlockTableRecord
  2
*U60
340
0
102
{BLKREFS
331
1DAD
102
}
  0
BLOCK_RECORD
  5
3267
330
312E
100
AcDbSymbolTableRecord
100
AcDbBlockTableRecord
  2
*D61
340
0
  0
BLOCK_RECORD
  5
3269
330
312E
100
AcDbSymbolTableRecord
100
AcDbBlockTableRecord
  2
*U62
340
0
102
{BLKREFS
331
1DB7
102
}
  0
BLOCK_RECORD
  5
326B
330
312E
100
AcDbSymbolTableRecord
100
AcDbBlockTableRecord
  2
*U63
340
0
  0
BLOCK_RECORD
  5
326D
330
312E
100
AcDbSymbolTableRecord
100
AcDbBlockTableRecord
  2
*U64
340
0
  0
BLOCK_RECORD
  5
326F
330
312E
100
AcDbSymbolTableRecord
100
AcDbBlockTableRecord
  2
*U65
340
0
  0
BLOCK_RECORD
  5
3271
330
312E
100
AcDbSymbolTableRecord
100
AcDbBlockTableRecord
  2
*U66
340
0
  0
BLOCK_RECORD
  5
3273
330
312E
100
AcDbSymbolTableRecord
100
AcDbBlockTableRecord
  2
*U67
340
0
  0
BLOCK_RECORD
  5
3275
330
312E
100
AcDbSymbolTableRecord
100
AcDbBlockTableRecord
  2
*U68
340
0
  0
BLOCK_RECORD
  5
3277
330
312E
100
AcDbSymbolTableRecord
100
AcDbBlockTableRecord
  2
*U69
340
0
  0
BLOCK_RECORD
  5
3279
330
312E
100
AcDbSymbolTableRecord
100
AcDbBlockTableRecord
  2
*U70
340
0
  0
BLOCK_RECORD
  5
327B
330
312E
100
AcDbSymbolTableRecord
100
AcDbBlockTableRecord
  2
*U71
340
0
  0
BLOCK_RECORD
  5
327D
330
312E
100
AcDbSymbolTableRecord
100
AcDbBlockTableRecord
  2
*X72
340
0
  0
BLOCK_RECORD
  5
327F
330
312E
100
AcDbSymbolTableRecord
100
AcDbBlockTableRecord
  2
*X73
340
0
  0
BLOCK_RECORD
  5
3281
330
312E
100
AcDbSymbolTableRecord
100
AcDbBlockTableRecord
  2
*X74
340
0
102
{BLKREFS
331
2E3E
102
}
  0
BLOCK_RECORD
  5
3283
330
312E
100
AcDbSymbolTableRecord
100
AcDbBlockTableRecord
  2
*X75
340
0
102
{BLKREFS
331
2E3F
102
}
  0
ENDTAB
  0
ENDSEC
  0
SECTION
  2
BLOCKS
  0
BLOCK
  5
31A2
330
31A1
100
AcDbEntity
  8
0
100
AcDbBlockBegin
  2
*Model_Space
 70
     0
 10
0.0
 20
0.0
 30
0.0
  3
*Model_Space
  1

  0
ENDBLK
  5
31A3
330
31A1
100
AcDbEntity
  8
0
100
AcDbBlockEnd
  0
BLOCK
  5
319E
330
319D
100
AcDbEntity
 67
     1
  8
0
100
AcDbBlockBegin
  2
*Paper_Space
 70
     0
 10
0.0
 20
0.0
 30
0.0
  3
*Paper_Space
  1

  0
ENDBLK
  5
319F
330
319D
100
AcDbEntity
 67
     1
  8
0
100
AcDbBlockEnd
  0
BLOCK
  5
31EE
330
31ED
100
AcDbEntity
  8
0
100
AcDbBlockBegin
  2
$MODEL_SPACE
 70
     0
 10
0.0
 20
0.0
 30
0.0
  3
$MODEL_SPACE
  1

  0
ENDBLK
  5
2F2C
330
31ED
100
AcDbEntity
  8
0
100
AcDbBlockEnd
  0
BLOCK
  5
31F0
330
31EF
100
AcDbEntity
  8
0
100
AcDbBlockBegin
  2
$PAPER_SPACE
 70
     0
 10
0.0
 20
0.0
 30
0.0
  3
$PAPER_SPACE
  1

  0
ENDBLK
  5
2F28
330
31EF
100
AcDbEntity
  8
0
100
AcDbBlockEnd
  0
BLOCK
  5
31F2
330
31F1
100
AcDbEntity
  8
0
100
AcDbBlockBegin
  2
_ORIGIN
 70
     0
 10
0.0
 20
0.0
 30
0.0
  3
_ORIGIN
  1

  0
CIRCLE
  5
880
330
31F1
100
AcDbEntity
  8
0
  6
Continuous
 62
     7
100
AcDbCircle
 10
0.0
 20
0.0
 30
0.0
 40
0.5
  0
LINE
  5
881
330
31F1
100
AcDbEntity
  8
0
  6
Continuous
 62
     7
100
AcDbLine
 10
0.0
 20
0.0
 30
0.0
 11
-1.0
 21
0.0
 31
0.0
  0
ENDBLK
  5
882
330
31F1
100
AcDbEntity
  8
0
100
AcDbBlockEnd
  0
BLOCK
  5
31F4
330
31F3
100
AcDbEntity
  8
0
 62
     1
100
AcDbBlockBegin
  2
_DOTBLANK
 70
     0
 10
0.0
 20
0.0
 30
0.0
  3
_DOTBLANK
  1

  0
CIRCLE
  5
AB3
330
31F3
100
AcDbEntity
  8
0
  6
ByBlock
 62
     0
100
AcDbCircle
 10
0.0
 20
0.0
 30
0.0
 40
0.5
  0
LINE
  5
AB4
330
31F3
100
AcDbEntity
  8
0
  6
ByBlock
 62
     0
100
AcDbLine
 10
-0.5
 20
0.0
 30
0.0
 11
-1.0
 21
0.0
 31
0.0
  0
ENDBLK
  5
AB6
330
31F3
100
AcDbEntity
  8
0
 62
     1
100
AcDbBlockEnd
  0
BLOCK
  5
31F6
330
31F5
100
AcDbEntity
  8
0
 62
     1
100
AcDbBlockBegin
  2
_OPEN30
 70
     0
 10
0.0
 20
0.0
 30
0.0
  3
_OPEN30
  1

  0
LINE
  5
AB8
330
31F5
100
AcDbEntity
  8
0
  6
ByBlock
 62
     0
100
AcDbLine
 10
-1.0
 20
0.26794919
 30
0.0
 11
0.0
 21
0.0
 31
0.0
  0
LINE
  5
AB9
330
31F5
100
AcDbEntity
  8
0
  6
ByBlock
 62
     0
100
AcDbLine
 10
0.0
 20
0.0
 30
0.0
 11
-1.0
 21
-0.26794919
 31
0.0
  0
LINE
  5
ABA
330
31F5
100
AcDbEntity
  8
0
  6
ByBlock
 62
     0
100
AcDbLine
 10
0.0
 20
0.0
 30
0.0
 11
-1.0
 21
0.0
 31
0.0
  0
ENDBLK
  5
ABC
330
31F5
100
AcDbEntity
  8
0
 62
     1
100
AcDbBlockEnd
  0
BLOCK
  5
31F8
330
31F7
100
AcDbEntity
  8
0
100
AcDbBlockBegin
  2
*D5
 70
     1
 10
0.0
 20
0.0
 30
0.0
  3
*D5
  1

  0
LINE
  5
1296
330
31F7
100
AcDbEntity
  8
SIZE
 62
     0
100
AcDbLine
 10
-134.5
 20
-320.0
 30
0.0
 11
-134.5
 21
-468.0173952306001
 31
0.0
  0
LINE
  5
1297
330
31F7
100
AcDbEntity
  8
SIZE
 62
     0
100
AcDbLine
 10
134.5
 20
-320.0
 30
0.0
 11
134.5
 21
-468.0173952306001
 31
0.0
  0
LINE
  5
1298
330
31F7
100
AcDbEntity
  8
SIZE
 62
     0
100
AcDbLine
 10
-122.5
 20
-448.0173952306
 30
0.0
 11
122.5
 21
-448.0173952306
 31
0.0
  0
INSERT
  5
1299
330
31F7
100
AcDbEntity
  8
SIZE
 62
     0
100
AcDbBlockReference
  2
_DOTBLANK
 10
-134.5
 20
-448.0173952306
 30
0.0
 41
12.0
 42
12.0
 43
12.0
 50
180.0
  0
INSERT
  5
129A
330
31F7
100
AcDbEntity
  8
SIZE
 62
     0
100
AcDbBlockReference
  2
_DOTBLANK
 10
134.5
 20
-448.0173952306
 30
0.0
 41
12.0
 42
12.0
 43
12.0
  0
INSERT
  5
129B
330
31F7
100
AcDbEntity
  8
0
100
AcDbBlockReference
  2
*U6
 10
0.0
 20
0.0
 30
0.0
  0
POINT
  5
129C
330
31F7
100
AcDbEntity
  8
DEFPOINTS
 62
     0
100
AcDbPoint
 10
-134.5
 20
-300.0
 30
0.0
  0
POINT
  5
129D
330
31F7
100
AcDbEntity
  8
DEFPOINTS
 62
     0
100
AcDbPoint
 10
134.5
 20
-300.0
 30
0.0
  0
POINT
  5
129E
330
31F7
100
AcDbEntity
  8
DEFPOINTS
 62
     0
100
AcDbPoint
 10
134.5
 20
-448.0173952306
 30
0.0
  0
ENDBLK
  5
D72
330
31F7
100
AcDbEntity
  8
0
100
AcDbBlockEnd
  0
BLOCK
  5
31FA
330
31F9
100
AcDbEntity
  8
0
100
AcDbBlockBegin
  2
*U6
 70
     1
 10
0.0
 20
0.0
 30
0.0
  3
*U6
  1

  0
TEXT
  5
1EF5
330
31F9
100
AcDbEntity
  8
SIZE
 62
     0
100
AcDbText
 10
-72.68571428571426
 20
-438.0173952305999
 30
0.0
 40
64.0
  1
269
 41
0.9
100
AcDbText
  0
ENDBLK
  5
1EF7
330
31F9
100
AcDbEntity
  8
0
100
AcDbBlockEnd
  0
BLOCK
  5
31FC
330
31FB
100
AcDbEntity
  8
0
100
AcDbBlockBegin
  2
*D7
 70
     1
 10
0.0
 20
0.0
 30
0.0
  3
*D7
  1

  0
LINE
  5
11A7
330
31FB
100
AcDbEntity
  8
SIZE
  6
Continuous
 62
     0
100
AcDbLine
 10
143.5
 20
-300.0
 30
0.0
 11
304.6432844803791
 21
-300.0
 31
0.0
  0
LINE
  5
11A8
330
31FB
100
AcDbEntity
  8
SIZE
  6
Continuous
 62
     0
100
AcDbLine
 10
177.5
 20
-0.0000000000000057
 30
0.0
 11
304.6432844803792
 21
-0.0000000000000417
 31
0.0
  0
LINE
  5
11A9
330
31FB
100
AcDbEntity
  8
SIZE
  6
Continuous
 62
     0
100
AcDbLine
 10
284.6432844803791
 20
-288.0000000000001
 30
0.0
 11
284.6432844803792
 21
-12.00000000000003
 31
0.0
  0
INSERT
  5
11AA
330
31FB
100
AcDbEntity
  8
SIZE
  6
Continuous
 62
     0
100
AcDbBlockReference
  2
_DOTBLANK
 10
284.6432844803791
 20
-300.0
 30
0.0
 41
12.0
 42
12.0
 43
12.0
 50
270.0
  0
INSERT
  5
11AB
330
31FB
100
AcDbEntity
  8
SIZE
  6
Continuous
 62
     0
100
AcDbBlockReference
  2
_DOTBLANK
 10
284.6432844803792
 20
-0.000000000000036
 30
0.0
 41
12.0
 42
12.0
 43
12.0
 50
90.0
  0
INSERT
  5
11AC
330
31FB
100
AcDbEntity
  8
0
100
AcDbBlockReference
  2
*U8
 10
0.0
 20
0.0
 30
0.0
  0
POINT
  5
11AD
330
31FB
100
AcDbEntity
  8
DEFPOINTS
  6
Continuous
 62
     0
100
AcDbPoint
 10
123.5
 20
-300.0
 30
0.0
  0
POINT
  5
11AE
330
31FB
100
AcDbEntity
  8
DEFPOINTS
  6
Continuous
 62
     0
100
AcDbPoint
 10
157.5
 20
0.0
 30
0.0
  0
POINT
  5
11AF
330
31FB
100
AcDbEntity
  8
DEFPOINTS
  6
Continuous
 62
     0
100
AcDbPoint
 10
284.6432844803792
 20
-0.000000000000036
 30
0.0
  0
ENDBLK
  5
E11
330
31FB
100
AcDbEntity
  8
0
100
AcDbBlockEnd
  0
BLOCK
  5
31FE
330
31FD
100
AcDbEntity
  8
0
100
AcDbBlockBegin
  2
*U8
 70
     1
 10
0.0
 20
0.0
 30
0.0
  3
*U8
  1

  0
TEXT
  5
1EE1
330
31FD
100
AcDbEntity
  8
SIZE
 62
     0
100
AcDbText
 10
274.6432844803792
 20
-224.0571428571429
 30
0.0
 40
64.0
  1
300
 50
90.0
 41
0.9
100
AcDbText
  0
ENDBLK
  5
1EE3
330
31FD
100
AcDbEntity
  8
0
100
AcDbBlockEnd
  0
BLOCK
  5
3200
330
31FF
100
AcDbEntity
  8
0
100
AcDbBlockBegin
  2
*D9
 70
     1
 10
0.0
 20
0.0
 30
0.0
  3
*D9
  1

  0
LINE
  5
E7D
330
31FF
100
AcDbEntity
  8
SIZE
 62
     0
100
AcDbLine
 10
-139.9999999999998
 20
32.46448280219375
 30
0.0
 11
-139.9999999999998
 21
136.4516878685508
 31
0.0
  0
LINE
  5
E7E
330
31FF
100
AcDbEntity
  8
SIZE
 62
     0
100
AcDbLine
 10
140.0
 20
32.46448280219375
 30
0.0
 11
140.0
 21
136.4516878685508
 31
0.0
  0
LINE
  5
E7F
330
31FF
100
AcDbEntity
  8
SIZE
 62
     0
100
AcDbLine
 10
-128.0
 20
116.4516878685508
 30
0.0
 11
128.0
 21
116.4516878685508
 31
0.0
  0
INSERT
  5
E80
330
31FF
100
AcDbEntity
  8
SIZE
 62
     0
100
AcDbBlockReference
  2
_DOTBLANK
 10
-139.9999999999998
 20
116.4516878685508
 30
0.0
 41
12.0
 42
12.0
 43
12.0
 50
180.0
  0
INSERT
  5
E81
330
31FF
100
AcDbEntity
  8
SIZE
 62
     0
100
AcDbBlockReference
  2
_DOTBLANK
 10
140.0
 20
116.4516878685508
 30
0.0
 41
12.0
 42
12.0
 43
12.0
  0
INSERT
  5
E82
330
31FF
100
AcDbEntity
  8
0
100
AcDbBlockReference
  2
*U10
 10
0.0
 20
0.0
 30
0.0
  0
POINT
  5
E83
330
31FF
100
AcDbEntity
  8
DEFPOINTS
 62
     0
100
AcDbPoint
 10
-139.9999999999998
 20
12.46448280219374
 30
0.0
  0
POINT
  5
E84
330
31FF
100
AcDbEntity
  8
DEFPOINTS
 62
     0
100
AcDbPoint
 10
140.0
 20
12.46448280219374
 30
0.0
  0
POINT
  5
E85
330
31FF
100
AcDbEntity
  8
DEFPOINTS
 62
     0
100
AcDbPoint
 10
140.0
 20
116.4516878685508
 30
0.0
  0
ENDBLK
  5
E7C
330
31FF
100
AcDbEntity
  8
0
100
AcDbBlockEnd
  0
BLOCK
  5
3202
330
3201
100
AcDbEntity
  8
0
100
AcDbBlockBegin
  2
*U10
 70
     1
 10
0.0
 20
0.0
 30
0.0
  3
*U10
  1

  0
TEXT
  5
1ED8
330
3201
100
AcDbEntity
  8
SIZE
 62
     0
100
AcDbText
 10
-74.05714285714281
 20
126.4516878685508
 30
0.0
 40
64.0
  1
280
 41
0.9
100
AcDbText
  0
ENDBLK
  5
1EDA
330
3201
100
AcDbEntity
  8
0
100
AcDbBlockEnd
  0
BLOCK
  5
3204
330
3203
100
AcDbEntity
  8
0
100
AcDbBlockBegin
  2
GENAXEH
 70
     0
 10
0.0
 20
0.0
 30
0.0
  3
GENAXEH
  1

  0
LINE
  5
FDB
330
3203
100
AcDbEntity
  8
0
100
AcDbLine
 10
-1.0
 20
0.0
 30
0.0
 11
1.0
 21
0.0
 31
0.0
  0
ENDBLK
  5
FDD
330
3203
100
AcDbEntity
  8
0
100
AcDbBlockEnd
  0
BLOCK
  5
3206
330
3205
100
AcDbEntity
  8
0
100
AcDbBlockBegin
  2
*D12
 70
     1
 10
0.0
 20
0.0
 30
0.0
  3
*D12
  1

  0
LINE
  5
1120
330
3205
100
AcDbEntity
  8
SIZE
 62
     0
100
AcDbLine
 10
-157.5
 20
20.0
 30
0.0
 11
-157.5
 21
245.5794621189598
 31
0.0
  0
LINE
  5
1121
330
3205
100
AcDbEntity
  8
SIZE
 62
     0
100
AcDbLine
 10
157.5
 20
20.0
 30
0.0
 11
157.5
 21
245.5794621189598
 31
0.0
  0
LINE
  5
1122
330
3205
100
AcDbEntity
  8
SIZE
 62
     0
100
AcDbLine
 10
-145.5
 20
225.5794621189598
 30
0.0
 11
145.5
 21
225.5794621189598
 31
0.0
  0
INSERT
  5
1123
330
3205
100
AcDbEntity
  8
SIZE
 62
     0
100
AcDbBlockReference
  2
_DOTBLANK
 10
-157.5
 20
225.5794621189598
 30
0.0
 41
12.0
 42
12.0
 43
12.0
 50
180.0
  0
INSERT
  5
1124
330
3205
100
AcDbEntity
  8
SIZE
 62
     0
100
AcDbBlockReference
  2
_DOTBLANK
 10
157.5
 20
225.5794621189598
 30
0.0
 41
12.0
 42
12.0
 43
12.0
  0
INSERT
  5
1125
330
3205
100
AcDbEntity
  8
0
100
AcDbBlockReference
  2
*U13
 10
0.0
 20
0.0
 30
0.0
  0
POINT
  5
1126
330
3205
100
AcDbEntity
  8
DEFPOINTS
 62
     0
100
AcDbPoint
 10
-157.5
 20
0.0
 30
0.0
  0
POINT
  5
1127
330
3205
100
AcDbEntity
  8
DEFPOINTS
 62
     0
100
AcDbPoint
 10
157.5
 20
0.0
 30
0.0
  0
POINT
  5
1128
330
3205
100
AcDbEntity
  8
DEFPOINTS
 62
     0
100
AcDbPoint
 10
157.5
 20
225.5794621189598
 30
0.0
  0
ENDBLK
  5
111F
330
3205
100
AcDbEntity
  8
0
100
AcDbBlockEnd
  0
BLOCK
  5
3208
330
3207
100
AcDbEntity
  8
0
100
AcDbBlockBegin
  2
*U13
 70
     1
 10
0.0
 20
0.0
 30
0.0
  3
*U13
  1

  0
TEXT
  5
1EDD
330
3207
100
AcDbEntity
  8
SIZE
 62
     0
100
AcDbText
 10
-68.57142857142857
 20
235.5794621189599
 30
0.0
 40
64.0
  1
315
 41
0.9
100
AcDbText
  0
ENDBLK
  5
1EDF
330
3207
100
AcDbEntity
  8
0
100
AcDbBlockEnd
  0
BLOCK
  5
320A
330
3209
100
AcDbEntity
  8
0
100
AcDbBlockBegin
  2
*D14
 70
     1
 10
0.0
 20
0.0
 30
0.0
  3
*D14
  1

  0
LINE
  5
11BD
330
3209
100
AcDbEntity
  8
NOTE
 62
     0
100
AcDbLine
 10
-123.4999999999999
 20
-320.0
 30
0.0
 11
-123.4999999999999
 21
-354.9529861856111
 31
0.0
  0
LINE
  5
11BE
330
3209
100
AcDbEntity
  8
NOTE
 62
     0
100
AcDbLine
 10
-133.4999999999998
 20
-331.2126909923287
 30
0.0
 11
-133.4999999999998
 21
-354.9529861856111
 31
0.0
  0
LINE
  5
11BF
330
3209
100
AcDbEntity
  8
NOTE
 62
     0
100
AcDbLine
 10
-111.4999999999999
 20
-334.9529861856112
 30
0.0
 11
-99.4999999999999
 21
-334.9529861856112
 31
0.0
  0
LINE
  5
11C0
330
3209
100
AcDbEntity
  8
NOTE
 62
     0
100
AcDbLine
 10
-145.4999999999998
 20
-334.9529861856112
 30
0.0
 11
-157.4999999999998
 21
-334.9529861856112
 31
0.0
  0
LINE
  5
11C1
330
3209
100
AcDbEntity
  8
NOTE
 62
     0
100
AcDbLine
 10
-123.4999999999999
 20
-334.9529861856112
 30
0.0
 11
-133.4999999999998
 21
-334.9529861856112
 31
0.0
  0
INSERT
  5
11C2
330
3209
100
AcDbEntity
  8
NOTE
 62
     0
100
AcDbBlockReference
  2
_DOTBLANK
 10
-123.4999999999999
 20
-334.9529861856112
 30
0.0
 41
12.0
 42
12.0
 43
12.0
 50
180.0
  0
INSERT
  5
11C3
330
3209
100
AcDbEntity
  8
NOTE
 62
     0
100
AcDbBlockReference
  2
_DOTBLANK
 10
-133.4999999999998
 20
-334.9529861856112
 30
0.0
 41
12.0
 42
12.0
 43
12.0
  0
INSERT
  5
11C4
330
3209
100
AcDbEntity
  8
0
100
AcDbBlockReference
  2
*U15
 10
0.0
 20
0.0
 30
0.0
  0
POINT
  5
11C5
330
3209
100
AcDbEntity
  8
DEFPOINTS
 62
     0
100
AcDbPoint
 10
-123.4999999999999
 20
-300.0
 30
0.0
  0
POINT
  5
11C6
330
3209
100
AcDbEntity
  8
DEFPOINTS
 62
     0
100
AcDbPoint
 10
-133.4999999999998
 20
-311.2126909923287
 30
0.0
  0
POINT
  5
11C7
330
3209
100
AcDbEntity
  8
DEFPOINTS
 62
     0
100
AcDbPoint
 10
-133.4999999999998
 20
-334.9529861856112
 30
0.0
  0
ENDBLK
  5
11BC
330
3209
100
AcDbEntity
  8
0
100
AcDbBlockEnd
  0
BLOCK
  5
320C
330
320B
100
AcDbEntity
  8
0
100
AcDbBlockBegin
  2
*U15
 70
     1
 10
0.0
 20
0.0
 30
0.0
  3
*U15
  1

  0
TEXT
  5
1EE5
330
320B
100
AcDbEntity
  8
NOTE
 62
     0
100
AcDbText
 10
-169.642857142857
 20
-324.9529861856112
 30
0.0
 40
64.0
  1
10
 41
0.9
100
AcDbText
  0
ENDBLK
  5
1EE7
330
320B
100
AcDbEntity
  8
0
100
AcDbBlockEnd
  0
BLOCK
  5
320E
330
320D
100
AcDbEntity
  8
0
100
AcDbBlockBegin
  2
*D16
 70
     1
 10
0.0
 20
0.0
 30
0.0
  3
*D16
  1

  0
LINE
  5
11E7
330
320D
100
AcDbEntity
  8
NOTE
 62
     0
100
AcDbLine
 10
-135.5
 20
-333.2126909923287
 30
0.0
 11
-135.5
 21
-386.2569421441843
 31
0.0
  0
LINE
  5
11E8
330
320D
100
AcDbEntity
  8
NOTE
 62
     0
100
AcDbLine
 10
-123.4999999999999
 20
-320.0
 30
0.0
 11
-123.4999999999999
 21
-386.2569421441843
 31
0.0
  0
LINE
  5
11E9
330
320D
100
AcDbEntity
  8
NOTE
 62
     0
100
AcDbLine
 10
-147.5
 20
-366.2569421441844
 30
0.0
 11
-159.5
 21
-366.2569421441844
 31
0.0
  0
LINE
  5
11EA
330
320D
100
AcDbEntity
  8
NOTE
 62
     0
100
AcDbLine
 10
-111.4999999999999
 20
-366.2569421441844
 30
0.0
 11
-99.4999999999999
 21
-366.2569421441844
 31
0.0
  0
LINE
  5
11EB
330
320D
100
AcDbEntity
  8
NOTE
 62
     0
100
AcDbLine
 10
-135.5
 20
-366.2569421441844
 30
0.0
 11
-123.4999999999999
 21
-366.2569421441844
 31
0.0
  0
INSERT
  5
11EC
330
320D
100
AcDbEntity
  8
NOTE
 62
     0
100
AcDbBlockReference
  2
_DOTBLANK
 10
-135.5
 20
-366.2569421441844
 30
0.0
 41
12.0
 42
12.0
 43
12.0
  0
INSERT
  5
11ED
330
320D
100
AcDbEntity
  8
NOTE
 62
     0
100
AcDbBlockReference
  2
_DOTBLANK
 10
-123.4999999999999
 20
-366.2569421441844
 30
0.0
 41
12.0
 42
12.0
 43
12.0
 50
180.0
  0
INSERT
  5
11EE
330
320D
100
AcDbEntity
  8
0
100
AcDbBlockReference
  2
*U17
 10
0.0
 20
0.0
 30
0.0
  0
POINT
  5
11EF
330
320D
100
AcDbEntity
  8
DEFPOINTS
 62
     0
100
AcDbPoint
 10
-135.5
 20
-313.2126909923287
 30
0.0
  0
POINT
  5
11F0
330
320D
100
AcDbEntity
  8
DEFPOINTS
 62
     0
100
AcDbPoint
 10
-123.4999999999999
 20
-300.0
 30
0.0
  0
POINT
  5
11F1
330
320D
100
AcDbEntity
  8
DEFPOINTS
 62
     0
100
AcDbPoint
 10
-123.4999999999999
 20
-366.2569421441844
 30
0.0
  0
ENDBLK
  5
11E6
330
320D
100
AcDbEntity
  8
0
100
AcDbBlockEnd
  0
BLOCK
  5
3210
330
320F
100
AcDbEntity
  8
0
100
AcDbBlockBegin
  2
*U17
 70
     1
 10
0.0
 20
0.0
 30
0.0
  3
*U17
  1

  0
TEXT
  5
1EE9
330
320F
100
AcDbEntity
  8
NOTE
 62
     0
100
AcDbText
 10
-170.642857142857
 20
-356.2569421441843
 30
0.0
 40
64.0
  1
12
 41
0.9
100
AcDbText
  0
ENDBLK
  5
1EEB
330
320F
100
AcDbEntity
  8
0
100
AcDbBlockEnd
  0
BLOCK
  5
3212
330
3211
100
AcDbEntity
  8
0
100
AcDbBlockBegin
  2
*D18
 70
     1
 10
0.0
 20
0.0
 30
0.0
  3
*D18
  1

  0
LINE
  5
11F6
330
3211
100
AcDbEntity
  8
NOTE
 62
     0
100
AcDbLine
 10
-123.4999999999999
 20
-320.0
 30
0.0
 11
-123.4999999999999
 21
-583.8286022818904
 31
0.0
  0
LINE
  5
11F7
330
3211
100
AcDbEntity
  8
NOTE
 62
     0
100
AcDbLine
 10
123.5
 20
-320.0
 30
0.0
 11
123.5
 21
-583.8286022818904
 31
0.0
  0
LINE
  5
11F8
330
3211
100
AcDbEntity
  8
NOTE
 62
     0
100
AcDbLine
 10
-111.4999999999999
 20
-563.8286022818904
 30
0.0
 11
111.5
 21
-563.8286022818904
 31
0.0
  0
INSERT
  5
11F9
330
3211
100
AcDbEntity
  8
NOTE
 62
     0
100
AcDbBlockReference
  2
_DOTBLANK
 10
-123.4999999999999
 20
-563.8286022818904
 30
0.0
 41
12.0
 42
12.0
 43
12.0
 50
180.0
  0
INSERT
  5
11FA
330
3211
100
AcDbEntity
  8
NOTE
 62
     0
100
AcDbBlockReference
  2
_DOTBLANK
 10
123.5
 20
-563.8286022818904
 30
0.0
 41
12.0
 42
12.0
 43
12.0
  0
INSERT
  5
11FB
330
3211
100
AcDbEntity
  8
0
100
AcDbBlockReference
  2
*U19
 10
0.0
 20
0.0
 30
0.0
  0
POINT
  5
11FC
330
3211
100
AcDbEntity
  8
DEFPOINTS
 62
     0
100
AcDbPoint
 10
-123.4999999999999
 20
-300.0
 30
0.0
  0
POINT
  5
11FD
330
3211
100
AcDbEntity
  8
DEFPOINTS
 62
     0
100
AcDbPoint
 10
123.5
 20
-300.0
 30
0.0
  0
POINT
  5
11FE
330
3211
100
AcDbEntity
  8
DEFPOINTS
 62
     0
100
AcDbPoint
 10
123.5
 20
-563.8286022818904
 30
0.0
  0
ENDBLK
  5
11F5
330
3211
100
AcDbEntity
  8
0
100
AcDbBlockEnd
  0
BLOCK
  5
3214
330
3213
100
AcDbEntity
  8
0
100
AcDbBlockBegin
  2
*U19
 70
     1
 10
0.0
 20
0.0
 30
0.0
  3
*U19
  1

  0
TEXT
  5
1EED
330
3213
100
AcDbEntity
  8
NOTE
 62
     0
100
AcDbText
 10
-74.05714285714281
 20
-553.8286022818904
 30
0.0
 40
64.0
  1
247
 41
0.9
100
AcDbText
  0
ENDBLK
  5
1EEF
330
3213
100
AcDbEntity
  8
0
100
AcDbBlockEnd
  0
BLOCK
  5
3216
330
3215
100
AcDbEntity
  8
0
100
AcDbBlockBegin
  2
*D20
 70
     1
 10
0.0
 20
0.0
 30
0.0
  3
*D20
  1

  0
LINE
  5
1284
330
3215
100
AcDbEntity
  8
NOTE
 62
     0
100
AcDbLine
 10
-123.5
 20
12.0
 30
0.0
 11
-123.5
 21
71.83630134534229
 31
0.0
  0
LINE
  5
1285
330
3215
100
AcDbEntity
  8
NOTE
 62
     0
100
AcDbLine
 10
123.5
 20
12.0
 30
0.0
 11
123.5
 21
71.83630134534229
 31
0.0
  0
LINE
  5
1286
330
3215
100
AcDbEntity
  8
NOTE
 62
     0
100
AcDbLine
 10
-111.5
 20
51.83630134534229
 30
0.0
 11
111.5
 21
51.83630134534229
 31
0.0
  0
INSERT
  5
1287
330
3215
100
AcDbEntity
  8
NOTE
 62
     0
100
AcDbBlockReference
  2
_DOTBLANK
 10
-123.5
 20
51.83630134534229
 30
0.0
 41
12.0
 42
12.0
 43
12.0
 50
180.0
  0
INSERT
  5
1288
330
3215
100
AcDbEntity
  8
NOTE
 62
     0
100
AcDbBlockReference
  2
_DOTBLANK
 10
123.5
 20
51.83630134534229
 30
0.0
 41
12.0
 42
12.0
 43
12.0
  0
INSERT
  5
1289
330
3215
100
AcDbEntity
  8
0
100
AcDbBlockReference
  2
*U21
 10
0.0
 20
0.0
 30
0.0
  0
POINT
  5
128A
330
3215
100
AcDbEntity
  8
DEFPOINTS
 62
     0
100
AcDbPoint
 10
-123.5
 20
-8.0
 30
0.0
  0
POINT
  5
128B
330
3215
100
AcDbEntity
  8
DEFPOINTS
 62
     0
100
AcDbPoint
 10
123.5
 20
-8.0
 30
0.0
  0
POINT
  5
128C
330
3215
100
AcDbEntity
  8
DEFPOINTS
 62
     0
100
AcDbPoint
 10
123.5
 20
51.83630134534229
 30
0.0
  0
ENDBLK
  5
1283
330
3215
100
AcDbEntity
  8
0
100
AcDbBlockEnd
  0
BLOCK
  5
3218
330
3217
100
AcDbEntity
  8
0
100
AcDbBlockBegin
  2
*U21
 70
     1
 10
0.0
 20
0.0
 30
0.0
  3
*U21
  1

  0
TEXT
  5
1EF1
330
3217
100
AcDbEntity
  8
NOTE
 62
     0
100
AcDbText
 10
-74.05714285714283
 20
61.83630134534229
 30
0.0
 40
64.0
  1
247
 41
0.9
100
AcDbText
  0
ENDBLK
  5
1EF3
330
3217
100
AcDbEntity
  8
0
100
AcDbBlockEnd
  0
BLOCK
  5
321A
330
3219
100
AcDbEntity
  8
0
100
AcDbBlockBegin
  2
*D22
 70
     1
 10
0.0
 20
0.0
 30
0.0
  3
*D22
  1

  0
LINE
  5
1414
330
3219
100
AcDbEntity
  8
SIZE
 62
     0
100
AcDbLine
 10
-22313.11521613997
 20
7365.702971374808
 30
0.0
 11
-22313.11521613997
 21
7217.685576144207
 31
0.0
  0
LINE
  5
1415
330
3219
100
AcDbEntity
  8
SIZE
 62
     0
100
AcDbLine
 10
-22044.11521613997
 20
7365.702971374808
 30
0.0
 11
-22044.11521613997
 21
7217.685576144207
 31
0.0
  0
LINE
  5
1416
330
3219
100
AcDbEntity
  8
SIZE
 62
     0
100
AcDbLine
 10
-22301.11521613997
 20
7237.685576144207
 30
0.0
 11
-22056.11521613997
 21
7237.685576144207
 31
0.0
  0
INSERT
  5
1417
330
3219
100
AcDbEntity
  8
SIZE
 62
     0
100
AcDbBlockReference
  2
_DOTBLANK
 10
-22313.11521613997
 20
7237.685576144207
 30
0.0
 41
12.0
 42
12.0
 43
12.0
 50
180.0
  0
INSERT
  5
1418
330
3219
100
AcDbEntity
  8
SIZE
 62
     0
100
AcDbBlockReference
  2
_DOTBLANK
 10
-22044.11521613997
 20
7237.685576144207
 30
0.0
 41
12.0
 42
12.0
 43
12.0
  0
INSERT
  5
1419
330
3219
100
AcDbEntity
  8
0
100
AcDbBlockReference
  2
*U23
 10
0.0
 20
0.0
 30
0.0
  0
POINT
  5
141A
330
3219
100
AcDbEntity
  8
DEFPOINTS
 62
     0
100
AcDbPoint
 10
-22313.11521613997
 20
7385.702971374808
 30
0.0
  0
POINT
  5
141B
330
3219
100
AcDbEntity
  8
DEFPOINTS
 62
     0
100
AcDbPoint
 10
-22044.11521613997
 20
7385.702971374808
 30
0.0
  0
POINT
  5
141C
330
3219
100
AcDbEntity
  8
DEFPOINTS
 62
     0
100
AcDbPoint
 10
-22044.11521613997
 20
7237.685576144207
 30
0.0
  0
ENDBLK
  5
141D
330
3219
100
AcDbEntity
  8
0
100
AcDbBlockEnd
  0
BLOCK
  5
321C
330
321B
100
AcDbEntity
  8
0
100
AcDbBlockBegin
  2
*U23
 70
     1
 10
0.0
 20
0.0
 30
0.0
  3
*U23
  1

  0
TEXT
  5
1EF9
330
321B
100
AcDbEntity
  8
SIZE
 62
     0
100
AcDbText
 10
-22251.30093042568
 20
7247.685576144205
 30
0.0
 40
64.0
  1
269
 41
0.9
100
AcDbText
  0
ENDBLK
  5
1EFB
330
321B
100
AcDbEntity
  8
0
100
AcDbBlockEnd
  0
BLOCK
  5
321E
330
321D
100
AcDbEntity
  8
0
100
AcDbBlockBegin
  2
*D24
 70
     1
 10
0.0
 20
0.0
 30
0.0
  3
*D24
  1

  0
LINE
  5
1420
330
321D
100
AcDbEntity
  8
SIZE
  6
Continuous
 62
     0
100
AcDbLine
 10
-22035.11521613997
 20
7385.702971374808
 30
0.0
 11
-21873.97193165959
 21
7385.702971374808
 31
0.0
  0
LINE
  5
1421
330
321D
100
AcDbEntity
  8
SIZE
  6
Continuous
 62
     0
100
AcDbLine
 10
-22001.11521613997
 20
7685.702971374808
 30
0.0
 11
-21873.97193165959
 21
7685.702971374808
 31
0.0
  0
LINE
  5
1422
330
321D
100
AcDbEntity
  8
SIZE
  6
Continuous
 62
     0
100
AcDbLine
 10
-21893.97193165959
 20
7397.702971374808
 30
0.0
 11
-21893.97193165959
 21
7673.702971374808
 31
0.0
  0
INSERT
  5
1423
330
321D
100
AcDbEntity
  8
SIZE
  6
Continuous
 62
     0
100
AcDbBlockReference
  2
_DOTBLANK
 10
-21893.97193165959
 20
7385.702971374808
 30
0.0
 41
12.0
 42
12.0
 43
12.0
 50
270.0
  0
INSERT
  5
1424
330
321D
100
AcDbEntity
  8
SIZE
  6
Continuous
 62
     0
100
AcDbBlockReference
  2
_DOTBLANK
 10
-21893.97193165959
 20
7685.702971374808
 30
0.0
 41
12.0
 42
12.0
 43
12.0
 50
90.0
  0
INSERT
  5
1425
330
321D
100
AcDbEntity
  8
0
100
AcDbBlockReference
  2
*U25
 10
0.0
 20
0.0
 30
0.0
  0
POINT
  5
1426
330
321D
100
AcDbEntity
  8
DEFPOINTS
  6
Continuous
 62
     0
100
AcDbPoint
 10
-22055.11521613997
 20
7385.702971374808
 30
0.0
  0
POINT
  5
1427
330
321D
100
AcDbEntity
  8
DEFPOINTS
  6
Continuous
 62
     0
100
AcDbPoint
 10
-22021.11521613997
 20
7685.702971374808
 30
0.0
  0
POINT
  5
1428
330
321D
100
AcDbEntity
  8
DEFPOINTS
  6
Continuous
 62
     0
100
AcDbPoint
 10
-21893.97193165959
 20
7685.702971374808
 30
0.0
  0
ENDBLK
  5
1429
330
321D
100
AcDbEntity
  8
0
100
AcDbBlockEnd
  0
BLOCK
  5
3220
330
321F
100
AcDbEntity
  8
0
100
AcDbBlockBegin
  2
*U25
 70
     1
 10
0.0
 20
0.0
 30
0.0
  3
*U25
  1

  0
TEXT
  5
1EFD
330
321F
100
AcDbEntity
  8
SIZE
 62
     0
100
AcDbText
 10
-21903.97193165959
 20
7461.645828517662
 30
0.0
 40
64.0
  1
300
 50
90.0
 41
0.9
100
AcDbText
  0
ENDBLK
  5
1EFF
330
321F
100
AcDbEntity
  8
0
100
AcDbBlockEnd
  0
BLOCK
  5
3222
330
3221
100
AcDbEntity
  8
0
100
AcDbBlockBegin
  2
*D26
 70
     1
 10
0.0
 20
0.0
 30
0.0
  3
*D26
  1

  0
LINE
  5
142C
330
3221
100
AcDbEntity
  8
SIZE
 62
     0
100
AcDbLine
 10
-22318.61521613997
 20
7718.167454177002
 30
0.0
 11
-22318.61521613997
 21
7822.154659243358
 31
0.0
  0
LINE
  5
142D
330
3221
100
AcDbEntity
  8
SIZE
 62
     0
100
AcDbLine
 10
-22038.61521613997
 20
7718.167454177002
 30
0.0
 11
-22038.61521613997
 21
7822.154659243358
 31
0.0
  0
LINE
  5
142E
330
3221
100
AcDbEntity
  8
SIZE
 62
     0
100
AcDbLine
 10
-22306.61521613997
 20
7802.154659243358
 30
0.0
 11
-22050.61521613997
 21
7802.154659243358
 31
0.0
  0
INSERT
  5
142F
330
3221
100
AcDbEntity
  8
SIZE
 62
     0
100
AcDbBlockReference
  2
_DOTBLANK
 10
-22318.61521613997
 20
7802.154659243358
 30
0.0
 41
12.0
 42
12.0
 43
12.0
 50
180.0
  0
INSERT
  5
1430
330
3221
100
AcDbEntity
  8
SIZE
 62
     0
100
AcDbBlockReference
  2
_DOTBLANK
 10
-22038.61521613997
 20
7802.154659243358
 30
0.0
 41
12.0
 42
12.0
 43
12.0
  0
INSERT
  5
1431
330
3221
100
AcDbEntity
  8
0
100
AcDbBlockReference
  2
*U27
 10
0.0
 20
0.0
 30
0.0
  0
POINT
  5
1432
330
3221
100
AcDbEntity
  8
DEFPOINTS
 62
     0
100
AcDbPoint
 10
-22318.61521613997
 20
7698.167454177002
 30
0.0
  0
POINT
  5
1433
330
3221
100
AcDbEntity
  8
DEFPOINTS
 62
     0
100
AcDbPoint
 10
-22038.61521613997
 20
7698.167454177002
 30
0.0
  0
POINT
  5
1434
330
3221
100
AcDbEntity
  8
DEFPOINTS
 62
     0
100
AcDbPoint
 10
-22038.61521613997
 20
7802.154659243358
 30
0.0
  0
ENDBLK
  5
1435
330
3221
100
AcDbEntity
  8
0
100
AcDbBlockEnd
  0
BLOCK
  5
3224
330
3223
100
AcDbEntity
  8
0
100
AcDbBlockBegin
  2
*U27
 70
     1
 10
0.0
 20
0.0
 30
0.0
  3
*U27
  1

  0
TEXT
  5
1F01
330
3223
100
AcDbEntity
  8
SIZE
 62
     0
100
AcDbText
 10
-22252.6723589971
 20
7812.154659243358
 30
0.0
 40
64.0
  1
280
 41
0.9
100
AcDbText
  0
ENDBLK
  5
1F03
330
3223
100
AcDbEntity
  8
0
100
AcDbBlockEnd
  0
BLOCK
  5
3226
330
3225
100
AcDbEntity
  8
0
100
AcDbBlockBegin
  2
*D28
 70
     1
 10
0.0
 20
0.0
 30
0.0
  3
*D28
  1

  0
LINE
  5
1438
330
3225
100
AcDbEntity
  8
SIZE
 62
     0
100
AcDbLine
 10
-22336.11521613997
 20
7705.702971374808
 30
0.0
 11
-22336.11521613997
 21
7931.282433493766
 31
0.0
  0
LINE
  5
1439
330
3225
100
AcDbEntity
  8
SIZE
 62
     0
100
AcDbLine
 10
-22021.11521613997
 20
7705.702971374808
 30
0.0
 11
-22021.11521613997
 21
7931.282433493766
 31
0.0
  0
LINE
  5
143A
330
3225
100
AcDbEntity
  8
SIZE
 62
     0
100
AcDbLine
 10
-22324.11521613997
 20
7911.282433493766
 30
0.0
 11
-22033.11521613997
 21
7911.282433493766
 31
0.0
  0
INSERT
  5
143B
330
3225
100
AcDbEntity
  8
SIZE
 62
     0
100
AcDbBlockReference
  2
_DOTBLANK
 10
-22336.11521613997
 20
7911.282433493766
 30
0.0
 41
12.0
 42
12.0
 43
12.0
 50
180.0
  0
INSERT
  5
143C
330
3225
100
AcDbEntity
  8
SIZE
 62
     0
100
AcDbBlockReference
  2
_DOTBLANK
 10
-22021.11521613997
 20
7911.282433493766
 30
0.0
 41
12.0
 42
12.0
 43
12.0
  0
INSERT
  5
143D
330
3225
100
AcDbEntity
  8
0
100
AcDbBlockReference
  2
*U29
 10
0.0
 20
0.0
 30
0.0
  0
POINT
  5
143E
330
3225
100
AcDbEntity
  8
DEFPOINTS
 62
     0
100
AcDbPoint
 10
-22336.11521613997
 20
7685.702971374808
 30
0.0
  0
POINT
  5
143F
330
3225
100
AcDbEntity
  8
DEFPOINTS
 62
     0
100
AcDbPoint
 10
-22021.11521613997
 20
7685.702971374808
 30
0.0
  0
POINT
  5
1440
330
3225
100
AcDbEntity
  8
DEFPOINTS
 62
     0
100
AcDbPoint
 10
-22021.11521613997
 20
7911.282433493766
 30
0.0
  0
ENDBLK
  5
1441
330
3225
100
AcDbEntity
  8
0
100
AcDbBlockEnd
  0
BLOCK
  5
3228
330
3227
100
AcDbEntity
  8
0
100
AcDbBlockBegin
  2
*U29
 70
     1
 10
0.0
 20
0.0
 30
0.0
  3
*U29
  1

  0
TEXT
  5
1F05
330
3227
100
AcDbEntity
  8
SIZE
 62
     0
100
AcDbText
 10
-22247.18664471139
 20
7921.282433493766
 30
0.0
 40
64.0
  1
315
 41
0.9
100
AcDbText
  0
ENDBLK
  5
1F07
330
3227
100
AcDbEntity
  8
0
100
AcDbBlockEnd
  0
BLOCK
  5
322A
330
3229
100
AcDbEntity
  8
0
100
AcDbBlockBegin
  2
*D30
 70
     1
 10
0.0
 20
0.0
 30
0.0
  3
*D30
  1

  0
LINE
  5
166B
330
3229
100
AcDbEntity
  8
SIZE
 62
     0
100
AcDbLine
 10
-134.5
 20
-320.0
 30
0.0
 11
-134.5
 21
-468.0173952306001
 31
0.0
  0
LINE
  5
166C
330
3229
100
AcDbEntity
  8
SIZE
 62
     0
100
AcDbLine
 10
134.5
 20
-320.0
 30
0.0
 11
134.5
 21
-468.0173952306001
 31
0.0
  0
LINE
  5
166D
330
3229
100
AcDbEntity
  8
SIZE
 62
     0
100
AcDbLine
 10
-122.5
 20
-448.0173952306
 30
0.0
 11
122.5
 21
-448.0173952306
 31
0.0
  0
INSERT
  5
166E
330
3229
100
AcDbEntity
  8
SIZE
 62
     0
100
AcDbBlockReference
  2
_DOTBLANK
 10
-134.5
 20
-448.0173952306
 30
0.0
 41
12.0
 42
12.0
 43
12.0
 50
180.0
  0
INSERT
  5
166F
330
3229
100
AcDbEntity
  8
SIZE
 62
     0
100
AcDbBlockReference
  2
_DOTBLANK
 10
134.5
 20
-448.0173952306
 30
0.0
 41
12.0
 42
12.0
 43
12.0
  0
INSERT
  5
1670
330
3229
100
AcDbEntity
  8
0
100
AcDbBlockReference
  2
*U31
 10
0.0
 20
0.0
 30
0.0
  0
POINT
  5
1671
330
3229
100
AcDbEntity
  8
DEFPOINTS
 62
     0
100
AcDbPoint
 10
-134.5
 20
-300.0
 30
0.0
  0
POINT
  5
1672
330
3229
100
AcDbEntity
  8
DEFPOINTS
 62
     0
100
AcDbPoint
 10
134.5
 20
-300.0
 30
0.0
  0
POINT
  5
1673
330
3229
100
AcDbEntity
  8
DEFPOINTS
 62
     0
100
AcDbPoint
 10
134.5
 20
-448.0173952306
 30
0.0
  0
ENDBLK
  5
14A7
330
3229
100
AcDbEntity
  8
0
100
AcDbBlockEnd
  0
BLOCK
  5
322C
330
322B
100
AcDbEntity
  8
0
100
AcDbBlockBegin
  2
*U31
 70
     1
 10
0.0
 20
0.0
 30
0.0
  3
*U31
  1

  0
TEXT
  5
1F09
330
322B
100
AcDbEntity
  8
SIZE
 62
     0
100
AcDbText
 10
-72.68571428571426
 20
-438.0173952306002
 30
0.0
 40
64.0
  1
269
 41
0.9
100
AcDbText
  0
ENDBLK
  5
1F0B
330
322B
100
AcDbEntity
  8
0
100
AcDbBlockEnd
  0
BLOCK
  5
322E
330
322D
100
AcDbEntity
  8
0
100
AcDbBlockBegin
  2
*D32
 70
     1
 10
0.0
 20
0.0
 30
0.0
  3
*D32
  1

  0
LINE
  5
1674
330
322D
100
AcDbEntity
  8
SIZE
  6
Continuous
 62
     0
100
AcDbLine
 10
143.5
 20
-300.0
 30
0.0
 11
304.6432844803784
 21
-300.0
 31
0.0
  0
LINE
  5
1675
330
322D
100
AcDbEntity
  8
SIZE
  6
Continuous
 62
     0
100
AcDbLine
 10
177.5
 20
-0.0000000000000057
 30
0.0
 11
304.6432844803785
 21
-0.0000000000000417
 31
0.0
  0
LINE
  5
1676
330
322D
100
AcDbEntity
  8
SIZE
  6
Continuous
 62
     0
100
AcDbLine
 10
284.6432844803784
 20
-288.0000000000001
 30
0.0
 11
284.6432844803785
 21
-12.00000000000003
 31
0.0
  0
INSERT
  5
1677
330
322D
100
AcDbEntity
  8
SIZE
  6
Continuous
 62
     0
100
AcDbBlockReference
  2
_DOTBLANK
 10
284.6432844803784
 20
-300.0
 30
0.0
 41
12.0
 42
12.0
 43
12.0
 50
270.0
  0
INSERT
  5
1678
330
322D
100
AcDbEntity
  8
SIZE
  6
Continuous
 62
     0
100
AcDbBlockReference
  2
_DOTBLANK
 10
284.6432844803785
 20
-0.000000000000036
 30
0.0
 41
12.0
 42
12.0
 43
12.0
 50
90.0
  0
INSERT
  5
1679
330
322D
100
AcDbEntity
  8
0
100
AcDbBlockReference
  2
*U33
 10
0.0
 20
0.0
 30
0.0
  0
POINT
  5
167A
330
322D
100
AcDbEntity
  8
DEFPOINTS
  6
Continuous
 62
     0
100
AcDbPoint
 10
123.5
 20
-300.0
 30
0.0
  0
POINT
  5
167B
330
322D
100
AcDbEntity
  8
DEFPOINTS
  6
Continuous
 62
     0
100
AcDbPoint
 10
157.5
 20
0.0
 30
0.0
  0
POINT
  5
167C
330
322D
100
AcDbEntity
  8
DEFPOINTS
  6
Continuous
 62
     0
100
AcDbPoint
 10
284.6432844803785
 20
-0.000000000000036
 30
0.0
  0
ENDBLK
  5
14B3
330
322D
100
AcDbEntity
  8
0
100
AcDbBlockEnd
  0
BLOCK
  5
3230
330
322F
100
AcDbEntity
  8
0
100
AcDbBlockBegin
  2
*U33
 70
     1
 10
0.0
 20
0.0
 30
0.0
  3
*U33
  1

  0
TEXT
  5
1F0D
330
322F
100
AcDbEntity
  8
SIZE
 62
     0
100
AcDbText
 10
274.6432844803785
 20
-224.0571428571429
 30
0.0
 40
64.0
  1
300
 50
90.0
 41
0.9
100
AcDbText
  0
ENDBLK
  5
1F0F
330
322F
100
AcDbEntity
  8
0
100
AcDbBlockEnd
  0
BLOCK
  5
3232
330
3231
100
AcDbEntity
  8
0
100
AcDbBlockBegin
  2
*D34
 70
     1
 10
0.0
 20
0.0
 30
0.0
  3
*D34
  1

  0
LINE
  5
167D
330
3231
100
AcDbEntity
  8
SIZE
 62
     0
100
AcDbLine
 10
-140.0
 20
32.46448280219375
 30
0.0
 11
-140.0
 21
136.4516878685507
 31
0.0
  0
LINE
  5
167E
330
3231
100
AcDbEntity
  8
SIZE
 62
     0
100
AcDbLine
 10
140.0
 20
32.46448280219375
 30
0.0
 11
140.0
 21
136.4516878685507
 31
0.0
  0
LINE
  5
167F
330
3231
100
AcDbEntity
  8
SIZE
 62
     0
100
AcDbLine
 10
-128.0
 20
116.4516878685508
 30
0.0
 11
128.0
 21
116.4516878685508
 31
0.0
  0
INSERT
  5
1680
330
3231
100
AcDbEntity
  8
SIZE
 62
     0
100
AcDbBlockReference
  2
_DOTBLANK
 10
-140.0
 20
116.4516878685508
 30
0.0
 41
12.0
 42
12.0
 43
12.0
 50
180.0
  0
INSERT
  5
1681
330
3231
100
AcDbEntity
  8
SIZE
 62
     0
100
AcDbBlockReference
  2
_DOTBLANK
 10
140.0
 20
116.4516878685508
 30
0.0
 41
12.0
 42
12.0
 43
12.0
  0
INSERT
  5
1682
330
3231
100
AcDbEntity
  8
0
100
AcDbBlockReference
  2
*U35
 10
0.0
 20
0.0
 30
0.0
  0
POINT
  5
1683
330
3231
100
AcDbEntity
  8
DEFPOINTS
 62
     0
100
AcDbPoint
 10
-140.0
 20
12.46448280219374
 30
0.0
  0
POINT
  5
1684
330
3231
100
AcDbEntity
  8
DEFPOINTS
 62
     0
100
AcDbPoint
 10
140.0
 20
12.46448280219374
 30
0.0
  0
POINT
  5
1685
330
3231
100
AcDbEntity
  8
DEFPOINTS
 62
     0
100
AcDbPoint
 10
140.0
 20
116.4516878685508
 30
0.0
  0
ENDBLK
  5
14BF
330
3231
100
AcDbEntity
  8
0
100
AcDbBlockEnd
  0
BLOCK
  5
3234
330
3233
100
AcDbEntity
  8
0
100
AcDbBlockBegin
  2
*U35
 70
     1
 10
0.0
 20
0.0
 30
0.0
  3
*U35
  1

  0
TEXT
  5
1F11
330
3233
100
AcDbEntity
  8
SIZE
 62
     0
100
AcDbText
 10
-74.05714285714283
 20
126.4516878685507
 30
0.0
 40
64.0
  1
280
 41
0.9
100
AcDbText
  0
ENDBLK
  5
1F13
330
3233
100
AcDbEntity
  8
0
100
AcDbBlockEnd
  0
BLOCK
  5
3236
330
3235
100
AcDbEntity
  8
0
100
AcDbBlockBegin
  2
*D36
 70
     1
 10
0.0
 20
0.0
 30
0.0
  3
*D36
  1

  0
LINE
  5
1686
330
3235
100
AcDbEntity
  8
SIZE
 62
     0
100
AcDbLine
 10
-157.5
 20
20.0
 30
0.0
 11
-157.5
 21
245.5794621189598
 31
0.0
  0
LINE
  5
1687
330
3235
100
AcDbEntity
  8
SIZE
 62
     0
100
AcDbLine
 10
157.5
 20
20.0
 30
0.0
 11
157.5
 21
245.5794621189598
 31
0.0
  0
LINE
  5
1688
330
3235
100
AcDbEntity
  8
SIZE
 62
     0
100
AcDbLine
 10
-145.5
 20
225.5794621189598
 30
0.0
 11
145.5
 21
225.5794621189598
 31
0.0
  0
INSERT
  5
1689
330
3235
100
AcDbEntity
  8
SIZE
 62
     0
100
AcDbBlockReference
  2
_DOTBLANK
 10
-157.5
 20
225.5794621189598
 30
0.0
 41
12.0
 42
12.0
 43
12.0
 50
180.0
  0
INSERT
  5
168A
330
3235
100
AcDbEntity
  8
SIZE
 62
     0
100
AcDbBlockReference
  2
_DOTBLANK
 10
157.5
 20
225.5794621189598
 30
0.0
 41
12.0
 42
12.0
 43
12.0
  0
INSERT
  5
168B
330
3235
100
AcDbEntity
  8
0
100
AcDbBlockReference
  2
*U37
 10
0.0
 20
0.0
 30
0.0
  0
POINT
  5
168C
330
3235
100
AcDbEntity
  8
DEFPOINTS
 62
     0
100
AcDbPoint
 10
-157.5
 20
0.0
 30
0.0
  0
POINT
  5
168D
330
3235
100
AcDbEntity
  8
DEFPOINTS
 62
     0
100
AcDbPoint
 10
157.5
 20
0.0
 30
0.0
  0
POINT
  5
168E
330
3235
100
AcDbEntity
  8
DEFPOINTS
 62
     0
100
AcDbPoint
 10
157.5
 20
225.5794621189598
 30
0.0
  0
ENDBLK
  5
14CB
330
3235
100
AcDbEntity
  8
0
100
AcDbBlockEnd
  0
BLOCK
  5
3238
330
3237
100
AcDbEntity
  8
0
100
AcDbBlockBegin
  2
*U37
 70
     1
 10
0.0
 20
0.0
 30
0.0
  3
*U37
  1

  0
TEXT
  5
1F15
330
3237
100
AcDbEntity
  8
SIZE
 62
     0
100
AcDbText
 10
-68.57142857142857
 20
235.5794621189598
 30
0.0
 40
64.0
  1
315
 41
0.9
100
AcDbText
  0
ENDBLK
  5
1F17
330
3237
100
AcDbEntity
  8
0
100
AcDbBlockEnd
  0
BLOCK
  5
323A
330
3239
100
AcDbEntity
  8
0
100
AcDbBlockBegin
  2
*U38
 70
     1
 10
0.0
 20
0.0
 30
0.0
  3
*U38
  1

  0
ENDBLK
  5
15CF
330
3239
100
AcDbEntity
  8
0
100
AcDbBlockEnd
  0
BLOCK
  5
323C
330
323B
100
AcDbEntity
  8
0
100
AcDbBlockBegin
  2
*D39
 70
     1
 10
0.0
 20
0.0
 30
0.0
  3
*D39
  1

  0
LINE
  5
1692
330
323B
100
AcDbEntity
  8
SIZE
 62
     0
100
AcDbLine
 10
-25844.51823276502
 20
7685.702971374808
 30
0.0
 11
-25981.04465488371
 21
7685.702971374808
 31
0.0
  0
LINE
  5
1693
330
323B
100
AcDbEntity
  8
SIZE
 62
     0
100
AcDbLine
 10
-25844.51823276502
 20
7677.702971374808
 30
0.0
 11
-25981.04465488371
 21
7677.702971374808
 31
0.0
  0
LINE
  5
1694
330
323B
100
AcDbEntity
  8
SIZE
 62
     0
100
AcDbLine
 10
-25961.04465488371
 20
7697.702971374808
 30
0.0
 11
-25961.04465488371
 21
7709.702971374809
 31
0.0
  0
LINE
  5
1695
330
323B
100
AcDbEntity
  8
SIZE
 62
     0
100
AcDbLine
 10
-25961.04465488371
 20
7665.70297137481
 30
0.0
 11
-25961.04465488371
 21
7595.302971374808
 31
0.0
  0
INSERT
  5
1696
330
323B
100
AcDbEntity
  8
SIZE
 62
     0
100
AcDbBlockReference
  2
_DOTBLANK
 10
-25961.04465488371
 20
7685.702971374808
 30
0.0
 41
12.0
 42
12.0
 43
12.0
 50
270.0
  0
INSERT
  5
1697
330
323B
100
AcDbEntity
  8
SIZE
 62
     0
100
AcDbBlockReference
  2
_DOTBLANK
 10
-25961.04465488371
 20
7677.702971374808
 30
0.0
 41
12.0
 42
12.0
 43
12.0
 50
90.0
  0
INSERT
  5
1698
330
323B
100
AcDbEntity
  8
0
100
AcDbBlockReference
  2
*U40
 10
0.0
 20
0.0
 30
0.0
  0
POINT
  5
1699
330
323B
100
AcDbEntity
  8
DEFPOINTS
 62
     0
100
AcDbPoint
 10
-25824.51823276501
 20
7685.702971374808
 30
0.0
  0
POINT
  5
169A
330
323B
100
AcDbEntity
  8
DEFPOINTS
 62
     0
100
AcDbPoint
 10
-25824.51823276501
 20
7677.702971374808
 30
0.0
  0
POINT
  5
169B
330
323B
100
AcDbEntity
  8
DEFPOINTS
 62
     0
100
AcDbPoint
 10
-25961.04465488371
 20
7677.702971374808
 30
0.0
  0
ENDBLK
  5
169C
330
323B
100
AcDbEntity
  8
0
100
AcDbBlockEnd
  0
BLOCK
  5
323E
330
323D
100
AcDbEntity
  8
0
100
AcDbBlockBegin
  2
*U40
 70
     1
 10
0.0
 20
0.0
 30
0.0
  3
*U40
  1

  0
TEXT
  5
1F19
330
323D
100
AcDbEntity
  8
SIZE
 62
     0
100
AcDbText
 10
-25971.04465488371
 20
7605.302971374804
 30
0.0
 40
64.0
  1
8
 50
90.0
 41
0.9
100
AcDbText
  0
ENDBLK
  5
1F1B
330
323D
100
AcDbEntity
  8
0
100
AcDbBlockEnd
  0
BLOCK
  5
3240
330
323F
100
AcDbEntity
  8
0
100
AcDbBlockBegin
  2
*D41
 70
     1
 10
0.0
 20
0.0
 30
0.0
  3
*D41
  1

  0
LINE
  5
169F
330
323F
100
AcDbEntity
  8
SIZE
 62
     0
100
AcDbLine
 10
-25512.51823276502
 20
7385.702971374808
 30
0.0
 11
-25362.37494828464
 21
7385.702971374808
 31
0.0
  0
LINE
  5
16A0
330
323F
100
AcDbEntity
  8
SIZE
 62
     0
100
AcDbLine
 10
-25523.51823276501
 20
7373.702971374808
 30
0.0
 11
-25362.37494828464
 21
7373.702971374808
 31
0.0
  0
LINE
  5
16A1
330
323F
100
AcDbEntity
  8
SIZE
 62
     0
100
AcDbLine
 10
-25382.37494828464
 20
7397.702971374808
 30
0.0
 11
-25382.37494828464
 21
7409.70297137481
 31
0.0
  0
LINE
  5
16A2
330
323F
100
AcDbEntity
  8
SIZE
 62
     0
100
AcDbLine
 10
-25382.37494828464
 20
7361.702971374808
 30
0.0
 11
-25382.37494828464
 21
7244.674399946237
 31
0.0
  0
INSERT
  5
16A3
330
323F
100
AcDbEntity
  8
SIZE
 62
     0
100
AcDbBlockReference
  2
_DOTBLANK
 10
-25382.37494828464
 20
7385.702971374808
 30
0.0
 41
12.0
 42
12.0
 43
12.0
 50
270.0
  0
INSERT
  5
16A4
330
323F
100
AcDbEntity
  8
SIZE
 62
     0
100
AcDbBlockReference
  2
_DOTBLANK
 10
-25382.37494828464
 20
7373.702971374808
 30
0.0
 41
12.0
 42
12.0
 43
12.0
 50
90.0
  0
INSERT
  5
16A5
330
323F
100
AcDbEntity
  8
0
100
AcDbBlockReference
  2
*U42
 10
0.0
 20
0.0
 30
0.0
  0
POINT
  5
16A6
330
323F
100
AcDbEntity
  8
DEFPOINTS
 62
     0
100
AcDbPoint
 10
-25532.51823276502
 20
7385.702971374808
 30
0.0
  0
POINT
  5
16A7
330
323F
100
AcDbEntity
  8
DEFPOINTS
 62
     0
100
AcDbPoint
 10
-25543.51823276502
 20
7373.702971374808
 30
0.0
  0
POINT
  5
16A8
330
323F
100
AcDbEntity
  8
DEFPOINTS
 62
     0
100
AcDbPoint
 10
-25382.37494828464
 20
7373.702971374808
 30
0.0
  0
ENDBLK
  5
16A9
330
323F
100
AcDbEntity
  8
0
100
AcDbBlockEnd
  0
BLOCK
  5
3242
330
3241
100
AcDbEntity
  8
0
100
AcDbBlockBegin
  2
*U42
 70
     1
 10
0.0
 20
0.0
 30
0.0
  3
*U42
  1

  0
TEXT
  5
1F1D
330
3241
100
AcDbEntity
  8
SIZE
 62
     0
100
AcDbText
 10
-25392.37494828464
 20
7256.045828517662
 30
0.0
 40
64.0
  1
12
 50
90.0
 41
0.9
100
AcDbText
  0
ENDBLK
  5
1F1F
330
3241
100
AcDbEntity
  8
0
100
AcDbBlockEnd
  0
BLOCK
  5
3244
330
3243
100
AcDbEntity
  8
0
100
AcDbBlockBegin
  2
*D43
 70
     1
 10
0.0
 20
0.0
 30
0.0
  3
*D43
  1

  0
LINE
  5
16AC
330
3243
100
AcDbEntity
  8
SIZE
 62
     0
100
AcDbLine
 10
-25801.51823276501
 20
7365.702971374808
 30
0.0
 11
-25801.51823276501
 21
7217.685576144207
 31
0.0
  0
LINE
  5
16AD
330
3243
100
AcDbEntity
  8
SIZE
 62
     0
100
AcDbLine
 10
-25532.51823276502
 20
7365.702971374808
 30
0.0
 11
-25532.51823276502
 21
7217.685576144207
 31
0.0
  0
LINE
  5
16AE
330
3243
100
AcDbEntity
  8
SIZE
 62
     0
100
AcDbLine
 10
-25789.51823276502
 20
7237.685576144207
 30
0.0
 11
-25544.51823276501
 21
7237.685576144207
 31
0.0
  0
INSERT
  5
16AF
330
3243
100
AcDbEntity
  8
SIZE
 62
     0
100
AcDbBlockReference
  2
_DOTBLANK
 10
-25801.51823276501
 20
7237.685576144207
 30
0.0
 41
12.0
 42
12.0
 43
12.0
 50
180.0
  0
INSERT
  5
16B0
330
3243
100
AcDbEntity
  8
SIZE
 62
     0
100
AcDbBlockReference
  2
_DOTBLANK
 10
-25532.51823276502
 20
7237.685576144207
 30
0.0
 41
12.0
 42
12.0
 43
12.0
  0
INSERT
  5
16B1
330
3243
100
AcDbEntity
  8
0
100
AcDbBlockReference
  2
*U44
 10
0.0
 20
0.0
 30
0.0
  0
POINT
  5
16B2
330
3243
100
AcDbEntity
  8
DEFPOINTS
 62
     0
100
AcDbPoint
 10
-25801.51823276501
 20
7385.702971374808
 30
0.0
  0
POINT
  5
16B3
330
3243
100
AcDbEntity
  8
DEFPOINTS
 62
     0
100
AcDbPoint
 10
-25532.51823276502
 20
7385.702971374808
 30
0.0
  0
POINT
  5
16B4
330
3243
100
AcDbEntity
  8
DEFPOINTS
 62
     0
100
AcDbPoint
 10
-25532.51823276502
 20
7237.685576144207
 30
0.0
  0
ENDBLK
  5
16B5
330
3243
100
AcDbEntity
  8
0
100
AcDbBlockEnd
  0
BLOCK
  5
3246
330
3245
100
AcDbEntity
  8
0
100
AcDbBlockBegin
  2
*U44
 70
     1
 10
0.0
 20
0.0
 30
0.0
  3
*U44
  1

  0
TEXT
  5
1F21
330
3245
100
AcDbEntity
  8
SIZE
 62
     0
100
AcDbText
 10
-25739.70394705074
 20
7247.685576144205
 30
0.0
 40
64.0
  1
269
 41
0.9
100
AcDbText
  0
ENDBLK
  5
1F23
330
3245
100
AcDbEntity
  8
0
100
AcDbBlockEnd
  0
BLOCK
  5
3248
330
3247
100
AcDbEntity
  8
0
100
AcDbBlockBegin
  2
*D45
 70
     1
 10
0.0
 20
0.0
 30
0.0
  3
*D45
  1

  0
LINE
  5
16B8
330
3247
100
AcDbEntity
  8
SIZE
 62
     0
100
AcDbLine
 10
-25512.51823276502
 20
7385.702971374808
 30
0.0
 11
-25362.37494828464
 21
7385.702971374808
 31
0.0
  0
LINE
  5
16B9
330
3247
100
AcDbEntity
  8
SIZE
 62
     0
100
AcDbLine
 10
-25489.51823276501
 20
7685.702971374808
 30
0.0
 11
-25362.37494828464
 21
7685.702971374808
 31
0.0
  0
LINE
  5
16BA
330
3247
100
AcDbEntity
  8
SIZE
 62
     0
100
AcDbLine
 10
-25382.37494828464
 20
7397.702971374808
 30
0.0
 11
-25382.37494828464
 21
7673.702971374808
 31
0.0
  0
INSERT
  5
16BB
330
3247
100
AcDbEntity
  8
SIZE
 62
     0
100
AcDbBlockReference
  2
_DOTBLANK
 10
-25382.37494828464
 20
7385.702971374808
 30
0.0
 41
12.0
 42
12.0
 43
12.0
 50
270.0
  0
INSERT
  5
16BC
330
3247
100
AcDbEntity
  8
SIZE
 62
     0
100
AcDbBlockReference
  2
_DOTBLANK
 10
-25382.37494828464
 20
7685.702971374808
 30
0.0
 41
12.0
 42
12.0
 43
12.0
 50
90.0
  0
INSERT
  5
16BD
330
3247
100
AcDbEntity
  8
0
100
AcDbBlockReference
  2
*U46
 10
0.0
 20
0.0
 30
0.0
  0
POINT
  5
16BE
330
3247
100
AcDbEntity
  8
DEFPOINTS
 62
     0
100
AcDbPoint
 10
-25532.51823276502
 20
7385.702971374808
 30
0.0
  0
POINT
  5
16BF
330
3247
100
AcDbEntity
  8
DEFPOINTS
 62
     0
100
AcDbPoint
 10
-25509.51823276502
 20
7685.702971374808
 30
0.0
  0
POINT
  5
16C0
330
3247
100
AcDbEntity
  8
DEFPOINTS
 62
     0
100
AcDbPoint
 10
-25382.37494828464
 20
7685.702971374808
 30
0.0
  0
ENDBLK
  5
16C1
330
3247
100
AcDbEntity
  8
0
100
AcDbBlockEnd
  0
BLOCK
  5
324A
330
3249
100
AcDbEntity
  8
0
100
AcDbBlockBegin
  2
*U46
 70
     1
 10
0.0
 20
0.0
 30
0.0
  3
*U46
  1

  0
TEXT
  5
1F25
330
3249
100
AcDbEntity
  8
SIZE
 62
     0
100
AcDbText
 10
-25392.37494828464
 20
7461.645828517662
 30
0.0
 40
64.0
  1
300
 50
90.0
 41
0.9
100
AcDbText
  0
ENDBLK
  5
1F27
330
3249
100
AcDbEntity
  8
0
100
AcDbBlockEnd
  0
BLOCK
  5
324C
330
324B
100
AcDbEntity
  8
0
100
AcDbBlockBegin
  2
*D47
 70
     1
 10
0.0
 20
0.0
 30
0.0
  3
*D47
  1

  0
LINE
  5
16C4
330
324B
100
AcDbEntity
  8
SIZE
 62
     0
100
AcDbLine
 10
-25807.01823276501
 20
7718.167454177002
 30
0.0
 11
-25807.01823276501
 21
7822.154659243358
 31
0.0
  0
LINE
  5
16C5
330
324B
100
AcDbEntity
  8
SIZE
 62
     0
100
AcDbLine
 10
-25527.01823276501
 20
7718.167454177002
 30
0.0
 11
-25527.01823276501
 21
7822.154659243358
 31
0.0
  0
LINE
  5
16C6
330
324B
100
AcDbEntity
  8
SIZE
 62
     0
100
AcDbLine
 10
-25795.01823276502
 20
7802.154659243358
 30
0.0
 11
-25539.01823276501
 21
7802.154659243358
 31
0.0
  0
INSERT
  5
16C7
330
324B
100
AcDbEntity
  8
SIZE
 62
     0
100
AcDbBlockReference
  2
_DOTBLANK
 10
-25807.01823276501
 20
7802.154659243358
 30
0.0
 41
12.0
 42
12.0
 43
12.0
 50
180.0
  0
INSERT
  5
16C8
330
324B
100
AcDbEntity
  8
SIZE
 62
     0
100
AcDbBlockReference
  2
_DOTBLANK
 10
-25527.01823276501
 20
7802.154659243358
 30
0.0
 41
12.0
 42
12.0
 43
12.0
  0
INSERT
  5
16C9
330
324B
100
AcDbEntity
  8
0
100
AcDbBlockReference
  2
*U48
 10
0.0
 20
0.0
 30
0.0
  0
POINT
  5
16CA
330
324B
100
AcDbEntity
  8
DEFPOINTS
 62
     0
100
AcDbPoint
 10
-25807.01823276501
 20
7698.167454177002
 30
0.0
  0
POINT
  5
16CB
330
324B
100
AcDbEntity
  8
DEFPOINTS
 62
     0
100
AcDbPoint
 10
-25527.01823276501
 20
7698.167454177002
 30
0.0
  0
POINT
  5
16CC
330
324B
100
AcDbEntity
  8
DEFPOINTS
 62
     0
100
AcDbPoint
 10
-25527.01823276501
 20
7802.154659243358
 30
0.0
  0
ENDBLK
  5
16CD
330
324B
100
AcDbEntity
  8
0
100
AcDbBlockEnd
  0
BLOCK
  5
324E
330
324D
100
AcDbEntity
  8
0
100
AcDbBlockBegin
  2
*U48
 70
     1
 10
0.0
 20
0.0
 30
0.0
  3
*U48
  1

  0
TEXT
  5
1F29
330
324D
100
AcDbEntity
  8
SIZE
 62
     0
100
AcDbText
 10
-25741.07537562216
 20
7812.154659243358
 30
0.0
 40
64.0
  1
280
 41
0.9
100
AcDbText
  0
ENDBLK
  5
1F2B
330
324D
100
AcDbEntity
  8
0
100
AcDbBlockEnd
  0
BLOCK
  5
3250
330
324F
100
AcDbEntity
  8
0
100
AcDbBlockBegin
  2
*D49
 70
     1
 10
0.0
 20
0.0
 30
0.0
  3
*D49
  1

  0
LINE
  5
16D0
330
324F
100
AcDbEntity
  8
SIZE
 62
     0
100
AcDbLine
 10
-25824.51823276501
 20
7705.702971374808
 30
0.0
 11
-25824.51823276501
 21
7931.282433493766
 31
0.0
  0
LINE
  5
16D1
330
324F
100
AcDbEntity
  8
SIZE
 62
     0
100
AcDbLine
 10
-25509.51823276502
 20
7705.702971374808
 30
0.0
 11
-25509.51823276502
 21
7931.282433493766
 31
0.0
  0
LINE
  5
16D2
330
324F
100
AcDbEntity
  8
SIZE
 62
     0
100
AcDbLine
 10
-25812.51823276502
 20
7911.282433493766
 30
0.0
 11
-25521.51823276501
 21
7911.282433493766
 31
0.0
  0
INSERT
  5
16D3
330
324F
100
AcDbEntity
  8
SIZE
 62
     0
100
AcDbBlockReference
  2
_DOTBLANK
 10
-25824.51823276501
 20
7911.282433493766
 30
0.0
 41
12.0
 42
12.0
 43
12.0
 50
180.0
  0
INSERT
  5
16D4
330
324F
100
AcDbEntity
  8
SIZE
 62
     0
100
AcDbBlockReference
  2
_DOTBLANK
 10
-25509.51823276502
 20
7911.282433493766
 30
0.0
 41
12.0
 42
12.0
 43
12.0
  0
INSERT
  5
16D5
330
324F
100
AcDbEntity
  8
0
100
AcDbBlockReference
  2
*U50
 10
0.0
 20
0.0
 30
0.0
  0
POINT
  5
16D6
330
324F
100
AcDbEntity
  8
DEFPOINTS
 62
     0
100
AcDbPoint
 10
-25824.51823276501
 20
7685.702971374808
 30
0.0
  0
POINT
  5
16D7
330
324F
100
AcDbEntity
  8
DEFPOINTS
 62
     0
100
AcDbPoint
 10
-25509.51823276502
 20
7685.702971374808
 30
0.0
  0
POINT
  5
16D8
330
324F
100
AcDbEntity
  8
DEFPOINTS
 62
     0
100
AcDbPoint
 10
-25509.51823276502
 20
7911.282433493766
 30
0.0
  0
ENDBLK
  5
16D9
330
324F
100
AcDbEntity
  8
0
100
AcDbBlockEnd
  0
BLOCK
  5
3252
330
3251
100
AcDbEntity
  8
0
100
AcDbBlockBegin
  2
*U50
 70
     1
 10
0.0
 20
0.0
 30
0.0
  3
*U50
  1

  0
TEXT
  5
1F2D
330
3251
100
AcDbEntity
  8
SIZE
 62
     0
100
AcDbText
 10
-25735.58966133645
 20
7921.282433493766
 30
0.0
 40
64.0
  1
315
 41
0.9
100
AcDbText
  0
ENDBLK
  5
1F2F
330
3251
100
AcDbEntity
  8
0
100
AcDbBlockEnd
  0
BLOCK
  5
3254
330
3253
100
AcDbEntity
  8
0
100
AcDbBlockBegin
  2
*D51
 70
     1
 10
0.0
 20
0.0
 30
0.0
  3
*D51
  1

  0
LINE
  5
1D83
330
3253
100
AcDbEntity
  8
SIZE
 62
     0
100
AcDbLine
 10
-134.5
 20
-320.0
 30
0.0
 11
-134.5
 21
-468.0173952306001
 31
0.0
  0
LINE
  5
1D84
330
3253
100
AcDbEntity
  8
SIZE
 62
     0
100
AcDbLine
 10
134.5
 20
-320.0
 30
0.0
 11
134.5
 21
-468.0173952306001
 31
0.0
  0
LINE
  5
1D85
330
3253
100
AcDbEntity
  8
SIZE
 62
     0
100
AcDbLine
 10
-122.5
 20
-448.0173952306
 30
0.0
 11
122.5
 21
-448.0173952306
 31
0.0
  0
INSERT
  5
1D86
330
3253
100
AcDbEntity
  8
SIZE
 62
     0
100
AcDbBlockReference
  2
_DOTBLANK
 10
-134.5
 20
-448.0173952306
 30
0.0
 41
12.0
 42
12.0
 43
12.0
 50
180.0
  0
INSERT
  5
1D87
330
3253
100
AcDbEntity
  8
SIZE
 62
     0
100
AcDbBlockReference
  2
_DOTBLANK
 10
134.5
 20
-448.0173952306
 30
0.0
 41
12.0
 42
12.0
 43
12.0
  0
INSERT
  5
1D88
330
3253
100
AcDbEntity
  8
0
100
AcDbBlockReference
  2
*U52
 10
0.0
 20
0.0
 30
0.0
  0
POINT
  5
1D89
330
3253
100
AcDbEntity
  8
DEFPOINTS
 62
     0
100
AcDbPoint
 10
-134.5
 20
-300.0
 30
0.0
  0
POINT
  5
1D8A
330
3253
100
AcDbEntity
  8
DEFPOINTS
 62
     0
100
AcDbPoint
 10
134.5
 20
-300.0
 30
0.0
  0
POINT
  5
1D8B
330
3253
100
AcDbEntity
  8
DEFPOINTS
 62
     0
100
AcDbPoint
 10
134.5
 20
-448.0173952306
 30
0.0
  0
ENDBLK
  5
173D
330
3253
100
AcDbEntity
  8
0
100
AcDbBlockEnd
  0
BLOCK
  5
3256
330
3255
100
AcDbEntity
  8
0
100
AcDbBlockBegin
  2
*U52
 70
     1
 10
0.0
 20
0.0
 30
0.0
  3
*U52
  1

  0
TEXT
  5
1F31
330
3255
100
AcDbEntity
  8
SIZE
 62
     0
100
AcDbText
 10
-72.68571428571426
 20
-438.0173952306003
 30
0.0
 40
64.0
  1
269
 41
0.9
100
AcDbText
  0
ENDBLK
  5
1F33
330
3255
100
AcDbEntity
  8
0
100
AcDbBlockEnd
  0
BLOCK
  5
3258
330
3257
100
AcDbEntity
  8
0
100
AcDbBlockBegin
  2
*D53
 70
     1
 10
0.0
 20
0.0
 30
0.0
  3
*D53
  1

  0
LINE
  5
1D8C
330
3257
100
AcDbEntity
  8
SIZE
 62
     0
100
AcDbLine
 10
154.5
 20
-300.0
 30
0.0
 11
304.6432844803784
 21
-300.0
 31
0.0
  0
LINE
  5
1D8D
330
3257
100
AcDbEntity
  8
SIZE
 62
     0
100
AcDbLine
 10
177.5
 20
-0.0000000000000057
 30
0.0
 11
304.6432844803785
 21
-0.0000000000000417
 31
0.0
  0
LINE
  5
1D8E
330
3257
100
AcDbEntity
  8
SIZE
 62
     0
100
AcDbLine
 10
284.6432844803784
 20
-288.0
 30
0.0
 11
284.6432844803785
 21
-12.00000000000003
 31
0.0
  0
INSERT
  5
1D8F
330
3257
100
AcDbEntity
  8
SIZE
 62
     0
100
AcDbBlockReference
  2
_DOTBLANK
 10
284.6432844803784
 20
-300.0
 30
0.0
 41
12.0
 42
12.0
 43
12.0
 50
270.0
  0
INSERT
  5
1D90
330
3257
100
AcDbEntity
  8
SIZE
 62
     0
100
AcDbBlockReference
  2
_DOTBLANK
 10
284.6432844803785
 20
-0.000000000000036
 30
0.0
 41
12.0
 42
12.0
 43
12.0
 50
90.0
  0
INSERT
  5
1D91
330
3257
100
AcDbEntity
  8
0
100
AcDbBlockReference
  2
*U54
 10
0.0
 20
0.0
 30
0.0
  0
POINT
  5
1D92
330
3257
100
AcDbEntity
  8
DEFPOINTS
 62
     0
100
AcDbPoint
 10
134.5
 20
-300.0
 30
0.0
  0
POINT
  5
1D93
330
3257
100
AcDbEntity
  8
DEFPOINTS
 62
     0
100
AcDbPoint
 10
157.5
 20
0.0
 30
0.0
  0
POINT
  5
1D94
330
3257
100
AcDbEntity
  8
DEFPOINTS
 62
     0
100
AcDbPoint
 10
284.6432844803785
 20
-0.000000000000036
 30
0.0
  0
ENDBLK
  5
1749
330
3257
100
AcDbEntity
  8
0
100
AcDbBlockEnd
  0
BLOCK
  5
325A
330
3259
100
AcDbEntity
  8
0
100
AcDbBlockBegin
  2
*U54
 70
     1
 10
0.0
 20
0.0
 30
0.0
  3
*U54
  1

  0
TEXT
  5
1F35
330
3259
100
AcDbEntity
  8
SIZE
 62
     0
100
AcDbText
 10
274.6432844803785
 20
-224.0571428571429
 30
0.0
 40
64.0
  1
300
 50
90.0
 41
0.9
100
AcDbText
  0
ENDBLK
  5
1F37
330
3259
100
AcDbEntity
  8
0
100
AcDbBlockEnd
  0
BLOCK
  5
325C
330
325B
100
AcDbEntity
  8
0
100
AcDbBlockBegin
  2
*D55
 70
     1
 10
0.0
 20
0.0
 30
0.0
  3
*D55
  1

  0
LINE
  5
1D95
330
325B
100
AcDbEntity
  8
SIZE
 62
     0
100
AcDbLine
 10
-140.0
 20
32.46448280219375
 30
0.0
 11
-140.0
 21
136.4516878685508
 31
0.0
  0
LINE
  5
1D96
330
325B
100
AcDbEntity
  8
SIZE
 62
     0
100
AcDbLine
 10
140.0
 20
32.46448280219375
 30
0.0
 11
140.0
 21
136.4516878685508
 31
0.0
  0
LINE
  5
1D97
330
325B
100
AcDbEntity
  8
SIZE
 62
     0
100
AcDbLine
 10
-128.0
 20
116.4516878685508
 30
0.0
 11
128.0
 21
116.4516878685508
 31
0.0
  0
INSERT
  5
1D98
330
325B
100
AcDbEntity
  8
SIZE
 62
     0
100
AcDbBlockReference
  2
_DOTBLANK
 10
-140.0
 20
116.4516878685508
 30
0.0
 41
12.0
 42
12.0
 43
12.0
 50
180.0
  0
INSERT
  5
1D99
330
325B
100
AcDbEntity
  8
SIZE
 62
     0
100
AcDbBlockReference
  2
_DOTBLANK
 10
140.0
 20
116.4516878685508
 30
0.0
 41
12.0
 42
12.0
 43
12.0
  0
INSERT
  5
1D9A
330
325B
100
AcDbEntity
  8
0
100
AcDbBlockReference
  2
*U56
 10
0.0
 20
0.0
 30
0.0
  0
POINT
  5
1D9B
330
325B
100
AcDbEntity
  8
DEFPOINTS
 62
     0
100
AcDbPoint
 10
-140.0
 20
12.46448280219374
 30
0.0
  0
POINT
  5
1D9C
330
325B
100
AcDbEntity
  8
DEFPOINTS
 62
     0
100
AcDbPoint
 10
140.0
 20
12.46448280219374
 30
0.0
  0
POINT
  5
1D9D
330
325B
100
AcDbEntity
  8
DEFPOINTS
 62
     0
100
AcDbPoint
 10
140.0
 20
116.4516878685508
 30
0.0
  0
ENDBLK
  5
1755
330
325B
100
AcDbEntity
  8
0
100
AcDbBlockEnd
  0
BLOCK
  5
325E
330
325D
100
AcDbEntity
  8
0
100
AcDbBlockBegin
  2
*U56
 70
     1
 10
0.0
 20
0.0
 30
0.0
  3
*U56
  1

  0
TEXT
  5
1F39
330
325D
100
AcDbEntity
  8
SIZE
 62
     0
100
AcDbText
 10
-74.05714285714283
 20
126.4516878685508
 30
0.0
 40
64.0
  1
280
 41
0.9
100
AcDbText
  0
ENDBLK
  5
1F3B
330
325D
100
AcDbEntity
  8
0
100
AcDbBlockEnd
  0
BLOCK
  5
3260
330
325F
100
AcDbEntity
  8
0
100
AcDbBlockBegin
  2
*D57
 70
     1
 10
0.0
 20
0.0
 30
0.0
  3
*D57
  1

  0
LINE
  5
1D9E
330
325F
100
AcDbEntity
  8
SIZE
 62
     0
100
AcDbLine
 10
-157.5
 20
20.0
 30
0.0
 11
-157.5
 21
245.5794621189598
 31
0.0
  0
LINE
  5
1D9F
330
325F
100
AcDbEntity
  8
SIZE
 62
     0
100
AcDbLine
 10
157.5
 20
20.0
 30
0.0
 11
157.5
 21
245.5794621189598
 31
0.0
  0
LINE
  5
1DA0
330
325F
100
AcDbEntity
  8
SIZE
 62
     0
100
AcDbLine
 10
-145.5
 20
225.5794621189598
 30
0.0
 11
145.5
 21
225.5794621189598
 31
0.0
  0
INSERT
  5
1DA1
330
325F
100
AcDbEntity
  8
SIZE
 62
     0
100
AcDbBlockReference
  2
_DOTBLANK
 10
-157.5
 20
225.5794621189598
 30
0.0
 41
12.0
 42
12.0
 43
12.0
 50
180.0
  0
INSERT
  5
1DA2
330
325F
100
AcDbEntity
  8
SIZE
 62
     0
100
AcDbBlockReference
  2
_DOTBLANK
 10
157.5
 20
225.5794621189598
 30
0.0
 41
12.0
 42
12.0
 43
12.0
  0
INSERT
  5
1DA3
330
325F
100
AcDbEntity
  8
0
100
AcDbBlockReference
  2
*U58
 10
0.0
 20
0.0
 30
0.0
  0
POINT
  5
1DA4
330
325F
100
AcDbEntity
  8
DEFPOINTS
 62
     0
100
AcDbPoint
 10
-157.5
 20
0.0
 30
0.0
  0
POINT
  5
1DA5
330
325F
100
AcDbEntity
  8
DEFPOINTS
 62
     0
100
AcDbPoint
 10
157.5
 20
0.0
 30
0.0
  0
POINT
  5
1DA6
330
325F
100
AcDbEntity
  8
DEFPOINTS
 62
     0
100
AcDbPoint
 10
157.5
 20
225.5794621189598
 30
0.0
  0
ENDBLK
  5
1761
330
325F
100
AcDbEntity
  8
0
100
AcDbBlockEnd
  0
BLOCK
  5
3262
330
3261
100
AcDbEntity
  8
0
100
AcDbBlockBegin
  2
*U58
 70
     1
 10
0.0
 20
0.0
 30
0.0
  3
*U58
  1

  0
TEXT
  5
1F3D
330
3261
100
AcDbEntity
  8
SIZE
 62
     0
100
AcDbText
 10
-68.57142857142857
 20
235.5794621189599
 30
0.0
 40
64.0
  1
315
 41
0.9
100
AcDbText
  0
ENDBLK
  5
1F3F
330
3261
100
AcDbEntity
  8
0
100
AcDbBlockEnd
  0
BLOCK
  5
3264
330
3263
100
AcDbEntity
  8
0
100
AcDbBlockBegin
  2
*D59
 70
     1
 10
0.0
 20
0.0
 30
0.0
  3
*D59
  1

  0
LINE
  5
1DA7
330
3263
100
AcDbEntity
  8
SIZE
 62
     0
100
AcDbLine
 10
-177.5
 20
0.0000000000000057
 30
0.0
 11
-314.0264221186908
 21
0.0000000000000443
 31
0.0
  0
LINE
  5
1DA8
330
3263
100
AcDbEntity
  8
SIZE
 62
     0
100
AcDbLine
 10
-177.5
 20
-7.999999999999993
 30
0.0
 11
-314.0264221186908
 21
-7.999999999999958
 31
0.0
  0
LINE
  5
1DA9
330
3263
100
AcDbEntity
  8
SIZE
 62
     0
100
AcDbLine
 10
-294.0264221186908
 20
12.00000000000003
 30
0.0
 11
-294.0264221186908
 21
24.00000000000004
 31
0.0
  0
LINE
  5
1DAA
330
3263
100
AcDbEntity
  8
SIZE
 62
     0
100
AcDbLine
 10
-294.0264221186908
 20
-19.99999999999996
 30
0.0
 11
-294.0264221186908
 21
-90.39999999999997
 31
0.0
  0
INSERT
  5
1DAB
330
3263
100
AcDbEntity
  8
SIZE
 62
     0
100
AcDbBlockReference
  2
_DOTBLANK
 10
-294.0264221186908
 20
0.0000000000000387
 30
0.0
 41
12.0
 42
12.0
 43
12.0
 50
270.0
  0
INSERT
  5
1DAC
330
3263
100
AcDbEntity
  8
SIZE
 62
     0
100
AcDbBlockReference
  2
_DOTBLANK
 10
-294.0264221186908
 20
-7.999999999999961
 30
0.0
 41
12.0
 42
12.0
 43
12.0
 50
90.0
  0
INSERT
  5
1DAD
330
3263
100
AcDbEntity
  8
0
100
AcDbBlockReference
  2
*U60
 10
0.0
 20
0.0
 30
0.0
  0
POINT
  5
1DAE
330
3263
100
AcDbEntity
  8
DEFPOINTS
 62
     0
100
AcDbPoint
 10
-157.5
 20
0.0
 30
0.0
  0
POINT
  5
1DAF
330
3263
100
AcDbEntity
  8
DEFPOINTS
 62
     0
100
AcDbPoint
 10
-157.5
 20
-8.000000000000003
 30
0.0
  0
POINT
  5
1DB0
330
3263
100
AcDbEntity
  8
DEFPOINTS
 62
     0
100
AcDbPoint
 10
-294.0264221186908
 20
-7.999999999999961
 30
0.0
  0
ENDBLK
  5
176D
330
3263
100
AcDbEntity
  8
0
100
AcDbBlockEnd
  0
BLOCK
  5
3266
330
3265
100
AcDbEntity
  8
0
100
AcDbBlockBegin
  2
*U60
 70
     1
 10
0.0
 20
0.0
 30
0.0
  3
*U60
  1

  0
TEXT
  5
1F41
330
3265
100
AcDbEntity
  8
SIZE
 62
     0
100
AcDbText
 10
-304.0264221186908
 20
-80.4
 30
0.0
 40
64.0
  1
8
 50
90.0
 41
0.9
100
AcDbText
  0
ENDBLK
  5
1F43
330
3265
100
AcDbEntity
  8
0
100
AcDbBlockEnd
  0
BLOCK
  5
3268
330
3267
100
AcDbEntity
  8
0
100
AcDbBlockBegin
  2
*D61
 70
     1
 10
0.0
 20
0.0
 30
0.0
  3
*D61
  1

  0
LINE
  5
1DB1
330
3267
100
AcDbEntity
  8
SIZE
 62
     0
100
AcDbLine
 10
154.5
 20
-300.0
 30
0.0
 11
304.6432844803785
 21
-300.0
 31
0.0
  0
LINE
  5
1DB2
330
3267
100
AcDbEntity
  8
SIZE
 62
     0
100
AcDbLine
 10
143.5
 20
-312.0
 30
0.0
 11
304.6432844803785
 21
-312.0
 31
0.0
  0
LINE
  5
1DB3
330
3267
100
AcDbEntity
  8
SIZE
 62
     0
100
AcDbLine
 10
284.6432844803785
 20
-288.0
 30
0.0
 11
284.6432844803785
 21
-276.0
 31
0.0
  0
LINE
  5
1DB4
330
3267
100
AcDbEntity
  8
SIZE
 62
     0
100
AcDbLine
 10
284.6432844803785
 20
-324.0000000000001
 30
0.0
 11
284.6432844803784
 21
-438.2857142857143
 31
0.0
  0
INSERT
  5
1DB5
330
3267
100
AcDbEntity
  8
SIZE
 62
     0
100
AcDbBlockReference
  2
_DOTBLANK
 10
284.6432844803785
 20
-300.0
 30
0.0
 41
12.0
 42
12.0
 43
12.0
 50
270.0
  0
INSERT
  5
1DB6
330
3267
100
AcDbEntity
  8
SIZE
 62
     0
100
AcDbBlockReference
  2
_DOTBLANK
 10
284.6432844803785
 20
-312.0
 30
0.0
 41
12.0
 42
12.0
 43
12.0
 50
90.0
  0
INSERT
  5
1DB7
330
3267
100
AcDbEntity
  8
0
100
AcDbBlockReference
  2
*U62
 10
0.0
 20
0.0
 30
0.0
  0
POINT
  5
1DB8
330
3267
100
AcDbEntity
  8
DEFPOINTS
 62
     0
100
AcDbPoint
 10
134.5
 20
-300.0
 30
0.0
  0
POINT
  5
1DB9
330
3267
100
AcDbEntity
  8
DEFPOINTS
 62
     0
100
AcDbPoint
 10
123.5
 20
-312.0
 30
0.0
  0
POINT
  5
1DBA
330
3267
100
AcDbEntity
  8
DEFPOINTS
 62
     0
100
AcDbPoint
 10
284.6432844803785
 20
-312.0
 30
0.0
  0
ENDBLK
  5
177B
330
3267
100
AcDbEntity
  8
0
100
AcDbBlockEnd
  0
BLOCK
  5
326A
330
3269
100
AcDbEntity
  8
0
100
AcDbBlockBegin
  2
*U62
 70
     1
 10
0.0
 20
0.0
 30
0.0
  3
*U62
  1

  0
TEXT
  5
1F45
330
3269
100
AcDbEntity
  8
SIZE
 62
     0
100
AcDbText
 10
274.6432844803785
 20
-428.2857142857142
 30
0.0
 40
64.0
  1
12
 50
90.0
 41
0.9
100
AcDbText
  0
ENDBLK
  5
1F47
330
3269
100
AcDbEntity
  8
0
100
AcDbBlockEnd
  0
BLOCK
  5
326C
330
326B
100
AcDbEntity
  8
0
100
AcDbBlockBegin
  2
*U63
 70
     1
 10
0.0
 20
0.0
 30
0.0
  3
*U63
  1

  0
ENDBLK
  5
1D57
330
326B
100
AcDbEntity
  8
0
100
AcDbBlockEnd
  0
BLOCK
  5
326E
330
326D
100
AcDbEntity
  8
0
100
AcDbBlockBegin
  2
*U64
 70
     1
 10
0.0
 20
0.0
 30
0.0
  3
*U64
  1

  0
INSERT
  5
2087
330
326D
100
AcDbEntity
  8
NOTE
100
AcDbBlockReference
  2
_OPEN30
 10
140.0
 20
140.0000000000004
 30
0.0
 41
12.0
 42
12.0
 43
12.0
 50
232.3258907693334
  0
POLYLINE
  5
2088
330
326D
100
AcDbEntity
  8
NOTE
100
AcDb2dPolyline
 66
     1
 10
0.0
 20
0.0
 30
0.0
  0
VERTEX
  5
24DE
330
2088
100
AcDbEntity
  8
NOTE
100
AcDbVertex
100
AcDb2dVertex
 10
147.3340332839448
 20
149.4979974620968
 30
0.0
  0
VERTEX
  5
24DF
330
2088
100
AcDbEntity
  8
NOTE
100
AcDbVertex
100
AcDb2dVertex
 10
213.7628007872081
 20
235.527095058013
 30
0.0
  0
VERTEX
  5
24E0
330
2088
100
AcDbEntity
  8
NOTE
100
AcDbVertex
100
AcDb2dVertex
 10
759.6028007872081
 20
235.527095058013
 30
0.0
  0
SEQEND
  5
24E1
330
2088
100
AcDbEntity
  8
NOTE
  0
ENDBLK
  5
2089
330
326D
100
AcDbEntity
  8
0
100
AcDbBlockEnd
  0
BLOCK
  5
3270
330
326F
100
AcDbEntity
  8
0
100
AcDbBlockBegin
  2
*U65
 70
     1
 10
0.0
 20
0.0
 30
0.0
  3
*U65
  1

  0
TEXT
  5
208C
330
326F
100
AcDbEntity
  8
NOTE
100
AcDbText
 10
275.7628007872081
 20
253.5270950580129
 30
0.0
 40
64.0
  1
4×φ10取付穴
 41
0.9
100
AcDbText
  0
ENDBLK
  5
208D
330
326F
100
AcDbEntity
  8
0
100
AcDbBlockEnd
  0
BLOCK
  5
3272
330
3271
100
AcDbEntity
  8
0
100
AcDbBlockBegin
  2
*U66
 70
     1
 10
0.0
 20
0.0
 30
0.0
  3
*U66
  1

  0
INSERT
  5
2187
330
3271
100
AcDbEntity
  8
NOTE
100
AcDbBlockReference
  2
_OPEN30
 10
0.0
 20
140.0000000000002
 30
0.0
 41
12.0
 42
12.0
 43
12.0
 50
312.6090116116895
  0
POLYLINE
  5
2188
330
3271
100
AcDbEntity
  8
NOTE
100
AcDb2dPolyline
 66
     1
 10
0.0
 20
0.0
 30
0.0
  0
VERTEX
  5
24EC
330
2188
100
AcDbEntity
  8
NOTE
100
AcDbVertex
100
AcDb2dVertex
 10
-8.123900836189513
 20
148.8318874089156
 30
0.0
  0
VERTEX
  5
24ED
330
2188
100
AcDbEntity
  8
NOTE
100
AcDbVertex
100
AcDb2dVertex
 10
-87.86939999225436
 20
235.5270950580132
 30
0.0
  0
VERTEX
  5
24EE
330
2188
100
AcDbEntity
  8
NOTE
100
AcDbVertex
100
AcDb2dVertex
 10
-633.7093999922545
 20
235.5270950580132
 30
0.0
  0
SEQEND
  5
24EF
330
2188
100
AcDbEntity
  8
NOTE
  0
ENDBLK
  5
2189
330
3271
100
AcDbEntity
  8
0
100
AcDbBlockEnd
  0
BLOCK
  5
3274
330
3273
100
AcDbEntity
  8
0
100
AcDbBlockBegin
  2
*U67
 70
     1
 10
0.0
 20
0.0
 30
0.0
  3
*U67
  1

  0
TEXT
  5
218C
330
3273
100
AcDbEntity
  8
NOTE
100
AcDbText
 10
-633.7093999922545
 20
253.5270950580132
 30
0.0
 40
64.0
  1
4×φ10取付穴
 41
0.9
100
AcDbText
  0
ENDBLK
  5
218D
330
3273
100
AcDbEntity
  8
0
100
AcDbBlockEnd
  0
BLOCK
  5
3276
330
3275
100
AcDbEntity
  8
0
100
AcDbBlockBegin
  2
*U68
 70
     1
 10
0.0
 20
0.0
 30
0.0
  3
*U68
  1

  0
INSERT
  5
22A2
330
3275
100
AcDbEntity
  8
NOTE
100
AcDbBlockReference
  2
_OPEN30
 10
0.0
 20
140.0000000000002
 30
0.0
 41
12.0
 42
12.0
 43
12.0
 50
227.3909883883105
  0
POLYLINE
  5
22A3
330
3275
100
AcDbEntity
  8
NOTE
100
AcDb2dPolyline
 66
     1
 10
0.0
 20
0.0
 30
0.0
  0
VERTEX
  5
24F0
330
22A3
100
AcDbEntity
  8
NOTE
100
AcDbVertex
100
AcDb2dVertex
 10
8.123900836189513
 20
148.8318874089156
 30
0.0
  0
VERTEX
  5
24F1
330
22A3
100
AcDbEntity
  8
NOTE
100
AcDbVertex
100
AcDb2dVertex
 10
87.86939999225436
 20
235.5270950580132
 30
0.0
  0
VERTEX
  5
24F2
330
22A3
100
AcDbEntity
  8
NOTE
100
AcDbVertex
100
AcDb2dVertex
 10
633.7093999922545
 20
235.5270950580132
 30
0.0
  0
SEQEND
  5
24F3
330
22A3
100
AcDbEntity
  8
NOTE
  0
ENDBLK
  5
22A4
330
3275
100
AcDbEntity
  8
0
100
AcDbBlockEnd
  0
BLOCK
  5
3278
330
3277
100
AcDbEntity
  8
0
100
AcDbBlockBegin
  2
*U69
 70
     1
 10
0.0
 20
0.0
 30
0.0
  3
*U69
  1

  0
TEXT
  5
22A7
330
3277
100
AcDbEntity
  8
NOTE
100
AcDbText
 10
149.8693999922543
 20
253.5270950580132
 30
0.0
 40
64.0
  1
4×φ10取付穴
 41
0.9
100
AcDbText
  0
ENDBLK
  5
22A8
330
3277
100
AcDbEntity
  8
0
100
AcDbBlockEnd
  0
BLOCK
  5
327A
330
3279
100
AcDbEntity
  8
0
100
AcDbBlockBegin
  2
*U70
 70
     1
 10
0.0
 20
0.0
 30
0.0
  3
*U70
  1

  0
INSERT
  5
23C1
330
3279
100
AcDbEntity
  8
NOTE
100
AcDbBlockReference
  2
_OPEN30
 10
-140.0
 20
0.0000000986733539
 30
0.0
 41
12.0
 42
12.0
 43
12.0
 50
312.6090116116894
  0
POLYLINE
  5
23C2
330
3279
100
AcDbEntity
  8
NOTE
100
AcDb2dPolyline
 66
     1
 10
0.0
 20
0.0
 30
0.0
  0
VERTEX
  5
24F4
330
23C2
100
AcDbEntity
  8
NOTE
100
AcDbVertex
100
AcDb2dVertex
 10
-148.1239008361894
 20
8.831887507588826
 30
0.0
  0
VERTEX
  5
24F5
330
23C2
100
AcDbEntity
  8
NOTE
100
AcDbVertex
100
AcDb2dVertex
 10
-227.8693999922543
 20
95.52709515668672
 30
0.0
  0
VERTEX
  5
24F6
330
23C2
100
AcDbEntity
  8
NOTE
100
AcDbVertex
100
AcDb2dVertex
 10
-773.7093999922541
 20
95.52709515668672
 30
0.0
  0
SEQEND
  5
24F7
330
23C2
100
AcDbEntity
  8
NOTE
  0
ENDBLK
  5
23C3
330
3279
100
AcDbEntity
  8
0
100
AcDbBlockEnd
  0
BLOCK
  5
327C
330
327B
100
AcDbEntity
  8
0
100
AcDbBlockBegin
  2
*U71
 70
     1
 10
0.0
 20
0.0
 30
0.0
  3
*U71
  1

  0
TEXT
  5
23C6
330
327B
100
AcDbEntity
  8
NOTE
100
AcDbText
 10
-773.7093999922541
 20
113.5270951566867
 30
0.0
 40
64.0
  1
4×φ10取付穴
 41
0.9
100
AcDbText
  0
ENDBLK
  5
23C7
330
327B
100
AcDbEntity
  8
0
100
AcDbBlockEnd
  0
BLOCK
  5
327E
330
327D
100
AcDbEntity
  8
0
100
AcDbBlockBegin
  2
*X72
 70
     1
 10
0.0
 20
0.0
 30
0.0
  3
*X72
  1

  0
LINE
  5
23CA
330
327D
100
AcDbEntity
  8
0
 62
     0
100
AcDbLine
 10
-107.9000000000105
 20
-284.1876545535052
 30
0.0
 11
-107.4540745344257
 21
-284.3999999013267
 31
0.0
  0
LINE
  5
23CB
330
327D
100
AcDbEntity
  8
0
 62
     0
100
AcDbLine
 10
-107.9000000000105
 20
-274.1877028093704
 30
0.0
 11
-86.45416479743472
 21
-284.3999999013267
 31
0.0
  0
LINE
  5
23CC
330
327D
100
AcDbEntity
  8
0
 62
     0
100
AcDbLine
 10
-107.9000000000087
 20
-264.1877510652366
 30
0.0
 11
-65.45425506044376
 21
-284.3999999013267
 31
0.0
  0
LINE
  5
23CD
330
327D
100
AcDbEntity
  8
0
 62
     0
100
AcDbLine
 10
-107.9000000000105
 20
-254.187799321101
 30
0.0
 11
-44.4543453234528
 21
-284.3999999013267
 31
0.0
  0
LINE
  5
23CE
330
327D
100
AcDbEntity
  8
0
 62
     0
100
AcDbLine
 10
-107.9000000000087
 20
-244.187847576969
 30
0.0
 11
-23.45443558646184
 21
-284.3999999013286
 31
0.0
  0
LINE
  5
23CF
330
327D
100
AcDbEntity
  8
0
 62
     0
100
AcDbLine
 10
-107.9000000000105
 20
-234.1878958328333
 30
0.0
 11
-2.454525849469062
 21
-284.3999999013277
 31
0.0
  0
LINE
  5
23D0
330
327D
100
AcDbEntity
  8
0
 62
     0
100
AcDbLine
 10
-107.9000000000087
 20
-224.1879440886996
 30
0.0
 11
18.54538388752007
 21
-284.3999999013277
 31
0.0
  0
LINE
  5
23D1
330
327D
100
AcDbEntity
  8
0
 62
     0
100
AcDbLine
 10
-107.9000000000105
 20
-214.187992344564
 30
0.0
 11
39.54529362451103
 21
-284.3999999013277
 31
0.0
  0
LINE
  5
23D2
330
327D
100
AcDbEntity
  8
0
 62
     0
100
AcDbLine
 10
-107.9000000000105
 20
-204.1880406004284
 30
0.0
 11
60.54520336150381
 21
-284.3999999013277
 31
0.0
  0
LINE
  5
23D3
330
327D
100
AcDbEntity
  8
0
 62
     0
100
AcDbLine
 10
-107.9000000000123
 20
-194.1880888562964
 30
0.0
 11
81.54511309848748
 21
-284.3999999013267
 31
0.0
  0
LINE
  5
23D4
330
327D
100
AcDbEntity
  8
0
 62
     0
100
AcDbLine
 10
-107.9000000000105
 20
-184.1881371121608
 30
0.0
 11
102.5450228354784
 21
-284.3999999013258
 31
0.0
  0
LINE
  5
23D5
330
327D
100
AcDbEntity
  8
0
 62
     0
100
AcDbLine
 10
-107.9000000000087
 20
-174.188185368027
 30
0.0
 11
107.8999999999923
 21
-276.9500359384119
 31
0.0
  0
LINE
  5
23D6
330
327D
100
AcDbEntity
  8
0
 62
     0
100
AcDbLine
 10
-107.9000000000123
 20
-164.1882336238914
 30
0.0
 11
107.8999999999887
 21
-266.9500841942772
 31
0.0
  0
LINE
  5
23D7
330
327D
100
AcDbEntity
  8
0
 62
     0
100
AcDbLine
 10
-107.9000000000105
 20
-154.1882818797576
 30
0.0
 11
107.8999999999923
 21
-256.9501324501434
 31
0.0
  0
LINE
  5
23D8
330
327D
100
AcDbEntity
  8
0
 62
     0
100
AcDbLine
 10
-107.9000000000123
 20
-144.1883301356219
 30
0.0
 11
107.8999999999905
 21
-246.9501807060078
 31
0.0
  0
LINE
  5
23D9
330
327D
100
AcDbEntity
  8
0
 62
     0
100
AcDbLine
 10
-107.9000000000087
 20
-134.18837839149
 30
0.0
 11
107.8999999999905
 21
-236.9502289618758
 31
0.0
  0
LINE
  5
23DA
330
327D
100
AcDbEntity
  8
0
 62
     0
100
AcDbLine
 10
-107.9000000000087
 20
-124.1884266473544
 30
0.0
 11
107.8999999999923
 21
-226.9502772177402
 31
0.0
  0
LINE
  5
23DB
330
327D
100
AcDbEntity
  8
0
 62
     0
100
AcDbLine
 10
-107.9000000000123
 20
-114.1884749032187
 30
0.0
 11
107.8999999999923
 21
-216.9503254736064
 31
0.0
  0
LINE
  5
23DC
330
327D
100
AcDbEntity
  8
0
 62
     0
100
AcDbLine
 10
-107.9000000000105
 20
-104.188523159085
 30
0.0
 11
107.8999999999923
 21
-206.9503737294708
 31
0.0
  0
LINE
  5
23DD
330
327D
100
AcDbEntity
  8
0
 62
     0
100
AcDbLine
 10
-107.9000000000087
 20
-94.18857141494937
 30
0.0
 11
107.8999999999905
 21
-196.9504219853352
 31
0.0
  0
LINE
  5
23DE
330
327D
100
AcDbEntity
  8
0
 62
     0
100
AcDbLine
 10
-94.43609441574514
 20
-90.59999990132743
 30
0.0
 11
107.8999999999905
 21
-186.9504702412032
 31
0.0
  0
LINE
  5
23DF
330
327D
100
AcDbEntity
  8
0
 62
     0
100
AcDbLine
 10
-73.43618467875237
 20
-90.59999990132743
 30
0.0
 11
107.8999999999905
 21
-176.9505184970676
 31
0.0
  0
LINE
  5
23E0
330
327D
100
AcDbEntity
  8
0
 62
     0
100
AcDbLine
 10
-52.43627494176144
 20
-90.59999990132743
 30
0.0
 11
107.8999999999923
 21
-166.9505667529338
 31
0.0
  0
LINE
  5
23E1
330
327D
100
AcDbEntity
  8
0
 62
     0
100
AcDbLine
 10
-31.43636520477048
 20
-90.59999990132743
 30
0.0
 11
107.8999999999905
 21
-156.9506150087981
 31
0.0
  0
LINE
  5
23E2
330
327D
100
AcDbEntity
  8
0
 62
     0
100
AcDbLine
 10
-10.43645546777952
 20
-90.59999990132743
 30
0.0
 11
107.8999999999923
 21
-146.9506632646644
 31
0.0
  0
LINE
  5
23E3
330
327D
100
AcDbEntity
  8
0
 62
     0
100
AcDbLine
 10
10.56345426921325
 20
-90.59999990132743
 30
0.0
 11
107.8999999999905
 21
-136.9507115205288
 31
0.0
  0
LINE
  5
23E4
330
327D
100
AcDbEntity
  8
0
 62
     0
100
AcDbLine
 10
31.56336400620239
 20
-90.59999990132928
 30
0.0
 11
107.8999999999923
 21
-126.9507597763968
 31
0.0
  0
LINE
  5
23E5
330
327D
100
AcDbEntity
  8
0
 62
     0
100
AcDbLine
 10
52.56327374319335
 20
-90.59999990132832
 30
0.0
 11
107.8999999999905
 21
-116.9508080322612
 31
0.0
  0
LINE
  5
23E6
330
327D
100
AcDbEntity
  8
0
 62
     0
100
AcDbLine
 10
73.56318348018611
 20
-90.59999990132832
 30
0.0
 11
107.8999999999905
 21
-106.9508562881255
 31
0.0
  0
LINE
  5
23E7
330
327D
100
AcDbEntity
  8
0
 62
     0
100
AcDbLine
 10
94.56309321717162
 20
-90.59999990132743
 30
0.0
 11
107.8999999999905
 21
-96.95090454399178
 31
0.0
  0
ENDBLK
  5
23E8
330
327D
100
AcDbEntity
  8
0
100
AcDbBlockEnd
  0
BLOCK
  5
3280
330
327F
100
AcDbEntity
  8
0
100
AcDbBlockBegin
  2
*X73
 70
     1
 10
0.0
 20
0.0
 30
0.0
  3
*X73
  1

  0
LINE
  5
23EB
330
327F
100
AcDbEntity
  8
0
 62
     0
100
AcDbLine
 10
107.4107424549183
 20
-284.3999999013267
 30
0.0
 11
107.8999999999978
 21
-284.1670202408188
 31
0.0
  0
LINE
  5
23EC
330
327F
100
AcDbEntity
  8
0
 62
     0
100
AcDbLine
 10
86.41083271792741
 20
-284.3999999013267
 30
0.0
 11
107.8999999999942
 21
-274.1670684966848
 31
0.0
  0
LINE
  5
23ED
330
327F
100
AcDbEntity
  8
0
 62
     0
100
AcDbLine
 10
65.4109229809401
 20
-284.3999999013267
 30
0.0
 11
107.8999999999978
 21
-264.167116752551
 31
0.0
  0
LINE
  5
23EE
330
327F
100
AcDbEntity
  8
0
 62
     0
100
AcDbLine
 10
44.41101324394913
 20
-284.3999999013267
 30
0.0
 11
107.8999999999978
 21
-254.1671650084154
 31
0.0
  0
LINE
  5
23EF
330
327F
100
AcDbEntity
  8
0
 62
     0
100
AcDbLine
 10
23.41110350695817
 20
-284.3999999013267
 30
0.0
 11
107.8999999999978
 21
-244.1672132642816
 31
0.0
  0
LINE
  5
23F0
330
327F
100
AcDbEntity
  8
0
 62
     0
100
AcDbLine
 10
2.411193769967212
 20
-284.3999999013267
 30
0.0
 11
107.8999999999978
 21
-234.167261520146
 31
0.0
  0
LINE
  5
23F1
330
327F
100
AcDbEntity
  8
0
 62
     0
100
AcDbLine
 10
-18.58871596702375
 20
-284.3999999013267
 30
0.0
 11
107.8999999999978
 21
-224.1673097760122
 31
0.0
  0
LINE
  5
23F2
330
327F
100
AcDbEntity
  8
0
 62
     0
100
AcDbLine
 10
-39.58862570401834
 20
-284.3999999013267
 30
0.0
 11
107.8999999999978
 21
-214.1673580318766
 31
0.0
  0
LINE
  5
23F3
330
327F
100
AcDbEntity
  8
0
 62
     0
100
AcDbLine
 10
-60.58853544100566
 20
-284.3999999013249
 30
0.0
 11
107.8999999999978
 21
-204.1674062877428
 31
0.0
  0
LINE
  5
23F4
330
327F
100
AcDbEntity
  8
0
 62
     0
100
AcDbLine
 10
-81.58844517799298
 20
-284.3999999013249
 30
0.0
 11
107.8999999999978
 21
-194.1674545436072
 31
0.0
  0
LINE
  5
23F5
330
327F
100
AcDbEntity
  8
0
 62
     0
100
AcDbLine
 10
-102.5883549149875
 20
-284.3999999013267
 30
0.0
 11
107.8999999999942
 21
-184.1675027994751
 31
0.0
  0
LINE
  5
23F6
330
327F
100
AcDbEntity
  8
0
 62
     0
100
AcDbLine
 10
-107.9000000000014
 20
-276.9294016257227
 30
0.0
 11
107.8999999999978
 21
-174.1675510553396
 31
0.0
  0
LINE
  5
23F7
330
327F
100
AcDbEntity
  8
0
 62
     0
100
AcDbLine
 10
-107.8999999999978
 20
-266.9294498815889
 30
0.0
 11
107.9000000000014
 21
-164.1675993112057
 31
0.0
  0
LINE
  5
23F8
330
327F
100
AcDbEntity
  8
0
 62
     0
100
AcDbLine
 10
-107.9000000000014
 20
-256.9294981374551
 30
0.0
 11
107.8999999999942
 21
-154.1676475670719
 31
0.0
  0
LINE
  5
23F9
330
327F
100
AcDbEntity
  8
0
 62
     0
100
AcDbLine
 10
-107.8999999999978
 20
-246.9295463933195
 30
0.0
 11
107.8999999999978
 21
-144.1676958229363
 31
0.0
  0
LINE
  5
23FA
330
327F
100
AcDbEntity
  8
0
 62
     0
100
AcDbLine
 10
-107.9000000000014
 20
-236.9295946491857
 30
0.0
 11
107.8999999999978
 21
-134.1677440788025
 31
0.0
  0
LINE
  5
23FB
330
327F
100
AcDbEntity
  8
0
 62
     0
100
AcDbLine
 10
-107.9000000000014
 20
-226.9296429050501
 30
0.0
 11
107.8999999999978
 21
-124.1677923346669
 31
0.0
  0
LINE
  5
23FC
330
327F
100
AcDbEntity
  8
0
 62
     0
100
AcDbLine
 10
-107.9000000000014
 20
-216.9296911609162
 30
0.0
 11
107.8999999999978
 21
-114.1678405905331
 31
0.0
  0
LINE
  5
23FD
330
327F
100
AcDbEntity
  8
0
 62
     0
100
AcDbLine
 10
-107.9000000000014
 20
-206.9297394167807
 30
0.0
 11
107.8999999999942
 21
-104.1678888463975
 31
0.0
  0
LINE
  5
23FE
330
327F
100
AcDbEntity
  8
0
 62
     0
100
AcDbLine
 10
-107.9000000000014
 20
-196.9297876726468
 30
0.0
 11
107.8999999999942
 21
-94.16793710226377
 31
0.0
  0
LINE
  5
23FF
330
327F
100
AcDbEntity
  8
0
 62
     0
100
AcDbLine
 10
-107.9000000000014
 20
-186.9298359285149
 30
0.0
 11
94.39276233623969
 21
-90.59999990132565
 31
0.0
  0
LINE
  5
2400
330
327F
100
AcDbEntity
  8
0
 62
     0
100
AcDbLine
 10
-107.8999999999978
 20
-176.9298841843792
 30
0.0
 11
73.39285259925235
 21
-90.59999990132565
 31
0.0
  0
LINE
  5
2401
330
327F
100
AcDbEntity
  8
0
 62
     0
100
AcDbLine
 10
-107.9000000000014
 20
-166.9299324402454
 30
0.0
 11
52.39294286225778
 21
-90.59999990132565
 31
0.0
  0
LINE
  5
2402
330
327F
100
AcDbEntity
  8
0
 62
     0
100
AcDbLine
 10
-107.8999999999978
 20
-156.9299806961117
 30
0.0
 11
31.39303312526681
 21
-90.59999990132743
 31
0.0
  0
LINE
  5
2403
330
327F
100
AcDbEntity
  8
0
 62
     0
100
AcDbLine
 10
-107.9000000000014
 20
-146.9300289519779
 30
0.0
 11
10.39312338827221
 21
-90.59999990132743
 31
0.0
  0
LINE
  5
2404
330
327F
100
AcDbEntity
  8
0
 62
     0
100
AcDbLine
 10
-107.9000000000014
 20
-136.9300772078422
 30
0.0
 11
-10.6067863487151
 21
-90.59999990132743
 31
0.0
  0
LINE
  5
2405
330
327F
100
AcDbEntity
  8
0
 62
     0
100
AcDbLine
 10
-107.9000000000014
 20
-126.9301254637084
 30
0.0
 11
-31.60669608570605
 21
-90.59999990132743
 31
0.0
  0
LINE
  5
2406
330
327F
100
AcDbEntity
  8
0
 62
     0
100
AcDbLine
 10
-107.9000000000014
 20
-116.9301737195728
 30
0.0
 11
-52.60660582270065
 21
-90.59999990132743
 31
0.0
  0
LINE
  5
2407
330
327F
100
AcDbEntity
  8
0
 62
     0
100
AcDbLine
 10
-107.9000000000014
 20
-106.930221975439
 30
0.0
 11
-73.60651555968797
 21
-90.59999990132743
 31
0.0
  0
LINE
  5
2408
330
327F
100
AcDbEntity
  8
0
 62
     0
100
AcDbLine
 10
-107.8999999999978
 20
-96.93027023130344
 30
0.0
 11
-94.60642529667891
 21
-90.59999990132743
 31
0.0
  0
ENDBLK
  5
2409
330
327F
100
AcDbEntity
  8
0
100
AcDbBlockEnd
  0
BLOCK
  5
3282
330
3281
100
AcDbEntity
  8
0
100
AcDbBlockBegin
  2
*X74
 70
     1
 10
0.0
 20
0.0
 30
0.0
  3
*X74
  1

  0
LINE
  5
2D3F
330
3281
100
AcDbEntity
  8
0
 62
     0
100
AcDbLine
 10
-192.0000000000071
 20
-168.4700981688874
 30
0.0
 11
-138.304686078407
 21
-194.0392817904885
 31
0.0
  0
LINE
  5
2D40
330
3281
100
AcDbEntity
  8
0
 62
     0
100
AcDbLine
 10
-192.000000000009
 20
-158.4701464247519
 30
0.0
 11
-83.68048358610211
 21
-210.0508413255038
 31
0.0
  0
LINE
  5
2D41
330
3281
100
AcDbEntity
  8
0
 62
     0
100
AcDbLine
 10
-192.0000000000071
 20
-148.4701946806181
 30
0.0
 11
-43.88733072204739
 21
-219.0
 31
0.0
  0
LINE
  5
2D42
330
3281
100
AcDbEntity
  8
0
 62
     0
100
AcDbLine
 10
-192.000000000009
 20
-138.4702429364824
 30
0.0
 11
-22.88742098505463
 21
-219.0
 31
0.0
  0
LINE
  5
2D43
330
3281
100
AcDbEntity
  8
0
 62
     0
100
AcDbLine
 10
-23.80000000000655
 20
-208.5654870493418
 30
0.0
 11
-23.307522543917
 21
-208.7999999999993
 31
0.0
  0
LINE
  5
2D44
330
3281
100
AcDbEntity
  8
0
 62
     0
100
AcDbLine
 10
-23.307522543917
 20
-208.7999999999993
 30
0.0
 11
-1.887511248063674
 21
-219.0000000000018
 31
0.0
  0
LINE
  5
2D45
330
3281
100
AcDbEntity
  8
0
 62
     0
100
AcDbLine
 10
-192.000000000009
 20
-128.4702911923486
 30
0.0
 11
-23.80000000000655
 21
-208.5654870493418
 31
0.0
  0
LINE
  5
2D46
330
3281
100
AcDbEntity
  8
0
 62
     0
100
AcDbLine
 10
-23.80000000000655
 20
-198.5655353052079
 30
0.0
 11
-2.307612806926043
 21
-208.7999999999993
 31
0.0
  0
LINE
  5
2D47
330
3281
100
AcDbEntity
  8
0
 62
     0
100
AcDbLine
 10
-2.307612806926043
 20
-208.7999999999993
 30
0.0
 11
19.11239848892364
 21
-219.0
 31
0.0
  0
LINE
  5
2D48
330
3281
100
AcDbEntity
  8
0
 62
     0
100
AcDbLine
 10
-192.000000000009
 20
-118.4703394482149
 30
0.0
 11
-23.80000000000655
 21
-198.5655353052079
 31
0.0
  0
LINE
  5
2D49
330
3281
100
AcDbEntity
  8
0
 62
     0
100
AcDbLine
 10
-23.80000000000655
 20
-188.5655835610722
 30
0.0
 11
18.69229693006488
 21
-208.7999999999993
 31
0.0
  0
LINE
  5
2D4A
330
3281
100
AcDbEntity
  8
0
 62
     0
100
AcDbLine
 10
18.69229693006488
 20
-208.7999999999993
 30
0.0
 11
40.1123082259146
 21
-219.0
 31
0.0
  0
LINE
  5
2D4B
330
3281
100
AcDbEntity
  8
0
 62
     0
100
AcDbLine
 10
-192.000000000009
 20
-108.4703877040792
 30
0.0
 11
-23.80000000000655
 21
-188.5655835610722
 31
0.0
  0
LINE
  5
2D4C
330
3281
100
AcDbEntity
  8
0
 62
     0
100
AcDbLine
 10
-23.80000000000473
 20
-178.5656318169384
 30
0.0
 11
39.69220666705405
 21
-208.7999999999975
 31
0.0
  0
LINE
  5
2D4D
330
3281
100
AcDbEntity
  8
0
 62
     0
100
AcDbLine
 10
39.69220666705405
 20
-208.7999999999975
 30
0.0
 11
58.07846710953345
 21
-217.5553574983214
 31
0.0
  0
LINE
  5
2D4E
330
3281
100
AcDbEntity
  8
0
 62
     0
100
AcDbLine
 10
-192.0000000000071
 20
-98.47043595994549
 30
0.0
 11
-23.80000000000473
 21
-178.5656318169384
 31
0.0
  0
LINE
  5
2D4F
330
3281
100
AcDbEntity
  8
0
 62
     0
100
AcDbLine
 10
-23.80000000000473
 20
-168.5656800728029
 30
0.0
 11
60.69211640404501
 21
-208.7999999999975
 31
0.0
  0
LINE
  5
2D50
330
3281
100
AcDbEntity
  8
0
 62
     0
100
AcDbLine
 10
60.69211640404501
 20
-208.7999999999975
 30
0.0
 11
71.07702667221747
 21
-213.7451927579441
 31
0.0
  0
LINE
  5
2D51
330
3281
100
AcDbEntity
  8
0
 62
     0
100
AcDbLine
 10
-192.000000000009
 20
-88.4704842158098
 30
0.0
 11
-23.80000000000473
 21
-168.5656800728029
 31
0.0
  0
LINE
  5
2D52
330
3281
100
AcDbEntity
  8
0
 62
     0
100
AcDbLine
 10
-23.80000000000655
 20
-158.5657283286691
 30
0.0
 11
81.69202614103777
 21
-208.7999999999993
 31
0.0
  0
LINE
  5
2D53
330
3281
100
AcDbEntity
  8
0
 62
     0
100
AcDbLine
 10
81.69202614103777
 20
-208.7999999999993
 30
0.0
 11
84.07558623490514
 21
-209.9350280175694
 31
0.0
  0
LINE
  5
2D54
330
3281
100
AcDbEntity
  8
0
 62
     0
100
AcDbLine
 10
-192.0000000000054
 20
-78.47053247167787
 30
0.0
 11
-23.80000000000655
 21
-158.5657283286691
 31
0.0
  0
LINE
  5
2D55
330
3281
100
AcDbEntity
  8
0
 62
     0
100
AcDbLine
 10
-23.80000000000655
 20
-148.5657765845344
 30
0.0
 11
97.07414579758733
 21
-206.1248632771903
 31
0.0
  0
LINE
  5
2D56
330
3281
100
AcDbEntity
  8
0
 62
     0
100
AcDbLine
 10
-192.000000000009
 20
-68.47058072754134
 30
0.0
 11
-23.80000000000655
 21
-148.5657765845344
 31
0.0
  0
LINE
  5
2D57
330
3281
100
AcDbEntity
  8
0
 62
     0
100
AcDbLine
 10
-23.80000000000655
 20
-138.5658248403997
 30
0.0
 11
110.0727053602713
 21
-202.314698536813
 31
0.0
  0
LINE
  5
2D58
330
3281
100
AcDbEntity
  8
0
 62
     0
100
AcDbLine
 10
-192.0000000000071
 20
-58.47062898340846
 30
0.0
 11
-23.80000000000655
 21
-138.5658248403997
 31
0.0
  0
LINE
  5
2D59
330
3281
100
AcDbEntity
  8
0
 62
     0
100
AcDbLine
 10
-23.80000000000473
 20
-128.5658730962659
 30
0.0
 11
123.0712649229608
 21
-198.5045337964384
 31
0.0
  0
LINE
  5
2D5A
330
3281
100
AcDbEntity
  8
0
 62
     0
100
AcDbLine
 10
-192.0000000000071
 20
-48.47067723927285
 30
0.0
 11
-23.80000000000473
 21
-128.5658730962659
 31
0.0
  0
LINE
  5
2D5B
330
3281
100
AcDbEntity
  8
0
 62
     0
100
AcDbLine
 10
-23.80000000000473
 20
-118.565921352133
 30
0.0
 11
136.069824485643
 21
-194.694369056061
 31
0.0
  0
LINE
  5
2D5C
330
3281
100
AcDbEntity
  8
0
 62
     0
100
AcDbLine
 10
-192.0000000000109
 20
-38.47072549513904
 30
0.0
 11
-23.80000000000655
 21
-118.5659213521312
 31
0.0
  0
LINE
  5
2D5D
330
3281
100
AcDbEntity
  8
0
 62
     0
100
AcDbLine
 10
-23.80000000000109
 20
-108.5659696079992
 30
0.0
 11
149.0683840483271
 21
-190.8842043156836
 31
0.0
  0
LINE
  5
2D5E
330
3281
100
AcDbEntity
  8
0
 62
     0
100
AcDbLine
 10
-192.0000000000071
 20
-28.47077375100525
 30
0.0
 11
-23.80000000000473
 21
-108.5659696079974
 31
0.0
  0
LINE
  5
2D5F
330
3281
100
AcDbEntity
  8
0
 62
     0
100
AcDbLine
 10
-23.80000000000291
 20
-98.56601786386363
 30
0.0
 11
162.0669436110147
 21
-187.0740395753073
 31
0.0
  0
LINE
  5
2D60
330
3281
100
AcDbEntity
  8
0
 62
     0
100
AcDbLine
 10
-192.000000000009
 20
-18.47082200686964
 30
0.0
 11
-23.80000000000655
 21
-98.56601786386178
 31
0.0
  0
LINE
  5
2D61
330
3281
100
AcDbEntity
  8
0
 62
     0
100
AcDbLine
 10
-148.4688045955681
 20
-29.19999999999983
 30
0.0
 11
-23.80000000000473
 21
-88.56606611972894
 31
0.0
  0
LINE
  5
2D62
330
3281
100
AcDbEntity
  8
0
 62
     0
100
AcDbLine
 10
-23.80000000000291
 20
-88.56606611973075
 30
0.0
 11
175.0655031737005
 21
-183.2638748349318
 31
0.0
  0
LINE
  5
2D63
330
3281
100
AcDbEntity
  8
0
 62
     0
100
AcDbLine
 10
-178.2888203211587
 20
-15.00000000000091
 30
0.0
 11
-150.0000000000054
 21
-28.47085971573233
 31
0.0
  0
LINE
  5
2D64
330
3281
100
AcDbEntity
  8
0
 62
     0
100
AcDbLine
 10
-127.4688948585753
 20
-29.19999999999983
 30
0.0
 11
-23.80000000000655
 21
-78.56611437559331
 31
0.0
  0
LINE
  5
2D65
330
3281
100
AcDbEntity
  8
0
 62
     0
100
AcDbLine
 10
-23.80000000000291
 20
-78.56611437559513
 30
0.0
 11
188.0640627363864
 21
-179.4537100945554
 31
0.0
  0
LINE
  5
2D66
330
3281
100
AcDbEntity
  8
0
 62
     0
100
AcDbLine
 10
-157.2889105841659
 20
-15.00000000000091
 30
0.0
 11
-150.0000000000091
 21
-18.4709079715949
 31
0.0
  0
LINE
  5
2D67
330
3281
100
AcDbEntity
  8
0
 62
     0
100
AcDbLine
 10
-23.80000000000109
 20
-68.56616263146134
 30
0.0
 11
191.9999999999909
 21
-171.3280132018417
 31
0.0
  0
LINE
  5
2D68
330
3281
100
AcDbEntity
  8
0
 62
     0
100
AcDbLine
 10
-106.4689851215844
 20
-29.19999999999891
 30
0.0
 11
-23.80000000000655
 21
-68.56616263145861
 31
0.0
  0
LINE
  5
2D69
330
3281
100
AcDbEntity
  8
0
 62
     0
100
AcDbLine
 10
-23.80000000000291
 20
-58.56621088732663
 30
0.0
 11
191.9999999999909
 21
-161.3280614577088
 31
0.0
  0
LINE
  5
2D6A
330
3281
100
AcDbEntity
  8
0
 62
     0
100
AcDbLine
 10
-85.46907538459345
 20
-29.19999999999983
 30
0.0
 11
-23.80000000000655
 21
-58.56621088732481
 31
0.0
  0
LINE
  5
2D6B
330
3281
100
AcDbEntity
  8
0
 62
     0
100
AcDbLine
 10
-23.80000000000473
 20
-48.56625914319103
 30
0.0
 11
191.9999999999909
 21
-151.3281097135732
 31
0.0
  0
LINE
  5
2D6C
330
3281
100
AcDbEntity
  8
0
 62
     0
100
AcDbLine
 10
-64.46916564760249
 20
-29.19999999999983
 30
0.0
 11
-23.80000000000837
 21
-48.5662591431901
 31
0.0
  0
LINE
  5
2D6D
330
3281
100
AcDbEntity
  8
0
 62
     0
100
AcDbLine
 10
-23.80000000000109
 20
-38.56630739905813
 30
0.0
 11
191.9999999999926
 21
-141.3281579694403
 31
0.0
  0
LINE
  5
2D6E
330
3281
100
AcDbEntity
  8
0
 62
     0
100
AcDbLine
 10
-43.46925591060972
 20
-29.20000000000073
 30
0.0
 11
-23.80000000000473
 21
-38.56630739905631
 31
0.0
  0
LINE
  5
2D6F
330
3281
100
AcDbEntity
  8
0
 62
     0
100
AcDbLine
 10
-22.46934617362422
 20
-29.19999999999891
 30
0.0
 11
191.9999999999891
 21
-131.3282062253047
 31
0.0
  0
LINE
  5
2D70
330
3281
100
AcDbEntity
  8
0
 62
     0
100
AcDbLine
 10
-1.46943643663144
 20
-29.19999999999891
 30
0.0
 11
191.9999999999926
 21
-121.3282544811709
 31
0.0
  0
LINE
  5
2D71
330
3281
100
AcDbEntity
  8
0
 62
     0
100
AcDbLine
 10
19.53047330035952
 20
-29.19999999999983
 30
0.0
 11
191.9999999999909
 21
-111.3283027370371
 31
0.0
  0
LINE
  5
2D72
330
3281
100
AcDbEntity
  8
0
 62
     0
100
AcDbLine
 10
40.53038303735046
 20
-29.19999999999983
 30
0.0
 11
191.9999999999944
 21
-101.3283509929024
 31
0.0
  0
LINE
  5
2D73
330
3281
100
AcDbEntity
  8
0
 62
     0
100
AcDbLine
 10
61.53029277434325
 20
-29.19999999999983
 30
0.0
 11
191.9999999999926
 21
-91.32839924876773
 31
0.0
  0
LINE
  5
2D74
330
3281
100
AcDbEntity
  8
0
 62
     0
100
AcDbLine
 10
82.53020251133238
 20
-29.20000000000073
 30
0.0
 11
191.9999999999909
 21
-81.32844750463299
 31
0.0
  0
LINE
  5
2D75
330
3281
100
AcDbEntity
  8
0
 62
     0
100
AcDbLine
 10
103.5301122483252
 20
-29.19999999999983
 30
0.0
 11
191.9999999999926
 21
-71.32849576049919
 31
0.0
  0
LINE
  5
2D76
330
3281
100
AcDbEntity
  8
0
 62
     0
100
AcDbLine
 10
124.5300219853161
 20
-29.19999999999983
 30
0.0
 11
191.9999999999909
 21
-61.32854401636359
 31
0.0
  0
LINE
  5
2D77
330
3281
100
AcDbEntity
  8
0
 62
     0
100
AcDbLine
 10
145.5299317223071
 20
-29.20000000000073
 30
0.0
 11
191.9999999999926
 21
-51.32859227223071
 31
0.0
  0
LINE
  5
2D78
330
3281
100
AcDbEntity
  8
0
 62
     0
100
AcDbLine
 10
149.9999999999944
 20
-21.32865107510224
 30
0.0
 11
191.9999999999909
 21
-41.32864052809509
 31
0.0
  0
LINE
  5
2D79
330
3281
100
AcDbEntity
  8
0
 62
     0
100
AcDbLine
 10
157.7097354706929
 20
-15.0
 30
0.0
 11
191.9999999999926
 21
-31.32868878396221
 31
0.0
  0
LINE
  5
2D7A
330
3281
100
AcDbEntity
  8
0
 62
     0
100
AcDbLine
 10
178.7096452076821
 20
-15.0
 30
0.0
 11
191.9999999999909
 21
-21.32873703982658
 31
0.0
  0
ENDBLK
  5
2D7B
330
3281
100
AcDbEntity
  8
0
100
AcDbBlockEnd
  0
BLOCK
  5
3284
330
3283
100
AcDbEntity
  8
0
100
AcDbBlockBegin
  2
*X75
 70
     1
 10
0.0
 20
0.0
 30
0.0
  3
*X75
  1

  0
LINE
  5
2D7E
330
3283
100
AcDbEntity
  8
0
 62
     0
100
AcDbLine
 10
151.4176757959431
 20
-190.19557504577
 30
0.0
 11
192.0000000000054
 21
-170.8706689491218
 31
0.0
  0
LINE
  5
2D7F
330
3283
100
AcDbEntity
  8
0
 62
     0
100
AcDbLine
 10
96.7934733036418
 20
-206.2071345807845
 30
0.0
 11
192.0000000000016
 21
-160.8707172049889
 31
0.0
  0
LINE
  5
2D80
330
3283
100
AcDbEntity
  8
0
 62
     0
100
AcDbLine
 10
70.34854331486531
 20
-208.8000000000011
 30
0.0
 11
192.0000000000054
 21
-150.8707654608533
 31
0.0
  0
LINE
  5
2D81
330
3283
100
AcDbEntity
  8
0
 62
     0
100
AcDbLine
 10
48.92853201901743
 20
-219.0
 30
0.0
 11
70.34854331486531
 21
-208.8000000000011
 31
0.0
  0
LINE
  5
2D82
330
3283
100
AcDbEntity
  8
0
 62
     0
100
AcDbLine
 10
49.34863357787616
 20
-208.7999999999993
 30
0.0
 11
192.0000000000036
 21
-140.8708137167195
 31
0.0
  0
LINE
  5
2D83
330
3283
100
AcDbEntity
  8
0
 62
     0
100
AcDbLine
 10
27.92862228202648
 20
-219.0
 30
0.0
 11
49.34863357787616
 21
-208.7999999999993
 31
0.0
  0
LINE
  5
2D84
330
3283
100
AcDbEntity
  8
0
 62
     0
100
AcDbLine
 10
28.34872384088703
 20
-208.7999999999984
 30
0.0
 11
192.0000000000036
 21
-130.8708619725848
 31
0.0
  0
LINE
  5
2D85
330
3283
100
AcDbEntity
  8
0
 62
     0
100
AcDbLine
 10
6.928712545033704
 20
-219.0
 30
0.0
 11
28.34872384088703
 21
-208.7999999999984
 31
0.0
  0
LINE
  5
2D86
330
3283
100
AcDbEntity
  8
0
 62
     0
100
AcDbLine
 10
7.348814103896074
 20
-208.7999999999984
 30
0.0
 11
192.0000000000016
 21
-120.870910228451
 31
0.0
  0
LINE
  5
2D87
330
3283
100
AcDbEntity
  8
0
 62
     0
100
AcDbLine
 10
-14.07119719195725
 20
-219.0
 30
0.0
 11
7.348814103896074
 21
-208.7999999999984
 31
0.0
  0
LINE
  5
2D88
330
3283
100
AcDbEntity
  8
0
 62
     0
100
AcDbLine
 10
-13.6510956330967
 20
-208.7999999999993
 30
0.0
 11
192.0000000000016
 21
-110.8709584843163
 31
0.0
  0
LINE
  5
2D89
330
3283
100
AcDbEntity
  8
0
 62
     0
100
AcDbLine
 10
-35.07110692894821
 20
-219.0000000000009
 30
0.0
 11
-13.6510956330967
 21
-208.7999999999993
 31
0.0
  0
LINE
  5
2D8A
330
3283
100
AcDbEntity
  8
0
 62
     0
100
AcDbLine
 10
-23.79999999999927
 20
-203.6328573105675
 30
0.0
 11
192.0000000000054
 21
-100.8710067401807
 31
0.0
  0
LINE
  5
2D8B
330
3283
100
AcDbEntity
  8
0
 62
     0
100
AcDbLine
 10
-54.9580558245907
 20
-218.470018926464
 30
0.0
 11
-23.79999999999927
 21
-203.6328573105675
 31
0.0
  0
LINE
  5
2D8C
330
3283
100
AcDbEntity
  8
0
 62
     0
100
AcDbLine
 10
-23.79999999999745
 20
-193.6329055664317
 30
0.0
 11
192.0
 21
-90.87105499604877
 31
0.0
  0
LINE
  5
2D8D
330
3283
100
AcDbEntity
  8
0
 62
     0
100
AcDbLine
 10
-67.95661538727472
 20
-214.6598541860857
 30
0.0
 11
-23.79999999999745
 21
-193.6329055664317
 31
0.0
  0
LINE
  5
2D8E
330
3283
100
AcDbEntity
  8
0
 62
     0
100
AcDbLine
 10
-23.80000000000109
 20
-183.6329538222989
 30
0.0
 11
192.0
 21
-80.87110325191407
 31
0.0
  0
LINE
  5
2D8F
330
3283
100
AcDbEntity
  8
0
 62
     0
100
AcDbLine
 10
-80.95517494996601
 20
-210.8496894457121
 30
0.0
 11
-23.80000000000109
 21
-183.6329538222989
 31
0.0
  0
LINE
  5
2D90
330
3283
100
AcDbEntity
  8
0
 62
     0
100
AcDbLine
 10
-23.79999999999745
 20
-173.6330020781641
 30
0.0
 11
192.0
 21
-70.87115150778027
 31
0.0
  0
LINE
  5
2D91
330
3283
100
AcDbEntity
  8
0
 62
     0
100
AcDbLine
 10
-93.95373451264822
 20
-207.0395247053347
 30
0.0
 11
-23.79999999999745
 21
-173.6330020781641
 31
0.0
  0
LINE
  5
2D92
330
3283
100
AcDbEntity
  8
0
 62
     0
100
AcDbLine
 10
-23.79999999999745
 20
-163.6330503340286
 30
0.0
 11
192.0
 21
-60.87119976364466
 31
0.0
  0
LINE
  5
2D93
330
3283
100
AcDbEntity
  8
0
 62
     0
100
AcDbLine
 10
-106.9522940753322
 20
-203.2293599649565
 30
0.0
 11
-23.80000000000109
 21
-163.6330503340294
 31
0.0
  0
LINE
  5
2D94
330
3283
100
AcDbEntity
  8
0
 62
     0
100
AcDbLine
 10
-23.79999999999927
 20
-153.6330985898958
 30
0.0
 11
191.9999999999982
 21
-50.87124801951175
 31
0.0
  0
LINE
  5
2D95
330
3283
100
AcDbEntity
  8
0
 62
     0
100
AcDbLine
 10
-119.9508536380162
 20
-199.4191952245792
 30
0.0
 11
-23.79999999999927
 21
-153.6330985898958
 31
0.0
  0
LINE
  5
2D96
330
3283
100
AcDbEntity
  8
0
 62
     0
100
AcDbLine
 10
-23.79999999999745
 20
-143.6331468457601
 30
0.0
 11
192.0000000000016
 21
-40.87129627537612
 31
0.0
  0
LINE
  5
2D97
330
3283
100
AcDbEntity
  8
0
 62
     0
100
AcDbLine
 10
-132.9494132007021
 20
-195.6090304842027
 30
0.0
 11
-23.79999999999745
 21
-143.6331468457601
 31
0.0
  0
LINE
  5
2D98
330
3283
100
AcDbEntity
  8
0
 62
     0
100
AcDbLine
 10
-23.79999999999927
 20
-133.6331951016273
 30
0.0
 11
191.9999999999982
 21
-30.87134453124327
 31
0.0
  0
LINE
  5
2D99
330
3283
100
AcDbEntity
  8
0
 62
     0
100
AcDbLine
 10
-145.9479727633879
 20
-191.7988657438272
 30
0.0
 11
-23.79999999999927
 21
-133.6331951016273
 31
0.0
  0
LINE
  5
2D9A
330
3283
100
AcDbEntity
  8
0
 62
     0
100
AcDbLine
 10
-23.79999999999745
 20
-123.6332433574916
 30
0.0
 11
192.0
 21
-20.87139278710765
 31
0.0
  0
LINE
  5
2D9B
330
3283
100
AcDbEntity
  8
0
 62
     0
100
AcDbLine
 10
-158.946532326072
 20
-187.9887010034499
 30
0.0
 11
-23.79999999999745
 21
-123.6332433574916
 31
0.0
  0
LINE
  5
2D9C
330
3283
100
AcDbEntity
  8
0
 62
     0
100
AcDbLine
 10
-23.79999999999927
 20
-113.6332916133578
 30
0.0
 11
183.3300216181287
 21
-15.0
 31
0.0
  0
LINE
  5
2D9D
330
3283
100
AcDbEntity
  8
0
 62
     0
100
AcDbLine
 10
-171.9450918887578
 20
-184.1785362630735
 30
0.0
 11
-23.79999999999927
 21
-113.6332916133578
 31
0.0
  0
LINE
  5
2D9E
330
3283
100
AcDbEntity
  8
0
 62
     0
100
AcDbLine
 10
-23.79999999999745
 20
-103.633339869223
 30
0.0
 11
132.5100961555399
 21
-29.20000000000255
 31
0.0
  0
LINE
  5
2D9F
330
3283
100
AcDbEntity
  8
0
 62
     0
100
AcDbLine
 10
150.0000000000035
 20
-20.871478751832
 30
0.0
 11
162.3301118811378
 21
-15.00000000000091
 31
0.0
  0
LINE
  5
2DA0
330
3283
100
AcDbEntity
  8
0
 62
     0
100
AcDbLine
 10
-184.9436514514418
 20
-180.368371522696
 30
0.0
 11
-23.79999999999745
 21
-103.633339869223
 31
0.0
  0
LINE
  5
2DA1
330
3283
100
AcDbEntity
  8
0
 62
     0
100
AcDbLine
 10
-23.79999999999927
 20
-93.63338812508938
 30
0.0
 11
111.5101864185508
 21
-29.20000000000073
 31
0.0
  0
LINE
  5
2DA2
330
3283
100
AcDbEntity
  8
0
 62
     0
100
AcDbLine
 10
-192.0
 20
-173.7285839820806
 30
0.0
 11
-23.79999999999927
 21
-93.63338812508938
 31
0.0
  0
LINE
  5
2DA3
330
3283
100
AcDbEntity
  8
0
 62
     0
100
AcDbLine
 10
-23.79999999999745
 20
-83.63343638095466
 30
0.0
 11
90.5102766815653
 21
-29.19999999999983
 31
0.0
  0
LINE
  5
2DA4
330
3283
100
AcDbEntity
  8
0
 62
     0
100
AcDbLine
 10
-192.0
 20
-163.7286322379477
 30
0.0
 11
-23.79999999999745
 21
-83.63343638095466
 31
0.0
  0
LINE
  5
2DA5
330
3283
100
AcDbEntity
  8
0
 62
     0
100
AcDbLine
 10
-23.79999999999563
 20
-73.63348463681905
 30
0.0
 11
69.51036694457254
 21
-29.19999999999983
 31
0.0
  0
LINE
  5
2DA6
330
3283
100
AcDbEntity
  8
0
 62
     0
100
AcDbLine
 10
-192.0
 20
-153.7286804938121
 30
0.0
 11
-23.79999999999563
 21
-73.63348463681905
 31
0.0
  0
LINE
  5
2DA7
330
3283
100
AcDbEntity
  8
0
 62
     0
100
AcDbLine
 10
-23.79999999999927
 20
-63.63353289268525
 30
0.0
 11
48.51045720758157
 21
-29.19999999999983
 31
0.0
  0
LINE
  5
2DA8
330
3283
100
AcDbEntity
  8
0
 62
     0
100
AcDbLine
 10
-192.0000000000016
 20
-143.7287287496783
 30
0.0
 11
-23.79999999999927
 21
-63.63353289268525
 31
0.0
  0
LINE
  5
2DA9
330
3283
100
AcDbEntity
  8
0
 62
     0
100
AcDbLine
 10
-23.79999999999745
 20
-53.63358114855055
 30
0.0
 11
27.51054747059061
 21
-29.20000000000073
 31
0.0
  0
LINE
  5
2DAA
330
3283
100
AcDbEntity
  8
0
 62
     0
100
AcDbLine
 10
-192.0
 20
-133.7287770055436
 30
0.0
 11
-23.79999999999745
 21
-53.63358114855055
 31
0.0
  0
LINE
  5
2DAB
330
3283
100
AcDbEntity
  8
0
 62
     0
100
AcDbLine
 10
-23.79999999999927
 20
-43.63362940441675
 30
0.0
 11
6.510637733597832
 21
-29.19999999999983
 31
0.0
  0
LINE
  5
2DAC
330
3283
100
AcDbEntity
  8
0
 62
     0
100
AcDbLine
 10
-192.0
 20
-123.728825261408
 30
0.0
 11
-23.79999999999927
 21
-43.63362940441675
 31
0.0
  0
LINE
  5
2DAD
330
3283
100
AcDbEntity
  8
0
 62
     0
100
AcDbLine
 10
-23.79999999999745
 20
-33.63367766028114
 30
0.0
 11
-14.4892720033913
 21
-29.19999999999983
 31
0.0
  0
LINE
  5
2DAE
330
3283
100
AcDbEntity
  8
0
 62
     0
100
AcDbLine
 10
-192.0
 20
-113.7288735172742
 30
0.0
 11
-23.79999999999745
 21
-33.63367766028114
 31
0.0
  0
LINE
  5
2DAF
330
3283
100
AcDbEntity
  8
0
 62
     0
100
AcDbLine
 10
-192.0
 20
-103.7289217731395
 30
0.0
 11
-35.48918174038409
 21
-29.20000000000073
 31
0.0
  0
LINE
  5
2DB0
330
3283
100
AcDbEntity
  8
0
 62
     0
100
AcDbLine
 10
-192.0000000000016
 20
-93.72897002900572
 30
0.0
 11
-56.48909147737504
 21
-29.20000000000073
 31
0.0
  0
LINE
  5
2DB1
330
3283
100
AcDbEntity
  8
0
 62
     0
100
AcDbLine
 10
-191.9999999999982
 20
-83.72901828487101
 30
0.0
 11
-77.489001214366
 21
-29.20000000000164
 31
0.0
  0
LINE
  5
2DB2
330
3283
100
AcDbEntity
  8
0
 62
     0
100
AcDbLine
 10
-192.0000000000016
 20
-73.72906654073722
 30
0.0
 11
-98.48891095135694
 21
-29.20000000000164
 31
0.0
  0
LINE
  5
2DB3
330
3283
100
AcDbEntity
  8
0
 62
     0
100
AcDbLine
 10
-192.0
 20
-63.7291147966016
 30
0.0
 11
-119.4888206883479
 21
-29.20000000000164
 31
0.0
  0
LINE
  5
2DB4
330
3283
100
AcDbEntity
  8
0
 62
     0
100
AcDbLine
 10
-192.0000000000016
 20
-53.72916305246872
 30
0.0
 11
-140.4887304253352
 21
-29.20000000000073
 31
0.0
  0
LINE
  5
2DB5
330
3283
100
AcDbEntity
  8
0
 62
     0
100
AcDbLine
 10
-192.0
 20
-43.72921130833311
 30
0.0
 11
-149.9999999999963
 21
-23.72922185533753
 31
0.0
  0
LINE
  5
2DB6
330
3283
100
AcDbEntity
  8
0
 62
     0
100
AcDbLine
 10
-191.9999999999982
 20
-33.72925956419749
 30
0.0
 11
-152.6685341737247
 21
-15.0
 31
0.0
  0
LINE
  5
2DB7
330
3283
100
AcDbEntity
  8
0
 62
     0
100
AcDbLine
 10
-192.0
 20
-23.72930782006461
 30
0.0
 11
-173.6684439107139
 21
-15.00000000000091
 31
0.0
  0
ENDBLK
  5
2DB8
330
3283
100
AcDbEntity
  8
0
100
AcDbBlockEnd
  0
ENDSEC
  0
SECTION
  2
ENTITIES
  0
TEXT
  5
953
330
31A1
100
AcDbEntity
  8
OUTLINE
  6
Continuous
 62
     3
100
AcDbText
 10
-418.231467
 20
13.715189
 30
0.0
 40
64.0
  1
 
 41
0.9
100
AcDbText
  0
TEXT
  5
954
330
31A1
100
AcDbEntity
  8
OUTLINE
  6
Continuous
 62
     3
100
AcDbText
 10
-418.231467
 20
13.715189
 30
0.0
 40
64.0
  1
 
 41
0.9
100
AcDbText
  0
TEXT
  5
955
330
31A1
100
AcDbEntity
  8
OUTLINE
  6
Continuous
 62
     3
100
AcDbText
 10
1341.41903
 20
-706.0588199999997
 30
0.0
 40
64.0
  1
 
 41
0.9
100
AcDbText
  0
TEXT
  5
956
330
31A1
100
AcDbEntity
  8
OUTLINE
  6
Continuous
 62
     3
100
AcDbText
 10
1341.41903
 20
-706.0588199999997
 30
0.0
 40
64.0
  1
 
 41
0.9
100
AcDbText
  0
TEXT
  5
957
330
31A1
100
AcDbEntity
  8
OUTLINE
  6
Continuous
 62
     3
100
AcDbText
 10
1341.41903
 20
-706.0588199999997
 30
0.0
 40
64.0
  1
 
 41
0.9
100
AcDbText
  0
TEXT
  5
958
330
31A1
100
AcDbEntity
  8
OUTLINE
  6
Continuous
 62
     3
100
AcDbText
 10
1341.41903
 20
-706.0588199999997
 30
0.0
 40
64.0
  1
 
 41
0.9
100
AcDbText
  0
TEXT
  5
2E1F
330
31A1
100
AcDbEntity
  8
ETC
100
AcDbText
 10
386.9750866270915
 20
424.2098683581072
 30
0.0
 40
64.0
  1
システム部材
 41
0.9
100
AcDbText
  0
TEXT
  5
2E20
330
31A1
100
AcDbEntity
  8
ETC
100
AcDbText
 10
393.1830846270896
 20
525.0931943581072
 30
0.0
 40
64.0
  1
UW-30TDH_6
 41
0.9
100
AcDbText
  0
TEXT
  5
2E21
330
31A1
100
AcDbEntity
  8
ETC
100
AcDbText
 10
393.1830846270896
 20
325.0931943581075
 30
0.0
 40
64.0
  1
UW-30TDH
 41
0.9
100
AcDbText
  0
CIRCLE
  5
2E22
330
31A1
100
AcDbEntity
  8
ARRANGE
100
AcDbCircle
 10
0.000000000003638
 20
0.0000000986735813
 30
0.0
 40
40.0
  0
LINE
  5
2E23
330
31A1
100
AcDbEntity
  8
BASIS
100
AcDbLine
 10
0.0
 20
-263.0000000000003
 30
0.0
 11
0.0
 21
25.0
 31
0.0
  0
POINT
  5
2E24
330
31A1
100
AcDbEntity
  8
ARRANGE
100
AcDbPoint
 10
0.000000000003638
 20
0.0000000000001137
 30
0.0
 39
50.0
  0
ARC
  5
2E25
330
31A1
100
AcDbEntity
  8
DETAIL
100
AcDbCircle
 10
0.0
 20
611.9999999999996
 30
0.0
 40
850.0
100
AcDbArc
 50
257.4425878989951
 51
282.5574121010049
  0
ARC
  5
2E26
330
31A1
100
AcDbEntity
  8
DETAIL
100
AcDbCircle
 10
178.5
 20
-189.3605617947515
 30
0.0
 40
29.0
100
AcDbArc
 50
282.5574121010049
 51
0.0
  0
ARC
  5
2E27
330
31A1
100
AcDbEntity
  8
DETAIL
100
AcDbCircle
 10
-178.4999999999963
 20
-189.3605617947526
 30
0.0
 40
29.0
100
AcDbArc
 50
180.0
 51
257.4425878989951
  0
LINE
  5
2E28
330
31A1
100
AcDbEntity
  8
DETAIL
100
AcDbLine
 10
-150.0
 20
-29.20000000000016
 30
0.0
 11
150.0
 21
-29.20000000000016
 31
0.0
  0
LINE
  5
2E29
330
31A1
100
AcDbEntity
  8
DETAIL
100
AcDbLine
 10
-53.15000000000146
 20
-219.0
 30
0.0
 11
53.15000000000146
 21
-219.0
 31
0.0
  0
LINE
  5
2E2A
330
31A1
100
AcDbEntity
  8
DETAIL
100
AcDbLine
 10
-207.5
 20
0.0
 30
0.0
 11
207.5
 21
0.0
 31
0.0
  0
LINE
  5
2E2B
330
31A1
100
AcDbEntity
  8
DETAIL
100
AcDbLine
 10
-192.0
 20
-15.0
 30
0.0
 11
192.0
 21
-15.0
 31
0.0
  0
LINE
  5
2E2C
330
31A1
100
AcDbEntity
  8
DETAIL
100
AcDbLine
 10
-207.5
 20
0.0
 30
0.0
 11
-207.5
 21
-189.3605617947526
 31
0.0
  0
LINE
  5
2E2D
330
31A1
100
AcDbEntity
  8
DETAIL
100
AcDbLine
 10
-192.0
 20
-15.0
 30
0.0
 11
-192.0
 21
-178.2999999999999
 31
0.0
  0
LINE
  5
2E2E
330
31A1
100
AcDbEntity
  8
DETAIL
100
AcDbLine
 10
-150.0
 20
-15.0
 30
0.0
 11
-150.0
 21
-29.20000000000016
 31
0.0
  0
LINE
  5
2E2F
330
31A1
100
AcDbEntity
  8
DETAIL
100
AcDbLine
 10
207.5
 20
0.0
 30
0.0
 11
207.5
 21
-189.3605617947515
 31
0.0
  0
LINE
  5
2E30
330
31A1
100
AcDbEntity
  8
DETAIL
100
AcDbLine
 10
192.0
 20
-15.0
 30
0.0
 11
191.9999999999964
 21
-178.2999999999995
 31
0.0
  0
LINE
  5
2E31
330
31A1
100
AcDbEntity
  8
DETAIL
100
AcDbLine
 10
150.0
 20
-15.0
 30
0.0
 11
150.0
 21
-29.20000000000016
 31
0.0
  0
LINE
  5
2E32
330
31A1
100
AcDbEntity
  8
NOTE
100
AcDbLine
 10
190.0
 20
-12.5
 30
0.0
 11
190.0
 21
12.5
 31
0.0
  0
LINE
  5
2E33
330
31A1
100
AcDbEntity
  8
NOTE
100
AcDbLine
 10
-190.0
 20
-12.5
 30
0.0
 11
-190.0
 21
12.5
 31
0.0
  0
LINE
  5
2E34
330
31A1
100
AcDbEntity
  8
NOTE
100
AcDbLine
 39
50.0
 10
-202.5
 20
0.0
 30
0.0
 11
-177.5
 21
0.0
 31
0.0
  0
LINE
  5
2E35
330
31A1
100
AcDbEntity
  8
NOTE
100
AcDbLine
 39
50.0
 10
177.5
 20
0.0
 30
0.0
 11
202.5
 21
0.0
 31
0.0
  0
LINE
  5
2E36
330
31A1
100
AcDbEntity
  8
OUTLINE
100
AcDbLine
 39
50.0
 10
-207.5
 20
0.0
 30
0.0
 11
207.5
 21
0.0
 31
0.0
  0
ARC
  5
2E37
330
31A1
100
AcDbEntity
  8
OUTLINE
100
AcDbCircle
 10
0.0
 20
611.9999999999996
 30
0.0
 40
850.0
100
AcDbArc
 50
257.4425878989951
 51
282.5574121010049
  0
ARC
  5
2E38
330
31A1
100
AcDbEntity
  8
OUTLINE
100
AcDbCircle
 10
178.5
 20
-189.3605617947515
 30
0.0
 40
29.0
100
AcDbArc
 50
282.5574121010049
 51
0.0
  0
ARC
  5
2E39
330
31A1
100
AcDbEntity
  8
OUTLINE
100
AcDbCircle
 10
-178.4999999999963
 20
-189.3605617947526
 30
0.0
 40
29.0
100
AcDbArc
 50
180.0
 51
257.4425878989951
  0
LINE
  5
2E3A
330
31A1
100
AcDbEntity
  8
OUTLINE
100
AcDbLine
 10
-207.5
 20
0.0
 30
0.0
 11
-207.5
 21
-189.3605617947526
 31
0.0
  0
LINE
  5
2E3B
330
31A1
100
AcDbEntity
  8
OUTLINE
100
AcDbLine
 10
207.5
 20
0.0
 30
0.0
 11
207.5
 21
-189.3605617947515
 31
0.0
  0
LINE
  5
2E3C
330
31A1
100
AcDbEntity
  8
DETAIL
100
AcDbLine
 39
50.0
 10
-192.0
 20
-178.3000000000001
 30
0.0
 11
-53.15000000000146
 21
-219.0
 31
0.0
  0
LINE
  5
2E3D
330
31A1
100
AcDbEntity
  8
DETAIL
100
AcDbLine
 39
50.0
 10
53.15000000000146
 20
-219.0
 30
0.0
 11
192.0
 21
-178.3000000000001
 31
0.0
  0
INSERT
  5
2E3E
330
31A1
100
AcDbEntity
  8
DETAIL___1
  6
Continuous
100
AcDbBlockReference
  2
*X74
 10
0.0
 20
0.0
 30
0.0
1001
ACADANNOTATIVE
1000
AnnotativeData
1002
{
1070
     1
1070
     0
1002
}
1001
ACAD
1000
HATCH
1002
{
1070
    19
1000
LINE
1040
72.22849999999998
1040
5.838766301980094
1000
R14_HATCH_DATA
1000
2A2E
1011
1.0
1021
0.0
1031
0.0
1011
0.0
1021
1.0
1031
0.0
1011
0.0
1021
0.0
1031
1.0
1040
0.0
1010
0.0
1020
0.0
1030
1.0
1000
LINE
1070
     0
1070
     0
1071
        2
1071
        7
1070
     0
1070
     1
1071
        9
1040
-23.79999999999927
1040
-29.20000000000016
1040
-149.9999999999963
1040
-29.20000000000016
1040
-150.0
1040
-15.0
1040
-192.0
1040
-14.99999999999988
1040
-192.0
1040
-178.2999999999997
1040
-53.15000000000509
1040
-219.0000000000001
1040
53.15000000000509
1040
-218.9999999999999
1040
87.94778869779113
1040
-208.7999999999996
1040
-23.79999999999927
1040
-208.7999999999997
1071
        0
1071
        1
1071
        7
1070
     1
1040
150.0000000000035
1040
-14.99999999999988
1040
150.0
1040
-29.20000000000016
1070
     1
1040
150.0
1040
-29.20000000000016
1040
-23.79999999999563
1040
-29.20000000000016
1070
     1
1040
-23.79999999999563
1040
-29.20000000000016
1040
-23.79999999999927
1040
-208.7999999999998
1070
     1
1040
-23.79999999999927
1040
-208.7999999999998
1040
87.94778869779113
1040
-208.7999999999997
1070
     1
1040
87.94778869779113
1040
-208.7999999999997
1040
192.0
1040
-178.3000000000001
1070
     1
1040
192.0
1040
-178.3000000000001
1040
192.0
1040
-15.0
1070
     1
1040
192.0
1040
-15.0
1040
150.0000000000035
1040
-14.99999999999988
1071
        0
1070
     0
1070
     1
1040
5.838766301980094
1040
72.22849999999998
1070
     0
1070
     1
1040
5.838766301980094
1040
19238.43791973197
1040
718.896364152484
1040
3.881680532789153
1040
8.151533417570705
1070
     0
1040
0.8475914629473633
1071
        2
1040
-134.3197245311894
1040
-121.9811352736808
1040
0.0
1040
90.37516647709706
1040
-131.7013186024037
1040
0.0
1002
}
  0
INSERT
  5
2E3F
330
31A1
100
AcDbEntity
  8
DETAIL___1
  6
Continuous
100
AcDbBlockReference
  2
*X75
 10
0.0
 20
0.0
 30
0.0
1001
ACADANNOTATIVE
1000
AnnotativeData
1002
{
1070
     1
1070
     0
1002
}
1001
ACAD
1000
HATCH
1002
{
1070
    19
1000
LINE
1040
72.22849999999998
1040
0.4444190051994898
1000
R14_HATCH_DATA
1000
2A34
1011
1.0
1021
0.0
1031
0.0
1011
0.0
1021
1.0
1031
0.0
1011
0.0
1021
0.0
1031
1.0
1040
0.0
1010
0.0
1020
0.0
1030
1.0
1000
LINE
1070
     0
1070
     0
1071
        2
1071
        7
1070
     0
1070
     1
1071
        9
1040
-23.79999999999927
1040
-29.20000000000016
1040
-149.9999999999963
1040
-29.20000000000016
1040
-150.0
1040
-15.0
1040
-192.0
1040
-14.99999999999988
1040
-192.0
1040
-178.2999999999997
1040
-53.15000000000509
1040
-219.0000000000001
1040
53.15000000000509
1040
-218.9999999999999
1040
87.94778869779113
1040
-208.7999999999996
1040
-23.79999999999927
1040
-208.7999999999997
1071
        0
1071
        1
1071
        7
1070
     1
1040
150.0000000000035
1040
-14.99999999999977
1040
150.0
1040
-29.20000000000016
1070
     1
1040
150.0
1040
-29.20000000000016
1040
-23.79999999999927
1040
-29.20000000000016
1070
     1
1040
-23.79999999999927
1040
-29.20000000000016
1040
-23.79999999999927
1040
-208.7999999999998
1070
     1
1040
-23.79999999999927
1040
-208.7999999999998
1040
87.94778869779113
1040
-208.7999999999998
1070
     1
1040
87.94778869779113
1040
-208.7999999999998
1040
192.0000000000036
1040
-178.299999999999
1070
     1
1040
192.0000000000036
1040
-178.299999999999
1040
192.0
1040
-14.99999999999988
1070
     1
1040
192.0
1040
-14.99999999999988
1040
150.0000000000035
1040
-14.99999999999977
1071
        0
1070
     0
1070
     1
1040
0.4444190051994898
1040
72.22849999999998
1070
     0
1070
     1
1040
0.4444190051994898
1040
19238.43791973197
1040
718.896364152484
1040
-3.881680532789157
1040
8.151533417570702
1070
     0
1040
0.7683316952209073
1071
        2
1040
-93.4565770922927
1040
-94.28525224283408
1040
0.0
1040
115.3675573120708
1040
-131.3238295722171
1040
0.0
1002
}
  0
LINE
  5
2E40
330
31A1
100
AcDbEntity
  8
DETAIL
100
AcDbLine
 39
50.0
 10
-192.0
 20
-15.0
 30
0.0
 11
-192.0
 21
-178.3000000000001
 31
0.0
  0
LINE
  5
2E41
330
31A1
100
AcDbEntity
  8
DETAIL
100
AcDbLine
 39
50.0
 10
-192.0
 20
-178.3000000000001
 30
0.0
 11
-53.15000000000146
 21
-219.0
 31
0.0
  0
LINE
  5
2E42
330
31A1
100
AcDbEntity
  8
DETAIL
100
AcDbLine
 39
50.0
 10
-53.15000000000146
 20
-219.0
 30
0.0
 11
53.15000000000146
 21
-219.0
 31
0.0
  0
LINE
  5
2E43
330
31A1
100
AcDbEntity
  8
DETAIL
100
AcDbLine
 39
50.0
 10
53.15000000000146
 20
-219.0
 30
0.0
 11
191.9999999999964
 21
-178.3000000000011
 31
0.0
  0
LINE
  5
2E44
330
31A1
100
AcDbEntity
  8
DETAIL
100
AcDbLine
 39
50.0
 10
191.9999999999964
 20
-178.3000000000011
 30
0.0
 11
192.0
 21
-15.0
 31
0.0
  0
LINE
  5
2E45
330
31A1
100
AcDbEntity
  8
DETAIL
100
AcDbLine
 39
50.0
 10
192.0
 20
-15.0
 30
0.0
 11
150.0
 21
-15.0
 31
0.0
  0
LINE
  5
2E46
330
31A1
100
AcDbEntity
  8
DETAIL
100
AcDbLine
 39
50.0
 10
150.0
 20
-15.0
 30
0.0
 11
150.0
 21
-29.20000000000016
 31
0.0
  0
LINE
  5
2E47
330
31A1
100
AcDbEntity
  8
DETAIL
100
AcDbLine
 39
50.0
 10
150.0
 20
-29.20000000000016
 30
0.0
 11
-150.0
 21
-29.20000000000016
 31
0.0
  0
LINE
  5
2E48
330
31A1
100
AcDbEntity
  8
DETAIL
100
AcDbLine
 39
50.0
 10
-150.0
 20
-29.20000000000016
 30
0.0
 11
-150.0
 21
-15.0
 31
0.0
  0
LINE
  5
2E49
330
31A1
100
AcDbEntity
  8
DETAIL
100
AcDbLine
 39
50.0
 10
-150.0
 20
-15.0
 30
0.0
 11
-192.0
 21
-15.0
 31
0.0
  0
LINE
  5
2E4A
330
31A1
100
AcDbEntity
  8
OUTLINE
100
AcDbLine
 39
50.0
 10
-192.0
 20
-15.0
 30
0.0
 11
-192.0
 21
-178.3000000000001
 31
0.0
  0
LINE
  5
2E4B
330
31A1
100
AcDbEntity
  8
OUTLINE
100
AcDbLine
 39
50.0
 10
-192.0
 20
-178.3000000000001
 30
0.0
 11
-53.15000000000146
 21
-219.0
 31
0.0
  0
LINE
  5
2E4C
330
31A1
100
AcDbEntity
  8
OUTLINE
100
AcDbLine
 39
50.0
 10
-53.15000000000146
 20
-219.0
 30
0.0
 11
53.15000000000146
 21
-219.0
 31
0.0
  0
LINE
  5
2E4D
330
31A1
100
AcDbEntity
  8
OUTLINE
100
AcDbLine
 39
50.0
 10
53.15000000000146
 20
-219.0
 30
0.0
 11
191.9999999999964
 21
-178.3000000000011
 31
0.0
  0
LINE
  5
2E4E
330
31A1
100
AcDbEntity
  8
OUTLINE
100
AcDbLine
 39
50.0
 10
191.9999999999964
 20
-178.3000000000011
 30
0.0
 11
192.0
 21
-15.0
 31
0.0
  0
LINE
  5
2E4F
330
31A1
100
AcDbEntity
  8
OUTLINE
100
AcDbLine
 39
50.0
 10
192.0
 20
-15.0
 30
0.0
 11
-192.0
 21
-15.0
 31
0.0
  0
LINE
  5
2E50
330
31A1
100
AcDbEntity
  8
OUTLINE
100
AcDbLine
 39
50.0
 10
-150.0
 20
-15.0
 30
0.0
 11
-150.0
 21
-29.20000000000016
 31
0.0
  0
LINE
  5
2E51
330
31A1
100
AcDbEntity
  8
OUTLINE
100
AcDbLine
 39
50.0
 10
-150.0
 20
-29.20000000000016
 30
0.0
 11
150.0
 21
-29.20000000000016
 31
0.0
  0
LINE
  5
2E52
330
31A1
100
AcDbEntity
  8
OUTLINE
100
AcDbLine
 39
50.0
 10
150.0
 20
-29.20000000000016
 30
0.0
 11
150.0
 21
-15.0
 31
0.0
  0
LINE
  5
2E53
330
31A1
100
AcDbEntity
  8
SIZE
100
AcDbLine
 10
-190.0
 20
32.5
 30
0.0
 11
-190.0
 21
105.0773943625402
 31
0.0
  0
LINE
  5
2E54
330
31A1
100
AcDbEntity
  8
SIZE
100
AcDbLine
 10
190.0
 20
32.5
 30
0.0
 11
190.0
 21
105.0773943625402
 31
0.0
  0
LINE
  5
2E55
330
31A1
100
AcDbEntity
  8
SIZE
100
AcDbLine
 10
-178.0
 20
85.07739436254018
 30
0.0
 11
178.0
 21
85.07739436254018
 31
0.0
  0
INSERT
  5
2E56
330
31A1
100
AcDbEntity
  8
SIZE
100
AcDbBlockReference
  2
_DOTBLANK
 10
-190.0
 20
85.07739436254018
 30
0.0
 41
12.0
 42
12.0
 43
12.0
 50
180.0
  0
INSERT
  5
2E57
330
31A1
100
AcDbEntity
  8
SIZE
100
AcDbBlockReference
  2
_DOTBLANK
 10
190.0
 20
85.07739436254018
 30
0.0
 41
12.0
 42
12.0
 43
12.0
  0
LINE
  5
2E58
330
31A1
100
AcDbEntity
  8
SIZE
100
AcDbLine
 10
-207.5
 20
20.0
 30
0.0
 11
-207.5
 21
208.8426344320867
 31
0.0
  0
LINE
  5
2E59
330
31A1
100
AcDbEntity
  8
SIZE
100
AcDbLine
 10
207.5
 20
20.0
 30
0.0
 11
207.5
 21
208.8426344320867
 31
0.0
  0
LINE
  5
2E5A
330
31A1
100
AcDbEntity
  8
SIZE
100
AcDbLine
 10
-195.5
 20
188.8426344320866
 30
0.0
 11
195.5
 21
188.8426344320866
 31
0.0
  0
INSERT
  5
2E5B
330
31A1
100
AcDbEntity
  8
SIZE
100
AcDbBlockReference
  2
_DOTBLANK
 10
-207.5
 20
188.8426344320866
 30
0.0
 41
12.0
 42
12.0
 43
12.0
 50
180.0
  0
INSERT
  5
2E5C
330
31A1
100
AcDbEntity
  8
SIZE
100
AcDbBlockReference
  2
_DOTBLANK
 10
207.5
 20
188.8426344320866
 30
0.0
 41
12.0
 42
12.0
 43
12.0
  0
LINE
  5
2E5D
330
31A1
100
AcDbEntity
  8
SIZE
100
AcDbLine
 10
20.0
 20
-238.0
 30
0.0
 11
370.5525861285384
 21
-238.0000000000001
 31
0.0
  0
LINE
  5
2E5E
330
31A1
100
AcDbEntity
  8
SIZE
100
AcDbLine
 10
227.5
 20
0.0
 30
0.0
 11
370.5525861285384
 21
-0.0000000000000568
 31
0.0
  0
LINE
  5
2E5F
330
31A1
100
AcDbEntity
  8
SIZE
100
AcDbLine
 10
350.5525861285385
 20
-226.0000000000001
 30
0.0
 11
350.5525861285387
 21
-12.00000000000005
 31
0.0
  0
INSERT
  5
2E60
330
31A1
100
AcDbEntity
  8
SIZE
100
AcDbBlockReference
  2
_DOTBLANK
 10
350.5525861285385
 20
-238.0000000000001
 30
0.0
 41
12.0
 42
12.0
 43
12.0
 50
270.0
  0
INSERT
  5
2E61
330
31A1
100
AcDbEntity
  8
SIZE
100
AcDbBlockReference
  2
_DOTBLANK
 10
350.5525861285387
 20
-0.0000000000000568
 30
0.0
 41
12.0
 42
12.0
 43
12.0
 50
90.0
  0
LINE
  5
2E62
330
31A1
100
AcDbEntity
  8
SIZE
100
AcDbLine
 10
-212.0
 20
-15.0
 30
0.0
 11
-304.2972213200046
 21
-14.99999999999994
 31
0.0
  0
LINE
  5
2E63
330
31A1
100
AcDbEntity
  8
SIZE
100
AcDbLine
 10
-73.15000000000146
 20
-219.0
 30
0.0
 11
-304.2972213200048
 21
-218.9999999999999
 31
0.0
  0
LINE
  5
2E64
330
31A1
100
AcDbEntity
  8
SIZE
100
AcDbLine
 10
-284.2972213200046
 20
-26.99999999999994
 30
0.0
 11
-284.2972213200048
 21
-206.9999999999999
 31
0.0
  0
INSERT
  5
2E65
330
31A1
100
AcDbEntity
  8
SIZE
100
AcDbBlockReference
  2
_DOTBLANK
 10
-284.2972213200046
 20
-14.99999999999994
 30
0.0
 41
12.0
 42
12.0
 43
12.0
 50
90.0
  0
INSERT
  5
2E66
330
31A1
100
AcDbEntity
  8
SIZE
100
AcDbBlockReference
  2
_DOTBLANK
 10
-284.2972213200048
 20
-218.9999999999999
 30
0.0
 41
12.0
 42
12.0
 43
12.0
 50
270.0
  0
LINE
  5
2E67
330
31A1
100
AcDbEntity
  8
SIZE
100
AcDbLine
 10
-192.0
 20
-198.3
 30
0.0
 11
-192.0
 21
-406.0517033765471
 31
0.0
  0
LINE
  5
2E68
330
31A1
100
AcDbEntity
  8
SIZE
100
AcDbLine
 10
191.9999999999964
 20
-198.3000000000011
 30
0.0
 11
191.9999999999964
 21
-406.0517033765471
 31
0.0
  0
LINE
  5
2E69
330
31A1
100
AcDbEntity
  8
SIZE
100
AcDbLine
 10
-180.0
 20
-386.0517033765475
 30
0.0
 11
179.9999999999961
 21
-386.0517033765475
 31
0.0
  0
INSERT
  5
2E6A
330
31A1
100
AcDbEntity
  8
SIZE
100
AcDbBlockReference
  2
_DOTBLANK
 10
-192.0
 20
-386.0517033765475
 30
0.0
 41
12.0
 42
12.0
 43
12.0
 50
180.0
  0
INSERT
  5
2E6B
330
31A1
100
AcDbEntity
  8
SIZE
100
AcDbBlockReference
  2
_DOTBLANK
 10
191.9999999999964
 20
-386.0517033765475
 30
0.0
 41
12.0
 42
12.0
 43
12.0
  0
TEXT
  5
2E6C
330
31A1
100
AcDbEntity
  8
SIZE
100
AcDbText
 10
-77.42857142857133
 20
-376.0517033765474
 30
0.0
 40
64.0
  1
384
 41
0.9
100
AcDbText
  0
TEXT
  5
2E6D
330
31A1
100
AcDbEntity
  8
SIZE
100
AcDbText
 10
-294.2972213200046
 20
-194.4285714285713
 30
0.0
 40
64.0
  1
204
 50
90.0
 41
0.9
100
AcDbText
  0
TEXT
  5
2E6E
330
31A1
100
AcDbEntity
  8
SIZE
100
AcDbText
 10
-68.57142857142865
 20
198.8426344320865
 30
0.0
 40
64.0
  1
415
 41
0.9
100
AcDbText
  0
TEXT
  5
2E6F
330
31A1
100
AcDbEntity
  8
SIZE
100
AcDbText
 10
-74.05714285714293
 20
95.07739436254013
 30
0.0
 40
64.0
  1
380
 41
0.9
100
AcDbText
  0
TEXT
  5
2E70
330
31A1
100
AcDbEntity
  8
SIZE
100
AcDbText
 10
340.5525861285387
 20
-193.0571428571429
 30
0.0
 40
64.0
  1
238
 50
90.0
 41
0.9
100
AcDbText
  0
TEXT
  5
2E71
330
31A1
100
AcDbEntity
  8
NOTE
100
AcDbText
 10
339.8693999922543
 20
113.5270950580129
 30
0.0
 40
64.0
  1
4×φ10取付穴
 41
0.9
100
AcDbText
  0
INSERT
  5
2E72
330
31A1
100
AcDbEntity
  8
NOTE
100
AcDbBlockReference
  2
_OPEN30
 10
190.0
 20
0.0
 30
0.0
 41
11.99999999999998
 42
12.0
 43
12.0
 50
227.3909883883106
1001
ACAD
1000
DSTYLE
1002
{
1070
    41
1040
12.0
1070
    42
1040
20.0
1070
    43
1040
200.0
1070
    44
1040
20.0
1070
    73
1070
     0
1070
    74
1070
     0
1070
    77
1070
     1
1070
    78
1070
     8
1070
   140
1040
64.0
1070
   147
1040
50.0
1070
   172
1070
     1
1070
   174
1070
     1
1070
   275
1070
     0
1070
   284
1070
     0
1070
   285
1070
     0
1070
   286
1070
     0
1070
   341
1005
0
1070
   342
1005
0
1002
}
  0
POLYLINE
  5
2E73
330
31A1
100
AcDbEntity
  8
NOTE
100
AcDb2dPolyline
 66
     1
 10
0.0
 20
0.0
 30
0.0
1001
ACAD
1000
DSTYLE
1002
{
1070
    41
1040
12.0
1070
    42
1040
20.0
1070
    43
1040
200.0
1070
    44
1040
20.0
1070
    73
1070
     0
1070
    74
1070
     0
1070
    77
1070
     1
1070
    78
1070
     8
1070
   140
1040
64.0
1070
   147
1040
50.0
1070
   172
1070
     1
1070
   174
1070
     1
1070
   275
1070
     0
1070
   284
1070
     0
1070
   285
1070
     0
1070
   286
1070
     0
1070
   341
1005
0
1070
   342
1005
0
1002
}
  0
VERTEX
  5
2E74
330
2E73
100
AcDbEntity
  8
NOTE
100
AcDbVertex
100
AcDb2dVertex
 10
198.1239008361895
 20
8.831887408915461
 30
0.0
  0
VERTEX
  5
2E75
330
2E73
100
AcDbEntity
  8
NOTE
100
AcDbVertex
100
AcDb2dVertex
 10
277.8693999922541
 20
95.52709505801294
 30
0.0
  0
VERTEX
  5
2E76
330
2E73
100
AcDbEntity
  8
NOTE
100
AcDbVertex
100
AcDb2dVertex
 10
823.7093999922537
 20
95.52709505801294
 30
0.0
  0
SEQEND
  5
2E77
330
2E73
100
AcDbEntity
  8
NOTE
  0
ENDSEC
  0
SECTION
  2
OBJECTS
  0
DICTIONARY
  5
3139
330
0
100
AcDbDictionary
281
     1
  3
ACAD_2007HEADERVARS_RT
350
3393
  3
ACAD_COLOR
350
3197
  3
ACAD_GROUP
350
313A
  3
ACAD_LAYOUT
350
3196
  3
ACAD_MATERIAL
350
313D
  3
ACAD_MLEADERSTYLE
350
319A
  3
ACAD_MLINESTYLE
350
3193
  3
ACAD_PLOTSETTINGS
350
3195
  3
ACAD_PLOTSTYLENAME
350
313B
  3
ACAD_SCALELIST
350
3167
  3
ACAD_TABLESTYLE
350
3198
  3
ACAD_VISUALSTYLE
350
3156
  3
ACDB_RECOMPOSE_DATA
350
3391
  3
AcDbVariableDictionary
350
3388
  3
AcmDictionary
350
3338
  3
AMG
350
3285
  3
DWGPROPS
350
3392
  3
MAPISURF_MODULE
350
3305
  0
DICTIONARY
  5
3360
330
3189
100
AcDbDictionary
280
     1
281
     1
  3
ADSK_XREC_LAYER_RECONCILED
360
3361
  0
DICTIONARY
  5
3362
330
31B8
100
AcDbDictionary
280
     1
281
     1
  3
ADSK_XREC_LAYER_RECONCILED
360
3363
  0
DICTIONARY
  5
3364
330
31B9
100
AcDbDictionary
280
     1
281
     1
  3
ADSK_XREC_LAYER_RECONCILED
360
3365
  0
DICTIONARY
  5
3366
330
31BA
100
AcDbDictionary
280
     1
281
     1
  3
ADSK_XREC_LAYER_RECONCILED
360
3367
  0
DICTIONARY
  5
3368
330
31BB
100
AcDbDictionary
280
     1
281
     1
  3
ADSK_XREC_LAYER_RECONCILED
360
3369
  0
DICTIONARY
  5
336A
330
31BC
100
AcDbDictionary
280
     1
281
     1
  3
ADSK_XREC_LAYER_RECONCILED
360
336B
  0
DICTIONARY
  5
336C
330
31BE
100
AcDbDictionary
280
     1
281
     1
  3
ADSK_XREC_LAYER_RECONCILED
360
336D
  0
DICTIONARY
  5
336E
330
31BF
100
AcDbDictionary
280
     1
281
     1
  3
ADSK_XREC_LAYER_RECONCILED
360
336F
  0
DICTIONARY
  5
3370
330
31C0
100
AcDbDictionary
280
     1
281
     1
  3
ADSK_XREC_LAYER_RECONCILED
360
3371
  0
DICTIONARY
  5
3372
330
31C1
100
AcDbDictionary
280
     1
281
     1
  3
ADSK_XREC_LAYER_RECONCILED
360
3373
  0
DICTIONARY
  5
3374
330
31C2
100
AcDbDictionary
280
     1
281
     1
  3
ADSK_XREC_LAYER_RECONCILED
360
3375
  0
DICTIONARY
  5
3376
330
31C3
100
AcDbDictionary
280
     1
281
     1
  3
ADSK_XREC_LAYER_RECONCILED
360
3377
  0
DICTIONARY
  5
3378
330
31A1
100
AcDbDictionary
280
     1
281
     1
  3
ACAD_INDEX
360
3379
  0
DICTIONARY
  5
3393
102
{ACAD_REACTORS
330
3139
102
}
330
3139
100
AcDbDictionary
281
     1
  3
DIMARCSYM
350
3394
  3
DIMLTEX1
350
3396
  3
DIMLTEX2
350
3397
  3
DIMLTYPE
350
3395
  0
DICTIONARY
  5
3197
102
{ACAD_REACTORS
330
3139
102
}
330
3139
100
AcDbDictionary
281
     1
  0
DICTIONARY
  5
313A
102
{ACAD_REACTORS
330
3139
102
}
330
3139
100
AcDbDictionary
281
     1
  0
DICTIONARY
  5
3196
102
{ACAD_REACTORS
330
3139
102
}
330
3139
100
AcDbDictionary
281
     1
  3
Model
350
31A4
  3
レイアウト1
350
31A0
  0
DICTIONARY
  5
313D
102
{ACAD_REACTORS
330
3139
102
}
330
3139
100
AcDbDictionary
281
     1
  3
ByBlock
350
3146
  3
ByLayer
350
313E
  3
Global
350
314E
  0
DICTIONARY
  5
319A
102
{ACAD_REACTORS
330
3139
102
}
330
3139
100
AcDbDictionary
281
     1
  3
Standard
350
319B
  0
DICTIONARY
  5
3193
102
{ACAD_REACTORS
330
3139
102
}
330
3139
100
AcDbDictionary
281
     1
  3
Standard
350
3194
  0
DICTIONARY
  5
3195
102
{ACAD_REACTORS
330
3139
102
}
330
3139
100
AcDbDictionary
281
     1
  0
ACDBDICTIONARYWDFLT
  5
313B
102
{ACAD_REACTORS
330
3139
102
}
330
3139
100
AcDbDictionary
281
     1
  3
Normal
350
313C
100
AcDbDictionaryWithDefault
340
313C
  0
DICTIONARY
  5
3167
102
{ACAD_REACTORS
330
3139
102
}
330
3139
100
AcDbDictionary
281
     1
  3
A0
350
3168
  3
A1
350
3169
  3
A2
350
316A
  3
A3
350
316B
  3
A4
350
316C
  3
A5
350
316D
  3
A6
350
316E
  3
A7
350
316F
  3
A8
350
3170
  3
A9
350
3171
  3
B0
350
3172
  3
B1
350
3173
  3
B2
350
3174
  3
B3
350
3175
  3
B4
350
3176
  3
B5
350
3177
  3
B6
350
3178
  3
B7
350
3179
  3
B8
350
317A
  3
B9
350
317B
  3
C0
350
317C
  3
C1
350
317D
  3
C2
350
317E
  3
C3
350
317F
  3
C4
350
3180
  3
C5
350
3181
  3
C6
350
3182
  3
C7
350
3183
  3
C8
350
3184
  3
C9
350
3185
  3
D0
350
3186
  3
D1
350
3187
  3
D2
350
3188
  0
DICTIONARY
  5
3198
102
{ACAD_REACTORS
330
3139
102
}
330
3139
100
AcDbDictionary
281
     1
  3
Standard
350
3199
  0
DICTIONARY
  5
3156
102
{ACAD_REACTORS
330
3139
102
}
330
3139
100
AcDbDictionary
281
     1
  3
2dWireframe
350
315C
  3
3D Hidden
350
315E
  3
3dWireframe
350
315D
  3
Basic
350
315B
  3
Brighten
350
3162
  3
ColorChange
350
3166
  3
Conceptual
350
315F
  3
Dim
350
3161
  3
Facepattern
350
3165
  3
Flat
350
3157
  3
FlatWithEdges
350
3158
  3
Gouraud
350
3159
  3
GouraudWithEdges
350
315A
  3
Linepattern
350
3164
  3
Realistic
350
3160
  3
Thicken
350
3163
  0
XRECORD
  5
3391
102
{ACAD_REACTORS
330
3139
102
}
330
3139
100
AcDbXrecord
280
     1
 90
        1
330
3199
  0
DICTIONARY
  5
3388
102
{ACAD_REACTORS
330
3139
102
}
330
3139
100
AcDbDictionary
281
     1
  3
CANNOSCALE
350
338B
  3
CMLEADERSTYLE
350
338A
  3
CTABLESTYLE
350
3389
  3
DIMASSOC
350
338E
  3
INDEXCTL
350
338D
  3
SORTENTS
350
338C
  0
DICTIONARY
  5
3338
102
{ACAD_REACTORS
330
3139
102
}
330
3139
100
AcDbDictionary
281
     1
  3
AcmStdDictionary
350
3346
  0
DICTIONARY
  5
3285
102
{ACAD_REACTORS
330
3139
102
}
330
3139
100
AcDbDictionary
281
     1
  3
AcMgSettings
350
3286
  0
XRECORD
  5
3392
102
{ACAD_REACTORS
330
3139
102
}
330
3139
100
AcDbXrecord
280
     1
  1
DWGPROPS COOKIE
  2

  3

  4

  6

  7

  8
A090053
  9

300
AmdtFileType=84
301
=
302
=
303
=
304
=
305
=
306
=
307
=
308
=
309
=
 40
1.042975613425925
 41
2452321.396199653
 42
2456213.439154665
  1

 90
        1
  0
XRECORD
  5
3361
102
{ACAD_REACTORS
330
3360
102
}
330
3360
100
AcDbXrecord
280
     1
290
     1
  0
XRECORD
  5
3363
102
{ACAD_REACTORS
330
3362
102
}
330
3362
100
AcDbXrecord
280
     1
290
     1
  0
XRECORD
  5
3365
102
{ACAD_REACTORS
330
3364
102
}
330
3364
100
AcDbXrecord
280
     1
290
     1
  0
XRECORD
  5
3367
102
{ACAD_REACTORS
330
3366
102
}
330
3366
100
AcDbXrecord
280
     1
290
     1
  0
XRECORD
  5
3369
102
{ACAD_REACTORS
330
3368
102
}
330
3368
100
AcDbXrecord
280
     1
290
     1
  0
XRECORD
  5
336B
102
{ACAD_REACTORS
330
336A
102
}
330
336A
100
AcDbXrecord
280
     1
290
     1
  0
XRECORD
  5
336D
102
{ACAD_REACTORS
330
336C
102
}
330
336C
100
AcDbXrecord
280
     1
290
     1
  0
XRECORD
  5
336F
102
{ACAD_REACTORS
330
336E
102
}
330
336E
100
AcDbXrecord
280
     1
290
     1
  0
XRECORD
  5
3371
102
{ACAD_REACTORS
330
3370
102
}
330
3370
100
AcDbXrecord
280
     1
290
     1
  0
XRECORD
  5
3373
102
{ACAD_REACTORS
330
3372
102
}
330
3372
100
AcDbXrecord
280
     1
290
     1
  0
XRECORD
  5
3375
102
{ACAD_REACTORS
330
3374
102
}
330
3374
100
AcDbXrecord
280
     1
290
     1
  0
XRECORD
  5
3377
102
{ACAD_REACTORS
330
3376
102
}
330
3376
100
AcDbXrecord
280
     1
290
     1
  0
DICTIONARY
  5
3379
102
{ACAD_REACTORS
330
3378
102
}
330
3378
100
AcDbDictionary
281
     1
  3
*A1
350
337A
  0
XRECORD
  5
3394
102
{ACAD_REACTORS
330
3393
102
}
330
3393
100
AcDbXrecord
280
     1
 70
     1
  0
XRECORD
  5
3396
102
{ACAD_REACTORS
330
3393
102
}
330
3393
100
AcDbXrecord
280
     1
340
318F
  0
XRECORD
  5
3397
102
{ACAD_REACTORS
330
3393
102
}
330
3393
100
AcDbXrecord
280
     1
340
318F
  0
XRECORD
  5
3395
102
{ACAD_REACTORS
330
3393
102
}
330
3393
100
AcDbXrecord
280
     1
340
318F
  0
LAYOUT
  5
31A4
102
{ACAD_XDICTIONARY
360
339E
102
}
102
{ACAD_REACTORS
330
3196
102
}
330
3196
100
AcDbPlotSettings
  1

  2
自動 EPSON LP-9600S (W2450527 上)
  4

  6

 40
0.0
 41
0.0
 42
0.0
 43
0.0
 44
0.0
 45
0.0
 46
0.0
 47
0.0
 48
0.0
 49
0.0
140
0.0
141
0.0
142
1.0
143
1.0
 70
  1712
 72
     0
 73
     0
 74
     0
  7

 75
     0
147
1.0
148
0.0
149
0.0
100
AcDbLayout
  1
Model
 70
     1
 71
     0
 10
0.0
 20
0.0
 11
12.0
 21
9.0
 12
0.0
 22
0.0
 32
0.0
 14
0.0
 24
0.0
 34
0.0
 15
0.0
 25
0.0
 35
0.0
146
0.0
 13
0.0
 23
0.0
 33
0.0
 16
1.0
 26
0.0
 36
0.0
 17
0.0
 27
1.0
 37
0.0
 76
     0
330
31A1
331
31A5
  0
LAYOUT
  5
31A0
102
{ACAD_XDICTIONARY
360
339C
102
}
102
{ACAD_REACTORS
330
3196
102
}
330
3196
100
AcDbPlotSettings
  1

  2
自動 EPSON LP-9600S (W2450527 上)
  4

  6

 40
0.0
 41
0.0
 42
0.0
 43
0.0
 44
0.0
 45
0.0
 46
0.0
 47
0.0
 48
0.0
 49
0.0
140
0.0
141
0.0
142
1.0
143
1.0
 70
   688
 72
     0
 73
     0
 74
     5
  7

 75
    16
147
1.0
148
0.0
149
0.0
100
AcDbLayout
  1
レイアウト1
 70
     1
 71
     1
 10
0.0
 20
0.0
 11
12.0
 21
9.0
 12
0.0
 22
0.0
 32
0.0
 14
1.000000000000000E+20
 24
1.000000000000000E+20
 34
1.000000000000000E+20
 15
-1.000000000000000E+20
 25
-1.000000000000000E+20
 35
-1.000000000000000E+20
146
0.0
 13
0.0
 23
0.0
 33
0.0
 16
1.0
 26
0.0
 36
0.0
 17
0.0
 27
1.0
 37
0.0
 76
     0
330
319D
  0
MATERIAL
  5
3146
102
{ACAD_XDICTIONARY
360
3147
102
}
102
{ACAD_REACTORS
330
313D
102
}
330
313D
100
AcDbMaterial
  1
ByBlock
 72
     0
 43
0.0208333333333333
 43
0.0
 43
0.0
 43
0.0
 43
0.0
 43
0.0208333333333333
 43
0.0
 43
0.0
 43
0.0
 43
0.0
 43
1.0
 43
0.0
 43
0.0
 43
0.0
 43
0.0
 43
1.0
 77
     0
 47
0.0208333333333333
 47
0.0
 47
0.0
 47
0.0
 47
0.0
 47
0.0208333333333333
 47
0.0
 47
0.0
 47
0.0
 47
0.0
 47
1.0
 47
0.0
 47
0.0
 47
0.0
 47
0.0
 47
1.0
171
     0
 49
0.0208333333333333
 49
0.0
 49
0.0
 49
0.0
 49
0.0
 49
0.0208333333333333
 49
0.0
 49
0.0
 49
0.0
 49
0.0
 49
1.0
 49
0.0
 49
0.0
 49
0.0
 49
0.0
 49
1.0
175
     0
142
0.0208333333333333
142
0.0
142
0.0
142
0.0
142
0.0
142
0.0208333333333333
142
0.0
142
0.0
142
0.0
142
0.0
142
1.0
142
0.0
142
0.0
142
0.0
142
0.0
142
1.0
179
     0
144
0.0208333333333333
144
0.0
144
0.0
144
0.0
144
0.0
144
0.0208333333333333
144
0.0
144
0.0
144
0.0
144
0.0
144
1.0
144
0.0
144
0.0
144
0.0
144
0.0
144
1.0
147
0.0208333333333333
147
0.0
147
0.0
147
0.0
147
0.0
147
0.0208333333333333
147
0.0
147
0.0
147
0.0
147
0.0
147
1.0
147
0.0
147
0.0
147
0.0
147
0.0
147
1.0
  0
MATERIAL
  5
313E
102
{ACAD_XDICTIONARY
360
313F
102
}
102
{ACAD_REACTORS
330
313D
102
}
330
313D
100
AcDbMaterial
  1
ByLayer
 72
     0
 43
0.0208333333333333
 43
0.0
 43
0.0
 43
0.0
 43
0.0
 43
0.0208333333333333
 43
0.0
 43
0.0
 43
0.0
 43
0.0
 43
1.0
 43
0.0
 43
0.0
 43
0.0
 43
0.0
 43
1.0
 77
     0
 47
0.0208333333333333
 47
0.0
 47
0.0
 47
0.0
 47
0.0
 47
0.0208333333333333
 47
0.0
 47
0.0
 47
0.0
 47
0.0
 47
1.0
 47
0.0
 47
0.0
 47
0.0
 47
0.0
 47
1.0
171
     0
 49
0.0208333333333333
 49
0.0
 49
0.0
 49
0.0
 49
0.0
 49
0.0208333333333333
 49
0.0
 49
0.0
 49
0.0
 49
0.0
 49
1.0
 49
0.0
 49
0.0
 49
0.0
 49
0.0
 49
1.0
175
     0
142
0.0208333333333333
142
0.0
142
0.0
142
0.0
142
0.0
142
0.0208333333333333
142
0.0
142
0.0
142
0.0
142
0.0
142
1.0
142
0.0
142
0.0
142
0.0
142
0.0
142
1.0
179
     0
144
0.0208333333333333
144
0.0
144
0.0
144
0.0
144
0.0
144
0.0208333333333333
144
0.0
144
0.0
144
0.0
144
0.0
144
1.0
144
0.0
144
0.0
144
0.0
144
0.0
144
1.0
147
0.0208333333333333
147
0.0
147
0.0
147
0.0
147
0.0
147
0.0208333333333333
147
0.0
147
0.0
147
0.0
147
0.0
147
1.0
147
0.0
147
0.0
147
0.0
147
0.0
147
1.0
  0
MATERIAL
  5
314E
102
{ACAD_XDICTIONARY
360
314F
102
}
102
{ACAD_REACTORS
330
313D
102
}
330
313D
100
AcDbMaterial
  1
Global
 72
     0
 43
0.0208333333333333
 43
0.0
 43
0.0
 43
0.0
 43
0.0
 43
0.0208333333333333
 43
0.0
 43
0.0
 43
0.0
 43
0.0
 43
1.0
 43
0.0
 43
0.0
 43
0.0
 43
0.0
 43
1.0
 77
     0
 47
0.0208333333333333
 47
0.0
 47
0.0
 47
0.0
 47
0.0
 47
0.0208333333333333
 47
0.0
 47
0.0
 47
0.0
 47
0.0
 47
1.0
 47
0.0
 47
0.0
 47
0.0
 47
0.0
 47
1.0
171
     0
 49
0.0208333333333333
 49
0.0
 49
0.0
 49
0.0
 49
0.0
 49
0.0208333333333333
 49
0.0
 49
0.0
 49
0.0
 49
0.0
 49
1.0
 49
0.0
 49
0.0
 49
0.0
 49
0.0
 49
1.0
175
     0
142
0.0208333333333333
142
0.0
142
0.0
142
0.0
142
0.0
142
0.0208333333333333
142
0.0
142
0.0
142
0.0
142
0.0
142
1.0
142
0.0
142
0.0
142
0.0
142
0.0
142
1.0
179
     0
144
0.0208333333333333
144
0.0
144
0.0
144
0.0
144
0.0
144
0.0208333333333333
144
0.0
144
0.0
144
0.0
144
0.0
144
1.0
144
0.0
144
0.0
144
0.0
144
0.0
144
1.0
147
0.0208333333333333
147
0.0
147
0.0
147
0.0
147
0.0
147
0.0208333333333333
147
0.0
147
0.0
147
0.0
147
0.0
147
1.0
147
0.0
147
0.0
147
0.0
147
0.0
147
1.0
  0
MLEADERSTYLE
  5
319B
102
{ACAD_REACTORS
330
319A
102
}
330
319A
100
AcDbMLeaderStyle
170
     2
171
     1
172
     0
 90
        2
 40
0.0
 41
0.0
173
     1
 91
-1056964608
340
318F
 92
       -2
290
     1
 42
0.09
291
     1
 43
0.36
  3
Standard
 44
0.18
300

342
318A
174
     1
178
     6
175
     1
176
     0
 93
-1056964608
 45
0.18
292
     0
297
     0
 46
0.18
 94
-1056964608
 47
1.0
 49
1.0
140
1.0
293
     1
141
0.0
294
     1
177
     0
142
1.0
295
     0
296
     0
143
0.125
1001
ACAD_MLEADERVER
1070
     2
  0
MLINESTYLE
  5
3194
102
{ACAD_REACTORS
330
3193
102
}
330
3193
100
AcDbMlineStyle
  2
STANDARD
 70
     0
  3

 62
   256
 51
90.0
 52
90.0
 71
     2
 49
0.5
 62
   256
  6
BYLAYER
 49
-0.5
 62
   256
  6
BYLAYER
  0
ACDBPLACEHOLDER
  5
313C
102
{ACAD_REACTORS
330
313B
102
}
330
313B
  0
SCALE
  5
3168
102
{ACAD_REACTORS
330
3167
102
}
330
3167
100
AcDbScale
 70
     0
300
1:1
140
1.0
141
1.0
290
     1
  0
SCALE
  5
3169
102
{ACAD_REACTORS
330
3167
102
}
330
3167
100
AcDbScale
 70
     0
300
1:2
140
1.0
141
2.0
290
     0
  0
SCALE
  5
316A
102
{ACAD_REACTORS
330
3167
102
}
330
3167
100
AcDbScale
 70
     0
300
1:4
140
1.0
141
4.0
290
     0
  0
SCALE
  5
316B
102
{ACAD_REACTORS
330
3167
102
}
330
3167
100
AcDbScale
 70
     0
300
1:5
140
1.0
141
5.0
290
     0
  0
SCALE
  5
316C
102
{ACAD_REACTORS
330
3167
102
}
330
3167
100
AcDbScale
 70
     0
300
1:8
140
1.0
141
8.0
290
     0
  0
SCALE
  5
316D
102
{ACAD_REACTORS
330
3167
102
}
330
3167
100
AcDbScale
 70
     0
300
1:10
140
1.0
141
10.0
290
     0
  0
SCALE
  5
316E
102
{ACAD_REACTORS
330
3167
102
}
330
3167
100
AcDbScale
 70
     0
300
1:16
140
1.0
141
16.0
290
     0
  0
SCALE
  5
316F
102
{ACAD_REACTORS
330
3167
102
}
330
3167
100
AcDbScale
 70
     0
300
1:20
140
1.0
141
20.0
290
     0
  0
SCALE
  5
3170
102
{ACAD_REACTORS
330
3167
102
}
330
3167
100
AcDbScale
 70
     0
300
1:30
140
1.0
141
30.0
290
     0
  0
SCALE
  5
3171
102
{ACAD_REACTORS
330
3167
102
}
330
3167
100
AcDbScale
 70
     0
300
1:40
140
1.0
141
40.0
290
     0
  0
SCALE
  5
3172
102
{ACAD_REACTORS
330
3167
102
}
330
3167
100
AcDbScale
 70
     0
300
1:50
140
1.0
141
50.0
290
     0
  0
SCALE
  5
3173
102
{ACAD_REACTORS
330
3167
102
}
330
3167
100
AcDbScale
 70
     0
300
1:100
140
1.0
141
100.0
290
     0
  0
SCALE
  5
3174
102
{ACAD_REACTORS
330
3167
102
}
330
3167
100
AcDbScale
 70
     0
300
2:1
140
2.0
141
1.0
290
     0
  0
SCALE
  5
3175
102
{ACAD_REACTORS
330
3167
102
}
330
3167
100
AcDbScale
 70
     0
300
4:1
140
4.0
141
1.0
290
     0
  0
SCALE
  5
3176
102
{ACAD_REACTORS
330
3167
102
}
330
3167
100
AcDbScale
 70
     0
300
8:1
140
8.0
141
1.0
290
     0
  0
SCALE
  5
3177
102
{ACAD_REACTORS
330
3167
102
}
330
3167
100
AcDbScale
 70
     0
300
10:1
140
10.0
141
1.0
290
     0
  0
SCALE
  5
3178
102
{ACAD_REACTORS
330
3167
102
}
330
3167
100
AcDbScale
 70
     0
300
100:1
140
100.0
141
1.0
290
     0
  0
SCALE
  5
3179
102
{ACAD_REACTORS
330
3167
102
}
330
3167
100
AcDbScale
 70
     0
300
1/128" = 1'-0"
140
0.0078125
141
12.0
290
     0
  0
SCALE
  5
317A
102
{ACAD_REACTORS
330
3167
102
}
330
3167
100
AcDbScale
 70
     0
300
1/64" = 1'-0"
140
0.015625
141
12.0
290
     0
  0
SCALE
  5
317B
102
{ACAD_REACTORS
330
3167
102
}
330
3167
100
AcDbScale
 70
     0
300
1/32" = 1'-0"
140
0.03125
141
12.0
290
     0
  0
SCALE
  5
317C
102
{ACAD_REACTORS
330
3167
102
}
330
3167
100
AcDbScale
 70
     0
300
1/16" = 1'-0"
140
0.0625
141
12.0
290
     0
  0
SCALE
  5
317D
102
{ACAD_REACTORS
330
3167
102
}
330
3167
100
AcDbScale
 70
     0
300
3/32" = 1'-0"
140
0.09375
141
12.0
290
     0
  0
SCALE
  5
317E
102
{ACAD_REACTORS
330
3167
102
}
330
3167
100
AcDbScale
 70
     0
300
1/8" = 1'-0"
140
0.125
141
12.0
290
     0
  0
SCALE
  5
317F
102
{ACAD_REACTORS
330
3167
102
}
330
3167
100
AcDbScale
 70
     0
300
3/16" = 1'-0"
140
0.1875
141
12.0
290
     0
  0
SCALE
  5
3180
102
{ACAD_REACTORS
330
3167
102
}
330
3167
100
AcDbScale
 70
     0
300
1/4" = 1'-0"
140
0.25
141
12.0
290
     0
  0
SCALE
  5
3181
102
{ACAD_REACTORS
330
3167
102
}
330
3167
100
AcDbScale
 70
     0
300
3/8" = 1'-0"
140
0.375
141
12.0
290
     0
  0
SCALE
  5
3182
102
{ACAD_REACTORS
330
3167
102
}
330
3167
100
AcDbScale
 70
     0
300
1/2" = 1'-0"
140
0.5
141
12.0
290
     0
  0
SCALE
  5
3183
102
{ACAD_REACTORS
330
3167
102
}
330
3167
100
AcDbScale
 70
     0
300
3/4" = 1'-0"
140
0.75
141
12.0
290
     0
  0
SCALE
  5
3184
102
{ACAD_REACTORS
330
3167
102
}
330
3167
100
AcDbScale
 70
     0
300
1" = 1'-0"
140
1.0
141
12.0
290
     0
  0
SCALE
  5
3185
102
{ACAD_REACTORS
330
3167
102
}
330
3167
100
AcDbScale
 70
     0
300
1-1/2" = 1'-0"
140
1.5
141
12.0
290
     0
  0
SCALE
  5
3186
102
{ACAD_REACTORS
330
3167
102
}
330
3167
100
AcDbScale
 70
     0
300
3" = 1'-0"
140
3.0
141
12.0
290
     0
  0
SCALE
  5
3187
102
{ACAD_REACTORS
330
3167
102
}
330
3167
100
AcDbScale
 70
     0
300
6" = 1'-0"
140
6.0
141
12.0
290
     0
  0
SCALE
  5
3188
102
{ACAD_REACTORS
330
3167
102
}
330
3167
100
AcDbScale
 70
     0
300
1'-0" = 1'-0"
140
12.0
141
12.0
290
     0
  0
TABLESTYLE
  5
3199
102
{ACAD_XDICTIONARY
360
338F
102
}
102
{ACAD_REACTORS
330
3198
102
}
330
3198
100
AcDbTableStyle
  3
Standard
 70
     0
 71
     0
 40
0.06
 41
0.06
280
     0
281
     0
  7
STANDARD
140
0.18
170
     2
 62
     0
 63
     7
283
     0
274
    -2
284
     1
 64
     0
275
    -2
285
     1
 65
     0
276
    -2
286
     1
 66
     0
277
    -2
287
     1
 67
     0
278
    -2
288
     1
 68
     0
279
    -2
289
     1
 69
     0
  7
STANDARD
140
0.25
170
     5
 62
     0
 63
     7
283
     0
274
    -2
284
     1
 64
     0
275
    -2
285
     1
 65
     0
276
    -2
286
     1
 66
     0
277
    -2
287
     1
 67
     0
278
    -2
288
     1
 68
     0
279
    -2
289
     1
 69
     0
  7
STANDARD
140
0.18
170
     5
 62
     0
 63
     7
283
     0
274
    -2
284
     1
 64
     0
275
    -2
285
     1
 65
     0
276
    -2
286
     1
 66
     0
277
    -2
287
     1
 67
     0
278
    -2
288
     1
 68
     0
279
    -2
289
     1
 69
     0
  0
VISUALSTYLE
  5
315C
102
{ACAD_REACTORS
330
3156
102
}
330
3156
100
AcDbVisualStyle
  2
2dWireframe
 70
     4
 71
     0
 72
     2
 73
     0
 90
        0
 40
-0.6
 41
-30.0
 62
     5
 63
     7
 74
     1
 91
        4
 64
     7
 65
   257
 75
     1
175
     1
 42
1.0
 92
        0
 66
   257
 43
1.0
 76
     1
 77
     6
 78
     2
 67
     7
 79
     5
170
     0
171
     0
290
     0
174
     0
 93
        1
 44
0.0
173
     0
291
     0
 45
0.0
1001
ACAD
1000
AcDbSavedByObjectVersion
1070
     0
  0
VISUALSTYLE
  5
315E
102
{ACAD_REACTORS
330
3156
102
}
330
3156
100
AcDbVisualStyle
  2
3D Hidden
 70
     6
 71
     1
 72
     2
 73
     2
 90
        0
 40
-0.6
 41
-30.0
 62
     5
 63
     7
 74
     2
 91
        2
 64
     7
 65
   257
 75
     2
175
     1
 42
40.0
 92
        0
 66
   257
 43
1.0
 76
     1
 77
     6
 78
     2
 67
     7
 79
     3
170
     0
171
     0
290
     0
174
     0
 93
        1
 44
0.0
173
     0
291
     0
 45
0.0
1001
ACAD
1000
AcDbSavedByObjectVersion
1070
     0
  0
VISUALSTYLE
  5
315D
102
{ACAD_REACTORS
330
3156
102
}
330
3156
100
AcDbVisualStyle
  2
3dWireframe
 70
     5
 71
     0
 72
     2
 73
     0
 90
        0
 40
-0.6
 41
-30.0
 62
     5
 63
     7
 74
     1
 91
        4
 64
     7
 65
   257
 75
     1
175
     1
 42
1.0
 92
        0
 66
   257
 43
1.0
 76
     1
 77
     6
 78
     2
 67
     7
 79
     5
170
     0
171
     0
290
     0
174
     0
 93
        1
 44
0.0
173
     0
291
     0
 45
0.0
1001
ACAD
1000
AcDbSavedByObjectVersion
1070
     0
  0
VISUALSTYLE
  5
315B
102
{ACAD_REACTORS
330
3156
102
}
330
3156
100
AcDbVisualStyle
  2
Basic
 70
     7
 71
     1
 72
     0
 73
     1
 90
        0
 40
-0.6
 41
-30.0
 62
     5
 63
     7
 74
     0
 91
        4
 64
     7
 65
   257
 75
     1
175
     1
 42
1.0
 92
        8
 66
     7
 43
1.0
 76
     1
 77
     6
 78
     2
 67
     7
 79
     5
170
     0
171
     0
290
     0
174
     0
 93
        1
 44
0.0
173
     0
291
     1
 45
0.0
1001
ACAD
1000
AcDbSavedByObjectVersion
1070
     0
  0
VISUALSTYLE
  5
3162
102
{ACAD_REACTORS
330
3156
102
}
330
3156
100
AcDbVisualStyle
  2
Brighten
 70
    12
 71
     2
 72
     2
 73
     0
 90
        0
 40
-0.6
 41
-30.0
 62
     5
 63
     7
 74
     1
 91
        4
 64
     7
 65
   257
 75
     1
175
     1
 42
1.0
 92
        8
 66
     7
 43
1.0
 76
     1
 77
     6
 78
     2
 67
     7
 79
     5
170
     0
171
     0
290
     0
174
     0
 93
        1
 44
50.0
173
     0
291
     1
 45
0.0
1001
ACAD
1000
AcDbSavedByObjectVersion
1070
     0
  0
VISUALSTYLE
  5
3166
102
{ACAD_REACTORS
330
3156
102
}
330
3156
100
AcDbVisualStyle
  2
ColorChange
 70
    16
 71
     2
 72
     2
 73
     3
 90
        0
 40
-0.6
 41
-30.0
 62
     5
 63
     8
 74
     1
 91
        4
 64
     7
 65
   257
 75
     1
175
     1
 42
1.0
 92
        8
 66
     8
 43
1.0
 76
     1
 77
     6
 78
     2
 67
     7
 79
     5
170
     0
171
     0
290
     0
174
     0
 93
        1
 44
0.0
173
     0
291
     1
 45
0.0
1001
ACAD
1000
AcDbSavedByObjectVersion
1070
     0
  0
VISUALSTYLE
  5
315F
102
{ACAD_REACTORS
330
3156
102
}
330
3156
100
AcDbVisualStyle
  2
Conceptual
 70
     9
 71
     3
 72
     2
 73
     0
 90
        0
 40
-0.6
 41
-30.0
 62
     5
 63
     7
 74
     2
 91
        2
 64
     7
 65
   257
 75
     1
175
     1
 42
40.0
 92
        8
 66
     7
 43
1.0
 76
     1
 77
     6
 78
     2
 67
     7
 79
     3
170
     0
171
     0
290
     0
174
     0
 93
        1
 44
0.0
173
     0
291
     0
 45
0.0
1001
ACAD
1000
AcDbSavedByObjectVersion
1070
     0
  0
VISUALSTYLE
  5
3161
102
{ACAD_REACTORS
330
3156
102
}
330
3156
100
AcDbVisualStyle
  2
Dim
 70
    11
 71
     2
 72
     2
 73
     0
 90
        0
 40
-0.6
 41
-30.0
 62
     5
 63
     7
 74
     1
 91
        4
 64
     7
 65
   257
 75
     1
175
     1
 42
1.0
 92
        8
 66
     7
 43
1.0
 76
     1
 77
     6
 78
     2
 67
     7
 79
     5
170
     0
171
     0
290
     0
174
     0
 93
        1
 44
-50.0
173
     0
291
     1
 45
0.0
1001
ACAD
1000
AcDbSavedByObjectVersion
1070
     0
  0
VISUALSTYLE
  5
3165
102
{ACAD_REACTORS
330
3156
102
}
330
3156
100
AcDbVisualStyle
  2
Facepattern
 70
    15
 71
     2
 72
     2
 73
     0
 90
        0
 40
-0.6
 41
-30.0
 62
     5
 63
     7
 74
     1
 91
        4
 64
     7
 65
   257
 75
     1
175
     1
 42
1.0
 92
        8
 66
     7
 43
1.0
 76
     1
 77
     6
 78
     2
 67
     7
 79
     5
170
     0
171
     0
290
     0
174
     0
 93
        1
 44
0.0
173
     0
291
     1
 45
0.0
1001
ACAD
1000
AcDbSavedByObjectVersion
1070
     0
  0
VISUALSTYLE
  5
3157
102
{ACAD_REACTORS
330
3156
102
}
330
3156
100
AcDbVisualStyle
  2
Flat
 70
     0
 71
     2
 72
     1
 73
     1
 90
        2
 40
-0.6
 41
30.0
 62
     5
 63
     7
 74
     0
 91
        4
 64
     7
 65
   257
 75
     1
175
     1
 42
1.0
 92
        8
 66
     7
 43
1.0
 76
     1
 77
     6
 78
     2
 67
     7
 79
     5
170
     0
171
     0
290
     0
174
     0
 93
       13
 44
0.0
173
     0
291
     1
 45
0.0
1001
ACAD
1000
AcDbSavedByObjectVersion
1070
     0
  0
VISUALSTYLE
  5
3158
102
{ACAD_REACTORS
330
3156
102
}
330
3156
100
AcDbVisualStyle
  2
FlatWithEdges
 70
     1
 71
     2
 72
     1
 73
     1
 90
        2
 40
-0.6
 41
30.0
 62
     5
 63
     7
 74
     1
 91
        4
 64
     7
 65
   257
 75
     1
175
     1
 42
1.0
 92
        0
 66
   257
 43
1.0
 76
     1
 77
     6
 78
     2
 67
     7
 79
     5
170
     0
171
     0
290
     0
174
     0
 93
       13
 44
0.0
173
     0
291
     1
 45
0.0
1001
ACAD
1000
AcDbSavedByObjectVersion
1070
     0
  0
VISUALSTYLE
  5
3159
102
{ACAD_REACTORS
330
3156
102
}
330
3156
100
AcDbVisualStyle
  2
Gouraud
 70
     2
 71
     2
 72
     2
 73
     1
 90
        2
 40
-0.6
 41
30.0
 62
     5
 63
     7
 74
     0
 91
        4
 64
     7
 65
   257
 75
     1
175
     1
 42
1.0
 92
        0
 66
     7
 43
1.0
 76
     1
 77
     6
 78
     2
 67
     7
 79
     5
170
     0
171
     0
290
     0
174
     0
 93
       13
 44
0.0
173
     0
291
     1
 45
0.0
1001
ACAD
1000
AcDbSavedByObjectVersion
1070
     0
  0
VISUALSTYLE
  5
315A
102
{ACAD_REACTORS
330
3156
102
}
330
3156
100
AcDbVisualStyle
  2
GouraudWithEdges
 70
     3
 71
     2
 72
     2
 73
     1
 90
        2
 40
-0.6
 41
30.0
 62
     5
 63
     7
 74
     1
 91
        4
 64
     7
 65
   257
 75
     1
175
     1
 42
1.0
 92
        0
 66
   257
 43
1.0
 76
     1
 77
     6
 78
     2
 67
     7
 79
     5
170
     0
171
     0
290
     0
174
     0
 93
       13
 44
0.0
173
     0
291
     1
 45
0.0
1001
ACAD
1000
AcDbSavedByObjectVersion
1070
     0
  0
VISUALSTYLE
  5
3164
102
{ACAD_REACTORS
330
3156
102
}
330
3156
100
AcDbVisualStyle
  2
Linepattern
 70
    14
 71
     2
 72
     2
 73
     0
 90
        0
 40
-0.6
 41
-30.0
 62
     5
 63
     7
 74
     1
 91
        4
 64
     7
 65
   257
 75
     7
175
     7
 42
1.0
 92
        8
 66
     7
 43
1.0
 76
     1
 77
     6
 78
     2
 67
     7
 79
     5
170
     0
171
     0
290
     0
174
     0
 93
        1
 44
0.0
173
     0
291
     1
 45
0.0
1001
ACAD
1000
AcDbSavedByObjectVersion
1070
     0
  0
VISUALSTYLE
  5
3160
102
{ACAD_REACTORS
330
3156
102
}
330
3156
100
AcDbVisualStyle
  2
Realistic
 70
     8
 71
     2
 72
     2
 73
     0
 90
        0
 40
-0.6
 41
-30.0
 62
     5
 63
     7
 74
     1
 91
        0
 64
     7
 65
   257
 75
     1
175
     1
 42
1.0
 92
        8
 66
     8
 43
1.0
 76
     1
 77
     6
 78
     2
 67
     7
 79
     5
170
     0
171
     0
290
     0
174
     0
 93
       13
 44
0.0
173
     0
291
     0
 45
0.0
1001
ACAD
1000
AcDbSavedByObjectVersion
1070
     0
  0
VISUALSTYLE
  5
3163
102
{ACAD_REACTORS
330
3156
102
}
330
3156
100
AcDbVisualStyle
  2
Thicken
 70
    13
 71
     2
 72
     2
 73
     0
 90
        0
 40
-0.6
 41
-30.0
 62
     5
 63
     7
 74
     1
 91
        4
 64
     7
 65
   257
 75
     1
175
     1
 42
1.0
 92
       12
 66
     7
 43
1.0
 76
     1
 77
     6
 78
     2
 67
     7
 79
     5
170
     0
171
     0
290
     0
174
     0
 93
        1
 44
0.0
173
     0
291
     1
 45
0.0
1001
ACAD
1000
AcDbSavedByObjectVersion
1070
     0
  0
DICTIONARYVAR
  5
338B
102
{ACAD_REACTORS
330
3388
102
}
330
3388
100
DictionaryVariables
280
     0
  1
1:1
  0
DICTIONARYVAR
  5
338A
102
{ACAD_REACTORS
330
3388
102
}
330
3388
100
DictionaryVariables
280
     0
  1
STANDARD
  0
DICTIONARYVAR
  5
3389
102
{ACAD_REACTORS
330
3388
102
}
330
3388
100
DictionaryVariables
280
     0
  1
STANDARD
  0
DICTIONARYVAR
  5
338E
102
{ACAD_REACTORS
330
3388
102
}
330
3388
100
DictionaryVariables
280
     0
  1
1
  0
DICTIONARYVAR
  5
338D
102
{ACAD_REACTORS
330
3388
102
}
330
3388
100
DictionaryVariables
280
     0
  1
1
  0
DICTIONARYVAR
  5
338C
102
{ACAD_REACTORS
330
3388
102
}
330
3388
100
DictionaryVariables
280
     0
  1
127
  0
DICTIONARY
  5
3346
102
{ACAD_REACTORS
330
3338
102
}
330
3338
100
AcDbDictionary
281
     1
  0
DICTIONARY
  5
3286
102
{ACAD_REACTORS
330
3285
102
}
330
3285
100
AcDbDictionary
281
     1
  3
DWGSETTINGS
350
3287
  3
TRANSSETTINGS
350
3288
  0
LAYER_INDEX
  5
337A
102
{ACAD_REACTORS
330
3379
102
}
330
3379
100
AcDbIndex
 40
2456213.439154665
100
AcDbLayerIndex
  8
0
360
337B
 90
        0
  8
OUTLINE
360
337C
 90
       21
  8
SIZE
360
337D
 90
       30
  8
BASIS
360
337E
 90
        1
  8
DETAIL
360
337F
 90
       25
  8
ARRANGE
360
3380
 90
        2
  8
DEFPOINTS
360
3381
 90
        0
  8
ETC
360
3382
 90
        3
  8
FIX
360
3383
 90
        0
  8
NOTE
360
3384
 90
        7
  8
SERVICESPACE
360
3385
 90
        0
  8
SYMBOLLINE
360
3386
 90
        0
  8
DETAIL___1
360
3387
 90
        2
  0
DICTIONARY
  5
339E
330
31A4
100
AcDbDictionary
280
     1
281
     1
  3
ACAD_XREC_ROUNDTRIP
360
339F
  0
DICTIONARY
  5
339C
330
31A0
100
AcDbDictionary
280
     1
281
     1
  3
ACAD_XREC_ROUNDTRIP
360
339D
  0
DICTIONARY
  5
3147
330
3146
100
AcDbDictionary
280
     1
281
     1
  3
ACAD_XREC_ROUNDTRIP
360
3399
  3
BUMPTILE
360
3149
  3
DIFFUSETILE
360
3148
  3
OPACITYTILE
360
314C
  3
REFLECTIONTILE
360
314B
  3
REFRACTIONTILE
360
314D
  3
SPECULARTILE
360
314A
  0
DICTIONARY
  5
313F
330
313E
100
AcDbDictionary
280
     1
281
     1
  3
ACAD_XREC_ROUNDTRIP
360
3398
  3
BUMPTILE
360
3141
  3
DIFFUSETILE
360
3140
  3
OPACITYTILE
360
3144
  3
REFLECTIONTILE
360
3143
  3
REFRACTIONTILE
360
3145
  3
SPECULARTILE
360
3142
  0
DICTIONARY
  5
314F
330
314E
100
AcDbDictionary
280
     1
281
     1
  3
ACAD_XREC_ROUNDTRIP
360
339A
  3
BUMPTILE
360
3151
  3
DIFFUSETILE
360
3150
  3
OPACITYTILE
360
3154
  3
REFLECTIONTILE
360
3153
  3
REFRACTIONTILE
360
3155
  3
SPECULARTILE
360
3152
  0
DICTIONARY
  5
338F
330
3199
100
AcDbDictionary
280
     1
281
     1
  3
ACAD_ROUNDTRIP_2008_TABLESTYLE_CELLSTYLEMAP
360
3390
  3
ACAD_XREC_ROUNDTRIP
360
339B
  0
IDBUFFER
  5
337B
330
0
100
AcDbIdBuffer
  0
IDBUFFER
  5
337C
330
0
100
AcDbIdBuffer
330
2E4E
330
2E4F
330
2E50
330
2E51
330
2E52
330
953
330
954
330
955
330
956
330
957
330
958
330
2E36
330
2E37
330
2E38
330
2E39
330
2E3A
330
2E3B
330
2E4A
330
2E4B
330
2E4C
330
2E4D
  0
IDBUFFER
  5
337D
330
0
100
AcDbIdBuffer
330
2E63
330
2E64
330
2E65
330
2E66
330
2E67
330
2E68
330
2E69
330
2E6A
330
2E6B
330
2E6C
330
2E6D
330
2E6E
330
2E6F
330
2E70
330
2E53
330
2E54
330
2E55
330
2E56
330
2E57
330
2E58
330
2E59
330
2E5A
330
2E5B
330
2E5C
330
2E5D
330
2E5E
330
2E5F
330
2E60
330
2E61
330
2E62
  0
IDBUFFER
  5
337E
330
0
100
AcDbIdBuffer
330
2E23
  0
IDBUFFER
  5
337F
330
0
100
AcDbIdBuffer
330
2E41
330
2E42
330
2E43
330
2E44
330
2E45
330
2E46
330
2E47
330
2E48
330
2E49
330
2E25
330
2E26
330
2E27
330
2E28
330
2E29
330
2E2A
330
2E2B
330
2E2C
330
2E2D
330
2E2E
330
2E2F
330
2E30
330
2E31
330
2E3C
330
2E3D
330
2E40
  0
IDBUFFER
  5
3380
330
0
100
AcDbIdBuffer
330
2E22
330
2E24
  0
IDBUFFER
  5
3381
330
0
100
AcDbIdBuffer
  0
IDBUFFER
  5
3382
330
0
100
AcDbIdBuffer
330
2E1F
330
2E20
330
2E21
  0
IDBUFFER
  5
3383
330
0
100
AcDbIdBuffer
  0
IDBUFFER
  5
3384
330
0
100
AcDbIdBuffer
330
2E32
330
2E33
330
2E34
330
2E35
330
2E71
330
2E72
330
2E73
  0
IDBUFFER
  5
3385
330
0
100
AcDbIdBuffer
  0
IDBUFFER
  5
3386
330
0
100
AcDbIdBuffer
  0
IDBUFFER
  5
3387
330
0
100
AcDbIdBuffer
330
2E3E
330
2E3F
  0
XRECORD
  5
339F
102
{ACAD_REACTORS
330
339E
102
}
330
339E
100
AcDbXrecord
280
     1
102
SHADEPLOT
 70
     0
102
SHADEPLOTRESLEVEL
 70
     2
102
SHADEPLOTCUSTOMDPI
 70
   300
  0
XRECORD
  5
339D
102
{ACAD_REACTORS
330
339C
102
}
330
339C
100
AcDbXrecord
280
     1
102
SHADEPLOT
 70
     0
102
SHADEPLOTRESLEVEL
 70
     2
102
SHADEPLOTCUSTOMDPI
 70
   300
  0
XRECORD
  5
3399
102
{ACAD_REACTORS
330
3147
102
}
330
3147
100
AcDbXrecord
280
     1
102
MATERIAL
148
0.0
149
0.0
149
0.0
 93
        0
 94
      127
282
     0
 72
     0
 77
     0
171
     0
175
     0
179
     0
273
     0
  0
XRECORD
  5
3149
102
{ACAD_REACTORS
330
3147
102
}
330
3147
100
AcDbXrecord
280
     1
270
     1
271
     1
  0
XRECORD
  5
3148
102
{ACAD_REACTORS
330
3147
102
}
330
3147
100
AcDbXrecord
280
     1
270
     1
271
     1
  0
XRECORD
  5
314C
102
{ACAD_REACTORS
330
3147
102
}
330
3147
100
AcDbXrecord
280
     1
270
     1
271
     1
  0
XRECORD
  5
314B
102
{ACAD_REACTORS
330
3147
102
}
330
3147
100
AcDbXrecord
280
     1
270
     1
271
     1
  0
XRECORD
  5
314D
102
{ACAD_REACTORS
330
3147
102
}
330
3147
100
AcDbXrecord
280
     1
270
     1
271
     1
  0
XRECORD
  5
314A
102
{ACAD_REACTORS
330
3147
102
}
330
3147
100
AcDbXrecord
280
     1
270
     1
271
     1
  0
XRECORD
  5
3398
102
{ACAD_REACTORS
330
313F
102
}
330
313F
100
AcDbXrecord
280
     1
102
MATERIAL
148
0.0
149
0.0
149
0.0
 93
        0
 94
      127
282
     0
 72
     0
 77
     0
171
     0
175
     0
179
     0
273
     0
  0
XRECORD
  5
3141
102
{ACAD_REACTORS
330
313F
102
}
330
313F
100
AcDbXrecord
280
     1
270
     1
271
     1
  0
XRECORD
  5
3140
102
{ACAD_REACTORS
330
313F
102
}
330
313F
100
AcDbXrecord
280
     1
270
     1
271
     1
  0
XRECORD
  5
3144
102
{ACAD_REACTORS
330
313F
102
}
330
313F
100
AcDbXrecord
280
     1
270
     1
271
     1
  0
XRECORD
  5
3143
102
{ACAD_REACTORS
330
313F
102
}
330
313F
100
AcDbXrecord
280
     1
270
     1
271
     1
  0
XRECORD
  5
3145
102
{ACAD_REACTORS
330
313F
102
}
330
313F
100
AcDbXrecord
280
     1
270
     1
271
     1
  0
XRECORD
  5
3142
102
{ACAD_REACTORS
330
313F
102
}
330
313F
100
AcDbXrecord
280
     1
270
     1
271
     1
  0
XRECORD
  5
339A
102
{ACAD_REACTORS
330
314F
102
}
330
314F
100
AcDbXrecord
280
     1
102
MATERIAL
148
0.0
149
0.0
149
0.0
 93
        0
 94
      127
282
     0
 72
     0
 77
     0
171
     0
175
     0
179
     0
273
     0
  0
XRECORD
  5
3151
102
{ACAD_REACTORS
330
314F
102
}
330
314F
100
AcDbXrecord
280
     1
270
     1
271
     1
  0
XRECORD
  5
3150
102
{ACAD_REACTORS
330
314F
102
}
330
314F
100
AcDbXrecord
280
     1
270
     1
271
     1
  0
XRECORD
  5
3154
102
{ACAD_REACTORS
330
314F
102
}
330
314F
100
AcDbXrecord
280
     1
270
     1
271
     1
  0
XRECORD
  5
3153
102
{ACAD_REACTORS
330
314F
102
}
330
314F
100
AcDbXrecord
280
     1
270
     1
271
     1
  0
XRECORD
  5
3155
102
{ACAD_REACTORS
330
314F
102
}
330
314F
100
AcDbXrecord
280
     1
270
     1
271
     1
  0
XRECORD
  5
3152
102
{ACAD_REACTORS
330
314F
102
}
330
314F
100
AcDbXrecord
280
     1
270
     1
271
     1
  0
CELLSTYLEMAP
  5
3390
102
{ACAD_REACTORS
330
338F
102
}
330
338F
100
AcDbCellStyleMap
 90
        3
300
CELLSTYLE
  1
TABLEFORMAT_BEGIN
 90
        5
170
     1
 91
        0
 92
    32768
 62
   257
 93
        1
300
CONTENTFORMAT
  1
CONTENTFORMAT_BEGIN
 90
        0
 91
        0
 92
      512
 93
        0
300

 40
0.0
140
1.0
 94
        5
 62
     0
340
318A
144
0.25
309
CONTENTFORMAT_END
171
     0
 94
        0
309
TABLEFORMAT_END
  1
CELLSTYLE_BEGIN
 90
        1
 91
        1
300
_TITLE
309
CELLSTYLE_END
300
CELLSTYLE
  1
TABLEFORMAT_BEGIN
 90
        5
170
     1
 91
        0
 92
        0
 62
   257
 93
        1
300
CONTENTFORMAT
  1
CONTENTFORMAT_BEGIN
 90
        0
 91
        0
 92
      512
 93
        0
300

 40
0.0
140
1.0
 94
        5
 62
     0
340
318A
144
0.18
309
CONTENTFORMAT_END
171
     0
 94
        0
309
TABLEFORMAT_END
  1
CELLSTYLE_BEGIN
 90
        2
 91
        1
300
_HEADER
309
CELLSTYLE_END
300
CELLSTYLE
  1
TABLEFORMAT_BEGIN
 90
        5
170
     1
 91
        0
 92
        0
 62
   257
 93
        1
300
CONTENTFORMAT
  1
CONTENTFORMAT_BEGIN
 90
        0
 91
        0
 92
      512
 93
        0
300

 40
0.0
140
1.0
 94
        2
 62
     0
340
318A
144
0.18
309
CONTENTFORMAT_END
171
     0
 94
        0
309
TABLEFORMAT_END
  1
CELLSTYLE_BEGIN
 90
        3
 91
        2
300
_DATA
309
CELLSTYLE_END
  0
XRECORD
  5
339B
102
{ACAD_REACTORS
330
338F
102
}
330
338F
100
AcDbXrecord
280
     1
102
ACAD_ROUNDTRIP_PRE2007_TABLESTYLE
 90
      512
 91
        0
  1

 92
      512
 93
        0
  2

 94
      512
 95
        0
  3

  0
ENDSEC
  0
EOF
