  0
SECTION
  2
HEADER
  9
$ACADVER
  1
AC1009
  9
$DWGCODEPAGE
  3
dos932
  9
$INSBASE
 10
0.0
 20
0.0
 30
0.0
  9
$EXTMIN
 10
-298.19639419228412
 20
-312.10325962410212
 30
-0.0015258207003583
  9
$EXTMAX
 10
722.37855125262649
 20
519.42444641541624
 30
0.0000000349246037
  9
$LIMMIN
 10
-2970.0
 20
-2100.0
  9
$LIMMAX
 10
2970.0
 20
2100.0
  9
$ORTHOMODE
 70
     1
  9
$REGENMODE
 70
     1
  9
$FILLMODE
 70
     1
  9
$QTEXTMODE
 70
     0
  9
$MIRRTEXT
 70
     0
  9
$LTSCALE
 40
20.0
  9
$ATTMODE
 70
     1
  9
$TEXTSIZE
 40
64.0
  9
$TRACEWID
 40
0.05
  9
$TEXTSTYLE
  7
STANDARD
  9
$CLAYER
  8
SIZE
  9
$CELTYPE
  6
CONTINUOUS
  9
$CECOLOR
 62
     7
  9
$DIMSCALE
 40
1.0
  9
$DIMASZ
 40
12.0
  9
$DIMEXO
 40
20.0
  9
$DIMDLI
 40
200.0
  9
$DIMRND
 40
0.0
  9
$DIMDLE
 40
0.0
  9
$DIMEXE
 40
20.0
  9
$DIMTP
 40
0.0
  9
$DIMTM
 40
0.0
  9
$DIMTXT
 40
64.0
  9
$DIMCEN
 40
0.09
  9
$DIMTSZ
 40
0.0
  9
$DIMTOL
 70
     0
  9
$DIMLIM
 70
     0
  9
$DIMTIH
 70
     0
  9
$DIMTOH
 70
     0
  9
$DIMSE1
 70
     0
  9
$DIMSE2
 70
     0
  9
$DIMTAD
 70
     1
  9
$DIMZIN
 70
     8
  9
$DIMBLK
  1

  9
$DIMASO
 70
     1
  9
$DIMSHO
 70
     0
  9
$DIMPOST
  1

  9
$DIMAPOST
  1

  9
$DIMALT
 70
     0
  9
$DIMALTD
 70
     2
  9
$DIMALTF
 40
25.399999999999999
  9
$DIMLFAC
 40
1.0
  9
$DIMTOFL
 70
     1
  9
$DIMTVP
 40
0.0
  9
$DIMTIX
 70
     1
  9
$DIMSOXD
 70
     0
  9
$DIMSAH
 70
     0
  9
$DIMBLK1
  1

  9
$DIMBLK2
  1

  9
$DIMSTYLE
  2
STANDARD
  9
$DIMCLRD
 70
     7
  9
$DIMCLRE
 70
     7
  9
$DIMCLRT
 70
     7
  9
$DIMTFAC
 40
1.0
  9
$DIMGAP
 40
25.0
  9
$LUNITS
 70
     2
  9
$LUPREC
 70
     4
  9
$SKETCHINC
 40
0.1
  9
$FILLETRAD
 40
3.0
  9
$AUNITS
 70
     1
  9
$AUPREC
 70
     3
  9
$MENU
  1
ACAD
  9
$ELEVATION
 40
0.0
  9
$PELEVATION
 40
0.0
  9
$THICKNESS
 40
0.0
  9
$LIMCHECK
 70
     0
  9
$CHAMFERA
 40
0.0
  9
$CHAMFERB
 40
0.0
  9
$SKPOLY
 70
     0
  9
$TDCREATE
 40
2453019.623009259
  9
$TDUPDATE
 40
2459356.640256493
  9
$TDINDWG
 40
1.7320645949
  9
$TDUSRTIMER
 40
1.7320645949
  9
$USRTIMER
 70
     1
  9
$ANGBASE
 50
0.0
  9
$ANGDIR
 70
     0
  9
$PDMODE
 70
     3
  9
$PDSIZE
 40
-2.0
  9
$PLINEWID
 40
0.0
  9
$SPLFRAME
 70
     0
  9
$SPLINETYPE
 70
     6
  9
$SPLINESEGS
 70
     8
  9
$SURFTAB1
 70
     6
  9
$SURFTAB2
 70
     6
  9
$SURFTYPE
 70
     6
  9
$SURFU
 70
     6
  9
$SURFV
 70
     6
  9
$UCSNAME
  2

  9
$UCSORG
 10
0.0
 20
0.0
 30
0.0
  9
$UCSXDIR
 10
1.0
 20
0.0
 30
0.0
  9
$UCSYDIR
 10
0.0
 20
1.0
 30
0.0
  9
$PUCSNAME
  2

  9
$PUCSORG
 10
0.0
 20
0.0
 30
0.0
  9
$PUCSXDIR
 10
1.0
 20
0.0
 30
0.0
  9
$PUCSYDIR
 10
0.0
 20
1.0
 30
0.0
  9
$USERI1
 70
     0
  9
$USERI2
 70
     0
  9
$USERI3
 70
     0
  9
$USERI4
 70
     0
  9
$USERI5
 70
     0
  9
$USERR1
 40
20.0
  9
$USERR2
 40
0.0
  9
$USERR3
 40
0.0
  9
$USERR4
 40
0.0
  9
$USERR5
 40
0.0
  9
$WORLDVIEW
 70
     1
  9
$SHADEDGE
 70
     3
  9
$SHADEDIF
 70
    70
  9
$TILEMODE
 70
     1
  9
$MAXACTVP
 70
    48
  9
$PINSBASE
 10
0.0
 20
0.0
 30
0.0
  9
$PLIMCHECK
 70
     0
  9
$PEXTMIN
 10
-100000000000000000000.0
 20
-100000000000000000000.0
 30
-100000000000000000000.0
  9
$PEXTMAX
 10
100000000000000000000.0
 20
100000000000000000000.0
 30
100000000000000000000.0
  9
$PLIMMIN
 10
0.0
 20
0.0
  9
$PLIMMAX
 10
12.0
 20
9.0
  9
$UNITMODE
 70
     0
  9
$VISRETAIN
 70
     0
  9
$PLINEGEN
 70
     0
  9
$PSLTSCALE
 70
     0
  9
$TREEDEPTH
 70
  3020
  9
$ATTDIA
 70
     0
  9
$ATTREQ
 70
     1
  9
$BLIPMODE
 70
     1
  9
$COORDS
 70
     1
  9
$DRAGMODE
 70
     2
  9
$OSMODE
 70
     0
  9
$HANDLING
 70
     0
  9
$HANDSEED
  5
207
  0
ENDSEC
  0
SECTION
  2
TABLES
  0
TABLE
  2
LTYPE
 70
     2
  0
LTYPE
  2
CONTINUOUS
 70
     0
  3
実線
 72
    65
 73
     0
 40
0.0
  0
LTYPE
  2
DASHDOT
 70
     0
  3
____ _ ____ _ ____ _ ____ _ ____ _ ____ _ ____
 72
    65
 73
     4
 40
5.5
 49
4.0
 49
-0.6
 49
0.3
 49
-0.6
  0
ENDTAB
  0
TABLE
  2
LAYER
 70
    12
  0
LAYER
  2
SIZE
 70
     0
 62
    30
  6
CONTINUOUS
  0
LAYER
  2
BASIS
 70
     0
 62
     6
  6
DASHDOT
  0
LAYER
  2
OUTLINE
 70
     0
 62
     3
  6
CONTINUOUS
  0
LAYER
  2
DETAIL
 70
     0
 62
     5
  6
CONTINUOUS
  0
LAYER
  2
ARRANGE
 70
     0
 62
     1
  6
CONTINUOUS
  0
LAYER
  2
ETC
 70
     0
 62
    61
  6
CONTINUOUS
  0
LAYER
  2
FIX
 70
     0
 62
    11
  6
CONTINUOUS
  0
LAYER
  2
NOTE
 70
     0
 62
     4
  6
CONTINUOUS
  0
LAYER
  2
0
 70
    64
 62
     7
  6
CONTINUOUS
  0
LAYER
  2
DEFPOINTS
 70
    64
 62
     7
  6
CONTINUOUS
  0
LAYER
  2
SERVICESPACE
 70
    64
 62
     2
  6
DASHDOT
  0
LAYER
  2
SYMBOLLINE
 70
    64
 62
    15
  6
CONTINUOUS
  0
ENDTAB
  0
TABLE
  2
STYLE
 70
     1
  0
STYLE
  2
STANDARD
 70
     0
 40
64.0
 41
0.9
 50
0.0
 71
     0
 42
64.0
  3
SIMPLEX.shx
  4
BIGFONT.shx
  0
ENDTAB
  0
TABLE
  2
APPID
 70
    20
  0
APPID
  2
ACAD
 70
     0
  0
APPID
  2
ACADANNOTATIVE
 70
     0
  0
APPID
  2
AUTOCAD_POSTSCRIPT_FIGURE
 70
     0
  0
APPID
  2
ACAD_EXEMPT_FROM_CAD_STANDARDS
 70
     0
  0
APPID
  2
ACAD_PSEXT
 70
     0
  0
APPID
  2
ACAUTHENVIRON
 70
     0
  0
APPID
  2
GENIUS_GENOENT_13
 70
     0
  0
APPID
  2
GENIUS_GENCFG_13
 70
     0
  0
APPID
  2
GENIUS_GENCFG0_13
 70
     0
  0
APPID
  2
GENIUS_GENCFG1_13
 70
     0
  0
APPID
  2
GENIUS_GENCFG2_13
 70
     0
  0
APPID
  2
GENIUS_GENCFG3_13
 70
     0
  0
APPID
  2
GENIUS_GENCFG4_13
 70
     0
  0
APPID
  2
GENIUS_GEVCFG0_13
 70
     0
  0
APPID
  2
CONTENTBLOCKICON
 70
     0
  0
APPID
  2
CONTENTBLOCKDESCRIPTION
 70
     0
  0
APPID
  2
ACAD_NAV_VCDISPLAY
 70
     0
  0
APPID
  2
ACAD_MLEADERVER
 70
     0
  0
APPID
  2
ACDBDYNAMICBLOCKTRUENAME
 70
     0
  0
APPID
  2
ACDBDYNAMICBLOCKGUID
 70
     0
  0
ENDTAB
  0
TABLE
  2
DIMSTYLE
 70
     1
  0
DIMSTYLE
  2
STANDARD
 70
     0
  3

  4

  5

  6

  7

 40
1.0
 41
12.0
 42
20.0
 43
200.0
 44
20.0
 45
0.0
 46
0.0
 47
0.0
 48
0.0
140
64.0
141
0.09
142
0.0
143
25.399999999999999
144
1.0
145
0.0
146
1.0
147
25.0
 71
     0
 72
     0
 73
     0
 74
     0
 75
     0
 76
     0
 77
     1
 78
     8
170
     0
171
     2
172
     1
173
     0
174
     1
175
     0
176
     7
177
     7
178
     7
  0
ENDTAB
  0
TABLE
  2
VIEW
 70
     1
  0
VIEW
  2
ALL
 70
     0
 40
4282.6198079999986
 10
0.0
 20
41.309904000000003
 41
5940.0
 11
0.0
 21
0.0
 31
1.0
 12
0.0
 22
0.0
 32
0.0
 42
50.0
 43
0.0
 44
0.0
 50
0.0
 71
     0
  0
ENDTAB
  0
TABLE
  2
UCS
 70
     0
  0
ENDTAB
  0
TABLE
  2
VPORT
 70
     1
  0
VPORT
  2
*ACTIVE
 70
     0
 10
0.0
 20
0.0
 11
1.0
 21
1.0
 12
212.09107853017119
 22
103.6605933956571
 13
0.0
 23
0.0
 14
1.0
 24
1.0
 15
0.0
 25
0.0
 16
0.0
 26
0.0
 36
1.0
 17
0.0
 27
0.0
 37
0.0
 40
652.84617992302492
 41
2.0172166427546632
 42
50.0
 43
0.0
 44
0.0
 50
0.0
 51
0.0
 71
     0
 72
  1000
 73
     1
 74
     3
 75
     0
 76
     0
 77
     0
 78
     0
  0
ENDTAB
  0
ENDSEC
  0
SECTION
  2
BLOCKS
  0
ENDSEC
  0
SECTION
  2
ENTITIES
  0
TEXT
  8
ETC
  6
CONTINUOUS
 62
    61
 10
165.13311244017859
 20
455.39970232291557
 30
0.0
 40
64.0
  1
V-06PLD3_3
 41
0.9
  0
TEXT
  8
ETC
  6
CONTINUOUS
 62
    61
 10
160.9471184401782
 20
337.44439230808439
 30
0.0
 40
64.0
  1
換気扇
 41
0.9
  0
CIRCLE
  8
ARRANGE
  6
CONTINUOUS
 62
     1
 10
0.0
 20
0.0
 30
0.0
 40
40.0
  0
POINT
  8
ARRANGE
  6
CONTINUOUS
 62
     1
 10
0.0
 20
0.0
 30
0.0
  0
LINE
  8
BASIS
  6
DASHDOT
 62
     6
 10
0.0
 20
-109.2854010143142
 30
0.0
 11
0.0
 21
109.2854010143142
 31
0.0
  0
LINE
  8
BASIS
  6
DASHDOT
 62
     6
 10
-125.4561247050906
 20
0.0
 30
0.0
 11
125.4561247050906
 21
0.0
 31
0.0
  0
TEXT
  8
ETC
  6
CONTINUOUS
 62
    61
 10
211.64851668873419
 20
229.2956194218591
 30
0.0
 40
40.0
  1
V-06PLD3
 41
0.9
  0
LINE
  8
SIZE
  6
CONTINUOUS
 62
    30
 10
67.500017806850565
 20
83.004947072817743
 30
0.0
 11
67.500017806850565
 21
180.72375800234701
 31
0.0
  0
LINE
  8
SIZE
  6
CONTINUOUS
 62
    30
 10
-67.500017802777037
 20
83.004947077182294
 30
0.0
 11
-67.500017802777037
 21
180.72375800234701
 31
0.0
  0
LINE
  8
SIZE
  6
CONTINUOUS
 62
    30
 10
55.500017806850558
 20
160.72375800234701
 30
0.0
 11
-55.500017802777037
 21
160.72375800234701
 31
0.0
  0
CIRCLE
  8
SIZE
  6
CONTINUOUS
 62
    30
 10
67.500017806850565
 20
160.72375800234701
 30
0.0
 40
6.0
  0
LINE
  8
SIZE
  6
CONTINUOUS
 62
    30
 10
67.500017806850565
 20
160.72375800234701
 30
0.0
 11
55.500017806850558
 21
160.72375800234701
 31
0.0
  0
CIRCLE
  8
SIZE
  6
CONTINUOUS
 62
    30
 10
-67.500017802777037
 20
160.72375800234701
 30
0.0
 40
6.0
  0
LINE
  8
SIZE
  6
CONTINUOUS
 62
    30
 10
-67.500017802777037
 20
160.72375800234701
 30
0.0
 11
-55.500017802777037
 21
160.72375800234701
 31
0.0
  0
TEXT
  8
SIZE
  6
CONTINUOUS
 62
    30
 10
-105.0514285693918
 20
185.72375800234701
 30
0.0
 40
64.0
  1
□135
 41
0.9
 72
     1
 11
0.0000000020367565
 21
185.72375800234701
 31
0.0
  0
LINE
  8
SIZE
  6
CONTINUOUS
 62
    30
 10
28.503808463389529
 20
55.004318873431941
 30
0.0
 11
-228.89497254962501
 21
55.004318873431998
 31
0.0
  0
LINE
  8
SIZE
  6
CONTINUOUS
 62
    30
 10
-81.504829288389374
 20
-55.004318873011528
 30
0.0
 11
-228.89497254962501
 21
-55.004318873011457
 31
0.0
  0
LINE
  8
SIZE
  6
CONTINUOUS
 62
    30
 10
-208.89497254962501
 20
43.004318873431998
 30
0.0
 11
-208.89497254962501
 21
-43.004318873011457
 31
0.0
  0
CIRCLE
  8
SIZE
  6
CONTINUOUS
 62
    30
 10
-208.89497254962501
 20
55.004318873431998
 30
0.0
 40
6.0
  0
LINE
  8
SIZE
  6
CONTINUOUS
 62
    30
 10
-208.89497254962501
 20
55.004318873431998
 30
0.0
 11
-208.89497254962501
 21
43.004318873431998
 31
0.0
  0
CIRCLE
  8
SIZE
  6
CONTINUOUS
 62
    30
 10
-208.89497254962501
 20
-55.004318873011457
 30
0.0
 40
6.0
  0
LINE
  8
SIZE
  6
CONTINUOUS
 62
    30
 10
-208.89497254962501
 20
-55.004318873011457
 30
0.0
 11
-208.89497254962501
 21
-43.004318873011457
 31
0.0
  0
TEXT
  8
SIZE
  6
CONTINUOUS
 62
    30
 10
-233.89497254962501
 20
-63.085714285504011
 30
0.0
 40
64.0
  1
110
 50
90.0
 41
0.9
 72
     1
 11
-233.89497254962501
 21
0.0000000002102638
 31
0.0
  0
LINE
  8
SIZE
  6
CONTINUOUS
 62
    30
 10
-83.004947077182194
 20
-67.500017802776668
 30
0.0
 11
-119.75940163866881
 21
-67.500017802776668
 31
0.0
  0
LINE
  8
SIZE
  6
CONTINUOUS
 62
    30
 10
-20.0
 20
-72.505693062499972
 30
0.0
 11
-119.75940163866881
 21
-72.505693062499901
 31
0.0
  0
LINE
  8
SIZE
  6
CONTINUOUS
 62
    30
 10
-99.759401638668805
 20
-55.500017802776647
 30
0.0
 11
-99.759401638668805
 21
-43.500017802776647
 31
0.0
  0
LINE
  8
SIZE
  6
CONTINUOUS
 62
    30
 10
-99.759401638668805
 20
-84.505693062499901
 30
0.0
 11
-99.759401638668805
 21
-184.90569306249989
 31
0.0
  0
LINE
  8
SIZE
  6
CONTINUOUS
 62
    30
 10
-99.759401638668805
 20
-67.500017802776668
 30
0.0
 11
-99.759401638668805
 21
-72.505693062499901
 31
0.0
  0
CIRCLE
  8
SIZE
  6
CONTINUOUS
 62
    30
 10
-99.759401638668805
 20
-67.500017802776668
 30
0.0
 40
6.0
  0
LINE
  8
SIZE
  6
CONTINUOUS
 62
    30
 10
-99.759401638668805
 20
-67.500017802776668
 30
0.0
 11
-99.759401638668805
 21
-55.500017802776647
 31
0.0
  0
CIRCLE
  8
SIZE
  6
CONTINUOUS
 62
    30
 10
-99.759401638668805
 20
-72.505693062499901
 30
0.0
 40
6.0
  0
LINE
  8
SIZE
  6
CONTINUOUS
 62
    30
 10
-99.759401638668805
 20
-72.505693062499901
 30
0.0
 11
-99.759401638668805
 21
-84.505693062499901
 31
0.0
  0
TEXT
  8
SIZE
  6
CONTINUOUS
 62
    30
 10
-124.75940163866881
 20
-159.90569306250001
 30
0.0
 40
64.0
  1
5
 50
90.0
 41
0.9
 72
     1
 11
-124.75940163866881
 21
-140.70569306249999
 31
0.0
  0
TEXT
  8
NOTE
  6
CONTINUOUS
 62
     4
 10
-276.9654753288857
 20
141.07475095464139
 30
0.0
 40
64.0
  1
EL
 41
0.9
 72
     2
 11
-191.93690390031429
 21
141.07475095464139
 31
0.0
  0
TEXT
  8
NOTE
  6
CONTINUOUS
 62
     4
 10
194.23851552659909
 20
-225.56830072279291
 30
0.0
 40
64.0
  1
2-φ5×7
 41
0.9
  0
LINE
  8
NOTE
  6
CONTINUOUS
 62
     4
 10
-54.210215710095298
 20
41.777648309752742
 30
0.0
 11
-49.704555181478767
 21
37.501701339680842
 31
0.0
  0
LINE
  8
NOTE
  6
CONTINUOUS
 62
     4
 10
-49.704555181478767
 20
37.501701339680842
 30
0.0
 11
-55.744547330561403
 21
38.95194067476325
 31
0.0
  0
LINE
  8
NOTE
  6
CONTINUOUS
 62
     4
 10
-49.704555181478767
 20
37.501701339680842
 30
0.0
 11
-60.250207859177927
 21
43.227887644835107
 31
0.0
  0
LINE
  8
NOTE
  6
CONTINUOUS
 62
     4
 10
-60.250207859177927
 20
43.227887644835107
 30
0.0
 11
-179.93690390031429
 21
109.0747509546414
 31
0.0
  0
LINE
  8
NOTE
  6
CONTINUOUS
 62
     4
 10
-179.93690390031429
 20
109.0747509546414
 30
0.0
 11
-276.96547532888582
 21
109.0747509546414
 31
0.0
  0
LINE
  8
NOTE
  6
CONTINUOUS
 62
     4
 10
-51.621175451057979
 20
-60.213833232269216
 30
0.0
 11
-55.004318875887797
 21
-55.004318873230503
 31
0.0
  0
LINE
  8
NOTE
  6
CONTINUOUS
 62
     4
 10
-55.004318875887797
 20
-55.004318873230503
 30
0.0
 11
-49.469669296244383
 21
-57.824310596720608
 31
0.0
  0
LINE
  8
NOTE
  6
CONTINUOUS
 62
     4
 10
-55.004318875887797
 20
-55.004318873230503
 30
0.0
 11
-46.086525871414537
 21
-63.033824955759343
 31
0.0
  0
LINE
  8
NOTE
  6
CONTINUOUS
 62
     4
 10
-46.106045462273578
 20
-63.033824955759357
 30
0.0
 11
184.54644561944559
 21
-271.16696427513688
 31
0.0
  0
LINE
  8
NOTE
  6
CONTINUOUS
 62
     4
 10
184.54644561944559
 20
-271.16696427513688
 30
0.0
 11
561.60361470893997
 21
-271.16696427513688
 31
0.0
  0
CIRCLE
  8
FIX
  6
CONTINUOUS
 62
    11
 10
55.004318875889453
 20
55.004318873221791
 30
0.0
 40
5.0
  0
CIRCLE
  8
FIX
  6
CONTINUOUS
 62
    11
 10
-55.00431887588951
 20
-55.004318873221678
 30
0.0
 40
5.0
  0
LINE
  8
DETAIL
  6
CONTINUOUS
 62
     5
 10
63.004947072817572
 20
-67.500017806850707
 30
0.0
 11
-63.004947077182457
 21
-67.500017802776796
 31
0.0
  0
ARC
  8
DETAIL
  6
CONTINUOUS
 62
     5
 10
-63.004947077037059
 20
-63.004947072962949
 30
0.0
 40
4.4950707298138353
 50
179.99999999814679
 51
269.99999999815009
  0
ARC
  8
DETAIL
  6
CONTINUOUS
 62
     5
 10
-6.2361488340579854
 20
-62.507993599390772
 30
0.0
 40
9.9976614019190713
 50
209.95496826369981
 51
270.0038878326489
  0
ARC
  8
DETAIL
  6
CONTINUOUS
 62
     5
 10
6.241088325759506
 20
-62.500962124290787
 30
0.0
 40
10.00475770161221
 50
270.00297872714452
 51
330.02197302712119
  0
LINE
  8
DETAIL
  6
CONTINUOUS
 62
     5
 10
6.2354704306254689
 20
-72.505693062701553
 30
0.0
 11
-6.2354704354139603
 21
-72.505693062298377
 31
0.0
  0
LINE
  8
DETAIL
  6
CONTINUOUS
 62
     5
 10
67.500017806850565
 20
63.004947072817743
 30
0.0
 11
67.500017802776711
 21
-63.00494707718218
 31
0.0
  0
ARC
  8
DETAIL
  6
CONTINUOUS
 62
     5
 10
63.004947072962977
 20
-63.00494707703686
 30
0.0
 40
4.4950707298137793
 50
269.99999999815009
 51
0.0
  0
ARC
  8
DETAIL
  6
CONTINUOUS
 62
     5
 10
63.004947077036832
 20
63.004947072963091
 30
0.0
 40
4.4950707298138353
 50
0.0
 51
89.999999998150088
  0
LINE
  8
DETAIL
  6
CONTINUOUS
 62
     5
 10
-63.004947072817913
 20
67.500017806850792
 30
0.0
 11
63.004947077182123
 21
67.500017802776938
 31
0.0
  0
ARC
  8
DETAIL
  6
CONTINUOUS
 62
     5
 10
-63.004947072963198
 20
63.004947077036952
 30
0.0
 40
4.4950707298138353
 50
89.999999998150088
 51
179.99999999814679
  0
LINE
  8
DETAIL
  6
CONTINUOUS
 62
     5
 10
-67.500017806850906
 20
-63.004947072817622
 30
0.0
 11
-67.500017802777037
 21
63.004947077182287
 31
0.0
  0
LINE
  8
DETAIL
  6
CONTINUOUS
 62
     5
 10
56.052720652784039
 20
52.541592483582583
 30
0.0
 11
57.467045266349928
 21
53.955917096956739
 31
0.0
  0
ARC
  8
DETAIL
  6
CONTINUOUS
 62
     5
 10
55.711481183561197
 20
55.711481179958923
 30
0.0
 40
2.4827426687602672
 50
314.99999999814838
 51
134.99999999814841
  0
LINE
  8
DETAIL
  6
CONTINUOUS
 62
     5
 10
53.955917100672643
 20
57.467045262861006
 30
0.0
 11
52.541592487206792
 21
56.052720649386693
 31
0.0
  0
ARC
  8
DETAIL
  6
CONTINUOUS
 62
     5
 10
54.297156569995423
 20
54.297156566484553
 30
0.0
 40
2.4827426687602672
 50
134.99999999814841
 51
314.99999999814838
  0
ARC
  8
DETAIL
  6
CONTINUOUS
 62
     5
 10
-54.297156570041011
 20
-55.711481180004512
 30
0.0
 40
2.4827426687602281
 50
224.99999999814841
 51
44.999999998148397
  0
LINE
  8
DETAIL
  6
CONTINUOUS
 62
     5
 10
-57.467045266417358
 20
-56.052720649327348
 30
0.0
 11
-56.052720653043139
 21
-57.467045262793107
 31
0.0
  0
ARC
  8
DETAIL
  6
CONTINUOUS
 62
     5
 10
-55.711481183515389
 20
-54.297156566438723
 30
0.0
 40
2.4827426687602281
 50
44.999999998148397
 51
224.99999999814841
  0
LINE
  8
DETAIL
  6
CONTINUOUS
 62
     5
 10
-52.541592487138928
 20
-53.955917097215817
 30
0.0
 11
-53.955917100613313
 21
-52.54159248365022
 31
0.0
  0
LINE
  8
DETAIL
  6
CONTINUOUS
 62
     5
 10
41.577393444628903
 20
-67.901847807981397
 30
0.0
 11
44.64553211353882
 21
-69.819033629676397
 31
0.0
  0
ARC
  8
DETAIL
  6
CONTINUOUS
 62
     5
 10
38.450624275196787
 20
-72.905724473743064
 30
0.0
 40
5.9004632974999902
 50
57.999999998151459
 51
66.369506385865407
  0
ARC
  8
DETAIL
  6
CONTINUOUS
 62
     5
 10
40.440450707036469
 20
-64.007375440714029
 30
0.0
 40
7.5005889375000132
 50
309.68230158694382
 51
332.24776228140507
  0
ARC
  8
DETAIL
  6
CONTINUOUS
 62
     5
 10
44.910512551607439
 20
-69.394976285096689
 30
0.0
 40
0.500039262500008
 50
237.99999999815151
 51
309.68230158695877
  0
LINE
  8
NOTE
  6
CONTINUOUS
 62
     4
 10
-55.004318875784413
 20
-48.503808460721643
 30
0.0
 11
-55.004318875994613
 21
-61.504829285721712
 31
0.0
  0
LINE
  8
NOTE
  6
CONTINUOUS
 62
     4
 10
-48.503808463389433
 20
-55.004318873431828
 30
0.0
 11
-61.504829288389367
 21
-55.004318873011528
 31
0.0
  0
LINE
  8
NOTE
  6
CONTINUOUS
 62
     4
 10
55.004318875994613
 20
61.504829285721712
 30
0.0
 11
55.004318875784293
 21
48.503808460721757
 31
0.0
  0
LINE
  8
NOTE
  6
CONTINUOUS
 62
     4
 10
61.504829288389487
 20
55.004318873011627
 30
0.0
 11
48.503808463389532
 21
55.004318873431941
 31
0.0
  0
LINE
  8
OUTLINE
  6
CONTINUOUS
 62
     3
 10
63.004947072817572
 20
-67.500017806850707
 30
0.0
 11
-63.004947077182457
 21
-67.500017802776796
 31
0.0
  0
ARC
  8
OUTLINE
  6
CONTINUOUS
 62
     3
 10
-63.004947077037059
 20
-63.004947072962857
 30
0.0
 40
4.4950707298138353
 50
179.99999999814679
 51
269.99999999815009
  0
LINE
  8
OUTLINE
  6
CONTINUOUS
 62
     3
 10
67.500017806850565
 20
63.004947072817743
 30
0.0
 11
67.500017802776711
 21
-63.004947077182067
 31
0.0
  0
ARC
  8
OUTLINE
  6
CONTINUOUS
 62
     3
 10
63.004947072962977
 20
-63.004947077036753
 30
0.0
 40
4.4950707298137793
 50
269.99999999815009
 51
0.0
  0
ARC
  8
OUTLINE
  6
CONTINUOUS
 62
     3
 10
63.004947077036832
 20
63.004947072963091
 30
0.0
 40
4.4950707298138353
 50
0.0
 51
89.999999998150088
  0
LINE
  8
OUTLINE
  6
CONTINUOUS
 62
     3
 10
-63.004947072817913
 20
67.500017806850906
 30
0.0
 11
63.004947077182123
 21
67.500017802777037
 31
0.0
  0
ARC
  8
OUTLINE
  6
CONTINUOUS
 62
     3
 10
-63.004947072963198
 20
63.004947077036952
 30
0.0
 40
4.4950707298138353
 50
89.999999998150088
 51
179.99999999814679
  0
LINE
  8
OUTLINE
  6
CONTINUOUS
 62
     3
 10
-67.500017806850906
 20
-63.004947072817529
 30
0.0
 11
-67.500017802777037
 21
63.004947077182287
 31
0.0
  0
CIRCLE
  8
DETAIL
  6
CONTINUOUS
 62
     5
 10
0.0
 20
0.0
 30
0.0
 40
35.0
  0
CIRCLE
  8
DETAIL
  6
CONTINUOUS
 62
     5
 10
0.0
 20
0.0
 30
0.0
 40
23.0
  0
LINE
  8
NOTE
  6
CONTINUOUS
 62
     4
 10
-49.704555181373607
 20
44.002211752180763
 30
0.0
 11
-49.704555181583942
 21
31.001190927180801
 31
0.0
  0
LINE
  8
NOTE
  6
CONTINUOUS
 62
     4
 10
-43.20404476897874
 20
37.501701339470642
 30
0.0
 11
-56.205065593978702
 21
37.501701339890992
 31
0.0
  0
LINE
  8
SIZE
  6
CONTINUOUS
 62
    30
 10
290.54916696203679
 20
-116.8496221382365
 30
0.0
 11
32.472349896013839
 21
-13.05934501538457
 31
0.0
  0
LINE
  8
SIZE
  6
CONTINUOUS
 62
    30
 10
-32.472349896013839
 20
13.05934501538457
 30
0.0
 11
-43.605727003218597
 21
17.536834734944989
 31
0.0
  0
TEXT
  8
SIZE
  6
CONTINUOUS
 62
    30
 10
131.12178163996199
 20
-25.787003039499051
 30
0.0
 40
64.0
  1
φ46
 50
338.09157919880721
 41
0.9
 72
     1
 11
210.51866523877069
 21
-57.717901153849937
 31
0.0
  0
LINE
  8
SIZE
  6
CONTINUOUS
 62
    30
 10
-21.33897278880908
 20
8.5818552958241412
 30
0.0
 11
21.33897278880908
 21
-8.5818552958241412
 31
0.0
  0
CIRCLE
  8
SIZE
  6
CONTINUOUS
 62
    30
 10
-21.33897278880908
 20
8.5818552958241412
 30
0.0
 40
6.0
  0
LINE
  8
SIZE
  6
CONTINUOUS
 62
    30
 10
-21.33897278880908
 20
8.5818552958241412
 30
0.0
 11
-32.472349896013839
 21
13.05934501538457
 31
0.0
  0
CIRCLE
  8
SIZE
  6
CONTINUOUS
 62
    30
 10
21.33897278880908
 20
-8.5818552958241412
 30
0.0
 40
6.0
  0
LINE
  8
SIZE
  6
CONTINUOUS
 62
    30
 10
21.33897278880908
 20
-8.5818552958241412
 30
0.0
 11
32.472349896013839
 21
-13.05934501538457
 31
0.0
  0
LINE
  8
SIZE
  6
CONTINUOUS
 62
    30
 10
288.25787513318539
 20
107.3022137227241
 30
0.0
 11
44.047255619775399
 21
16.396318866323671
 31
0.0
  0
LINE
  8
SIZE
  6
CONTINUOUS
 62
    30
 10
-44.047255619775399
 20
-16.396318866323671
 30
0.0
 11
-55.293363437590408
 21
-20.58261304495943
 31
0.0
  0
TEXT
  8
SIZE
  6
CONTINUOUS
 62
    30
 10
106.5016719270175
 20
66.320485387980668
 30
0.0
 40
64.0
  1
φ70
 50
20.417471918001471
 41
0.9
 72
     1
 11
187.98775600124279
 21
96.653176922324789
 31
0.0
  0
LINE
  8
SIZE
  6
CONTINUOUS
 62
    30
 10
-32.80114780196039
 20
-12.21002468768785
 30
0.0
 11
32.80114780196039
 21
12.21002468768785
 31
0.0
  0
CIRCLE
  8
SIZE
  6
CONTINUOUS
 62
    30
 10
-32.80114780196039
 20
-12.21002468768785
 30
0.0
 40
6.0
  0
LINE
  8
SIZE
  6
CONTINUOUS
 62
    30
 10
-32.80114780196039
 20
-12.21002468768785
 30
0.0
 11
-44.047255619775399
 21
-16.396318866323671
 31
0.0
  0
CIRCLE
  8
SIZE
  6
CONTINUOUS
 62
    30
 10
32.80114780196039
 20
12.21002468768785
 30
0.0
 40
6.0
  0
LINE
  8
SIZE
  6
CONTINUOUS
 62
    30
 10
32.80114780196039
 20
12.21002468768785
 30
0.0
 11
44.047255619775399
 21
16.396318866323671
 31
0.0
  0
LINE
  8
SIZE
  6
CONTINUOUS
 62
    30
 10
-55.004318875994613
 20
-81.504829285721698
 30
0.0
 11
-55.004318875994642
 21
-312.09641603192563
 31
0.0
  0
LINE
  8
SIZE
  6
CONTINUOUS
 62
    30
 10
55.004318875784293
 20
28.503808460721761
 30
0.0
 11
55.004318875784293
 21
-312.09641603192563
 31
0.0
  0
LINE
  8
SIZE
  6
CONTINUOUS
 62
    30
 10
43.004318875784293
 20
-292.09641603192563
 30
0.0
 11
-43.004318875994642
 21
-292.09641603192563
 31
0.0
  0
LINE
  8
SIZE
  6
CONTINUOUS
 62
    30
 10
-55.004318875994642
 20
-292.09641603192563
 30
0.0
 11
-243.17574744742319
 21
-292.09641603192563
 31
0.0
  0
CIRCLE
  8
SIZE
  6
CONTINUOUS
 62
    30
 10
55.004318875784293
 20
-292.09641603192563
 30
0.0
 40
6.0
  0
LINE
  8
SIZE
  6
CONTINUOUS
 62
    30
 10
55.004318875784293
 20
-292.09641603192563
 30
0.0
 11
43.004318875784293
 21
-292.09641603192563
 31
0.0
  0
CIRCLE
  8
SIZE
  6
CONTINUOUS
 62
    30
 10
-55.004318875994642
 20
-292.09641603192563
 30
0.0
 40
6.0
  0
LINE
  8
SIZE
  6
CONTINUOUS
 62
    30
 10
-55.004318875994642
 20
-292.09641603192563
 30
0.0
 11
-43.004318875994642
 21
-292.09641603192563
 31
0.0
  0
TEXT
  8
SIZE
  6
CONTINUOUS
 62
    30
 10
-218.17574744742319
 20
-267.09641603192563
 30
0.0
 40
64.0
  1
110
 41
0.9
 72
     1
 11
-155.0900331617089
 21
-267.09641603192563
 31
0.0
  0
ARC
  8
OUTLINE
  6
CONTINUOUS
 62
     3
 10
-6.2361488342195344
 20
-62.507993599110449
 30
0.0
 40
9.9976614019190713
 50
209.9549682655533
 51
270.00388783449881
  0
ARC
  8
OUTLINE
  6
CONTINUOUS
 62
     3
 10
6.2410883255977296
 20
-62.500962123607081
 30
0.0
 40
10.00475770161221
 50
270.00297872899779
 51
330.02197302897468
  0
LINE
  8
OUTLINE
  6
CONTINUOUS
 62
     3
 10
6.2354704307871316
 20
-72.505693062018011
 30
0.0
 11
-6.2354704352522958
 21
-72.505693062018011
 31
0.0
  0
LINE
  8
OUTLINE
  6
CONTINUOUS
 62
     3
 10
41.577393444641757
 20
-67.901847806155246
 30
0.0
 11
44.645532113613633
 21
-69.819033627751068
 31
0.0
  0
ARC
  8
OUTLINE
  6
CONTINUOUS
 62
     3
 10
40.440450706923293
 20
-64.007375438924612
 30
0.0
 40
7.5005889375000132
 50
309.68230158879862
 51
332.24776228325959
  0
ARC
  8
OUTLINE
  6
CONTINUOUS
 62
     3
 10
44.910512551668653
 20
-69.394976283162748
 30
0.0
 40
0.500039262500008
 50
238.00000000000671
 51
309.68230158880567
  0
ARC
  8
OUTLINE
  6
CONTINUOUS
 62
     3
 10
38.45062427522123
 20
-72.905724473766199
 30
0.0
 40
5.9004632974999902
 50
57.999999998151459
 51
66.369506385865407
  0
ENDSEC
  0
EOF
