  0
SECTION
  2
HEADER
  9
$ACADVER
  1
AC1009
  9
$DWGCODEPAGE
  3
dos932
  9
$INSBASE
 10
0.0
 20
0.0
 30
0.0
  9
$EXTMIN
 10
-355.29783468844653
 20
-71.777331609951943
 30
-0.0015258207003583
  9
$EXTMAX
 10
783.55866606994277
 20
805.57251803759937
 30
0.0000000349246037
  9
$LIMMIN
 10
-2970.0
 20
-2100.0
  9
$LIMMAX
 10
2970.0
 20
2100.0
  9
$ORTHOMODE
 70
     1
  9
$REGENMODE
 70
     1
  9
$FILLMODE
 70
     1
  9
$QTEXTMODE
 70
     0
  9
$MIRRTEXT
 70
     0
  9
$LTSCALE
 40
20.0
  9
$ATTMODE
 70
     1
  9
$TEXTSIZE
 40
64.0
  9
$TRACEWID
 40
0.05
  9
$TEXTSTYLE
  7
STANDARD
  9
$CLAYER
  8
SIZE
  9
$CELTYPE
  6
CONTINUOUS
  9
$CECOLOR
 62
     7
  9
$DIMSCALE
 40
1.0
  9
$DIMASZ
 40
12.0
  9
$DIMEXO
 40
20.0
  9
$DIMDLI
 40
200.0
  9
$DIMRND
 40
0.0
  9
$DIMDLE
 40
0.0
  9
$DIMEXE
 40
20.0
  9
$DIMTP
 40
0.0
  9
$DIMTM
 40
0.0
  9
$DIMTXT
 40
64.0
  9
$DIMCEN
 40
0.09
  9
$DIMTSZ
 40
0.0
  9
$DIMTOL
 70
     0
  9
$DIMLIM
 70
     0
  9
$DIMTIH
 70
     0
  9
$DIMTOH
 70
     0
  9
$DIMSE1
 70
     0
  9
$DIMSE2
 70
     0
  9
$DIMTAD
 70
     1
  9
$DIMZIN
 70
     8
  9
$DIMBLK
  1

  9
$DIMASO
 70
     1
  9
$DIMSHO
 70
     0
  9
$DIMPOST
  1

  9
$DIMAPOST
  1

  9
$DIMALT
 70
     0
  9
$DIMALTD
 70
     2
  9
$DIMALTF
 40
25.399999999999999
  9
$DIMLFAC
 40
1.0
  9
$DIMTOFL
 70
     1
  9
$DIMTVP
 40
0.0
  9
$DIMTIX
 70
     1
  9
$DIMSOXD
 70
     0
  9
$DIMSAH
 70
     0
  9
$DIMBLK1
  1

  9
$DIMBLK2
  1

  9
$DIMSTYLE
  2
STANDARD
  9
$DIMCLRD
 70
     7
  9
$DIMCLRE
 70
     7
  9
$DIMCLRT
 70
     7
  9
$DIMTFAC
 40
1.0
  9
$DIMGAP
 40
25.0
  9
$LUNITS
 70
     2
  9
$LUPREC
 70
     4
  9
$SKETCHINC
 40
0.1
  9
$FILLETRAD
 40
3.0
  9
$AUNITS
 70
     1
  9
$AUPREC
 70
     3
  9
$MENU
  1
ACAD
  9
$ELEVATION
 40
0.0
  9
$PELEVATION
 40
0.0
  9
$THICKNESS
 40
0.0
  9
$LIMCHECK
 70
     0
  9
$CHAMFERA
 40
0.0
  9
$CHAMFERB
 40
0.0
  9
$SKPOLY
 70
     0
  9
$TDCREATE
 40
2453019.623009259
  9
$TDUPDATE
 40
2459356.641680671
  9
$TDINDWG
 40
1.7263470023
  9
$TDUSRTIMER
 40
1.7263470023
  9
$USRTIMER
 70
     1
  9
$ANGBASE
 50
0.0
  9
$ANGDIR
 70
     0
  9
$PDMODE
 70
     3
  9
$PDSIZE
 40
-2.0
  9
$PLINEWID
 40
0.0
  9
$SPLFRAME
 70
     0
  9
$SPLINETYPE
 70
     6
  9
$SPLINESEGS
 70
     8
  9
$SURFTAB1
 70
     6
  9
$SURFTAB2
 70
     6
  9
$SURFTYPE
 70
     6
  9
$SURFU
 70
     6
  9
$SURFV
 70
     6
  9
$UCSNAME
  2

  9
$UCSORG
 10
0.0
 20
0.0
 30
0.0
  9
$UCSXDIR
 10
1.0
 20
0.0
 30
0.0
  9
$UCSYDIR
 10
0.0
 20
1.0
 30
0.0
  9
$PUCSNAME
  2

  9
$PUCSORG
 10
0.0
 20
0.0
 30
0.0
  9
$PUCSXDIR
 10
1.0
 20
0.0
 30
0.0
  9
$PUCSYDIR
 10
0.0
 20
1.0
 30
0.0
  9
$USERI1
 70
     0
  9
$USERI2
 70
     0
  9
$USERI3
 70
     0
  9
$USERI4
 70
     0
  9
$USERI5
 70
     0
  9
$USERR1
 40
20.0
  9
$USERR2
 40
0.0
  9
$USERR3
 40
0.0
  9
$USERR4
 40
0.0
  9
$USERR5
 40
0.0
  9
$WORLDVIEW
 70
     1
  9
$SHADEDGE
 70
     3
  9
$SHADEDIF
 70
    70
  9
$TILEMODE
 70
     1
  9
$MAXACTVP
 70
    48
  9
$PINSBASE
 10
0.0
 20
0.0
 30
0.0
  9
$PLIMCHECK
 70
     0
  9
$PEXTMIN
 10
-100000000000000000000.0
 20
-100000000000000000000.0
 30
-100000000000000000000.0
  9
$PEXTMAX
 10
100000000000000000000.0
 20
100000000000000000000.0
 30
100000000000000000000.0
  9
$PLIMMIN
 10
0.0
 20
0.0
  9
$PLIMMAX
 10
12.0
 20
9.0
  9
$UNITMODE
 70
     0
  9
$VISRETAIN
 70
     0
  9
$PLINEGEN
 70
     0
  9
$PSLTSCALE
 70
     0
  9
$TREEDEPTH
 70
  3020
  9
$ATTDIA
 70
     0
  9
$ATTREQ
 70
     1
  9
$BLIPMODE
 70
     1
  9
$COORDS
 70
     1
  9
$DRAGMODE
 70
     2
  9
$OSMODE
 70
     0
  9
$HANDLING
 70
     0
  9
$HANDSEED
  5
44C
  0
ENDSEC
  0
SECTION
  2
TABLES
  0
TABLE
  2
LTYPE
 70
     2
  0
LTYPE
  2
CONTINUOUS
 70
     0
  3
実線
 72
    65
 73
     0
 40
0.0
  0
LTYPE
  2
DASHDOT
 70
     0
  3
____ _ ____ _ ____ _ ____ _ ____ _ ____ _ ____
 72
    65
 73
     4
 40
5.5
 49
4.0
 49
-0.6
 49
0.3
 49
-0.6
  0
ENDTAB
  0
TABLE
  2
LAYER
 70
    12
  0
LAYER
  2
SIZE
 70
     0
 62
    30
  6
CONTINUOUS
  0
LAYER
  2
BASIS
 70
     0
 62
     6
  6
DASHDOT
  0
LAYER
  2
OUTLINE
 70
     0
 62
     3
  6
CONTINUOUS
  0
LAYER
  2
DETAIL
 70
     0
 62
     5
  6
CONTINUOUS
  0
LAYER
  2
ARRANGE
 70
     0
 62
     1
  6
CONTINUOUS
  0
LAYER
  2
ETC
 70
     0
 62
    61
  6
CONTINUOUS
  0
LAYER
  2
FIX
 70
     0
 62
    11
  6
CONTINUOUS
  0
LAYER
  2
NOTE
 70
     0
 62
     4
  6
CONTINUOUS
  0
LAYER
  2
0
 70
    64
 62
     7
  6
CONTINUOUS
  0
LAYER
  2
DEFPOINTS
 70
    64
 62
     7
  6
CONTINUOUS
  0
LAYER
  2
SERVICESPACE
 70
    64
 62
     2
  6
DASHDOT
  0
LAYER
  2
SYMBOLLINE
 70
    64
 62
    15
  6
CONTINUOUS
  0
ENDTAB
  0
TABLE
  2
STYLE
 70
     1
  0
STYLE
  2
STANDARD
 70
     0
 40
64.0
 41
0.9
 50
0.0
 71
     0
 42
64.0
  3
SIMPLEX.shx
  4
BIGFONT.shx
  0
ENDTAB
  0
TABLE
  2
APPID
 70
    20
  0
APPID
  2
ACAD
 70
     0
  0
APPID
  2
ACADANNOTATIVE
 70
     0
  0
APPID
  2
AUTOCAD_POSTSCRIPT_FIGURE
 70
     0
  0
APPID
  2
ACAD_EXEMPT_FROM_CAD_STANDARDS
 70
     0
  0
APPID
  2
ACAD_PSEXT
 70
     0
  0
APPID
  2
ACAUTHENVIRON
 70
     0
  0
APPID
  2
GENIUS_GENOENT_13
 70
     0
  0
APPID
  2
GENIUS_GENCFG_13
 70
     0
  0
APPID
  2
GENIUS_GENCFG0_13
 70
     0
  0
APPID
  2
GENIUS_GENCFG1_13
 70
     0
  0
APPID
  2
GENIUS_GENCFG2_13
 70
     0
  0
APPID
  2
GENIUS_GENCFG3_13
 70
     0
  0
APPID
  2
GENIUS_GENCFG4_13
 70
     0
  0
APPID
  2
GENIUS_GEVCFG0_13
 70
     0
  0
APPID
  2
CONTENTBLOCKICON
 70
     0
  0
APPID
  2
CONTENTBLOCKDESCRIPTION
 70
     0
  0
APPID
  2
ACAD_NAV_VCDISPLAY
 70
     0
  0
APPID
  2
ACAD_MLEADERVER
 70
     0
  0
APPID
  2
ACDBDYNAMICBLOCKTRUENAME
 70
     0
  0
APPID
  2
ACDBDYNAMICBLOCKGUID
 70
     0
  0
ENDTAB
  0
TABLE
  2
DIMSTYLE
 70
     1
  0
DIMSTYLE
  2
STANDARD
 70
     0
  3

  4

  5

  6

  7

 40
1.0
 41
12.0
 42
20.0
 43
200.0
 44
20.0
 45
0.0
 46
0.0
 47
0.0
 48
0.0
140
64.0
141
0.09
142
0.0
143
25.399999999999999
144
1.0
145
0.0
146
1.0
147
25.0
 71
     0
 72
     0
 73
     0
 74
     0
 75
     0
 76
     0
 77
     1
 78
     8
170
     0
171
     2
172
     1
173
     0
174
     1
175
     0
176
     7
177
     7
178
     7
  0
ENDTAB
  0
TABLE
  2
VIEW
 70
     1
  0
VIEW
  2
ALL
 70
     0
 40
4282.6198079999986
 10
0.0
 20
41.309904000000003
 41
5940.0
 11
0.0
 21
0.0
 31
1.0
 12
0.0
 22
0.0
 32
0.0
 42
50.0
 43
0.0
 44
0.0
 50
0.0
 71
     0
  0
ENDTAB
  0
TABLE
  2
UCS
 70
     0
  0
ENDTAB
  0
TABLE
  2
VPORT
 70
     1
  0
VPORT
  2
*ACTIVE
 70
     0
 10
0.0
 20
0.0
 11
1.0
 21
1.0
 12
214.13041569074809
 22
366.89759321382382
 13
0.0
 23
0.0
 14
1.0
 24
1.0
 15
0.0
 25
0.0
 16
0.0
 26
0.0
 36
1.0
 17
0.0
 27
0.0
 37
0.0
 40
560.53129160067181
 41
2.2504409171075839
 42
50.0
 43
0.0
 44
0.0
 50
0.0
 51
0.0
 71
     0
 72
  1000
 73
     1
 74
     3
 75
     0
 76
     0
 77
     0
 78
     0
  0
ENDTAB
  0
ENDSEC
  0
SECTION
  2
BLOCKS
  0
ENDSEC
  0
SECTION
  2
ENTITIES
  0
TEXT
  8
ETC
  6
CONTINUOUS
 62
    61
 10
174.2373687412219
 20
741.39530506737015
 30
0.0
 40
64.0
  1
V-06PXLD3_6
 41
0.9
  0
TEXT
  8
ETC
  6
CONTINUOUS
 62
    61
 10
170.05137474122151
 20
623.43999505253896
 30
0.0
 40
64.0
  1
換気扇
 41
0.9
  0
LINE
  8
BASIS
  6
DASHDOT
 62
     6
 10
0.0
 20
-60.902685695064527
 30
0.0
 11
0.0
 21
105.4120719599409
 31
0.0
  0
LINE
  8
BASIS
  6
DASHDOT
 62
     6
 10
77.393287450057187
 20
0.0
 30
0.0
 11
-77.393287450057187
 21
0.0
 31
0.0
  0
TEXT
  8
ETC
  6
CONTINUOUS
 62
    61
 10
220.75277298977741
 20
515.29122216631367
 30
0.0
 40
40.0
  1
V-06PXLD3
 41
0.9
  0
LINE
  8
SIZE
  6
CONTINUOUS
 62
    30
 10
-22.85179429624986
 20
85.105111977499973
 30
0.0
 11
-22.85179429624986
 21
293.15860648886883
 31
0.0
  0
LINE
  8
SIZE
  6
CONTINUOUS
 62
    30
 10
22.85179429624986
 20
85.105111977499973
 30
0.0
 11
22.85179429624986
 21
293.15860648886883
 31
0.0
  0
LINE
  8
SIZE
  6
CONTINUOUS
 62
    30
 10
34.851794296249857
 20
273.15860648886883
 30
0.0
 11
46.851794296249857
 21
273.15860648886883
 31
0.0
  0
LINE
  8
SIZE
  6
CONTINUOUS
 62
    30
 10
-34.851794296249857
 20
273.15860648886883
 30
0.0
 11
-267.80064905576938
 21
273.15860648886883
 31
0.0
  0
LINE
  8
SIZE
  6
CONTINUOUS
 62
    30
 10
22.85179429624986
 20
273.15860648886883
 30
0.0
 11
-22.85179429624986
 21
273.15860648886883
 31
0.0
  0
CIRCLE
  8
SIZE
  6
CONTINUOUS
 62
    30
 10
22.85179429624986
 20
273.15860648886883
 30
0.0
 40
6.0
  0
LINE
  8
SIZE
  6
CONTINUOUS
 62
    30
 10
22.85179429624986
 20
273.15860648886883
 30
0.0
 11
34.851794296249857
 21
273.15860648886883
 31
0.0
  0
CIRCLE
  8
SIZE
  6
CONTINUOUS
 62
    30
 10
-22.85179429624986
 20
273.15860648886883
 30
0.0
 40
6.0
  0
LINE
  8
SIZE
  6
CONTINUOUS
 62
    30
 10
-22.85179429624986
 20
273.15860648886883
 30
0.0
 11
-34.851794296249857
 21
273.15860648886883
 31
0.0
  0
TEXT
  8
SIZE
  6
CONTINUOUS
 62
    30
 10
-252.94922048434091
 20
308.82527315553551
 30
0.0
 40
64.0
  1
φ46
 41
0.9
 72
     1
 11
-167.372077627198
 21
308.82527315553551
 31
0.0
  0
LINE
  8
SIZE
  6
CONTINUOUS
 62
    30
 10
-35.220219186200211
 20
39.501531237499989
 30
0.0
 11
-35.220219186200211
 21
362.9501456253488
 31
0.0
  0
LINE
  8
SIZE
  6
CONTINUOUS
 62
    30
 10
35.220219186200211
 20
39.501531237499989
 30
0.0
 11
35.220219186200211
 21
362.9501456253488
 31
0.0
  0
LINE
  8
SIZE
  6
CONTINUOUS
 62
    30
 10
-47.220219186200211
 20
342.9501456253488
 30
0.0
 11
-59.220219186200211
 21
342.9501456253488
 31
0.0
  0
LINE
  8
SIZE
  6
CONTINUOUS
 62
    30
 10
47.220219186200211
 20
342.9501456253488
 30
0.0
 11
281.14782599119638
 21
342.9501456253488
 31
0.0
  0
LINE
  8
SIZE
  6
CONTINUOUS
 62
    30
 10
-35.220219186200211
 20
342.9501456253488
 30
0.0
 11
35.220219186200211
 21
342.9501456253488
 31
0.0
  0
CIRCLE
  8
SIZE
  6
CONTINUOUS
 62
    30
 10
-35.220219186200211
 20
342.9501456253488
 30
0.0
 40
6.0
  0
LINE
  8
SIZE
  6
CONTINUOUS
 62
    30
 10
-35.220219186200211
 20
342.9501456253488
 30
0.0
 11
-47.220219186200211
 21
342.9501456253488
 31
0.0
  0
CIRCLE
  8
SIZE
  6
CONTINUOUS
 62
    30
 10
35.220219186200211
 20
342.9501456253488
 30
0.0
 40
6.0
  0
LINE
  8
SIZE
  6
CONTINUOUS
 62
    30
 10
35.220219186200211
 20
342.9501456253488
 30
0.0
 11
47.220219186200211
 21
342.9501456253488
 31
0.0
  0
TEXT
  8
SIZE
  6
CONTINUOUS
 62
    30
 10
92.399254562624847
 20
378.61681229201542
 30
0.0
 40
64.0
  1
φ70
 41
0.9
 72
     1
 11
179.34782599119629
 21
378.61681229201542
 31
0.0
  0
LINE
  8
SIZE
  6
CONTINUOUS
 62
    30
 10
-55.0
 20
28.0
 30
0.0
 11
-55.0
 21
487.41172815981741
 31
0.0
  0
LINE
  8
SIZE
  6
CONTINUOUS
 62
    30
 10
55.0
 20
28.0
 30
0.0
 11
55.0
 21
487.41172815981741
 31
0.0
  0
LINE
  8
SIZE
  6
CONTINUOUS
 62
    30
 10
43.0
 20
467.41172815981741
 30
0.0
 11
-43.0
 21
467.41172815981741
 31
0.0
  0
LINE
  8
SIZE
  6
CONTINUOUS
 62
    30
 10
-55.0
 20
467.41172815981741
 30
0.0
 11
-284.5450322278715
 21
467.41172815981741
 31
0.0
  0
CIRCLE
  8
SIZE
  6
CONTINUOUS
 62
    30
 10
55.0
 20
467.41172815981741
 30
0.0
 40
6.0
  0
LINE
  8
SIZE
  6
CONTINUOUS
 62
    30
 10
55.0
 20
467.41172815981741
 30
0.0
 11
43.0
 21
467.41172815981741
 31
0.0
  0
CIRCLE
  8
SIZE
  6
CONTINUOUS
 62
    30
 10
-55.0
 20
467.41172815981741
 30
0.0
 40
6.0
  0
LINE
  8
SIZE
  6
CONTINUOUS
 62
    30
 10
-55.0
 20
467.41172815981741
 30
0.0
 11
-43.0
 21
467.41172815981741
 31
0.0
  0
TEXT
  8
SIZE
  6
CONTINUOUS
 62
    30
 10
-259.54503222787139
 20
492.41172815981741
 30
0.0
 40
64.0
  1
110
 41
0.9
 72
     1
 11
-196.45931794215721
 21
492.41172815981741
 31
0.0
  0
LINE
  8
SIZE
  6
CONTINUOUS
 62
    30
 10
-67.499972109725931
 20
19.694740309464919
 30
0.0
 11
-67.499972109725931
 21
579.3039237355847
 31
0.0
  0
LINE
  8
SIZE
  6
CONTINUOUS
 62
    30
 10
67.499972109726002
 20
19.694740309465171
 30
0.0
 11
67.499972109726073
 21
579.3039237355847
 31
0.0
  0
LINE
  8
SIZE
  6
CONTINUOUS
 62
    30
 10
-55.499972109725952
 20
559.3039237355847
 30
0.0
 11
55.499972109726073
 21
559.3039237355847
 31
0.0
  0
CIRCLE
  8
SIZE
  6
CONTINUOUS
 62
    30
 10
-67.499972109725931
 20
559.3039237355847
 30
0.0
 40
6.0
  0
LINE
  8
SIZE
  6
CONTINUOUS
 62
    30
 10
-67.499972109725931
 20
559.3039237355847
 30
0.0
 11
-55.499972109725952
 21
559.3039237355847
 31
0.0
  0
CIRCLE
  8
SIZE
  6
CONTINUOUS
 62
    30
 10
67.499972109726073
 20
559.3039237355847
 30
0.0
 40
6.0
  0
LINE
  8
SIZE
  6
CONTINUOUS
 62
    30
 10
67.499972109726073
 20
559.3039237355847
 30
0.0
 11
55.499972109726073
 21
559.3039237355847
 31
0.0
  0
TEXT
  8
SIZE
  6
CONTINUOUS
 62
    30
 10
-105.0514285714285
 20
584.3039237355847
 30
0.0
 40
64.0
  1
□135
 41
0.9
 72
     1
 11
0.0000000000000568
 21
584.3039237355847
 31
0.0
  0
LINE
  8
SIZE
  6
CONTINUOUS
 62
    30
 10
-20.0
 20
-47.703745642500053
 30
0.0
 11
-286.02009454316749
 21
-47.703745642499968
 31
0.0
  0
LINE
  8
SIZE
  6
CONTINUOUS
 62
    30
 10
-97.393287450057187
 20
0.0
 30
0.0
 11
-286.02009454316749
 21
0.0000000000000568
 31
0.0
  0
LINE
  8
SIZE
  6
CONTINUOUS
 62
    30
 10
-266.02009454316737
 20
-59.703745642499982
 30
0.0
 11
-266.02009454316737
 21
-71.703745642499982
 31
0.0
  0
LINE
  8
SIZE
  6
CONTINUOUS
 62
    30
 10
-266.02009454316737
 20
12.00000000000006
 30
0.0
 11
-266.02009454316737
 21
24.00000000000006
 31
0.0
  0
LINE
  8
SIZE
  6
CONTINUOUS
 62
    30
 10
-266.02009454316737
 20
-47.703745642499982
 30
0.0
 11
-266.02009454316737
 21
0.0000000000000568
 31
0.0
  0
CIRCLE
  8
SIZE
  6
CONTINUOUS
 62
    30
 10
-266.02009454316737
 20
-47.703745642499982
 30
0.0
 40
6.0
  0
LINE
  8
SIZE
  6
CONTINUOUS
 62
    30
 10
-266.02009454316737
 20
-47.703745642499982
 30
0.0
 11
-266.02009454316737
 21
-59.703745642499982
 31
0.0
  0
CIRCLE
  8
SIZE
  6
CONTINUOUS
 62
    30
 10
-266.02009454316737
 20
0.0000000000000568
 30
0.0
 40
6.0
  0
LINE
  8
SIZE
  6
CONTINUOUS
 62
    30
 10
-266.02009454316737
 20
0.0000000000000568
 30
0.0
 11
-266.02009454316737
 21
12.00000000000006
 31
0.0
  0
TEXT
  8
SIZE
  6
CONTINUOUS
 62
    30
 10
-291.02009454316749
 20
-70.480444249821431
 30
0.0
 40
64.0
  1
48
 50
90.0
 41
0.9
 72
     1
 11
-291.02009454316749
 21
-23.851872821250009
 31
0.0
  0
LINE
  8
SIZE
  6
CONTINUOUS
 62
    30
 10
-40.25145566969217
 20
67.705316142499896
 30
0.0
 11
-286.02009454316749
 21
67.705316142499953
 31
0.0
  0
LINE
  8
SIZE
  6
CONTINUOUS
 62
    30
 10
-97.393287450057187
 20
0.0
 30
0.0
 11
-286.02009454316749
 21
0.0000000000000568
 31
0.0
  0
LINE
  8
SIZE
  6
CONTINUOUS
 62
    30
 10
-266.02009454316737
 20
-11.99999999999995
 30
0.0
 11
-266.02009454316737
 21
-23.99999999999994
 31
0.0
  0
LINE
  8
SIZE
  6
CONTINUOUS
 62
    30
 10
-266.02009454316737
 20
79.705316142499953
 30
0.0
 11
-266.02009454316737
 21
239.6571428571425
 31
0.0
  0
LINE
  8
SIZE
  6
CONTINUOUS
 62
    30
 10
-266.02009454316737
 20
0.0000000000000568
 30
0.0
 11
-266.02009454316737
 21
67.705316142499953
 31
0.0
  0
CIRCLE
  8
SIZE
  6
CONTINUOUS
 62
    30
 10
-266.02009454316737
 20
0.0000000000000568
 30
0.0
 40
6.0
  0
LINE
  8
SIZE
  6
CONTINUOUS
 62
    30
 10
-266.02009454316737
 20
0.0000000000000568
 30
0.0
 11
-266.02009454316737
 21
-11.99999999999994
 31
0.0
  0
CIRCLE
  8
SIZE
  6
CONTINUOUS
 62
    30
 10
-266.02009454316737
 20
67.705316142499953
 30
0.0
 40
6.0
  0
LINE
  8
SIZE
  6
CONTINUOUS
 62
    30
 10
-266.02009454316737
 20
67.705316142499953
 30
0.0
 11
-266.02009454316737
 21
79.705316142499953
 31
0.0
  0
TEXT
  8
SIZE
  6
CONTINUOUS
 62
    30
 10
-291.02009454316749
 20
121.39999999999969
 30
0.0
 40
64.0
  1
68
 50
90.0
 41
0.9
 72
     1
 11
-291.02009454316749
 21
168.0285714285711
 31
0.0
  0
TEXT
  8
NOTE
  6
CONTINUOUS
 62
     4
 10
138.05959250432721
 20
132.03003949752161
 30
0.0
 40
64.0
  1
2-φ5×7
 41
0.9
  0
LINE
  8
NOTE
  6
CONTINUOUS
 62
     4
 10
60.342943807780962
 20
3.1682251745883718
 30
0.0
 11
55.0
 21
0.0
 31
0.0
  0
LINE
  8
NOTE
  6
CONTINUOUS
 62
     4
 10
55.0
 20
0.0
 30
0.0
 11
58.043004320778323
 21
5.4152399756358278
 31
0.0
  0
LINE
  8
NOTE
  6
CONTINUOUS
 62
     4
 10
55.0
 20
0.0
 30
0.0
 11
63.385948128559278
 21
8.5834651502241854
 31
0.0
  0
LINE
  8
NOTE
  6
CONTINUOUS
 62
     4
 10
63.385948128559278
 20
8.5834651502241854
 30
0.0
 11
140.3675225971738
 21
86.431375945177479
 31
0.0
  0
LINE
  8
NOTE
  6
CONTINUOUS
 62
     4
 10
140.3675225971738
 20
86.431375945177479
 30
0.0
 11
533.14466545431651
 21
86.431375945177479
 31
0.0
  0
LINE
  8
NOTE
  6
CONTINUOUS
 62
     4
 10
-60.0
 20
0.0
 30
0.0
 11
-50.0
 21
0.0
 31
0.0
  0
LINE
  8
NOTE
  6
CONTINUOUS
 62
     4
 10
-55.0
 20
-8.0
 30
0.0
 11
-55.0
 21
8.0
 31
0.0
  0
CIRCLE
  8
FIX
  6
CONTINUOUS
 62
    11
 10
-55.0
 20
0.0
 30
0.0
 40
5.0
  0
LINE
  8
SIZE
  6
CONTINUOUS
 62
    30
 10
-52.313632281138887
 20
39.503101737500067
 30
0.0
 11
-185.02582330400759
 21
39.503101737500103
 31
0.0
  0
LINE
  8
SIZE
  6
CONTINUOUS
 62
    30
 10
-97.393287450057187
 20
0.0
 30
0.0
 11
-185.02582330400759
 21
0.0000000000000284
 31
0.0
  0
LINE
  8
SIZE
  6
CONTINUOUS
 62
    30
 10
-165.02582330400759
 20
-11.99999999999998
 30
0.0
 11
-165.02582330400759
 21
-23.999999999999972
 31
0.0
  0
LINE
  8
SIZE
  6
CONTINUOUS
 62
    30
 10
-165.02582330400759
 20
51.503101737500103
 30
0.0
 11
-165.02582330400759
 21
226.95714285714271
 31
0.0
  0
LINE
  8
SIZE
  6
CONTINUOUS
 62
    30
 10
-165.02582330400759
 20
0.0000000000000284
 30
0.0
 11
-165.02582330400759
 21
39.503101737500103
 31
0.0
  0
CIRCLE
  8
SIZE
  6
CONTINUOUS
 62
    30
 10
-165.02582330400759
 20
0.0000000000000284
 30
0.0
 40
6.0
  0
LINE
  8
SIZE
  6
CONTINUOUS
 62
    30
 10
-165.02582330400759
 20
0.0000000000000284
 30
0.0
 11
-165.02582330400759
 21
-11.99999999999997
 31
0.0
  0
CIRCLE
  8
SIZE
  6
CONTINUOUS
 62
    30
 10
-165.02582330400759
 20
39.503101737500103
 30
0.0
 40
6.0
  0
LINE
  8
SIZE
  6
CONTINUOUS
 62
    30
 10
-165.02582330400759
 20
39.503101737500103
 30
0.0
 11
-165.02582330400759
 21
51.503101737500103
 31
0.0
  0
TEXT
  8
SIZE
  6
CONTINUOUS
 62
    30
 10
-190.02582330400759
 20
108.6999999999998
 30
0.0
 40
64.0
  1
40
 50
90.0
 41
0.9
 72
     1
 11
-190.02582330400759
 21
155.32857142857119
 31
0.0
  0
LINE
  8
NOTE
  6
CONTINUOUS
 62
     4
 10
60.0
 20
0.0
 30
0.0
 11
50.0
 21
0.0
 31
0.0
  0
LINE
  8
NOTE
  6
CONTINUOUS
 62
     4
 10
55.0
 20
-8.0
 30
0.0
 11
55.0
 21
8.0
 31
0.0
  0
CIRCLE
  8
FIX
  6
CONTINUOUS
 62
    11
 10
55.0
 20
0.0
 30
0.0
 40
5.0
  0
CIRCLE
  8
ARRANGE
  6
CONTINUOUS
 62
     1
 10
0.0
 20
0.0
 30
0.0
 40
40.0
  0
POINT
  8
ARRANGE
  6
CONTINUOUS
 62
     1
 10
0.0
 20
0.0
 30
0.0
  0
LINE
  8
DETAIL
  6
CONTINUOUS
 62
     5
 10
-7.5288044644048568
 20
21.50168828749997
 30
0.0
 11
35.220201397463953
 21
21.50168828749997
 31
0.0
  0
LINE
  8
DETAIL
  6
CONTINUOUS
 62
     5
 10
33.136149161605537
 20
27.268257638503311
 30
0.0
 11
32.874046328796787
 21
41.212670465543617
 31
0.0
  0
LINE
  8
DETAIL
  6
CONTINUOUS
 62
     5
 10
30.10236360249996
 20
39.50310173750006
 30
0.0
 11
30.132191876781231
 21
41.21196242674921
 31
0.0
  0
ARC
  8
DETAIL
  6
CONTINUOUS
 62
     5
 10
30.632154975500949
 20
41.203235229999898
 30
0.0
 40
0.500039262500046
 50
89.999707253893135
 51
178.99996467310709
  0
LINE
  8
DETAIL
  6
CONTINUOUS
 62
     5
 10
30.632164604757239
 20
41.703274492499993
 30
0.0
 11
32.374096090886717
 21
41.703274492499993
 31
0.0
  0
ARC
  8
DETAIL
  6
CONTINUOUS
 62
     5
 10
32.374115313396032
 20
41.203266433649901
 30
0.0
 40
0.5000052831319696
 50
1.0811776458140121
 51
90.002202700195141
  0
LINE
  8
DETAIL
  6
CONTINUOUS
 62
     5
 10
31.072643704421811
 20
39.50310173750006
 30
0.0
 11
32.31363228113878
 21
39.50310173750006
 31
0.0
  0
ARC
  8
DETAIL
  6
CONTINUOUS
 62
     5
 10
31.072643704421811
 20
38.303007507499963
 30
0.0
 40
1.2000942300000459
 50
90.0
 51
178.7322227039659
  0
LINE
  8
DETAIL
  6
CONTINUOUS
 62
     5
 10
33.440310137170847
 20
24.28066482339818
 30
0.0
 11
34.308386924448307
 21
23.55226191135057
 31
0.0
  0
ARC
  8
DETAIL
  6
CONTINUOUS
 62
     5
 10
32.615111516919939
 20
21.57057280967474
 30
0.0
 40
2.6065826864854911
 50
1.940115058684752
 51
49.487413532598083
  0
LINE
  8
DETAIL
  6
CONTINUOUS
 62
     5
 10
33.261766075399237
 20
24.654990233292889
 30
0.0
 11
33.217214085728763
 21
27.207372013035069
 31
0.0
  0
ARC
  8
DETAIL
  6
CONTINUOUS
 62
     5
 10
33.761729179519307
 20
24.663717121818081
 30
0.0
 40
0.5000392625000061
 50
181.00000000000179
 51
229.9999999999981
  0
ARC
  8
DETAIL
  6
CONTINUOUS
 62
     5
 10
32.917236223216833
 20
27.202135879999901
 30
0.0
 40
0.300023557499998
 50
0.9999999999952488
 51
43.758609506998802
  0
ARC
  8
DETAIL
  6
CONTINUOUS
 62
     5
 10
26.167933009995981
 20
22.95822254167172
 30
0.0
 40
5.4335610524799662
 50
344.45098999289809
 51
345.4819170398053
  0
ARC
  8
DETAIL
  6
CONTINUOUS
 62
     5
 10
22.590625607088899
 20
12.980889256592601
 30
0.0
 40
12.822454919313209
 50
48.037426963889523
 51
50.90388504630014
  0
LINE
  8
DETAIL
  6
CONTINUOUS
 62
     5
 10
30.03578280375314
 20
23.453131752465989
 30
0.0
 11
30.676762947166939
 21
22.932257674240532
 31
0.0
  0
LINE
  8
DETAIL
  6
CONTINUOUS
 62
     5
 10
29.301675286586711
 20
24.950433392245369
 30
0.0
 11
29.26792926448843
 21
27.50215943750004
 31
0.0
  0
LINE
  8
DETAIL
  6
CONTINUOUS
 62
     5
 10
30.433177491720929
 20
27.50215943750004
 30
0.0
 11
29.26792926448843
 21
27.50215943750004
 31
0.0
  0
LINE
  8
DETAIL
  6
CONTINUOUS
 62
     5
 10
29.694458724284459
 20
27.50215943750004
 30
0.0
 11
29.66715398164774
 21
29.030146941697581
 31
0.0
  0
LINE
  8
DETAIL
  6
CONTINUOUS
 62
     5
 10
29.87284324500661
 20
38.329559691335703
 30
0.0
 11
29.667104216850699
 21
29.032931510817662
 31
0.0
  0
LINE
  8
DETAIL
  6
CONTINUOUS
 62
     5
 10
29.66715398164774
 20
29.030146941697581
 30
0.0
 11
29.479985177971681
 21
39.50310173750006
 31
0.0
  0
LINE
  8
DETAIL
  6
CONTINUOUS
 62
     5
 10
23.901876747499951
 20
39.50310173750006
 30
0.0
 11
24.09481150941247
 21
28.449876631849289
 31
0.0
  0
ARC
  8
DETAIL
  6
CONTINUOUS
 62
     5
 10
27.0945930966659
 20
28.502237962499979
 30
0.0
 40
3.000235574999996
 50
180.99999901260401
 51
269.9999434217977
  0
LINE
  8
DETAIL
  6
CONTINUOUS
 62
     5
 10
29.294380906540479
 20
25.50200238750006
 30
0.0
 11
27.0945901340333
 21
25.50200238750006
 31
0.0
  0
LINE
  8
DETAIL
  6
CONTINUOUS
 62
     5
 10
17.932338586922238
 20
22.60177466499988
 30
0.0
 11
-8.2977944341464536
 21
22.60177466499988
 31
0.0
  0
LINE
  8
DETAIL
  6
CONTINUOUS
 62
     5
 10
-8.117420241974969
 20
23.00180607499999
 30
0.0
 11
19.001491974999912
 21
23.00180607499999
 31
0.0
  0
LINE
  8
DETAIL
  6
CONTINUOUS
 62
     5
 10
-8.1268034831362002
 20
32.37075960801009
 30
0.0
 11
21.801711844799911
 21
32.37075960801009
 31
0.0
  0
LINE
  8
DETAIL
  6
CONTINUOUS
 62
     5
 10
31.15800542716806
 20
39.50310173750006
 30
0.0
 11
-9.3145039043888573
 21
39.50310173750006
 31
0.0
  0
LINE
  8
DETAIL
  6
CONTINUOUS
 62
     5
 10
-11.98989355353206
 20
40.30316455749994
 30
0.0
 11
30.116328750968481
 21
40.30316455749994
 31
0.0
  0
LINE
  8
DETAIL
  6
CONTINUOUS
 62
     5
 10
30.130293899454269
 20
41.103227377499927
 30
0.0
 11
-12.004920994802429
 21
41.103227377499927
 31
0.0
  0
LINE
  8
DETAIL
  6
CONTINUOUS
 62
     5
 10
30.632164604757239
 20
41.703274492499993
 30
0.0
 11
-12.506926885219849
 21
41.703274492499993
 31
0.0
  0
LINE
  8
DETAIL
  6
CONTINUOUS
 62
     5
 10
22.85179429624986
 20
65.105111977499973
 30
0.0
 11
22.85179429624986
 21
42.203313754999947
 31
0.0
  0
LINE
  8
DETAIL
  6
CONTINUOUS
 62
     5
 10
22.301751107499971
 20
33.80265414500002
 30
0.0
 11
22.301751107499971
 21
39.003062474999979
 31
0.0
  0
LINE
  8
DETAIL
  6
CONTINUOUS
 62
     5
 10
21.801711844999769
 20
25.802025944999968
 30
0.0
 11
21.801711844999769
 21
32.37075960801009
 31
0.0
  0
LINE
  8
DETAIL
  6
CONTINUOUS
 62
     5
 10
17.93278551611456
 20
22.60177466499988
 30
0.0
 11
18.33281707822653
 21
23.00180607499999
 31
0.0
  0
LINE
  8
DETAIL
  6
CONTINUOUS
 62
     5
 10
20.251455669692181
 20
67.705316142499896
 30
0.0
 11
-20.920159152211909
 21
67.705316142499896
 31
0.0
  0
ARC
  8
DETAIL
  6
CONTINUOUS
 62
     5
 10
19.001491974999912
 20
25.802025944999968
 30
0.0
 40
2.8002198700000691
 50
270.0
 51
0.0
  0
ARC
  8
DETAIL
  6
CONTINUOUS
 62
     5
 10
20.251590131249941
 20
65.105111977499973
 30
0.0
 40
2.600204164999993
 50
0.0
 51
90.0
  0
ARC
  8
DETAIL
  6
CONTINUOUS
 62
     5
 10
20.001570500000071
 20
33.80265414500002
 30
0.0
 40
2.3001806075000371
 50
321.50004959080258
 51
0.0
  0
ARC
  8
DETAIL
  6
CONTINUOUS
 62
     5
 10
9.3007302824998987
 20
21.00164902500001
 30
0.0
 40
2.0001570499999901
 50
126.81404248870049
 51
165.5155613643999
  0
ARC
  8
DETAIL
  6
CONTINUOUS
 62
     5
 10
22.801790369999939
 20
39.003062474999979
 30
0.0
 40
0.500039262499946
 50
90.000061460798477
 51
180.0
  0
ARC
  8
DETAIL
  6
CONTINUOUS
 62
     5
 10
23.351833558750059
 20
42.203313754999947
 30
0.0
 40
0.5000392625
 50
180.0
 51
260.99999999999488
  0
ARC
  8
DETAIL
  6
CONTINUOUS
 62
     5
 10
28.266634350242381
 20
33.796306279572718
 30
0.0
 40
10.407164525326969
 50
67.387125604491501
 51
112.6128743955085
  0
LINE
  8
DETAIL
  6
CONTINUOUS
 62
     5
 10
24.265050878572769
 20
43.403407984999717
 30
0.0
 11
24.116308471492179
 21
41.703274492499872
 31
0.0
  0
LINE
  8
DETAIL
  6
CONTINUOUS
 62
     5
 10
32.268217821912003
 20
43.403407984999717
 30
0.0
 11
24.265050878572769
 21
43.403407984999717
 31
0.0
  0
LINE
  8
DETAIL
  6
CONTINUOUS
 62
     5
 10
32.268217821912003
 20
43.403407984999717
 30
0.0
 11
32.416960228992139
 21
41.703274492499872
 31
0.0
  0
ARC
  8
DETAIL
  6
CONTINUOUS
 62
     5
 10
30.551262017469529
 20
21.83641506720522
 30
0.0
 40
0.9148093480449744
 50
338.53715121814162
 51
47.923485219278213
  0
ARC
  8
DETAIL
  6
CONTINUOUS
 62
     5
 10
31.263235237640401
 20
24.983548217275199
 30
0.0
 40
1.9618394514370641
 50
180.96716875634431
 51
231.26905578270791
  0
ARC
  8
DETAIL
  6
CONTINUOUS
 62
     5
 10
32.243453458820113
 20
38.926127206066667
 30
0.0
 40
0.5812268722494054
 50
8.475217889908512
 51
83.06504006768003
  0
LINE
  8
OUTLINE
  6
CONTINUOUS
 62
     3
 10
33.136149161605537
 20
27.268257638503311
 30
0.0
 11
32.874046328796787
 21
41.212670465543617
 31
0.0
  0
LINE
  8
OUTLINE
  6
CONTINUOUS
 62
     3
 10
30.632164604757008
 20
41.703274492499993
 30
0.0
 11
32.374096090886717
 21
41.703274492499993
 31
0.0
  0
ARC
  8
OUTLINE
  6
CONTINUOUS
 62
     3
 10
32.374115313396032
 20
41.203266433649901
 30
0.0
 40
0.5000052831319696
 50
1.0811776458074991
 51
90.002202700208173
  0
LINE
  8
OUTLINE
  6
CONTINUOUS
 62
     3
 10
33.440310137170847
 20
24.28066482339818
 30
0.0
 11
34.308386924448307
 21
23.55226191135057
 31
0.0
  0
ARC
  8
OUTLINE
  6
CONTINUOUS
 62
     3
 10
32.615111516919939
 20
21.57057280967474
 30
0.0
 40
2.6065826864854911
 50
1.940115058684752
 51
49.487413532598083
  0
LINE
  8
OUTLINE
  6
CONTINUOUS
 62
     3
 10
33.261766075399237
 20
24.654990233292889
 30
0.0
 11
33.217214085728763
 21
27.207372013035069
 31
0.0
  0
ARC
  8
OUTLINE
  6
CONTINUOUS
 62
     3
 10
33.761729179519307
 20
24.663717121818081
 30
0.0
 40
0.5000392625000061
 50
181.00000000000179
 51
229.9999999999981
  0
ARC
  8
OUTLINE
  6
CONTINUOUS
 62
     3
 10
32.917236223216833
 20
27.202135879999901
 30
0.0
 40
0.300023557499998
 50
0.9999999999952488
 51
43.758609506998802
  0
LINE
  8
OUTLINE
  6
CONTINUOUS
 62
     3
 10
30.632164604757008
 20
41.703274492499993
 30
0.0
 11
-12.506926885219849
 21
41.703274492499993
 31
0.0
  0
LINE
  8
OUTLINE
  6
CONTINUOUS
 62
     3
 10
22.85179429624986
 20
65.105111977499973
 30
0.0
 11
22.85179429624986
 21
42.203313754999947
 31
0.0
  0
LINE
  8
OUTLINE
  6
CONTINUOUS
 62
     3
 10
20.251455669692181
 20
67.705316142499896
 30
0.0
 11
-20.92015915221214
 21
67.705316142499896
 31
0.0
  0
ARC
  8
OUTLINE
  6
CONTINUOUS
 62
     3
 10
20.251590131249941
 20
65.105111977499973
 30
0.0
 40
2.600204164999993
 50
0.0
 51
90.0
  0
ARC
  8
OUTLINE
  6
CONTINUOUS
 62
     3
 10
23.351833558749831
 20
42.203313754999947
 30
0.0
 40
0.5000392625
 50
180.0
 51
260.99999999999488
  0
ARC
  8
OUTLINE
  6
CONTINUOUS
 62
     3
 10
28.26663435024216
 20
33.796306279572718
 30
0.0
 40
10.407164525326969
 50
67.387125604491501
 51
112.6128743955085
  0
LINE
  8
OUTLINE
  6
CONTINUOUS
 62
     3
 10
24.265050878572541
 20
43.403407984999717
 30
0.0
 11
24.116308471492179
 21
41.703274492499872
 31
0.0
  0
LINE
  8
OUTLINE
  6
CONTINUOUS
 62
     3
 10
32.268217821911783
 20
43.403407984999717
 30
0.0
 11
32.416960228992139
 21
41.703274492499872
 31
0.0
  0
LINE
  8
DETAIL
  6
CONTINUOUS
 62
     5
 10
7.5288044644048568
 20
21.50168828749997
 30
0.0
 11
-35.220201397463939
 21
21.50168828749997
 31
0.0
  0
LINE
  8
DETAIL
  6
CONTINUOUS
 62
     5
 10
-35.220200000000013
 20
21.658818471378819
 30
0.0
 11
-35.22039262637864
 21
0.0
 31
0.0
  0
LINE
  8
DETAIL
  6
CONTINUOUS
 62
     5
 10
-33.136149161605537
 20
27.268257638503311
 30
0.0
 11
-32.874046328796787
 21
41.212670465543617
 31
0.0
  0
LINE
  8
DETAIL
  6
CONTINUOUS
 62
     5
 10
-30.10236360249996
 20
39.50310173750006
 30
0.0
 11
-30.132191876781231
 21
41.21196242674921
 31
0.0
  0
ARC
  8
DETAIL
  6
CONTINUOUS
 62
     5
 10
-30.632154975500949
 20
41.203235229999898
 30
0.0
 40
0.500039262500046
 50
1.000035326892913
 51
90.000292746106879
  0
LINE
  8
DETAIL
  6
CONTINUOUS
 62
     5
 10
-30.632164604757239
 20
41.703274492499993
 30
0.0
 11
-32.374096090886717
 21
41.703274492499993
 31
0.0
  0
ARC
  8
DETAIL
  6
CONTINUOUS
 62
     5
 10
-32.374115313396032
 20
41.203266433649901
 30
0.0
 40
0.5000052831319696
 50
89.997797299804873
 51
178.91882235418601
  0
LINE
  8
DETAIL
  6
CONTINUOUS
 62
     5
 10
-31.072643704421811
 20
39.50310173750006
 30
0.0
 11
-32.31363228113878
 21
39.50310173750006
 31
0.0
  0
ARC
  8
DETAIL
  6
CONTINUOUS
 62
     5
 10
-31.072643704421811
 20
38.303007507499963
 30
0.0
 40
1.2000942300000459
 50
1.2677772960340541
 51
90.0
  0
LINE
  8
DETAIL
  6
CONTINUOUS
 62
     5
 10
-33.440310137170847
 20
24.28066482339818
 30
0.0
 11
-34.308386924448307
 21
23.55226191135057
 31
0.0
  0
ARC
  8
DETAIL
  6
CONTINUOUS
 62
     5
 10
-32.615111516919939
 20
21.57057280967474
 30
0.0
 40
2.606582686485496
 50
130.51258646740189
 51
178.05988494131529
  0
LINE
  8
DETAIL
  6
CONTINUOUS
 62
     5
 10
-33.261766075399237
 20
24.654990233292889
 30
0.0
 11
-33.217214085728763
 21
27.207372013035069
 31
0.0
  0
ARC
  8
DETAIL
  6
CONTINUOUS
 62
     5
 10
-33.761729179519307
 20
24.663717121818081
 30
0.0
 40
0.5000392625000061
 50
310.00000000000188
 51
358.99999999999818
  0
ARC
  8
DETAIL
  6
CONTINUOUS
 62
     5
 10
-32.917236223216833
 20
27.202135879999901
 30
0.0
 40
0.300023557499998
 50
136.24139049300121
 51
179.00000000000469
  0
ARC
  8
DETAIL
  6
CONTINUOUS
 62
     5
 10
-26.167933009995981
 20
22.95822254167172
 30
0.0
 40
5.4335610524799662
 50
194.5180829601947
 51
195.5490100071018
  0
ARC
  8
DETAIL
  6
CONTINUOUS
 62
     5
 10
-22.590625607088899
 20
12.980889256592601
 30
0.0
 40
12.822454919313209
 50
129.0961149536999
 51
131.96257303611051
  0
LINE
  8
DETAIL
  6
CONTINUOUS
 62
     5
 10
-30.03578280375314
 20
23.453131752465989
 30
0.0
 11
-30.676762947166939
 21
22.932257674240532
 31
0.0
  0
LINE
  8
DETAIL
  6
CONTINUOUS
 62
     5
 10
-29.301675286586711
 20
24.950433392245369
 30
0.0
 11
-29.26792926448843
 21
27.50215943750004
 31
0.0
  0
LINE
  8
DETAIL
  6
CONTINUOUS
 62
     5
 10
-30.433177491720929
 20
27.50215943750004
 30
0.0
 11
-29.26792926448843
 21
27.50215943750004
 31
0.0
  0
LINE
  8
DETAIL
  6
CONTINUOUS
 62
     5
 10
-29.694458724284459
 20
27.50215943750004
 30
0.0
 11
-29.66715398164774
 21
29.030146941697581
 31
0.0
  0
LINE
  8
DETAIL
  6
CONTINUOUS
 62
     5
 10
-29.87284324500661
 20
38.329559691335703
 30
0.0
 11
-29.667104216850699
 21
29.032931510817662
 31
0.0
  0
LINE
  8
DETAIL
  6
CONTINUOUS
 62
     5
 10
-29.66715398164774
 20
29.030146941697581
 30
0.0
 11
-29.479985177971681
 21
39.50310173750006
 31
0.0
  0
LINE
  8
DETAIL
  6
CONTINUOUS
 62
     5
 10
-23.901876747499951
 20
39.50310173750006
 30
0.0
 11
-24.09481150941247
 21
28.449876631849289
 31
0.0
  0
ARC
  8
DETAIL
  6
CONTINUOUS
 62
     5
 10
-27.0945930966659
 20
28.502237962499979
 30
0.0
 40
3.000235574999996
 50
270.0000565782023
 51
359.00000098739599
  0
LINE
  8
DETAIL
  6
CONTINUOUS
 62
     5
 10
-29.294380906540479
 20
25.50200238750006
 30
0.0
 11
-27.0945901340333
 21
25.50200238750006
 31
0.0
  0
LINE
  8
DETAIL
  6
CONTINUOUS
 62
     5
 10
-17.932338586922238
 20
22.60177466499988
 30
0.0
 11
8.2977944341464536
 21
22.60177466499988
 31
0.0
  0
LINE
  8
DETAIL
  6
CONTINUOUS
 62
     5
 10
8.117420241974969
 20
23.00180607499999
 30
0.0
 11
-19.001491974999912
 21
23.00180607499999
 31
0.0
  0
LINE
  8
DETAIL
  6
CONTINUOUS
 62
     5
 10
8.1268034831362002
 20
32.37075960801009
 30
0.0
 11
-21.801711844799911
 21
32.37075960801009
 31
0.0
  0
LINE
  8
DETAIL
  6
CONTINUOUS
 62
     5
 10
-31.15800542716806
 20
39.50310173750006
 30
0.0
 11
9.3145039043888573
 21
39.50310173750006
 31
0.0
  0
LINE
  8
DETAIL
  6
CONTINUOUS
 62
     5
 10
11.98989355353206
 20
40.30316455749994
 30
0.0
 11
-30.116328750968481
 21
40.30316455749994
 31
0.0
  0
LINE
  8
DETAIL
  6
CONTINUOUS
 62
     5
 10
-30.130293899454269
 20
41.103227377499927
 30
0.0
 11
12.004920994802429
 21
41.103227377499927
 31
0.0
  0
LINE
  8
DETAIL
  6
CONTINUOUS
 62
     5
 10
-30.632164604757239
 20
41.703274492499993
 30
0.0
 11
12.506926885219849
 21
41.703274492499993
 31
0.0
  0
LINE
  8
DETAIL
  6
CONTINUOUS
 62
     5
 10
-22.85179429624986
 20
65.105111977499973
 30
0.0
 11
-22.85179429624986
 21
42.203313754999947
 31
0.0
  0
LINE
  8
DETAIL
  6
CONTINUOUS
 62
     5
 10
-22.301751107499971
 20
33.80265414500002
 30
0.0
 11
-22.301751107499971
 21
39.003062474999979
 31
0.0
  0
LINE
  8
DETAIL
  6
CONTINUOUS
 62
     5
 10
-21.801711844999769
 20
25.802025944999968
 30
0.0
 11
-21.801711844999769
 21
32.37075960801009
 31
0.0
  0
LINE
  8
DETAIL
  6
CONTINUOUS
 62
     5
 10
-17.93278551611456
 20
22.60177466499988
 30
0.0
 11
-18.33281707822653
 21
23.00180607499999
 31
0.0
  0
LINE
  8
DETAIL
  6
CONTINUOUS
 62
     5
 10
-20.251455669692181
 20
67.705316142499896
 30
0.0
 11
20.920159152211909
 21
67.705316142499896
 31
0.0
  0
ARC
  8
DETAIL
  6
CONTINUOUS
 62
     5
 10
-19.001491974999912
 20
25.802025944999968
 30
0.0
 40
2.8002198700000691
 50
180.0
 51
270.0
  0
ARC
  8
DETAIL
  6
CONTINUOUS
 62
     5
 10
-20.251590131249941
 20
65.105111977499973
 30
0.0
 40
2.600204164999993
 50
90.0
 51
180.0
  0
ARC
  8
DETAIL
  6
CONTINUOUS
 62
     5
 10
-20.001570500000071
 20
33.80265414500002
 30
0.0
 40
2.3001806075000371
 50
180.0
 51
218.49995040919731
  0
ARC
  8
DETAIL
  6
CONTINUOUS
 62
     5
 10
-9.3007302824998987
 20
21.00164902500001
 30
0.0
 40
2.0001570499999901
 50
14.48443863560011
 51
53.18595751129947
  0
ARC
  8
DETAIL
  6
CONTINUOUS
 62
     5
 10
-22.801790369999939
 20
39.003062474999979
 30
0.0
 40
0.500039262499946
 50
0.0
 51
89.999938539201523
  0
ARC
  8
DETAIL
  6
CONTINUOUS
 62
     5
 10
-23.351833558750059
 20
42.203313754999947
 30
0.0
 40
0.5000392625
 50
278.99999999999199
 51
0.0
  0
ARC
  8
DETAIL
  6
CONTINUOUS
 62
     5
 10
-28.266634350242381
 20
33.796306279572718
 30
0.0
 40
10.407164525326969
 50
67.387125604491501
 51
112.6128743955085
  0
LINE
  8
DETAIL
  6
CONTINUOUS
 62
     5
 10
-24.265050878572769
 20
43.403407984999717
 30
0.0
 11
-24.116308471492179
 21
41.703274492499872
 31
0.0
  0
LINE
  8
DETAIL
  6
CONTINUOUS
 62
     5
 10
-32.268217821912003
 20
43.403407984999717
 30
0.0
 11
-24.265050878572769
 21
43.403407984999717
 31
0.0
  0
LINE
  8
DETAIL
  6
CONTINUOUS
 62
     5
 10
-32.268217821912003
 20
43.403407984999717
 30
0.0
 11
-32.416960228992139
 21
41.703274492499872
 31
0.0
  0
ARC
  8
DETAIL
  6
CONTINUOUS
 62
     5
 10
-30.551262017469529
 20
21.83641506720522
 30
0.0
 40
0.9148093480449744
 50
132.07651478072179
 51
201.46284878185841
  0
ARC
  8
DETAIL
  6
CONTINUOUS
 62
     5
 10
-31.263235237640401
 20
24.983548217275199
 30
0.0
 40
1.9618394514370641
 50
308.73094421727751
 51
359.03283124365572
  0
ARC
  8
DETAIL
  6
CONTINUOUS
 62
     5
 10
-32.243453458820113
 20
38.926127206066667
 30
0.0
 40
0.5812268722494054
 50
96.93495993231997
 51
171.52478211009151
  0
LINE
  8
OUTLINE
  6
CONTINUOUS
 62
     3
 10
-35.220200000000013
 20
21.658818471378819
 30
0.0
 11
-35.22039262637864
 21
0.0
 31
0.0
  0
LINE
  8
OUTLINE
  6
CONTINUOUS
 62
     3
 10
-33.136149161605537
 20
27.268257638503311
 30
0.0
 11
-32.874046328796787
 21
41.212670465543617
 31
0.0
  0
LINE
  8
OUTLINE
  6
CONTINUOUS
 62
     3
 10
-30.632164604757008
 20
41.703274492499993
 30
0.0
 11
-32.374096090886717
 21
41.703274492499993
 31
0.0
  0
ARC
  8
OUTLINE
  6
CONTINUOUS
 62
     3
 10
-32.374115313396032
 20
41.203266433649901
 30
0.0
 40
0.5000052831319696
 50
89.997797299804873
 51
178.91882235419251
  0
LINE
  8
OUTLINE
  6
CONTINUOUS
 62
     3
 10
-33.440310137170847
 20
24.28066482339818
 30
0.0
 11
-34.308386924448307
 21
23.55226191135057
 31
0.0
  0
ARC
  8
OUTLINE
  6
CONTINUOUS
 62
     3
 10
-32.615111516919939
 20
21.57057280967474
 30
0.0
 40
2.606582686485496
 50
130.51258646740189
 51
178.05988494131529
  0
LINE
  8
OUTLINE
  6
CONTINUOUS
 62
     3
 10
-33.261766075399237
 20
24.654990233292889
 30
0.0
 11
-33.217214085728763
 21
27.207372013035069
 31
0.0
  0
ARC
  8
OUTLINE
  6
CONTINUOUS
 62
     3
 10
-33.761729179519307
 20
24.663717121818081
 30
0.0
 40
0.5000392625000061
 50
310.00000000000188
 51
358.99999999999818
  0
ARC
  8
OUTLINE
  6
CONTINUOUS
 62
     3
 10
-32.917236223216833
 20
27.202135879999901
 30
0.0
 40
0.300023557499998
 50
136.24139049300121
 51
179.00000000000469
  0
LINE
  8
OUTLINE
  6
CONTINUOUS
 62
     3
 10
-30.632164604757008
 20
41.703274492499993
 30
0.0
 11
12.506926885219849
 21
41.703274492499993
 31
0.0
  0
LINE
  8
OUTLINE
  6
CONTINUOUS
 62
     3
 10
-22.85179429624986
 20
65.105111977499973
 30
0.0
 11
-22.85179429624986
 21
42.203313754999947
 31
0.0
  0
LINE
  8
OUTLINE
  6
CONTINUOUS
 62
     3
 10
-20.251455669692181
 20
67.705316142499896
 30
0.0
 11
20.92015915221214
 21
67.705316142499896
 31
0.0
  0
ARC
  8
OUTLINE
  6
CONTINUOUS
 62
     3
 10
-20.251590131249941
 20
65.105111977499973
 30
0.0
 40
2.600204164999993
 50
90.0
 51
180.0
  0
ARC
  8
OUTLINE
  6
CONTINUOUS
 62
     3
 10
-23.351833558749831
 20
42.203313754999947
 30
0.0
 40
0.5000392625
 50
278.99999999999199
 51
0.0
  0
ARC
  8
OUTLINE
  6
CONTINUOUS
 62
     3
 10
-28.26663435024216
 20
33.796306279572718
 30
0.0
 40
10.407164525326969
 50
67.387125604491501
 51
112.6128743955085
  0
LINE
  8
OUTLINE
  6
CONTINUOUS
 62
     3
 10
-24.265050878572541
 20
43.403407984999717
 30
0.0
 11
-24.116308471492179
 21
41.703274492499872
 31
0.0
  0
LINE
  8
OUTLINE
  6
CONTINUOUS
 62
     3
 10
-32.268217821911783
 20
43.403407984999717
 30
0.0
 11
-32.416960228992139
 21
41.703274492499872
 31
0.0
  0
ARC
  8
DETAIL
  6
CONTINUOUS
 62
     5
 10
-45.003533625000053
 20
-24.901955272500121
 30
0.0
 40
1.0000785249999999
 50
90.0
 51
180.0
  0
LINE
  8
DETAIL
  6
CONTINUOUS
 62
     5
 10
-47.003690675000144
 20
-41.7032744925001
 30
0.0
 11
-47.003690675000144
 21
-24.701939567500052
 31
0.0
  0
ARC
  8
DETAIL
  6
CONTINUOUS
 62
     5
 10
-46.003612149999981
 20
-24.701939567500052
 30
0.0
 40
1.0000785249999999
 50
90.0
 51
180.0
  0
LINE
  8
DETAIL
  6
CONTINUOUS
 62
     5
 10
-58.004554450000107
 20
-41.7032744925001
 30
0.0
 11
-58.004554450000107
 21
-24.701939567500052
 31
0.0
  0
ARC
  8
DETAIL
  6
CONTINUOUS
 62
     5
 10
-59.00463297500005
 20
-24.701939567500052
 30
0.0
 40
1.0000785249999999
 50
0.0
 51
90.0
  0
ARC
  8
DETAIL
  6
CONTINUOUS
 62
     5
 10
-65.321546133757693
 20
-21.701703992500029
 30
0.0
 40
2.0001570500000279
 50
181.00000000000179
 51
270.0
  0
LINE
  8
DETAIL
  6
CONTINUOUS
 62
     5
 10
-67.695484188333012
 20
-0.3052596905665723
 30
0.0
 11
-67.321398550167942
 21
-21.73661154627769
 31
0.0
  0
ARC
  8
DETAIL
  6
CONTINUOUS
 62
     5
 10
-67.395506325874067
 20
-0.3000235575000261
 30
0.0
 40
0.300023557499998
 50
90.0
 51
181.0000000000669
  0
ARC
  8
DETAIL
  6
CONTINUOUS
 62
     5
 10
-67.199994247313953
 20
-42.003298050000133
 30
0.0
 40
0.300023557500068
 50
90.0
 51
180.99999999999531
  0
LINE
  8
DETAIL
  6
CONTINUOUS
 62
     5
 10
-67.499972109726059
 20
-42.008534183035181
 30
0.0
 11
-67.445923476390362
 21
-45.104978313418769
 31
0.0
  0
ARC
  8
DETAIL
  6
CONTINUOUS
 62
     5
 10
-65.946034164329831
 20
-45.078797648043633
 30
0.0
 40
1.500117787499996
 50
181.00000000019719
 51
250.03719010850691
  0
ARC
  8
DETAIL
  6
CONTINUOUS
 62
     5
 10
-59.554676163749953
 20
-27.483157945525139
 30
0.0
 40
20.220587696975031
 50
250.03782614240001
 51
270.0
  0
LINE
  8
DETAIL
  6
CONTINUOUS
 62
     5
 10
-46.003612149999981
 20
-41.7032744925001
 30
0.0
 11
-46.003612149999981
 21
-24.901955272500121
 31
0.0
  0
LINE
  8
DETAIL
  6
CONTINUOUS
 62
     5
 10
-26.70209661750005
 20
-41.7032744925001
 30
0.0
 11
0.0
 21
-23.901876747500179
 31
0.0
  0
LINE
  8
DETAIL
  6
CONTINUOUS
 62
     5
 10
45.003533624999818
 20
-23.901876747500179
 30
0.0
 11
-45.003533625000053
 21
-23.901876747500179
 31
0.0
  0
LINE
  8
DETAIL
  6
CONTINUOUS
 62
     5
 10
-5.4325644197256224
 20
-23.701861042500131
 30
0.0
 11
-65.321546133757693
 21
-23.701861042500131
 31
0.0
  0
LINE
  8
DETAIL
  6
CONTINUOUS
 62
     5
 10
59.554676163749953
 20
-47.703745642500053
 30
0.0
 11
-59.554676163749953
 21
-47.703745642500053
 31
0.0
  0
LINE
  8
DETAIL
  6
CONTINUOUS
 62
     5
 10
67.199994247313725
 20
-41.7032744925001
 30
0.0
 11
-67.199994247313953
 21
-41.7032744925001
 31
0.0
  0
LINE
  8
DETAIL
  6
CONTINUOUS
 62
     5
 10
67.38677810817785
 20
0.0
 30
0.0
 11
-67.395506325874067
 21
0.0
 31
0.0
  0
ARC
  8
OUTLINE
  6
CONTINUOUS
 62
     3
 10
-45.003533625000053
 20
-24.901955272500121
 30
0.0
 40
1.0000785249999999
 50
90.0
 51
180.0
  0
LINE
  8
OUTLINE
  6
CONTINUOUS
 62
     3
 10
-58.004554450000107
 20
-41.7032744925001
 30
0.0
 11
-58.004554450000107
 21
-24.701939567500052
 31
0.0
  0
ARC
  8
OUTLINE
  6
CONTINUOUS
 62
     3
 10
-59.00463297500005
 20
-24.701939567500052
 30
0.0
 40
1.0000785249999999
 50
0.0
 51
90.0
  0
ARC
  8
OUTLINE
  6
CONTINUOUS
 62
     3
 10
-65.321546133757693
 20
-21.701703992500029
 30
0.0
 40
2.0001570500000279
 50
181.00000000000179
 51
270.0
  0
LINE
  8
OUTLINE
  6
CONTINUOUS
 62
     3
 10
-67.695484188333012
 20
-0.3052596905665723
 30
0.0
 11
-67.321398550167942
 21
-21.73661154627769
 31
0.0
  0
ARC
  8
OUTLINE
  6
CONTINUOUS
 62
     3
 10
-67.395506325874067
 20
-0.3000235575000261
 30
0.0
 40
0.300023557499998
 50
90.0
 51
181.0000000000669
  0
ARC
  8
OUTLINE
  6
CONTINUOUS
 62
     3
 10
-67.199994247313953
 20
-42.003298050000133
 30
0.0
 40
0.300023557500068
 50
90.0
 51
180.99999999999531
  0
LINE
  8
OUTLINE
  6
CONTINUOUS
 62
     3
 10
-67.499972109726059
 20
-42.008534183035181
 30
0.0
 11
-67.445923476390362
 21
-45.104978313418769
 31
0.0
  0
ARC
  8
OUTLINE
  6
CONTINUOUS
 62
     3
 10
-65.946034164329831
 20
-45.078797648043633
 30
0.0
 40
1.500117787499996
 50
181.00000000019719
 51
250.03719010850691
  0
ARC
  8
OUTLINE
  6
CONTINUOUS
 62
     3
 10
-59.554676163749953
 20
-27.483157945525139
 30
0.0
 40
20.220587696975031
 50
250.03782614240001
 51
270.0
  0
LINE
  8
OUTLINE
  6
CONTINUOUS
 62
     3
 10
-46.003612149999981
 20
-41.7032744925001
 30
0.0
 11
-46.003612149999981
 21
-24.901955272500121
 31
0.0
  0
LINE
  8
OUTLINE
  6
CONTINUOUS
 62
     3
 10
-26.70209661750005
 20
-41.7032744925001
 30
0.0
 11
0.0
 21
-23.901876747500179
 31
0.0
  0
LINE
  8
OUTLINE
  6
CONTINUOUS
 62
     3
 10
45.003533624999818
 20
-23.901876747500179
 30
0.0
 11
-45.003533625000053
 21
-23.901876747500179
 31
0.0
  0
LINE
  8
OUTLINE
  6
CONTINUOUS
 62
     3
 10
-5.4325644197256224
 20
-23.701861042500131
 30
0.0
 11
-65.321546133757693
 21
-23.701861042500131
 31
0.0
  0
LINE
  8
OUTLINE
  6
CONTINUOUS
 62
     3
 10
59.554676163749953
 20
-47.703745642500053
 30
0.0
 11
-59.554676163749953
 21
-47.703745642500053
 31
0.0
  0
LINE
  8
OUTLINE
  6
CONTINUOUS
 62
     3
 10
67.199994247313725
 20
-41.7032744925001
 30
0.0
 11
-67.199994247313953
 21
-41.7032744925001
 31
0.0
  0
LINE
  8
OUTLINE
  6
CONTINUOUS
 62
     3
 10
67.38677810817785
 20
0.0
 30
0.0
 11
-67.395506325874067
 21
0.0
 31
0.0
  0
ARC
  8
DETAIL
  6
CONTINUOUS
 62
     5
 10
45.003533625000053
 20
-24.901955272500121
 30
0.0
 40
1.0000785249999999
 50
0.0
 51
90.0
  0
LINE
  8
DETAIL
  6
CONTINUOUS
 62
     5
 10
47.003690675000144
 20
-41.7032744925001
 30
0.0
 11
47.003690675000144
 21
-24.701939567500052
 31
0.0
  0
ARC
  8
DETAIL
  6
CONTINUOUS
 62
     5
 10
46.003612149999981
 20
-24.701939567500052
 30
0.0
 40
1.0000785249999999
 50
0.0
 51
90.0
  0
LINE
  8
DETAIL
  6
CONTINUOUS
 62
     5
 10
58.004554450000107
 20
-41.7032744925001
 30
0.0
 11
58.004554450000107
 21
-24.701939567500052
 31
0.0
  0
ARC
  8
DETAIL
  6
CONTINUOUS
 62
     5
 10
59.00463297500005
 20
-24.701939567500052
 30
0.0
 40
1.0000785249999999
 50
90.0
 51
180.0
  0
ARC
  8
DETAIL
  6
CONTINUOUS
 62
     5
 10
65.321546133757693
 20
-21.701703992500029
 30
0.0
 40
2.0001570500000279
 50
270.0
 51
358.99999999999818
  0
LINE
  8
DETAIL
  6
CONTINUOUS
 62
     5
 10
67.695484188333012
 20
-0.3052596905665723
 30
0.0
 11
67.321398550167942
 21
-21.73661154627769
 31
0.0
  0
ARC
  8
DETAIL
  6
CONTINUOUS
 62
     5
 10
67.395506325874067
 20
-0.3000235575000261
 30
0.0
 40
0.300023557499998
 50
358.9999999999331
 51
90.0
  0
ARC
  8
DETAIL
  6
CONTINUOUS
 62
     5
 10
67.199994247313953
 20
-42.003298050000133
 30
0.0
 40
0.300023557500068
 50
359.00000000000477
 51
90.0
  0
LINE
  8
DETAIL
  6
CONTINUOUS
 62
     5
 10
67.499972109726059
 20
-42.008534183035181
 30
0.0
 11
67.445923476390362
 21
-45.104978313418769
 31
0.0
  0
ARC
  8
DETAIL
  6
CONTINUOUS
 62
     5
 10
65.946034164329831
 20
-45.078797648043633
 30
0.0
 40
1.500117787499996
 50
289.96280989150688
 51
358.99999999980281
  0
ARC
  8
DETAIL
  6
CONTINUOUS
 62
     5
 10
59.554676163749953
 20
-27.483157945525139
 30
0.0
 40
20.220587696975031
 50
270.0
 51
289.96217385760002
  0
LINE
  8
DETAIL
  6
CONTINUOUS
 62
     5
 10
46.003612149999981
 20
-41.7032744925001
 30
0.0
 11
46.003612149999981
 21
-24.901955272500121
 31
0.0
  0
LINE
  8
DETAIL
  6
CONTINUOUS
 62
     5
 10
26.70209661750005
 20
-41.7032744925001
 30
0.0
 11
0.0
 21
-23.901876747500179
 31
0.0
  0
LINE
  8
DETAIL
  6
CONTINUOUS
 62
     5
 10
5.4325644197256224
 20
-23.701861042500131
 30
0.0
 11
65.321546133757693
 21
-23.701861042500131
 31
0.0
  0
ARC
  8
OUTLINE
  6
CONTINUOUS
 62
     3
 10
45.003533625000053
 20
-24.901955272500121
 30
0.0
 40
1.0000785249999999
 50
0.0
 51
90.0
  0
LINE
  8
OUTLINE
  6
CONTINUOUS
 62
     3
 10
58.004554450000107
 20
-41.7032744925001
 30
0.0
 11
58.004554450000107
 21
-24.701939567500052
 31
0.0
  0
ARC
  8
OUTLINE
  6
CONTINUOUS
 62
     3
 10
59.00463297500005
 20
-24.701939567500052
 30
0.0
 40
1.0000785249999999
 50
90.0
 51
180.0
  0
ARC
  8
OUTLINE
  6
CONTINUOUS
 62
     3
 10
65.321546133757693
 20
-21.701703992500029
 30
0.0
 40
2.0001570500000279
 50
270.0
 51
358.99999999999818
  0
LINE
  8
OUTLINE
  6
CONTINUOUS
 62
     3
 10
67.695484188333012
 20
-0.3052596905665723
 30
0.0
 11
67.321398550167942
 21
-21.73661154627769
 31
0.0
  0
ARC
  8
OUTLINE
  6
CONTINUOUS
 62
     3
 10
67.395506325874067
 20
-0.3000235575000261
 30
0.0
 40
0.300023557499998
 50
358.9999999999331
 51
90.0
  0
ARC
  8
OUTLINE
  6
CONTINUOUS
 62
     3
 10
67.199994247313953
 20
-42.003298050000133
 30
0.0
 40
0.300023557500068
 50
359.00000000000477
 51
90.0
  0
LINE
  8
OUTLINE
  6
CONTINUOUS
 62
     3
 10
67.499972109726059
 20
-42.008534183035181
 30
0.0
 11
67.445923476390362
 21
-45.104978313418769
 31
0.0
  0
ARC
  8
OUTLINE
  6
CONTINUOUS
 62
     3
 10
65.946034164329831
 20
-45.078797648043633
 30
0.0
 40
1.500117787499996
 50
289.96280989150688
 51
358.99999999980281
  0
ARC
  8
OUTLINE
  6
CONTINUOUS
 62
     3
 10
59.554676163749953
 20
-27.483157945525139
 30
0.0
 40
20.220587696975031
 50
270.0
 51
289.96217385760002
  0
LINE
  8
OUTLINE
  6
CONTINUOUS
 62
     3
 10
46.003612149999981
 20
-41.7032744925001
 30
0.0
 11
46.003612149999981
 21
-24.901955272500121
 31
0.0
  0
LINE
  8
OUTLINE
  6
CONTINUOUS
 62
     3
 10
26.70209661750005
 20
-41.7032744925001
 30
0.0
 11
0.0
 21
-23.901876747500179
 31
0.0
  0
LINE
  8
OUTLINE
  6
CONTINUOUS
 62
     3
 10
5.4325644197256224
 20
-23.701861042500131
 30
0.0
 11
65.321546133757693
 21
-23.701861042500131
 31
0.0
  0
LINE
  8
DETAIL
  6
CONTINUOUS
 62
     5
 10
35.220200000000013
 20
21.658818471378819
 30
0.0
 11
35.22039262637864
 21
0.0
 31
0.0
  0
LINE
  8
OUTLINE
  6
CONTINUOUS
 62
     3
 10
35.220200000000013
 20
21.658818471378819
 30
0.0
 11
35.22039262637864
 21
0.0
 31
0.0
  0
ENDSEC
  0
EOF
