  0
SECTION
  2
HEADER
  9
$ACADVER
  1
AC1009
  9
$DWGCODEPAGE
  3
dos932
  9
$INSBASE
 10
0.0
 20
0.0
 30
0.0
  9
$EXTMIN
 10
-214.81016362646011
 20
-231.03331324066309
 30
-0.0015258207003583
  9
$EXTMAX
 10
817.54761874623
 20
645.9961018362028
 30
0.0000000349246037
  9
$LIMMIN
 10
-2970.0
 20
-2100.0
  9
$LIMMAX
 10
2970.0
 20
2100.0
  9
$ORTHOMODE
 70
     1
  9
$REGENMODE
 70
     1
  9
$FILLMODE
 70
     1
  9
$QTEXTMODE
 70
     0
  9
$MIRRTEXT
 70
     0
  9
$LTSCALE
 40
20.0
  9
$ATTMODE
 70
     1
  9
$TEXTSIZE
 40
64.0
  9
$TRACEWID
 40
0.05
  9
$TEXTSTYLE
  7
STANDARD
  9
$CLAYER
  8
SIZE
  9
$CELTYPE
  6
CONTINUOUS
  9
$CECOLOR
 62
     7
  9
$DIMSCALE
 40
1.0
  9
$DIMASZ
 40
12.0
  9
$DIMEXO
 40
20.0
  9
$DIMDLI
 40
200.0
  9
$DIMRND
 40
0.0
  9
$DIMDLE
 40
0.0
  9
$DIMEXE
 40
20.0
  9
$DIMTP
 40
0.0
  9
$DIMTM
 40
0.0
  9
$DIMTXT
 40
64.0
  9
$DIMCEN
 40
0.09
  9
$DIMTSZ
 40
0.0
  9
$DIMTOL
 70
     0
  9
$DIMLIM
 70
     0
  9
$DIMTIH
 70
     0
  9
$DIMTOH
 70
     0
  9
$DIMSE1
 70
     0
  9
$DIMSE2
 70
     0
  9
$DIMTAD
 70
     1
  9
$DIMZIN
 70
     8
  9
$DIMBLK
  1

  9
$DIMASO
 70
     1
  9
$DIMSHO
 70
     0
  9
$DIMPOST
  1

  9
$DIMAPOST
  1

  9
$DIMALT
 70
     0
  9
$DIMALTD
 70
     2
  9
$DIMALTF
 40
25.399999999999999
  9
$DIMLFAC
 40
1.0
  9
$DIMTOFL
 70
     1
  9
$DIMTVP
 40
0.0
  9
$DIMTIX
 70
     1
  9
$DIMSOXD
 70
     0
  9
$DIMSAH
 70
     0
  9
$DIMBLK1
  1

  9
$DIMBLK2
  1

  9
$DIMSTYLE
  2
STANDARD
  9
$DIMCLRD
 70
     7
  9
$DIMCLRE
 70
     7
  9
$DIMCLRT
 70
     7
  9
$DIMTFAC
 40
1.0
  9
$DIMGAP
 40
25.0
  9
$LUNITS
 70
     2
  9
$LUPREC
 70
     4
  9
$SKETCHINC
 40
0.1
  9
$FILLETRAD
 40
3.0
  9
$AUNITS
 70
     1
  9
$AUPREC
 70
     3
  9
$MENU
  1
ACAD
  9
$ELEVATION
 40
0.0
  9
$PELEVATION
 40
0.0
  9
$THICKNESS
 40
0.0
  9
$LIMCHECK
 70
     0
  9
$CHAMFERA
 40
0.0
  9
$CHAMFERB
 40
0.0
  9
$SKPOLY
 70
     0
  9
$TDCREATE
 40
2453019.623009259
  9
$TDUPDATE
 40
2459356.641978773
  9
$TDINDWG
 40
1.7344720023
  9
$TDUSRTIMER
 40
1.7344720023
  9
$USRTIMER
 70
     1
  9
$ANGBASE
 50
0.0
  9
$ANGDIR
 70
     0
  9
$PDMODE
 70
     3
  9
$PDSIZE
 40
-2.0
  9
$PLINEWID
 40
0.0
  9
$SPLFRAME
 70
     0
  9
$SPLINETYPE
 70
     6
  9
$SPLINESEGS
 70
     8
  9
$SURFTAB1
 70
     6
  9
$SURFTAB2
 70
     6
  9
$SURFTYPE
 70
     6
  9
$SURFU
 70
     6
  9
$SURFV
 70
     6
  9
$UCSNAME
  2

  9
$UCSORG
 10
0.0
 20
0.0
 30
0.0
  9
$UCSXDIR
 10
1.0
 20
0.0
 30
0.0
  9
$UCSYDIR
 10
0.0
 20
1.0
 30
0.0
  9
$PUCSNAME
  2

  9
$PUCSORG
 10
0.0
 20
0.0
 30
0.0
  9
$PUCSXDIR
 10
1.0
 20
0.0
 30
0.0
  9
$PUCSYDIR
 10
0.0
 20
1.0
 30
0.0
  9
$USERI1
 70
     0
  9
$USERI2
 70
     0
  9
$USERI3
 70
     0
  9
$USERI4
 70
     0
  9
$USERI5
 70
     0
  9
$USERR1
 40
20.0
  9
$USERR2
 40
0.0
  9
$USERR3
 40
0.0
  9
$USERR4
 40
0.0
  9
$USERR5
 40
0.0
  9
$WORLDVIEW
 70
     1
  9
$SHADEDGE
 70
     3
  9
$SHADEDIF
 70
    70
  9
$TILEMODE
 70
     1
  9
$MAXACTVP
 70
    48
  9
$PINSBASE
 10
0.0
 20
0.0
 30
0.0
  9
$PLIMCHECK
 70
     0
  9
$PEXTMIN
 10
-100000000000000000000.0
 20
-100000000000000000000.0
 30
-100000000000000000000.0
  9
$PEXTMAX
 10
100000000000000000000.0
 20
100000000000000000000.0
 30
100000000000000000000.0
  9
$PLIMMIN
 10
0.0
 20
0.0
  9
$PLIMMAX
 10
12.0
 20
9.0
  9
$UNITMODE
 70
     0
  9
$VISRETAIN
 70
     0
  9
$PLINEGEN
 70
     0
  9
$PSLTSCALE
 70
     0
  9
$TREEDEPTH
 70
  3020
  9
$ATTDIA
 70
     0
  9
$ATTREQ
 70
     1
  9
$BLIPMODE
 70
     1
  9
$COORDS
 70
     1
  9
$DRAGMODE
 70
     2
  9
$OSMODE
 70
     0
  9
$HANDLING
 70
     0
  9
$HANDSEED
  5
2C3
  0
ENDSEC
  0
SECTION
  2
TABLES
  0
TABLE
  2
LTYPE
 70
     2
  0
LTYPE
  2
CONTINUOUS
 70
     0
  3
実線
 72
    65
 73
     0
 40
0.0
  0
LTYPE
  2
DASHDOT
 70
     0
  3
____ _ ____ _ ____ _ ____ _ ____ _ ____ _ ____
 72
    65
 73
     4
 40
5.5
 49
4.0
 49
-0.6
 49
0.3
 49
-0.6
  0
ENDTAB
  0
TABLE
  2
LAYER
 70
    12
  0
LAYER
  2
SIZE
 70
     0
 62
    30
  6
CONTINUOUS
  0
LAYER
  2
BASIS
 70
     0
 62
     6
  6
DASHDOT
  0
LAYER
  2
OUTLINE
 70
     0
 62
     3
  6
CONTINUOUS
  0
LAYER
  2
DETAIL
 70
     0
 62
     5
  6
CONTINUOUS
  0
LAYER
  2
ARRANGE
 70
     0
 62
     1
  6
CONTINUOUS
  0
LAYER
  2
ETC
 70
     0
 62
    61
  6
CONTINUOUS
  0
LAYER
  2
FIX
 70
     0
 62
    11
  6
CONTINUOUS
  0
LAYER
  2
NOTE
 70
     0
 62
     4
  6
CONTINUOUS
  0
LAYER
  2
0
 70
    64
 62
     7
  6
CONTINUOUS
  0
LAYER
  2
DEFPOINTS
 70
    64
 62
     7
  6
CONTINUOUS
  0
LAYER
  2
SERVICESPACE
 70
    64
 62
     2
  6
DASHDOT
  0
LAYER
  2
SYMBOLLINE
 70
    64
 62
    15
  6
CONTINUOUS
  0
ENDTAB
  0
TABLE
  2
STYLE
 70
     1
  0
STYLE
  2
STANDARD
 70
     0
 40
64.0
 41
0.9
 50
0.0
 71
     0
 42
64.0
  3
SIMPLEX.shx
  4
BIGFONT.shx
  0
ENDTAB
  0
TABLE
  2
APPID
 70
    20
  0
APPID
  2
ACAD
 70
     0
  0
APPID
  2
ACADANNOTATIVE
 70
     0
  0
APPID
  2
AUTOCAD_POSTSCRIPT_FIGURE
 70
     0
  0
APPID
  2
ACAD_EXEMPT_FROM_CAD_STANDARDS
 70
     0
  0
APPID
  2
ACAD_PSEXT
 70
     0
  0
APPID
  2
ACAUTHENVIRON
 70
     0
  0
APPID
  2
GENIUS_GENOENT_13
 70
     0
  0
APPID
  2
GENIUS_GENCFG_13
 70
     0
  0
APPID
  2
GENIUS_GENCFG0_13
 70
     0
  0
APPID
  2
GENIUS_GENCFG1_13
 70
     0
  0
APPID
  2
GENIUS_GENCFG2_13
 70
     0
  0
APPID
  2
GENIUS_GENCFG3_13
 70
     0
  0
APPID
  2
GENIUS_GENCFG4_13
 70
     0
  0
APPID
  2
GENIUS_GEVCFG0_13
 70
     0
  0
APPID
  2
CONTENTBLOCKICON
 70
     0
  0
APPID
  2
CONTENTBLOCKDESCRIPTION
 70
     0
  0
APPID
  2
ACAD_NAV_VCDISPLAY
 70
     0
  0
APPID
  2
ACAD_MLEADERVER
 70
     0
  0
APPID
  2
ACDBDYNAMICBLOCKTRUENAME
 70
     0
  0
APPID
  2
ACDBDYNAMICBLOCKGUID
 70
     0
  0
ENDTAB
  0
TABLE
  2
DIMSTYLE
 70
     1
  0
DIMSTYLE
  2
STANDARD
 70
     0
  3

  4

  5

  6

  7

 40
1.0
 41
12.0
 42
20.0
 43
200.0
 44
20.0
 45
0.0
 46
0.0
 47
0.0
 48
0.0
140
64.0
141
0.09
142
0.0
143
25.399999999999999
144
1.0
145
0.0
146
1.0
147
25.0
 71
     0
 72
     0
 73
     0
 74
     0
 75
     0
 76
     0
 77
     1
 78
     8
170
     0
171
     2
172
     1
173
     0
174
     1
175
     0
176
     7
177
     7
178
     7
  0
ENDTAB
  0
TABLE
  2
VIEW
 70
     1
  0
VIEW
  2
ALL
 70
     0
 40
4282.6198079999986
 10
0.0
 20
41.309904000000003
 41
5940.0
 11
0.0
 21
0.0
 31
1.0
 12
0.0
 22
0.0
 32
0.0
 42
50.0
 43
0.0
 44
0.0
 50
0.0
 71
     0
  0
ENDTAB
  0
TABLE
  2
UCS
 70
     0
  0
ENDTAB
  0
TABLE
  2
VPORT
 70
     1
  0
VPORT
  2
*ACTIVE
 70
     0
 10
0.0
 20
0.0
 11
1.0
 21
1.0
 12
301.36872755988492
 22
207.4813942977699
 13
0.0
 23
0.0
 14
1.0
 24
1.0
 15
0.0
 25
0.0
 16
0.0
 26
0.0
 36
1.0
 17
0.0
 27
0.0
 37
0.0
 40
765.51657977688933
 41
1.9148387096774191
 42
50.0
 43
0.0
 44
0.0
 50
0.0
 51
0.0
 71
     0
 72
  1000
 73
     1
 74
     3
 75
     0
 76
     0
 77
     0
 78
     0
  0
ENDTAB
  0
ENDSEC
  0
SECTION
  2
BLOCKS
  0
ENDSEC
  0
SECTION
  2
ENTITIES
  0
TEXT
  8
ETC
  6
CONTINUOUS
 62
    61
 10
304.29362076459438
 20
581.96384733047046
 30
0.0
 40
64.0
  1
V-07PD3_4
 41
0.9
  0
TEXT
  8
ETC
  6
CONTINUOUS
 62
    61
 10
300.10762676459399
 20
464.00853731563927
 30
0.0
 40
64.0
  1
換気扇
 41
0.9
  0
CIRCLE
  8
ARRANGE
  6
CONTINUOUS
 62
     1
 10
0.0
 20
0.0
 30
0.0
 40
40.0
  0
POINT
  8
ARRANGE
  6
CONTINUOUS
 62
     1
 10
0.0
 20
0.0
 30
0.0
  0
LINE
  8
BASIS
  6
DASHDOT
 62
     6
 10
0.0
 20
-123.2481241666499
 30
0.0
 11
0.0
 21
123.2481241666499
 31
0.0
  0
LINE
  8
BASIS
  6
DASHDOT
 62
     6
 10
-73.363129061615808
 20
0.0
 30
0.0
 11
102.33955296210659
 21
0.0
 31
0.0
  0
TEXT
  8
ETC
  6
CONTINUOUS
 62
    61
 10
350.80902501314989
 20
355.85976442941421
 30
0.0
 40
40.0
  1
V-07PD3
 41
0.9
  0
LINE
  8
SIZE
  6
CONTINUOUS
 62
    30
 10
0.0
 20
143.24812416664989
 30
0.0
 11
0.0000000000000142
 21
350.48975215454948
 31
0.0
  0
LINE
  8
SIZE
  6
CONTINUOUS
 62
    30
 10
-28.002198700000449
 20
20.0
 30
0.0
 11
-28.002198700000449
 21
350.48975215454948
 31
0.0
  0
LINE
  8
SIZE
  6
CONTINUOUS
 62
    30
 10
12.000000000000011
 20
330.48975215454948
 30
0.0
 11
24.000000000000011
 21
330.48975215454948
 31
0.0
  0
LINE
  8
SIZE
  6
CONTINUOUS
 62
    30
 10
-40.00219870000042
 20
330.48975215454948
 30
0.0
 11
-195.25934155714319
 21
330.48975215454948
 31
0.0
  0
LINE
  8
SIZE
  6
CONTINUOUS
 62
    30
 10
0.0000000000000142
 20
330.48975215454948
 30
0.0
 11
-28.002198700000449
 21
330.48975215454948
 31
0.0
  0
CIRCLE
  8
SIZE
  6
CONTINUOUS
 62
    30
 10
0.0000000000000142
 20
330.48975215454948
 30
0.0
 40
6.0
  0
LINE
  8
SIZE
  6
CONTINUOUS
 62
    30
 10
0.0000000000000142
 20
330.48975215454948
 30
0.0
 11
12.000000000000011
 21
330.48975215454948
 31
0.0
  0
CIRCLE
  8
SIZE
  6
CONTINUOUS
 62
    30
 10
-28.002198700000449
 20
330.48975215454948
 30
0.0
 40
6.0
  0
LINE
  8
SIZE
  6
CONTINUOUS
 62
    30
 10
-28.002198700000449
 20
330.48975215454948
 30
0.0
 11
-40.00219870000042
 21
330.48975215454948
 31
0.0
  0
TEXT
  8
SIZE
  6
CONTINUOUS
 62
    30
 10
-170.25934155714319
 20
355.48975215454948
 30
0.0
 40
64.0
  1
28
 41
0.9
 72
     1
 11
-123.6307701285718
 21
355.48975215454948
 31
0.0
  0
LINE
  8
SIZE
  6
CONTINUOUS
 62
    30
 10
39.503101544529997
 20
41.438770135239523
 30
0.0
 11
39.503101544529997
 21
219.3373286240076
 31
0.0
  0
LINE
  8
SIZE
  6
CONTINUOUS
 62
    30
 10
0.0
 20
143.24812416664989
 30
0.0
 11
0.0
 21
219.3373286240076
 31
0.0
  0
LINE
  8
SIZE
  6
CONTINUOUS
 62
    30
 10
51.503101544530011
 20
199.3373286240076
 30
0.0
 11
63.503101544530011
 21
199.3373286240076
 31
0.0
  0
LINE
  8
SIZE
  6
CONTINUOUS
 62
    30
 10
-11.999999999999989
 20
199.3373286240076
 30
0.0
 11
-168.10177190837979
 21
199.3373286240076
 31
0.0
  0
LINE
  8
SIZE
  6
CONTINUOUS
 62
    30
 10
39.503101544529997
 20
199.3373286240076
 30
0.0
 11
0.0
 21
199.3373286240076
 31
0.0
  0
CIRCLE
  8
SIZE
  6
CONTINUOUS
 62
    30
 10
39.503101544529997
 20
199.3373286240076
 30
0.0
 40
6.0
  0
LINE
  8
SIZE
  6
CONTINUOUS
 62
    30
 10
39.503101544529997
 20
199.3373286240076
 30
0.0
 11
51.503101544530011
 21
199.3373286240076
 31
0.0
  0
CIRCLE
  8
SIZE
  6
CONTINUOUS
 62
    30
 10
0.0
 20
199.3373286240076
 30
0.0
 40
6.0
  0
LINE
  8
SIZE
  6
CONTINUOUS
 62
    30
 10
0.0
 20
199.3373286240076
 30
0.0
 11
-12.0
 21
199.3373286240076
 31
0.0
  0
TEXT
  8
SIZE
  6
CONTINUOUS
 62
    30
 10
-143.10177190837979
 20
224.3373286240076
 30
0.0
 40
64.0
  1
40
 41
0.9
 72
     1
 11
-96.473200479808369
 21
224.3373286240076
 31
0.0
  0
TEXT
  8
NOTE
  6
CONTINUOUS
 62
     4
 10
107.6499595887439
 20
120.70844681036159
 30
0.0
 40
64.0
  1
EL
 41
0.9
  0
TEXT
  8
NOTE
  6
CONTINUOUS
 62
     4
 10
69.33237578644092
 20
-185.2297320924022
 30
0.0
 40
64.0
  1
2-φ5×7
 41
0.9
  0
LINE
  8
NOTE
  6
CONTINUOUS
 62
     4
 10
4.5056605286165308
 20
41.777602613057873
 30
0.0
 11
0.0
 21
37.501655642985973
 31
0.0
  0
LINE
  8
NOTE
  6
CONTINUOUS
 62
     4
 10
0.0
 20
37.501655642985973
 30
0.0
 11
6.0399921490826216
 21
38.951894978068367
 31
0.0
  0
LINE
  8
NOTE
  6
CONTINUOUS
 62
     4
 10
0.0
 20
37.501655642985973
 30
0.0
 11
10.545652677699151
 21
43.227841948140266
 31
0.0
  0
LINE
  8
NOTE
  6
CONTINUOUS
 62
     4
 10
10.545652677699151
 20
43.227841948140266
 30
0.0
 11
95.649959588743911
 21
89.391719502529469
 31
0.0
  0
LINE
  8
NOTE
  6
CONTINUOUS
 62
     4
 10
95.649959588743911
 20
89.391719502529469
 30
0.0
 11
192.67853101731529
 21
89.391719502529469
 31
0.0
  0
LINE
  8
NOTE
  6
CONTINUOUS
 62
     4
 10
0.4024975931202164
 20
-61.198604276571658
 30
0.0
 11
0.0
 21
-55.0
 31
0.0
  0
LINE
  8
NOTE
  6
CONTINUOUS
 62
     4
 10
0.0
 20
-55.0
 30
0.0
 11
3.4478830651136718
 21
-60.166894779197897
 31
0.0
  0
LINE
  8
NOTE
  6
CONTINUOUS
 62
     4
 10
0.0
 20
-55.0
 30
0.0
 11
3.8503806582338731
 21
-66.365499055769533
 31
0.0
  0
LINE
  8
NOTE
  6
CONTINUOUS
 62
     4
 10
3.8503806582338731
 20
-66.365499055769533
 30
0.0
 11
59.640305879287538
 21
-230.82839564474631
 31
0.0
  0
LINE
  8
NOTE
  6
CONTINUOUS
 62
     4
 10
59.640305879287538
 20
-230.82839564474631
 30
0.0
 11
464.41744873643017
 21
-230.82839564474631
 31
0.0
  0
LINE
  8
SIZE
  6
CONTINUOUS
 62
    30
 10
67.705423452643799
 20
40.236078007937387
 30
0.0
 11
67.705423452643814
 21
350.48975215454948
 31
0.0
  0
LINE
  8
SIZE
  6
CONTINUOUS
 62
    30
 10
0.0
 20
143.24812416664989
 30
0.0
 11
0.0000000000000142
 21
350.48975215454948
 31
0.0
  0
LINE
  8
SIZE
  6
CONTINUOUS
 62
    30
 10
-11.999999999999989
 20
330.48975215454948
 30
0.0
 11
-23.999999999999989
 21
330.48975215454948
 31
0.0
  0
LINE
  8
SIZE
  6
CONTINUOUS
 62
    30
 10
79.705423452643814
 20
330.48975215454948
 30
0.0
 11
234.96256630978661
 21
330.48975215454948
 31
0.0
  0
LINE
  8
SIZE
  6
CONTINUOUS
 62
    30
 10
0.0000000000000142
 20
330.48975215454948
 30
0.0
 11
67.705423452643814
 21
330.48975215454948
 31
0.0
  0
CIRCLE
  8
SIZE
  6
CONTINUOUS
 62
    30
 10
0.0000000000000142
 20
330.48975215454948
 30
0.0
 40
6.0
  0
LINE
  8
SIZE
  6
CONTINUOUS
 62
    30
 10
0.0000000000000142
 20
330.48975215454948
 30
0.0
 11
-11.999999999999989
 21
330.48975215454948
 31
0.0
  0
CIRCLE
  8
SIZE
  6
CONTINUOUS
 62
    30
 10
67.705423452643814
 20
330.48975215454948
 30
0.0
 40
6.0
  0
LINE
  8
SIZE
  6
CONTINUOUS
 62
    30
 10
67.705423452643814
 20
330.48975215454948
 30
0.0
 11
79.705423452643814
 21
330.48975215454948
 31
0.0
  0
TEXT
  8
SIZE
  6
CONTINUOUS
 62
    30
 10
116.7054234526438
 20
355.48975215454948
 30
0.0
 40
64.0
  1
68
 41
0.9
 72
     1
 11
163.3339948812152
 21
355.48975215454948
 31
0.0
  0
LINE
  8
SIZE
  6
CONTINUOUS
 62
    30
 10
44.20713643813508
 20
39.108215861121153
 30
0.0
 11
518.59557996909632
 21
39.108215861121003
 31
0.0
  0
LINE
  8
SIZE
  6
CONTINUOUS
 62
    30
 10
39.501531237499989
 20
-39.190352505373767
 30
0.0
 11
518.59557996909632
 21
-39.190352505373909
 31
0.0
  0
LINE
  8
SIZE
  6
CONTINUOUS
 62
    30
 10
498.59557996909638
 20
-27.190352505373909
 30
0.0
 11
498.59557996909638
 21
27.108215861121021
 31
0.0
  0
LINE
  8
SIZE
  6
CONTINUOUS
 62
    30
 10
498.59557996909638
 20
39.108215861121003
 30
0.0
 11
498.59557996909649
 21
274.37168558450662
 31
0.0
  0
CIRCLE
  8
SIZE
  6
CONTINUOUS
 62
    30
 10
498.59557996909638
 20
-39.190352505373909
 30
0.0
 40
6.0
  0
LINE
  8
SIZE
  6
CONTINUOUS
 62
    30
 10
498.59557996909638
 20
-39.190352505373909
 30
0.0
 11
498.59557996909638
 21
-27.190352505373909
 31
0.0
  0
CIRCLE
  8
SIZE
  6
CONTINUOUS
 62
    30
 10
498.59557996909638
 20
39.108215861121003
 30
0.0
 40
6.0
  0
LINE
  8
SIZE
  6
CONTINUOUS
 62
    30
 10
498.59557996909638
 20
39.108215861121003
 30
0.0
 11
498.59557996909638
 21
27.10821586112101
 31
0.0
  0
TEXT
  8
SIZE
  6
CONTINUOUS
 62
    30
 10
462.92891330242958
 20
85.623114155935255
 30
0.0
 40
64.0
  1
φ78
 50
90.0
 41
0.9
 72
     1
 11
462.92891330242958
 21
172.5716855845067
 31
0.0
  0
LINE
  8
SIZE
  6
CONTINUOUS
 62
    30
 10
85.105111977499973
 20
22.834290441367781
 30
0.0
 11
368.62687155924601
 21
22.834290441367688
 31
0.0
  0
LINE
  8
SIZE
  6
CONTINUOUS
 62
    30
 10
85.105111977499973
 20
-22.851794296249981
 30
0.0
 11
368.62687155924601
 21
-22.851794296250048
 31
0.0
  0
LINE
  8
SIZE
  6
CONTINUOUS
 62
    30
 10
348.62687155924601
 20
-34.85179429625007
 30
0.0
 11
348.62687155924601
 21
-46.85179429625007
 31
0.0
  0
LINE
  8
SIZE
  6
CONTINUOUS
 62
    30
 10
348.62687155924601
 20
34.834290441367713
 30
0.0
 11
348.62687155924601
 21
274.32202600313059
 31
0.0
  0
LINE
  8
SIZE
  6
CONTINUOUS
 62
    30
 10
348.62687155924601
 20
-22.851794296250048
 30
0.0
 11
348.62687155924601
 21
22.834290441367688
 31
0.0
  0
CIRCLE
  8
SIZE
  6
CONTINUOUS
 62
    30
 10
348.62687155924601
 20
-22.851794296250048
 30
0.0
 40
6.0
  0
LINE
  8
SIZE
  6
CONTINUOUS
 62
    30
 10
348.62687155924601
 20
-22.851794296250048
 30
0.0
 11
348.62687155924601
 21
-34.85179429625007
 31
0.0
  0
CIRCLE
  8
SIZE
  6
CONTINUOUS
 62
    30
 10
348.62687155924601
 20
22.834290441367688
 30
0.0
 40
6.0
  0
LINE
  8
SIZE
  6
CONTINUOUS
 62
    30
 10
348.62687155924601
 20
22.834290441367688
 30
0.0
 11
348.62687155924601
 21
34.834290441367692
 31
0.0
  0
TEXT
  8
SIZE
  6
CONTINUOUS
 62
    30
 10
312.96020489257933
 20
88.316311717416312
 30
0.0
 40
64.0
  1
φ46
 50
90.0
 41
0.9
 72
     1
 11
312.96020489257933
 21
173.8934545745592
 31
0.0
  0
LINE
  8
SIZE
  6
CONTINUOUS
 62
    30
 10
-20.305259690535081
 20
67.499972109725931
 30
0.0
 11
-145.45612470509059
 21
67.499972109726002
 31
0.0
  0
LINE
  8
SIZE
  6
CONTINUOUS
 62
    30
 10
-20.30523572199991
 20
-67.499972528145634
 30
0.0
 11
-145.45612470509059
 21
-67.499972528145591
 31
0.0
  0
LINE
  8
SIZE
  6
CONTINUOUS
 62
    30
 10
-125.4561247050906
 20
55.499972109726002
 30
0.0
 11
-125.4561247050906
 21
-55.499972528145591
 31
0.0
  0
CIRCLE
  8
SIZE
  6
CONTINUOUS
 62
    30
 10
-125.4561247050906
 20
67.499972109726002
 30
0.0
 40
6.0
  0
LINE
  8
SIZE
  6
CONTINUOUS
 62
    30
 10
-125.4561247050906
 20
67.499972109726002
 30
0.0
 11
-125.4561247050906
 21
55.499972109726002
 31
0.0
  0
CIRCLE
  8
SIZE
  6
CONTINUOUS
 62
    30
 10
-125.4561247050906
 20
-67.499972528145591
 30
0.0
 40
6.0
  0
LINE
  8
SIZE
  6
CONTINUOUS
 62
    30
 10
-125.4561247050906
 20
-67.499972528145591
 30
0.0
 11
-125.4561247050906
 21
-55.499972528145591
 31
0.0
  0
TEXT
  8
SIZE
  6
CONTINUOUS
 62
    30
 10
-150.45612470509059
 20
-105.0514287806384
 30
0.0
 40
64.0
  1
□135
 50
90.0
 41
0.9
 72
     1
 11
-150.45612470509059
 21
-0.0000002092098157
 31
0.0
  0
LINE
  8
NOTE
  6
CONTINUOUS
 62
     4
 10
-7.9211136146982417
 20
-55.0
 30
0.0
 11
7.9211136146982417
 21
-55.0
 31
0.0
  0
LINE
  8
NOTE
  6
CONTINUOUS
 62
     4
 10
0.0
 20
-63.0
 30
0.0
 11
0.0
 21
-47.0
 31
0.0
  0
CIRCLE
  8
FIX
  6
CONTINUOUS
 62
    11
 10
0.0
 20
-55.0
 30
0.0
 40
5.0
  0
LINE
  8
SIZE
  6
CONTINUOUS
 62
    30
 10
-31.34344243897749
 20
-72.505693062499972
 30
0.0
 11
-76.175110675172604
 21
-72.505693062499972
 31
0.0
  0
LINE
  8
SIZE
  6
CONTINUOUS
 62
    30
 10
-20.305259690535081
 20
-67.499972109825876
 30
0.0
 11
-76.175110675172604
 21
-67.499972109825862
 31
0.0
  0
LINE
  8
SIZE
  6
CONTINUOUS
 62
    30
 10
-56.175110675172618
 20
-55.499972109825862
 30
0.0
 11
-56.175110675172618
 21
-43.499972109825848
 31
0.0
  0
LINE
  8
SIZE
  6
CONTINUOUS
 62
    30
 10
-56.175110675172618
 20
-84.505693062499972
 30
0.0
 11
-56.175110675172647
 21
-184.90569306250001
 31
0.0
  0
LINE
  8
SIZE
  6
CONTINUOUS
 62
    30
 10
-56.175110675172618
 20
-67.499972109825862
 30
0.0
 11
-56.175110675172618
 21
-72.505693062499972
 31
0.0
  0
CIRCLE
  8
SIZE
  6
CONTINUOUS
 62
    30
 10
-56.175110675172618
 20
-67.499972109825862
 30
0.0
 40
6.0
  0
LINE
  8
SIZE
  6
CONTINUOUS
 62
    30
 10
-56.175110675172618
 20
-67.499972109825862
 30
0.0
 11
-56.175110675172618
 21
-55.499972109825862
 31
0.0
  0
CIRCLE
  8
SIZE
  6
CONTINUOUS
 62
    30
 10
-56.175110675172618
 20
-72.505693062499972
 30
0.0
 40
6.0
  0
LINE
  8
SIZE
  6
CONTINUOUS
 62
    30
 10
-56.175110675172618
 20
-72.505693062499972
 30
0.0
 11
-56.175110675172618
 21
-84.505693062499972
 31
0.0
  0
TEXT
  8
SIZE
  6
CONTINUOUS
 62
    30
 10
-81.175110675172604
 20
-159.90569306250001
 30
0.0
 40
64.0
  1
5
 50
90.0
 41
0.9
 72
     1
 11
-81.175110675172604
 21
-140.70569306249999
 31
0.0
  0
LINE
  8
SIZE
  6
CONTINUOUS
 62
    30
 10
27.921113614698239
 20
55.0
 30
0.0
 11
639.27352616251937
 21
54.999999999999829
 31
0.0
  0
LINE
  8
SIZE
  6
CONTINUOUS
 62
    30
 10
27.921113614698239
 20
-55.000000000000007
 30
0.0
 11
639.27352616251937
 21
-55.000000000000178
 31
0.0
  0
LINE
  8
SIZE
  6
CONTINUOUS
 62
    30
 10
619.27352616251937
 20
-43.000000000000171
 30
0.0
 11
619.27352616251937
 21
42.999999999999829
 31
0.0
  0
LINE
  8
SIZE
  6
CONTINUOUS
 62
    30
 10
619.27352616251937
 20
54.999999999999829
 30
0.0
 11
619.27352616251949
 21
269.8463615455446
 31
0.0
  0
CIRCLE
  8
SIZE
  6
CONTINUOUS
 62
    30
 10
619.27352616251937
 20
-55.000000000000171
 30
0.0
 40
6.0
  0
LINE
  8
SIZE
  6
CONTINUOUS
 62
    30
 10
619.27352616251937
 20
-55.000000000000171
 30
0.0
 11
619.27352616251937
 21
-43.000000000000171
 31
0.0
  0
CIRCLE
  8
SIZE
  6
CONTINUOUS
 62
    30
 10
619.27352616251937
 20
54.999999999999829
 30
0.0
 40
6.0
  0
LINE
  8
SIZE
  6
CONTINUOUS
 62
    30
 10
619.27352616251937
 20
54.999999999999829
 30
0.0
 11
619.27352616251937
 21
42.999999999999829
 31
0.0
  0
TEXT
  8
SIZE
  6
CONTINUOUS
 62
    30
 10
594.27352616251937
 20
118.6749329741161
 30
0.0
 40
64.0
  1
110
 50
90.0
 41
0.9
 72
     1
 11
594.27352616251937
 21
181.76064725983039
 31
0.0
  0
LINE
  8
NOTE
  6
CONTINUOUS
 62
     4
 10
-10.600000000000019
 20
37.501655642985973
 30
0.0
 11
10.600000000000019
 21
37.501655642985973
 31
0.0
  0
LINE
  8
NOTE
  6
CONTINUOUS
 62
     4
 10
0.0
 20
45.001655642985973
 30
0.0
 11
0.0
 21
30.00165564298597
 31
0.0
  0
LINE
  8
NOTE
  6
CONTINUOUS
 62
     4
 10
-7.9211136146982417
 20
55.0
 30
0.0
 11
7.9211136146982417
 21
55.0
 31
0.0
  0
LINE
  8
NOTE
  6
CONTINUOUS
 62
     4
 10
0.0
 20
63.0
 30
0.0
 11
0.0
 21
47.0
 31
0.0
  0
CIRCLE
  8
FIX
  6
CONTINUOUS
 62
    11
 10
0.0
 20
55.0
 30
0.0
 40
5.0
  0
LINE
  8
DETAIL
  6
CONTINUOUS
 62
     5
 10
-0.3052596905350811
 20
67.499972109725832
 30
0.0
 11
-23.196357161124521
 21
67.100406517101177
 31
0.0
  0
ARC
  8
DETAIL
  6
CONTINUOUS
 62
     5
 10
-23.12654205362367
 20
63.100701684340152
 30
0.0
 40
4.0003140999999927
 50
90.999999999995239
 51
178.41047039259701
  0
ARC
  8
DETAIL
  6
CONTINUOUS
 62
     5
 10
-0.3000235575000261
 20
67.199994247313839
 30
0.0
 40
0.300023557500068
 50
0.0
 51
90.999999999995239
  0
LINE
  8
DETAIL
  6
CONTINUOUS
 62
     5
 10
-0.3052596905350811
 20
-67.499972109826103
 30
0.0
 11
-23.196357161124521
 21
-67.100406517201236
 31
0.0
  0
ARC
  8
DETAIL
  6
CONTINUOUS
 62
     5
 10
-0.3000235575000261
 20
-67.199994247313953
 30
0.0
 40
0.300023557500026
 50
268.99999999999818
 51
0.0
  0
LINE
  8
DETAIL
  6
CONTINUOUS
 62
     5
 10
0.0
 20
-67.199994247313953
 30
0.0
 11
0.0
 21
67.199994247313839
 31
0.0
  0
ARC
  8
DETAIL
  6
CONTINUOUS
 62
     5
 10
2250.801730328325
 20
0.0
 30
0.0
 40
2278.803929028325
 50
178.41047039259701
 51
181.58952960740291
  0
ARC
  8
DETAIL
  6
CONTINUOUS
 62
     5
 10
-23.12654205362367
 20
-63.100701684340279
 30
0.0
 40
4.000314099999942
 50
181.58952960740291
 51
268.99999999999818
  0
ARC
  8
DETAIL
  6
CONTINUOUS
 62
     5
 10
-10.658284953510361
 20
-72.005649292046201
 30
0.0
 40
0.5000392624999679
 50
270.0
 51
357.99948314959761
  0
LINE
  8
DETAIL
  6
CONTINUOUS
 62
     5
 10
-10.65828511102279
 20
-72.505693062500072
 30
0.0
 11
-11.34344243897738
 21
-72.505693062500072
 31
0.0
  0
ARC
  8
DETAIL
  6
CONTINUOUS
 62
     5
 10
-11.343442578888361
 20
-72.005649794785541
 30
0.0
 40
0.500039262500028
 50
182.0004592142991
 51
270.0
  0
LINE
  8
DETAIL
  6
CONTINUOUS
 62
     5
 10
-11.84317709105972
 20
-72.023104918641593
 30
0.0
 11
-12.00826186752397
 21
-67.295695446960494
 31
0.0
  0
LINE
  8
DETAIL
  6
CONTINUOUS
 62
     5
 10
-9.9946930418469737
 20
-67.330842421559979
 30
0.0
 11
-10.158550458840301
 21
-72.023104918641593
 31
0.0
  0
LINE
  8
DETAIL
  6
CONTINUOUS
 62
     5
 10
0.0
 20
-39.190399999999997
 30
0.0
 11
33.011318213442678
 21
-39.190399999999997
 31
0.0
  0
ARC
  8
DETAIL
  6
CONTINUOUS
 62
     5
 10
37.002905424999987
 20
35.608203810518937
 30
0.0
 40
0.5000392625
 50
0.0
 51
88.96303818767548
  0
ARC
  8
DETAIL
  6
CONTINUOUS
 62
     5
 10
37.002582897960004
 20
35.463772425336863
 30
0.0
 40
0.5000392625
 50
0.0
 51
88.96303818767548
  0
ARC
  8
DETAIL
  6
CONTINUOUS
 62
     5
 10
37.002582897951811
 20
33.404312336631392
 30
0.0
 40
0.5000392625
 50
0.0
 51
88.96303818767548
  0
ARC
  8
DETAIL
  6
CONTINUOUS
 62
     5
 10
37.002582897960004
 20
33.008561097405391
 30
0.0
 40
0.5000392625
 50
0.0
 51
88.96303818767548
  0
LINE
  8
DETAIL
  6
CONTINUOUS
 62
     5
 10
24.501923871000599
 20
33.678438024894831
 30
0.0
 11
37.011632313425132
 21
33.508518467709337
 31
0.0
  0
LINE
  8
DETAIL
  6
CONTINUOUS
 62
     5
 10
37.011632313425132
 20
33.904269706935573
 30
0.0
 11
27.7995648288246
 21
34.089745307663172
 31
0.0
  0
LINE
  8
DETAIL
  6
CONTINUOUS
 62
     5
 10
27.7995648288246
 20
36.107591178768871
 30
0.0
 11
37.011632313425132
 21
35.963729795640788
 31
0.0
  0
LINE
  8
DETAIL
  6
CONTINUOUS
 62
     5
 10
37.011954840465023
 20
36.108161180823117
 30
0.0
 11
24.50192387380093
 21
36.334597422034463
 31
0.0
  0
LINE
  8
DETAIL
  6
CONTINUOUS
 62
     5
 10
27.50215943750004
 20
34.202312291491808
 30
0.0
 11
27.50215943750004
 21
36.064860454702277
 31
0.0
  0
ARC
  8
DETAIL
  6
CONTINUOUS
 62
     5
 10
39.203076753188043
 20
32.634818182781373
 30
0.0
 40
0.3000249844120314
 50
269.16375201840492
 51
359.99991107800128
  0
LINE
  8
DETAIL
  6
CONTINUOUS
 62
     5
 10
39.19869801747484
 20
32.334826135155708
 30
0.0
 11
37.502912947607797
 21
32.35958734167663
 31
0.0
  0
LINE
  8
DETAIL
  6
CONTINUOUS
 62
     5
 10
37.502944687500083
 20
32.35959653679879
 30
0.0
 11
37.502944687500083
 21
35.608203810518937
 31
0.0
  0
LINE
  8
DETAIL
  6
CONTINUOUS
 62
     5
 10
39.50310173750006
 20
32.63481771714487
 30
0.0
 11
39.50310173750006
 21
36.616736229458652
 31
0.0
  0
ARC
  8
DETAIL
  6
CONTINUOUS
 62
     5
 10
34.502709112500042
 20
36.616736229458652
 30
0.0
 40
5.0003926249999999
 50
0.0
 51
89.387635336469231
  0
ARC
  8
DETAIL
  6
CONTINUOUS
 62
     5
 10
24.201900305000091
 20
38.890422137541051
 30
0.0
 40
0.300023557500012
 50
0.0
 51
89.000000000004732
  0
ARC
  8
DETAIL
  6
CONTINUOUS
 62
     5
 10
29.30230078249997
 20
4.0813621163563312
 30
0.0
 40
4.8003769200000086
 50
92.46777673842584
 51
180.0
  0
LINE
  8
DETAIL
  6
CONTINUOUS
 62
     5
 10
24.501923862500011
 20
38.890714953132417
 30
0.0
 11
24.501923862500011
 21
32.465806649725216
 31
0.0
  0
ARC
  8
DETAIL
  6
CONTINUOUS
 62
     5
 10
29.30230078249997
 20
32.465806649725216
 30
0.0
 40
4.8003769200000121
 50
180.0
 51
267.26524778271431
  0
ARC
  8
DETAIL
  6
CONTINUOUS
 62
     5
 10
38.503023212500011
 20
26.21924941870066
 30
0.0
 40
1.0000785249999999
 50
0.0000005450988297
 51
87.256350556497196
  0
LINE
  8
DETAIL
  6
CONTINUOUS
 62
     5
 10
38.550894389089081
 20
27.218181551887259
 30
0.0
 11
29.073263714206181
 21
27.670896786608171
 31
0.0
  0
LINE
  8
DETAIL
  6
CONTINUOUS
 62
     5
 10
39.50310173750006
 20
17.29943454283443
 30
0.0
 11
41.211962173529393
 21
17.329262812715339
 31
0.0
  0
ARC
  8
DETAIL
  6
CONTINUOUS
 62
     5
 10
41.203235230000132
 20
17.829225915835419
 30
0.0
 40
0.500039262500004
 50
271.00000631539848
 51
0.000036018699463
  0
LINE
  8
DETAIL
  6
CONTINUOUS
 62
     5
 10
41.7032744925001
 20
19.94341209997015
 30
0.0
 11
41.7032744925001
 21
17.83028332146182
 31
0.0
  0
ARC
  8
DETAIL
  6
CONTINUOUS
 62
     5
 10
41.203235230000132
 20
19.94341209997015
 30
0.0
 40
0.5000392625
 50
0.0
 51
90.366057571097215
  0
LINE
  8
DETAIL
  6
CONTINUOUS
 62
     5
 10
41.200036926372952
 20
20.443441134066919
 30
0.0
 11
39.50310173750006
 21
20.432860058193679
 31
0.0
  0
LINE
  8
DETAIL
  6
CONTINUOUS
 62
     5
 10
33.502630587499993
 20
22.93491918558016
 30
0.0
 11
33.502630587499993
 21
16.580708439898672
 31
0.0
  0
LINE
  8
DETAIL
  6
CONTINUOUS
 62
     5
 10
38.520476989450223
 20
22.929943051498871
 30
0.0
 11
33.502630587499993
 21
22.93491918558016
 31
0.0
  0
ARC
  8
DETAIL
  6
CONTINUOUS
 62
     5
 10
38.503023212500011
 20
10.283729886582931
 30
0.0
 40
1.0000785249999939
 50
272.45847833850462
 51
0.0
  0
LINE
  8
DETAIL
  6
CONTINUOUS
 62
     5
 10
39.011789363425123
 20
15.993158501062229
 30
0.0
 11
33.910286564372093
 21
16.08220556363381
 31
0.0
  0
ARC
  8
DETAIL
  6
CONTINUOUS
 62
     5
 10
39.003051620747769
 20
15.493195586456981
 30
0.0
 40
0.5000392624999799
 50
359.9999782914997
 51
88.998756103899808
  0
ARC
  8
DETAIL
  6
CONTINUOUS
 62
     5
 10
34.002669850000068
 20
16.580702348520159
 30
0.0
 40
0.5000387088565406
 50
180.0
 51
268.9999878186976
  0
LINE
  8
DETAIL
  6
CONTINUOUS
 62
     5
 10
33.502630587499993
 20
18.702323572090791
 30
0.0
 11
39.009457997778327
 21
18.772761883219349
 31
0.0
  0
ARC
  8
DETAIL
  6
CONTINUOUS
 62
     5
 10
39.003062474999979
 20
19.272760244546589
 30
0.0
 40
0.5000392624999961
 50
270.73283536271668
 51
0.0
  0
LINE
  8
DETAIL
  6
CONTINUOUS
 62
     5
 10
39.50310173750006
 20
10.283729886582931
 30
0.0
 11
39.50310173750006
 21
26.21924941870066
 31
0.0
  0
LINE
  8
DETAIL
  6
CONTINUOUS
 62
     5
 10
41.206064563555969
 20
11.984583630536241
 30
0.0
 11
39.50310173750006
 21
11.97494630312463
 31
0.0
  0
ARC
  8
DETAIL
  6
CONTINUOUS
 62
     5
 10
41.203235230000132
 20
12.48461488850762
 30
0.0
 40
0.50003926249999
 50
270.33721345990102
 51
0.0
  0
LINE
  8
DETAIL
  6
CONTINUOUS
 62
     5
 10
41.7032744925001
 20
14.695451412714419
 30
0.0
 11
41.7032744925001
 21
12.48461488850762
 31
0.0
  0
LINE
  8
DETAIL
  6
CONTINUOUS
 62
     5
 10
41.215154132158332
 20
15.19534860595923
 30
0.0
 11
39.50310173750006
 21
15.236170889577579
 31
0.0
  0
ARC
  8
DETAIL
  6
CONTINUOUS
 62
     5
 10
41.203235230000132
 20
14.695451412714419
 30
0.0
 40
0.5000392625
 50
0.0000000004038541
 51
88.634094691098056
  0
LINE
  8
DETAIL
  6
CONTINUOUS
 62
     5
 10
29.09560848717274
 20
8.8772871438270613
 30
0.0
 11
38.54592195675945
 21
9.2845718639598545
 31
0.0
  0
LINE
  8
DETAIL
  6
CONTINUOUS
 62
     5
 10
38.994335586574962
 20
-24.010765146190352
 30
0.0
 11
28.44987663184941
 21
-24.19481936181273
 31
0.0
  0
ARC
  8
DETAIL
  6
CONTINUOUS
 62
     5
 10
39.003062474999979
 20
-24.510728250310429
 30
0.0
 40
0.5000392625
 50
0.0
 51
91.000000000001776
  0
ARC
  8
DETAIL
  6
CONTINUOUS
 62
     5
 10
28.502237962499979
 20
-27.194597986433561
 30
0.0
 40
3.0002355750000089
 50
90.999999999995239
 51
180.0
  0
LINE
  8
DETAIL
  6
CONTINUOUS
 62
     5
 10
39.50310173750006
 20
-24.510728250310429
 30
0.0
 11
39.50310173750006
 21
-30.30336536302411
 31
0.0
  0
LINE
  8
DETAIL
  6
CONTINUOUS
 62
     5
 10
39.50310173750006
 20
-30.10236360249996
 30
0.0
 11
41.211962439350373
 21
-30.132191876981551
 31
0.0
  0
ARC
  8
DETAIL
  6
CONTINUOUS
 62
     5
 10
41.203235230000132
 20
-30.63215497550118
 30
0.0
 40
0.500039262499976
 50
359.99969506129639
 51
88.999963229896977
  0
LINE
  8
DETAIL
  6
CONTINUOUS
 62
     5
 10
41.211962118425163
 20
-34.272865138519137
 30
0.0
 11
39.503101624691112
 21
-34.302693409400042
 31
0.0
  0
ARC
  8
DETAIL
  6
CONTINUOUS
 62
     5
 10
41.203235230000132
 20
-33.772902034499111
 30
0.0
 40
0.5000392625000061
 50
271.00000000000182
 51
0.0
  0
LINE
  8
DETAIL
  6
CONTINUOUS
 62
     5
 10
41.7032744925001
 20
-30.632166887736499
 30
0.0
 11
41.7032744925001
 21
-33.772902034499111
 31
0.0
  0
LINE
  8
DETAIL
  6
CONTINUOUS
 62
     5
 10
33.115027072722697
 20
-38.972875836978069
 30
0.0
 11
38.521587856180091
 21
-38.872495546890562
 31
0.0
  0
ARC
  8
DETAIL
  6
CONTINUOUS
 62
     5
 10
38.503023212498888
 20
-37.87258934620418
 30
0.0
 40
1.00007852499998
 50
271.06365330619639
 51
0.0
  0
ARC
  8
DETAIL
  6
CONTINUOUS
 62
     5
 10
38.503023212500011
 20
-36.245544067382298
 30
0.0
 40
1.0000785249999999
 50
0.0
 51
90.265355840210134
  0
LINE
  8
DETAIL
  6
CONTINUOUS
 62
     5
 10
38.507468618693572
 20
-37.731397054212948
 30
0.0
 11
29.415010507336209
 21
-37.771813949401107
 31
0.0
  0
ARC
  8
DETAIL
  6
CONTINUOUS
 62
     5
 10
38.503023212500011
 20
-36.731328409304069
 30
0.0
 40
1.0000785249999999
 50
270.25468385282733
 51
0.0
  0
LINE
  8
DETAIL
  6
CONTINUOUS
 62
     5
 10
39.503101737498937
 20
-37.87258934620418
 30
0.0
 11
39.50310173750006
 21
-33.735245733470251
 31
0.0
  0
LINE
  8
DETAIL
  6
CONTINUOUS
 62
     5
 10
25.50200238750006
 20
-27.194597986433561
 30
0.0
 11
25.50200238750006
 21
-33.680354530049947
 31
0.0
  0
ARC
  8
DETAIL
  6
CONTINUOUS
 62
     5
 10
20.001570500000071
 20
-33.680354530049947
 30
0.0
 40
5.5004318874999836
 50
342.8267946477294
 51
0.0
  0
ARC
  8
DETAIL
  6
CONTINUOUS
 62
     5
 10
33.00259132499891
 20
-38.690436895901662
 30
0.0
 40
0.5000392625000061
 50
271.00000000000182
 51
326.30692674410028
  0
ARC
  8
DETAIL
  6
CONTINUOUS
 62
     5
 10
25.101970977500049
 20
-34.705013297596679
 30
0.0
 40
0.600047115000022
 50
180.0
 51
270.23930807766749
  0
LINE
  8
DETAIL
  6
CONTINUOUS
 62
     5
 10
38.498391532281289
 20
-35.245476267828508
 30
0.0
 11
25.104488556805219
 21
-35.307508337545869
 31
0.0
  0
LINE
  8
DETAIL
  6
CONTINUOUS
 62
     5
 10
24.501923862500011
 20
-35.582675040865752
 30
0.0
 11
24.501923862500011
 21
4.0813621163563312
 31
0.0
  0
LINE
  8
DETAIL
  6
CONTINUOUS
 62
     5
 10
34.556151189347467
 20
41.616843263170722
 30
0.0
 11
0.0
 21
41.764532760266071
 31
0.0
  0
LINE
  8
DETAIL
  6
CONTINUOUS
 62
     5
 10
65.105111977499973
 20
-22.851794296250091
 30
0.0
 11
42.203313754999947
 21
-22.851794296250091
 31
0.0
  0
LINE
  8
DETAIL
  6
CONTINUOUS
 62
     5
 10
33.80265414500002
 20
-22.301751107499971
 30
0.0
 11
39.003062474999979
 21
-22.301751107499971
 31
0.0
  0
ARC
  8
DETAIL
  6
CONTINUOUS
 62
     5
 10
33.80265414500002
 20
-20.001570500000071
 30
0.0
 40
2.3001806075000042
 50
231.50004959080451
 51
270.0
  0
LINE
  8
DETAIL
  6
CONTINUOUS
 62
     5
 10
32.37075960801009
 20
9.018766412225661
 30
0.0
 11
32.37075960801009
 21
-21.801711844800138
 31
0.0
  0
LINE
  8
DETAIL
  6
CONTINUOUS
 62
     5
 10
25.802025944999961
 20
-21.801711845
 30
0.0
 11
32.37075960801009
 21
-21.801711845
 31
0.0
  0
ARC
  8
DETAIL
  6
CONTINUOUS
 62
     5
 10
25.802025944999961
 20
-19.001491975000139
 30
0.0
 40
2.8002198700000038
 50
242.2944297248001
 51
270.0
  0
ARC
  8
DETAIL
  6
CONTINUOUS
 62
     5
 10
42.203313755000067
 20
-23.351833558750052
 30
0.0
 40
0.5000392625
 50
90.0
 51
171.0000000000006
  0
LINE
  8
DETAIL
  6
CONTINUOUS
 62
     5
 10
41.7032744925001
 20
-30.632166887736499
 30
0.0
 11
41.7032744925001
 21
12.48461488850762
 31
0.0
  0
ARC
  8
DETAIL
  6
CONTINUOUS
 62
     5
 10
39.003062474999979
 20
-22.801790369999932
 30
0.0
 40
0.500039262500004
 50
0.0000614607984691
 51
90.0
  0
LINE
  8
DETAIL
  6
CONTINUOUS
 62
     5
 10
41.103227377499927
 20
-30.1302938994545
 30
0.0
 11
41.103227377499927
 21
11.9840016591404
 31
0.0
  0
LINE
  8
DETAIL
  6
CONTINUOUS
 62
     5
 10
49.103855577499978
 20
22.073138287787732
 30
0.0
 11
42.203313755000067
 21
22.073138287787732
 31
0.0
  0
LINE
  8
DETAIL
  6
CONTINUOUS
 62
     5
 10
41.7032744925001
 20
23.01713188126428
 30
0.0
 11
41.103227377499927
 21
23.01713188126428
 31
0.0
  0
LINE
  8
DETAIL
  6
CONTINUOUS
 62
     5
 10
40.30316455749994
 20
23.412019761500229
 30
0.0
 11
41.103227377499927
 21
23.412019761500229
 31
0.0
  0
LINE
  8
DETAIL
  6
CONTINUOUS
 62
     5
 10
39.50310173750006
 20
24.001884599999809
 30
0.0
 11
40.30316455749994
 21
24.001884599999809
 31
0.0
  0
LINE
  8
DETAIL
  6
CONTINUOUS
 62
     5
 10
65.105111977499973
 20
22.834290441467601
 30
0.0
 11
50.803989069999943
 21
22.834290441467601
 31
0.0
  0
ARC
  8
DETAIL
  6
CONTINUOUS
 62
     5
 10
65.106214728086684
 20
20.234974381400669
 30
0.0
 40
2.5992089588575542
 50
0.0243278419022491
 51
90.024307528194967
  0
LINE
  8
DETAIL
  6
CONTINUOUS
 62
     5
 10
62.704923517500113
 20
25.920551777310038
 30
0.0
 11
50.803989069999943
 21
25.920551777310038
 31
0.0
  0
LINE
  8
DETAIL
  6
CONTINUOUS
 62
     5
 10
67.705316142500138
 20
-20.25145566959236
 30
0.0
 11
67.705316142500138
 21
20.920159152310131
 31
0.0
  0
ARC
  8
DETAIL
  6
CONTINUOUS
 62
     5
 10
62.704923517500113
 20
20.920159152310131
 30
0.0
 40
5.0003926249999999
 50
0.0
 51
90.0
  0
LINE
  8
DETAIL
  6
CONTINUOUS
 62
     5
 10
50.803989069999943
 20
22.819693276115231
 30
0.0
 11
50.803989069999943
 21
26.520416994727611
 31
0.0
  0
LINE
  8
DETAIL
  6
CONTINUOUS
 62
     5
 10
50.803989069999943
 20
26.52059889231009
 30
0.0
 11
49.703902692500037
 21
26.52059889231009
 31
0.0
  0
ARC
  8
DETAIL
  6
CONTINUOUS
 62
     5
 10
49.703902692500037
 20
25.920551777310038
 30
0.0
 40
0.6000471149999941
 50
90.0
 51
180.0
  0
LINE
  8
DETAIL
  6
CONTINUOUS
 62
     5
 10
49.103855577499978
 20
22.073138287787732
 30
0.0
 11
49.103855577499978
 21
25.920551777310038
 31
0.0
  0
ARC
  8
DETAIL
  6
CONTINUOUS
 62
     5
 10
49.694738465135529
 20
22.629820173900509
 30
0.0
 40
0.5908897045708158
 50
180.04052893710221
 51
246.09882778758879
  0
LINE
  8
DETAIL
  6
CONTINUOUS
 62
     5
 10
50.10393410249992
 20
22.310829633635191
 30
0.0
 11
50.10393410249992
 21
22.554391894860149
 31
0.0
  0
ARC
  8
DETAIL
  6
CONTINUOUS
 62
     5
 10
65.105111977499973
 20
-20.251590131250168
 30
0.0
 40
2.600204164999993
 50
270.0
 51
0.0
  0
LINE
  8
DETAIL
  6
CONTINUOUS
 62
     5
 10
39.50310173750006
 20
-24.510728250310429
 30
0.0
 11
39.50310173750006
 21
10.28372988478282
 31
0.0
  0
LINE
  8
DETAIL
  6
CONTINUOUS
 62
     5
 10
40.30316455749994
 20
11.97947398113865
 30
0.0
 11
40.30316455749994
 21
-30.116328750959379
 31
0.0
  0
LINE
  8
DETAIL
  6
CONTINUOUS
 62
     5
 10
40.30316455749994
 20
17.313399691261569
 30
0.0
 11
40.30316455749994
 21
15.217094141993361
 31
0.0
  0
LINE
  8
DETAIL
  6
CONTINUOUS
 62
     5
 10
41.103227377499927
 20
15.19801739440959
 30
0.0
 11
41.103227377499927
 21
17.327364839788739
 31
0.0
  0
LINE
  8
DETAIL
  6
CONTINUOUS
 62
     5
 10
41.7032744925001
 20
14.695451412714419
 30
0.0
 11
41.7032744925001
 21
17.83028332146182
 31
0.0
  0
LINE
  8
DETAIL
  6
CONTINUOUS
 62
     5
 10
40.30316455749994
 20
24.001771039083451
 30
0.0
 11
40.30316455749994
 21
20.438854273312021
 31
0.0
  0
LINE
  8
DETAIL
  6
CONTINUOUS
 62
     5
 10
41.103227377499927
 20
20.4428226181019
 30
0.0
 11
41.103227377499927
 21
23.412019760400199
 31
0.0
  0
LINE
  8
DETAIL
  6
CONTINUOUS
 62
     5
 10
41.7032744925001
 20
19.94341209997015
 30
0.0
 11
41.7032744925001
 21
23.01713188126428
 31
0.0
  0
LINE
  8
DETAIL
  6
CONTINUOUS
 62
     5
 10
43.905659002573529
 20
34.335460402017588
 30
0.0
 11
45.969451273731572
 21
27.778620373859891
 31
0.0
  0
LINE
  8
DETAIL
  6
CONTINUOUS
 62
     5
 10
49.103855577499978
 20
25.679155071522018
 30
0.0
 11
48.831273494168158
 21
25.679155071522018
 31
0.0
  0
ARC
  8
DETAIL
  6
CONTINUOUS
 62
     5
 10
48.831273494168158
 20
28.679390646522052
 30
0.0
 40
3.000235575
 50
197.47160909332439
 51
270.0
  0
LINE
  8
DETAIL
  6
CONTINUOUS
 62
     5
 10
49.103855577499978
 20
22.678919496521981
 30
0.0
 11
48.831273494168158
 21
22.678919496521981
 31
0.0
  0
LINE
  8
DETAIL
  6
CONTINUOUS
 62
     5
 10
41.043836782137191
 20
33.434690129355893
 30
0.0
 11
43.107629053295113
 21
26.877850101197961
 31
0.0
  0
ARC
  8
DETAIL
  6
CONTINUOUS
 62
     5
 10
48.831273494168158
 20
28.679390646522052
 30
0.0
 40
6.0004711500000081
 50
197.47160909332439
 51
270.0
  0
ARC
  8
DETAIL
  6
CONTINUOUS
 62
     5
 10
36.274133081409794
 20
31.93340634158562
 30
0.0
 40
8.000628199999996
 50
17.47160909332446
 51
73.826256413711008
  0
ARC
  8
DETAIL
  6
CONTINUOUS
 62
     5
 10
36.274133081409794
 20
31.93340634158562
 30
0.0
 40
5.0003926250000124
 50
17.47160909332446
 51
49.778592242305457
  0
LINE
  8
DETAIL
  6
CONTINUOUS
 62
     5
 10
39.50310173750006
 20
-27.80218299500007
 30
0.0
 11
39.50310173750006
 21
-27.945156778834871
 31
0.0
  0
ARC
  8
DETAIL
  6
CONTINUOUS
 62
     5
 10
33.796306279572718
 20
13.90109149749992
 30
0.0
 40
10.407164525326969
 50
337.38712560449852
 51
22.612874395501549
  0
LINE
  8
DETAIL
  6
CONTINUOUS
 62
     5
 10
43.40340798499993
 20
17.902674969169539
 30
0.0
 11
41.703274492499872
 21
18.051417376249901
 31
0.0
  0
LINE
  8
DETAIL
  6
CONTINUOUS
 62
     5
 10
43.40340798499993
 20
9.8995080258305297
 30
0.0
 11
43.40340798499993
 21
17.902674969169539
 31
0.0
  0
LINE
  8
DETAIL
  6
CONTINUOUS
 62
     5
 10
43.40340798499993
 20
9.8995080258305297
 30
0.0
 11
41.703274492499872
 21
9.7507656187499379
 31
0.0
  0
ARC
  8
DETAIL
  6
CONTINUOUS
 62
     5
 10
33.796306279572718
 20
-27.80218299500007
 30
0.0
 40
10.407164525326969
 50
337.38712560449852
 51
22.612874395501549
  0
LINE
  8
DETAIL
  6
CONTINUOUS
 62
     5
 10
43.40340798499993
 20
-23.800599523330451
 30
0.0
 11
41.703274492499872
 21
-23.651857116250081
 31
0.0
  0
LINE
  8
DETAIL
  6
CONTINUOUS
 62
     5
 10
43.40340798499993
 20
-31.803766466669469
 30
0.0
 11
43.40340798499993
 21
-23.800599523330451
 31
0.0
  0
LINE
  8
DETAIL
  6
CONTINUOUS
 62
     5
 10
43.40340798499993
 20
-31.803766466669469
 30
0.0
 11
41.703274492499872
 21
-31.952508873750048
 31
0.0
  0
LINE
  8
DETAIL
  6
CONTINUOUS
 62
     5
 10
27.7995648288246
 20
36.107591178768871
 30
0.0
 11
27.50215943750004
 21
36.064860454702277
 31
0.0
  0
LINE
  8
DETAIL
  6
CONTINUOUS
 62
     5
 10
27.7995648288246
 20
34.089745307663172
 30
0.0
 11
27.50215943750004
 21
34.202312291491808
 31
0.0
  0
ARC
  8
DETAIL
  6
CONTINUOUS
 62
     5
 10
38.608513181352677
 20
22.028789870497349
 30
0.0
 40
0.9054432211430604
 50
8.8807584365713783
 51
95.579680385515289
  0
ARC
  8
DETAIL
  6
CONTINUOUS
 62
     5
 10
42.196434643616037
 20
22.566356295399601
 30
0.0
 40
0.4932659781557798
 50
181.18686996337721
 51
270.79907563871501
  0
ARC
  8
DETAIL
  6
CONTINUOUS
 62
     5
 10
49.343937640866002
 20
28.716230729080049
 30
0.0
 40
5.4989479662682763
 50
272.90209971292649
 51
285.39753761347419
  0
ARC
  8
DETAIL
  6
CONTINUOUS
 62
     5
 10
49.737703072618963
 20
22.598590911255311
 30
0.0
 40
0.6368260799848947
 50
99.578505878040318
 51
172.79723475644531
  0
ARC
  8
DETAIL
  6
CONTINUOUS
 62
     5
 10
49.374572253806498
 20
29.239021072615969
 30
0.0
 40
6.5940344110918963
 50
271.98330053272912
 51
282.50936019191721
  0
ARC
  8
DETAIL
  6
CONTINUOUS
 62
     5
 10
49.717523581257971
 20
21.682678039392609
 30
0.0
 40
0.9535188182414138
 50
66.093401485109169
 51
96.844076485567911
  0
ARC
  8
DETAIL
  6
CONTINUOUS
 62
     5
 10
49.306227146882293
 20
23.438291535116829
 30
0.0
 40
1.381125166787339
 50
261.57430900945229
 51
305.28034349446148
  0
ARC
  8
DETAIL
  6
CONTINUOUS
 62
     5
 10
31.470924779526069
 20
-21.775624456168089
 30
0.0
 40
16.127766795127432
 50
247.69978920984991
 51
262.67619610093982
  0
ARC
  8
DETAIL
  6
CONTINUOUS
 62
     5
 10
25.814465080202471
 20
-35.463359962973527
 30
0.0
 40
1.317953161527373
 50
185.19413229571751
 51
249.415565290611
  0
LINE
  8
OUTLINE
  6
CONTINUOUS
 62
     3
 10
-0.3052596905350811
 20
67.499972109725832
 30
0.0
 11
-23.196357161124521
 21
67.100406517101177
 31
0.0
  0
ARC
  8
OUTLINE
  6
CONTINUOUS
 62
     3
 10
-23.12654205362367
 20
63.100701684340152
 30
0.0
 40
4.0003140999999927
 50
90.999999999995239
 51
178.41047039259701
  0
ARC
  8
OUTLINE
  6
CONTINUOUS
 62
     3
 10
-0.3000235575000261
 20
67.199994247313839
 30
0.0
 40
0.300023557500068
 50
0.0
 51
90.999999999995239
  0
LINE
  8
OUTLINE
  6
CONTINUOUS
 62
     3
 10
-0.3052596905350811
 20
-67.499972109826103
 30
0.0
 11
-23.196357161124521
 21
-67.100406517201236
 31
0.0
  0
ARC
  8
OUTLINE
  6
CONTINUOUS
 62
     3
 10
-0.3000235575000261
 20
-67.199994247313953
 30
0.0
 40
0.300023557500026
 50
268.99999999999818
 51
0.0
  0
LINE
  8
OUTLINE
  6
CONTINUOUS
 62
     3
 10
0.0
 20
-67.199994247313953
 30
0.0
 11
0.0
 21
67.199994247313839
 31
0.0
  0
ARC
  8
OUTLINE
  6
CONTINUOUS
 62
     3
 10
2250.801730328325
 20
0.0
 30
0.0
 40
2278.803929028325
 50
178.41047039259701
 51
181.58952960740291
  0
ARC
  8
OUTLINE
  6
CONTINUOUS
 62
     3
 10
-23.12654205362367
 20
-63.100701684340279
 30
0.0
 40
4.000314099999942
 50
181.58952960740291
 51
268.99999999999818
  0
LINE
  8
OUTLINE
  6
CONTINUOUS
 62
     3
 10
0.0
 20
-39.190399999999997
 30
0.0
 11
33.011318213442678
 21
-39.190399999999997
 31
0.0
  0
ARC
  8
OUTLINE
  6
CONTINUOUS
 62
     3
 10
34.502709112500042
 20
36.616736229458652
 30
0.0
 40
5.0003926249999999
 50
0.0
 51
89.387635336469231
  0
LINE
  8
OUTLINE
  6
CONTINUOUS
 62
     3
 10
41.211962118425163
 20
-34.272865138519137
 30
0.0
 11
39.503101624691112
 21
-34.302693409400042
 31
0.0
  0
ARC
  8
OUTLINE
  6
CONTINUOUS
 62
     3
 10
41.203235230000132
 20
-33.772902034499111
 30
0.0
 40
0.5000392625000061
 50
271.00000000000182
 51
0.0
  0
LINE
  8
OUTLINE
  6
CONTINUOUS
 62
     3
 10
41.7032744925001
 20
-30.632166887736499
 30
0.0
 11
41.7032744925001
 21
-33.772902034499111
 31
0.0
  0
LINE
  8
OUTLINE
  6
CONTINUOUS
 62
     3
 10
33.115027072722697
 20
-38.972875836978069
 30
0.0
 11
38.521587856180091
 21
-38.872495546890562
 31
0.0
  0
ARC
  8
OUTLINE
  6
CONTINUOUS
 62
     3
 10
38.503023212498888
 20
-37.87258934620418
 30
0.0
 40
1.00007852499998
 50
271.06365330619639
 51
0.0
  0
LINE
  8
OUTLINE
  6
CONTINUOUS
 62
     3
 10
39.503101737498937
 20
-37.87258934620418
 30
0.0
 11
39.50310173750006
 21
-33.735245733470251
 31
0.0
  0
ARC
  8
OUTLINE
  6
CONTINUOUS
 62
     3
 10
33.00259132499891
 20
-38.690436895901662
 30
0.0
 40
0.5000392625000061
 50
271.00000000000182
 51
326.30692674410028
  0
LINE
  8
OUTLINE
  6
CONTINUOUS
 62
     3
 10
34.556151189347467
 20
41.616843263170722
 30
0.0
 11
0.0
 21
41.764532760266071
 31
0.0
  0
LINE
  8
OUTLINE
  6
CONTINUOUS
 62
     3
 10
65.105111977499973
 20
-22.851794296250091
 30
0.0
 11
42.203313754999947
 21
-22.851794296250091
 31
0.0
  0
ARC
  8
OUTLINE
  6
CONTINUOUS
 62
     3
 10
42.203313755000067
 20
-23.351833558750052
 30
0.0
 40
0.5000392625
 50
90.0
 51
171.0000000000006
  0
LINE
  8
OUTLINE
  6
CONTINUOUS
 62
     3
 10
62.704923517500113
 20
25.920551777310038
 30
0.0
 11
50.803989069999943
 21
25.920551777310038
 31
0.0
  0
LINE
  8
OUTLINE
  6
CONTINUOUS
 62
     3
 10
67.705316142500138
 20
-20.25145566959236
 30
0.0
 11
67.705316142500138
 21
20.920159152310131
 31
0.0
  0
ARC
  8
OUTLINE
  6
CONTINUOUS
 62
     3
 10
62.704923517500113
 20
20.920159152310131
 30
0.0
 40
5.0003926249999999
 50
0.0
 51
90.0
  0
LINE
  8
OUTLINE
  6
CONTINUOUS
 62
     3
 10
50.803989069999943
 20
26.52059889231009
 30
0.0
 11
49.703902692500037
 21
26.52059889231009
 31
0.0
  0
ARC
  8
OUTLINE
  6
CONTINUOUS
 62
     3
 10
49.703902692500037
 20
25.920551777310038
 30
0.0
 40
0.6000471149999941
 50
90.0
 51
180.0
  0
ARC
  8
OUTLINE
  6
CONTINUOUS
 62
     3
 10
65.105111977499973
 20
-20.251590131250168
 30
0.0
 40
2.600204164999993
 50
270.0
 51
0.0
  0
LINE
  8
OUTLINE
  6
CONTINUOUS
 62
     3
 10
43.905659002573529
 20
34.335460402017588
 30
0.0
 11
45.969451273731572
 21
27.778620373859891
 31
0.0
  0
LINE
  8
OUTLINE
  6
CONTINUOUS
 62
     3
 10
49.103855577499978
 20
25.679155071522018
 30
0.0
 11
48.831273494168158
 21
25.679155071522018
 31
0.0
  0
ARC
  8
OUTLINE
  6
CONTINUOUS
 62
     3
 10
48.831273494168158
 20
28.679390646522052
 30
0.0
 40
3.000235575
 50
197.47160909332439
 51
270.0
  0
ARC
  8
OUTLINE
  6
CONTINUOUS
 62
     3
 10
36.274133081409794
 20
31.93340634158562
 30
0.0
 40
8.000628199999996
 50
17.47160909332446
 51
73.826256413711008
  0
ARC
  8
OUTLINE
  6
CONTINUOUS
 62
     3
 10
33.796306279572718
 20
-27.80218299500007
 30
0.0
 40
10.407164525326969
 50
337.38712560449852
 51
22.612874395501549
  0
LINE
  8
OUTLINE
  6
CONTINUOUS
 62
     3
 10
43.40340798499993
 20
-23.800599523330451
 30
0.0
 11
41.703274492499872
 21
-23.651857116250081
 31
0.0
  0
LINE
  8
OUTLINE
  6
CONTINUOUS
 62
     3
 10
43.40340798499993
 20
-31.803766466669469
 30
0.0
 11
41.703274492499872
 21
-31.952508873750048
 31
0.0
  0
ARC
  8
OUTLINE
  6
CONTINUOUS
 62
     3
 10
-10.658284953510361
 20
-72.005649292046201
 30
0.0
 40
0.5000392624999679
 50
270.0
 51
357.99948314959761
  0
LINE
  8
OUTLINE
  6
CONTINUOUS
 62
     3
 10
-10.65828511102279
 20
-72.505693062500072
 30
0.0
 11
-11.34344243897738
 21
-72.505693062500072
 31
0.0
  0
ARC
  8
OUTLINE
  6
CONTINUOUS
 62
     3
 10
-11.343442578888361
 20
-72.005649794785541
 30
0.0
 40
0.500039262500028
 50
182.0004592142991
 51
270.0
  0
LINE
  8
OUTLINE
  6
CONTINUOUS
 62
     3
 10
-11.84317709105972
 20
-72.023104918641593
 30
0.0
 11
-12.00826186752397
 21
-67.295695446960494
 31
0.0
  0
LINE
  8
OUTLINE
  6
CONTINUOUS
 62
     3
 10
-9.9946930418469737
 20
-67.330842421559979
 30
0.0
 11
-10.158550458840301
 21
-72.023104918641593
 31
0.0
  0
LINE
  8
DETAIL
  6
CONTINUOUS
 62
     5
 10
0.0
 20
39.190399999999997
 30
0.0
 11
24.207136438066321
 21
39.190400000000061
 31
0.0
  0
ENDSEC
  0
EOF
