  0
SECTION
  2
HEADER
  9
$ACADVER
  1
AC1009
  9
$DWGCODEPAGE
  3
dos932
  9
$INSBASE
 10
0.0
 20
0.0
 30
0.0
  9
$EXTMIN
 10
-539.7445512117647
 20
-249.61851834042321
 30
-0.0015258207003583
  9
$EXTMAX
 10
789.90327056951537
 20
803.9703451841724
 30
0.0000000349246037
  9
$LIMMIN
 10
-2970.0
 20
-2100.0
  9
$LIMMAX
 10
2970.0
 20
2100.0
  9
$ORTHOMODE
 70
     1
  9
$REGENMODE
 70
     1
  9
$FILLMODE
 70
     1
  9
$QTEXTMODE
 70
     0
  9
$MIRRTEXT
 70
     0
  9
$LTSCALE
 40
20.0
  9
$ATTMODE
 70
     1
  9
$TEXTSIZE
 40
64.0
  9
$TRACEWID
 40
0.05
  9
$TEXTSTYLE
  7
STANDARD
  9
$CLAYER
  8
SIZE
  9
$CELTYPE
  6
CONTINUOUS
  9
$CECOLOR
 62
     7
  9
$DIMSCALE
 40
1.0
  9
$DIMASZ
 40
12.0
  9
$DIMEXO
 40
20.0
  9
$DIMDLI
 40
200.0
  9
$DIMRND
 40
0.0
  9
$DIMDLE
 40
0.0
  9
$DIMEXE
 40
20.0
  9
$DIMTP
 40
0.0
  9
$DIMTM
 40
0.0
  9
$DIMTXT
 40
64.0
  9
$DIMCEN
 40
0.09
  9
$DIMTSZ
 40
0.0
  9
$DIMTOL
 70
     0
  9
$DIMLIM
 70
     0
  9
$DIMTIH
 70
     0
  9
$DIMTOH
 70
     0
  9
$DIMSE1
 70
     0
  9
$DIMSE2
 70
     0
  9
$DIMTAD
 70
     1
  9
$DIMZIN
 70
     8
  9
$DIMBLK
  1

  9
$DIMASO
 70
     1
  9
$DIMSHO
 70
     0
  9
$DIMPOST
  1

  9
$DIMAPOST
  1

  9
$DIMALT
 70
     0
  9
$DIMALTD
 70
     2
  9
$DIMALTF
 40
25.399999999999999
  9
$DIMLFAC
 40
1.0
  9
$DIMTOFL
 70
     1
  9
$DIMTVP
 40
0.0
  9
$DIMTIX
 70
     1
  9
$DIMSOXD
 70
     0
  9
$DIMSAH
 70
     0
  9
$DIMBLK1
  1

  9
$DIMBLK2
  1

  9
$DIMSTYLE
  2
STANDARD
  9
$DIMCLRD
 70
     7
  9
$DIMCLRE
 70
     7
  9
$DIMCLRT
 70
     7
  9
$DIMTFAC
 40
1.0
  9
$DIMGAP
 40
25.0
  9
$LUNITS
 70
     2
  9
$LUPREC
 70
     4
  9
$SKETCHINC
 40
0.1
  9
$FILLETRAD
 40
3.0
  9
$AUNITS
 70
     1
  9
$AUPREC
 70
     3
  9
$MENU
  1
ACAD
  9
$ELEVATION
 40
0.0
  9
$PELEVATION
 40
0.0
  9
$THICKNESS
 40
0.0
  9
$LIMCHECK
 70
     0
  9
$CHAMFERA
 40
0.0
  9
$CHAMFERB
 40
0.0
  9
$SKPOLY
 70
     0
  9
$TDCREATE
 40
2453019.623009259
  9
$TDUPDATE
 40
2459356.643349039
  9
$TDINDWG
 40
1.7261618171
  9
$TDUSRTIMER
 40
1.7261618171
  9
$USRTIMER
 70
     1
  9
$ANGBASE
 50
0.0
  9
$ANGDIR
 70
     0
  9
$PDMODE
 70
     3
  9
$PDSIZE
 40
-2.0
  9
$PLINEWID
 40
0.0
  9
$SPLFRAME
 70
     0
  9
$SPLINETYPE
 70
     6
  9
$SPLINESEGS
 70
     8
  9
$SURFTAB1
 70
     6
  9
$SURFTAB2
 70
     6
  9
$SURFTYPE
 70
     6
  9
$SURFU
 70
     6
  9
$SURFV
 70
     6
  9
$UCSNAME
  2

  9
$UCSORG
 10
0.0
 20
0.0
 30
0.0
  9
$UCSXDIR
 10
1.0
 20
0.0
 30
0.0
  9
$UCSYDIR
 10
0.0
 20
1.0
 30
0.0
  9
$PUCSNAME
  2

  9
$PUCSORG
 10
0.0
 20
0.0
 30
0.0
  9
$PUCSXDIR
 10
1.0
 20
0.0
 30
0.0
  9
$PUCSYDIR
 10
0.0
 20
1.0
 30
0.0
  9
$USERI1
 70
     0
  9
$USERI2
 70
     0
  9
$USERI3
 70
     0
  9
$USERI4
 70
     0
  9
$USERI5
 70
     0
  9
$USERR1
 40
20.0
  9
$USERR2
 40
0.0
  9
$USERR3
 40
0.0
  9
$USERR4
 40
0.0
  9
$USERR5
 40
0.0
  9
$WORLDVIEW
 70
     1
  9
$SHADEDGE
 70
     3
  9
$SHADEDIF
 70
    70
  9
$TILEMODE
 70
     1
  9
$MAXACTVP
 70
    48
  9
$PINSBASE
 10
0.0
 20
0.0
 30
0.0
  9
$PLIMCHECK
 70
     0
  9
$PEXTMIN
 10
-100000000000000000000.0
 20
-100000000000000000000.0
 30
-100000000000000000000.0
  9
$PEXTMAX
 10
100000000000000000000.0
 20
100000000000000000000.0
 30
100000000000000000000.0
  9
$PLIMMIN
 10
0.0
 20
0.0
  9
$PLIMMAX
 10
12.0
 20
9.0
  9
$UNITMODE
 70
     0
  9
$VISRETAIN
 70
     0
  9
$PLINEGEN
 70
     0
  9
$PSLTSCALE
 70
     0
  9
$TREEDEPTH
 70
  3020
  9
$ATTDIA
 70
     0
  9
$ATTREQ
 70
     1
  9
$BLIPMODE
 70
     1
  9
$COORDS
 70
     1
  9
$DRAGMODE
 70
     2
  9
$OSMODE
 70
     0
  9
$HANDLING
 70
     0
  9
$HANDSEED
  5
2FD
  0
ENDSEC
  0
SECTION
  2
TABLES
  0
TABLE
  2
LTYPE
 70
     2
  0
LTYPE
  2
CONTINUOUS
 70
     0
  3
実線
 72
    65
 73
     0
 40
0.0
  0
LTYPE
  2
DASHDOT
 70
     0
  3
____ _ ____ _ ____ _ ____ _ ____ _ ____ _ ____
 72
    65
 73
     4
 40
5.5
 49
4.0
 49
-0.6
 49
0.3
 49
-0.6
  0
ENDTAB
  0
TABLE
  2
LAYER
 70
    12
  0
LAYER
  2
SIZE
 70
     0
 62
    30
  6
CONTINUOUS
  0
LAYER
  2
BASIS
 70
     0
 62
     6
  6
DASHDOT
  0
LAYER
  2
OUTLINE
 70
     0
 62
     3
  6
CONTINUOUS
  0
LAYER
  2
DETAIL
 70
     0
 62
     5
  6
CONTINUOUS
  0
LAYER
  2
ARRANGE
 70
     0
 62
     1
  6
CONTINUOUS
  0
LAYER
  2
ETC
 70
     0
 62
    61
  6
CONTINUOUS
  0
LAYER
  2
FIX
 70
     0
 62
    11
  6
CONTINUOUS
  0
LAYER
  2
NOTE
 70
     0
 62
     4
  6
CONTINUOUS
  0
LAYER
  2
0
 70
    64
 62
     7
  6
CONTINUOUS
  0
LAYER
  2
DEFPOINTS
 70
    64
 62
     7
  6
CONTINUOUS
  0
LAYER
  2
SERVICESPACE
 70
    64
 62
     2
  6
DASHDOT
  0
LAYER
  2
SYMBOLLINE
 70
    64
 62
    15
  6
CONTINUOUS
  0
ENDTAB
  0
TABLE
  2
STYLE
 70
     1
  0
STYLE
  2
STANDARD
 70
     0
 40
64.0
 41
0.9
 50
0.0
 71
     0
 42
64.0
  3
SIMPLEX.shx
  4
BIGFONT.shx
  0
ENDTAB
  0
TABLE
  2
APPID
 70
    20
  0
APPID
  2
ACAD
 70
     0
  0
APPID
  2
ACADANNOTATIVE
 70
     0
  0
APPID
  2
AUTOCAD_POSTSCRIPT_FIGURE
 70
     0
  0
APPID
  2
ACAD_EXEMPT_FROM_CAD_STANDARDS
 70
     0
  0
APPID
  2
ACAD_PSEXT
 70
     0
  0
APPID
  2
ACAUTHENVIRON
 70
     0
  0
APPID
  2
GENIUS_GENOENT_13
 70
     0
  0
APPID
  2
GENIUS_GENCFG_13
 70
     0
  0
APPID
  2
GENIUS_GENCFG0_13
 70
     0
  0
APPID
  2
GENIUS_GENCFG1_13
 70
     0
  0
APPID
  2
GENIUS_GENCFG2_13
 70
     0
  0
APPID
  2
GENIUS_GENCFG3_13
 70
     0
  0
APPID
  2
GENIUS_GENCFG4_13
 70
     0
  0
APPID
  2
GENIUS_GEVCFG0_13
 70
     0
  0
APPID
  2
CONTENTBLOCKICON
 70
     0
  0
APPID
  2
CONTENTBLOCKDESCRIPTION
 70
     0
  0
APPID
  2
ACAD_NAV_VCDISPLAY
 70
     0
  0
APPID
  2
ACAD_MLEADERVER
 70
     0
  0
APPID
  2
ACDBDYNAMICBLOCKTRUENAME
 70
     0
  0
APPID
  2
ACDBDYNAMICBLOCKGUID
 70
     0
  0
ENDTAB
  0
TABLE
  2
DIMSTYLE
 70
     1
  0
DIMSTYLE
  2
STANDARD
 70
     0
  3

  4

  5

  6

  7

 40
1.0
 41
12.0
 42
20.0
 43
200.0
 44
20.0
 45
0.0
 46
0.0
 47
0.0
 48
0.0
140
64.0
141
0.09
142
0.0
143
25.399999999999999
144
1.0
145
0.0
146
1.0
147
25.0
 71
     0
 72
     0
 73
     0
 74
     0
 75
     0
 76
     0
 77
     1
 78
     8
170
     0
171
     2
172
     1
173
     0
174
     1
175
     0
176
     7
177
     7
178
     7
  0
ENDTAB
  0
TABLE
  2
VIEW
 70
     1
  0
VIEW
  2
ALL
 70
     0
 40
4282.6198079999986
 10
0.0
 20
41.309904000000003
 41
5940.0
 11
0.0
 21
0.0
 31
1.0
 12
0.0
 22
0.0
 32
0.0
 42
50.0
 43
0.0
 44
0.0
 50
0.0
 71
     0
  0
ENDTAB
  0
TABLE
  2
UCS
 70
     0
  0
ENDTAB
  0
TABLE
  2
VPORT
 70
     1
  0
VPORT
  2
*ACTIVE
 70
     0
 10
0.0
 20
0.0
 11
1.0
 21
1.0
 12
125.07935967887531
 22
277.17591342187461
 13
0.0
 23
0.0
 14
1.0
 24
1.0
 15
0.0
 25
0.0
 16
0.0
 26
0.0
 36
1.0
 17
0.0
 27
0.0
 37
0.0
 40
858.00231180027868
 41
1.980636237897649
 42
50.0
 43
0.0
 44
0.0
 50
0.0
 51
0.0
 71
     0
 72
  1000
 73
     1
 74
     3
 75
     0
 76
     0
 77
     0
 78
     0
  0
ENDTAB
  0
ENDSEC
  0
SECTION
  2
BLOCKS
  0
ENDSEC
  0
SECTION
  2
ENTITIES
  0
TEXT
  8
ETC
  6
CONTINUOUS
 62
    61
 10
235.6868279863593
 20
739.84229017835344
 30
0.0
 40
64.0
  1
V-08KLD4_6
 41
0.9
  0
TEXT
  8
ETC
  6
CONTINUOUS
 62
    61
 10
231.50083398635891
 20
621.88698016352237
 30
0.0
 40
64.0
  1
換気扇
 41
0.9
  0
LINE
  8
BASIS
  6
DASHDOT
 62
     6
 10
0.0
 20
-109.2854010143142
 30
0.0
 11
0.0
 21
109.2854010143142
 31
0.0
  0
LINE
  8
BASIS
  6
DASHDOT
 62
     6
 10
95.967552833830496
 20
0.0
 30
0.0
 11
-95.967646960021909
 21
0.0
 31
0.0
  0
TEXT
  8
ETC
  6
CONTINUOUS
 62
    61
 10
282.20223223491479
 20
513.73820727729708
 30
0.0
 40
40.0
  1
V-08KLD4
 41
0.9
  0
TEXT
  8
ETC
  6
CONTINUOUS
 62
    61
 10
282.20223223491479
 20
447.73820727729708
 30
0.0
 40
40.0
  1
V-08KPLD4
 41
0.9
  0
CIRCLE
  8
FIX
  6
CONTINUOUS
 62
    11
 10
69.945735111388331
 20
0.0
 30
0.0
 40
7.0441691683918863
  0
LINE
  8
NOTE
  6
CONTINUOUS
 62
     4
 10
69.945735111388331
 20
-26.021817722442051
 30
0.0
 11
69.945735111388331
 21
26.021817722442051
 31
0.0
  0
LINE
  8
NOTE
  6
CONTINUOUS
 62
     4
 10
95.967552833830496
 20
0.0
 30
0.0
 11
43.923917388946293
 21
0.0
 31
0.0
  0
CIRCLE
  8
FIX
  6
CONTINUOUS
 62
    11
 10
-69.945829237579858
 20
0.0
 30
0.0
 40
7.0441691683918863
  0
LINE
  8
NOTE
  6
CONTINUOUS
 62
     4
 10
-69.945829237579858
 20
-26.021817722442051
 30
0.0
 11
-69.945829237579858
 21
26.021817722442051
 31
0.0
  0
LINE
  8
NOTE
  6
CONTINUOUS
 62
     4
 10
-43.924011515137749
 20
0.0
 30
0.0
 11
-95.967646960021909
 21
0.0
 31
0.0
  0
CIRCLE
  8
FIX
  6
CONTINUOUS
 62
    11
 10
60.245336069167827
 20
0.0
 30
0.0
 40
7.0441691683918863
  0
LINE
  8
NOTE
  6
CONTINUOUS
 62
     4
 10
60.245336069167827
 20
-26.021817722442051
 30
0.0
 11
60.245336069167827
 21
26.021817722442051
 31
0.0
  0
LINE
  8
NOTE
  6
CONTINUOUS
 62
     4
 10
86.267153791609886
 20
0.0
 30
0.0
 11
34.223518346725768
 21
0.0
 31
0.0
  0
LINE
  8
SIZE
  6
CONTINUOUS
 62
    30
 10
-80.000047214889264
 20
-20.508782678081499
 30
0.0
 11
-80.000047214889264
 21
-225.12943962455171
 31
0.0
  0
LINE
  8
SIZE
  6
CONTINUOUS
 62
    30
 10
79.999953088695179
 20
-20.50878267810106
 30
0.0
 11
79.999953088695179
 21
-225.12943962455171
 31
0.0
  0
LINE
  8
SIZE
  6
CONTINUOUS
 62
    30
 10
-68.000047214889264
 20
-205.12943962455171
 30
0.0
 11
67.999953088695179
 21
-205.12943962455171
 31
0.0
  0
LINE
  8
SIZE
  6
CONTINUOUS
 62
    30
 10
79.999953088695179
 20
-205.12943962455171
 30
0.0
 11
344.42281023155232
 21
-205.12943962455171
 31
0.0
  0
CIRCLE
  8
SIZE
  6
CONTINUOUS
 62
    30
 10
-80.000047214889264
 20
-205.12943962455171
 30
0.0
 40
6.0
  0
LINE
  8
SIZE
  6
CONTINUOUS
 62
    30
 10
-80.000047214889264
 20
-205.12943962455171
 30
0.0
 11
-68.000047214889264
 21
-205.12943962455171
 31
0.0
  0
CIRCLE
  8
SIZE
  6
CONTINUOUS
 62
    30
 10
79.999953088695179
 20
-205.12943962455171
 30
0.0
 40
6.0
  0
LINE
  8
SIZE
  6
CONTINUOUS
 62
    30
 10
79.999953088695179
 20
-205.12943962455171
 30
0.0
 11
67.999953088695179
 21
-205.12943962455171
 31
0.0
  0
TEXT
  8
SIZE
  6
CONTINUOUS
 62
    30
 10
113.159953088695
 20
-180.12943962455179
 30
0.0
 40
64.0
  1
□160
 41
0.9
 72
     1
 11
218.21138166012361
 21
-180.12943962455179
 31
0.0
  0
LINE
  8
SIZE
  6
CONTINUOUS
 62
    30
 10
-69.945829237579858
 20
46.021817722442037
 30
0.0
 11
-69.945829237579801
 21
538.489826520522
 31
0.0
  0
LINE
  8
SIZE
  6
CONTINUOUS
 62
    30
 10
69.945735111388331
 20
46.021817722442037
 30
0.0
 11
69.945735111388458
 21
538.48982652052177
 31
0.0
  0
LINE
  8
SIZE
  6
CONTINUOUS
 62
    30
 10
-57.945829237579787
 20
518.489826520522
 30
0.0
 11
57.945735111388437
 21
518.489826520522
 31
0.0
  0
CIRCLE
  8
SIZE
  6
CONTINUOUS
 62
    30
 10
-69.945829237579801
 20
518.489826520522
 30
0.0
 40
6.0
  0
LINE
  8
SIZE
  6
CONTINUOUS
 62
    30
 10
-69.945829237579801
 20
518.489826520522
 30
0.0
 11
-57.945829237579787
 21
518.489826520522
 31
0.0
  0
CIRCLE
  8
SIZE
  6
CONTINUOUS
 62
    30
 10
69.945735111388458
 20
518.489826520522
 30
0.0
 40
6.0
  0
LINE
  8
SIZE
  6
CONTINUOUS
 62
    30
 10
69.945735111388458
 20
518.489826520522
 30
0.0
 11
57.945735111388437
 21
518.489826520522
 31
0.0
  0
TEXT
  8
SIZE
  6
CONTINUOUS
 62
    30
 10
-68.571475634524305
 20
543.489826520522
 30
0.0
 40
64.0
  1
140
 41
0.9
 72
     1
 11
-0.0000470630957352
 21
543.489826520522
 31
0.0
  0
LINE
  8
SIZE
  6
CONTINUOUS
 62
    30
 10
47.8471389506701
 20
54.003774419242283
 30
0.0
 11
47.8471389506701
 21
407.58344948646891
 31
0.0
  0
LINE
  8
SIZE
  6
CONTINUOUS
 62
    30
 10
-47.172134086224453
 20
54.003885696694176
 30
0.0
 11
-47.172134086224453
 21
407.58344948646891
 31
0.0
  0
LINE
  8
SIZE
  6
CONTINUOUS
 62
    30
 10
35.847138950670107
 20
387.58344948646891
 30
0.0
 11
-35.172134086224453
 21
387.58344948646891
 31
0.0
  0
LINE
  8
SIZE
  6
CONTINUOUS
 62
    30
 10
-47.172134086224453
 20
387.58344948646891
 30
0.0
 11
-303.09409983430919
 21
387.58344948646891
 31
0.0
  0
CIRCLE
  8
SIZE
  6
CONTINUOUS
 62
    30
 10
47.8471389506701
 20
387.58344948646891
 30
0.0
 40
6.0
  0
LINE
  8
SIZE
  6
CONTINUOUS
 62
    30
 10
47.8471389506701
 20
387.58344948646891
 30
0.0
 11
35.847138950670107
 21
387.58344948646891
 31
0.0
  0
CIRCLE
  8
SIZE
  6
CONTINUOUS
 62
    30
 10
-47.172134086224453
 20
387.58344948646891
 30
0.0
 40
6.0
  0
LINE
  8
SIZE
  6
CONTINUOUS
 62
    30
 10
-47.172134086224453
 20
387.58344948646891
 30
0.0
 11
-35.172134086224453
 21
387.58344948646891
 31
0.0
  0
TEXT
  8
SIZE
  6
CONTINUOUS
 62
    30
 10
-288.24267126288072
 20
423.25011615313542
 30
0.0
 40
64.0
  1
φ95
 41
0.9
 72
     1
 11
-201.29409983430921
 21
423.25011615313542
 31
0.0
  0
LINE
  8
SIZE
  6
CONTINUOUS
 62
    30
 10
-23.190038578424321
 20
101.9090919098805
 30
0.0
 11
-23.190038578424321
 21
263.7160477776597
 31
0.0
  0
LINE
  8
SIZE
  6
CONTINUOUS
 62
    30
 10
23.190038578424431
 20
101.9090919098805
 30
0.0
 11
23.190038578424431
 21
263.7160477776597
 31
0.0
  0
LINE
  8
SIZE
  6
CONTINUOUS
 62
    30
 10
35.190038578424428
 20
243.7160477776597
 30
0.0
 11
47.190038578424392
 21
243.7160477776597
 31
0.0
  0
LINE
  8
SIZE
  6
CONTINUOUS
 62
    30
 10
-35.190038578424321
 20
243.7160477776597
 30
0.0
 11
-310.79743204895601
 21
243.7160477776597
 31
0.0
  0
LINE
  8
SIZE
  6
CONTINUOUS
 62
    30
 10
23.190038578424431
 20
243.7160477776597
 30
0.0
 11
-23.190038578424321
 21
243.7160477776597
 31
0.0
  0
CIRCLE
  8
SIZE
  6
CONTINUOUS
 62
    30
 10
23.190038578424431
 20
243.7160477776597
 30
0.0
 40
6.0
  0
LINE
  8
SIZE
  6
CONTINUOUS
 62
    30
 10
23.190038578424431
 20
243.7160477776597
 30
0.0
 11
35.190038578424428
 21
243.7160477776597
 31
0.0
  0
CIRCLE
  8
SIZE
  6
CONTINUOUS
 62
    30
 10
-23.190038578424321
 20
243.7160477776597
 30
0.0
 40
6.0
  0
LINE
  8
SIZE
  6
CONTINUOUS
 62
    30
 10
-23.190038578424321
 20
243.7160477776597
 30
0.0
 11
-35.190038578424321
 21
243.7160477776597
 31
0.0
  0
TEXT
  8
SIZE
  6
CONTINUOUS
 62
    30
 10
-295.94600347752743
 20
279.38271444432638
 30
0.0
 40
64.0
  1
φ46
 41
0.9
 72
     1
 11
-210.36886062038459
 21
279.38271444432638
 31
0.0
  0
LINE
  8
SIZE
  6
CONTINUOUS
 62
    30
 10
-20.0
 20
-30.003330369911051
 30
0.0
 11
-166.01928072223561
 21
-30.003330369911051
 31
0.0
  0
LINE
  8
SIZE
  6
CONTINUOUS
 62
    30
 10
-115.96764696002199
 20
0.0
 30
0.0
 11
-166.01928072223561
 21
0.0
 31
0.0
  0
LINE
  8
SIZE
  6
CONTINUOUS
 62
    30
 10
-146.01928072223561
 20
12.0
 30
0.0
 11
-146.01928072223561
 21
24.0
 31
0.0
  0
LINE
  8
SIZE
  6
CONTINUOUS
 62
    30
 10
-146.01928072223561
 20
-42.003330369911048
 30
0.0
 11
-146.01928072223569
 21
-197.26047322705381
 31
0.0
  0
LINE
  8
SIZE
  6
CONTINUOUS
 62
    30
 10
-146.01928072223561
 20
0.0
 30
0.0
 11
-146.01928072223561
 21
-30.003330369911051
 31
0.0
  0
CIRCLE
  8
SIZE
  6
CONTINUOUS
 62
    30
 10
-146.01928072223561
 20
0.0
 30
0.0
 40
6.0
  0
LINE
  8
SIZE
  6
CONTINUOUS
 62
    30
 10
-146.01928072223561
 20
0.0
 30
0.0
 11
-146.01928072223561
 21
12.0
 31
0.0
  0
CIRCLE
  8
SIZE
  6
CONTINUOUS
 62
    30
 10
-146.01928072223561
 20
-30.003330369911051
 30
0.0
 40
6.0
  0
LINE
  8
SIZE
  6
CONTINUOUS
 62
    30
 10
-146.01928072223561
 20
-30.003330369911051
 30
0.0
 11
-146.01928072223561
 21
-42.003330369911048
 31
0.0
  0
TEXT
  8
SIZE
  6
CONTINUOUS
 62
    30
 10
-171.01928072223561
 20
-172.26047322705369
 30
0.0
 40
64.0
  1
30
 50
90.0
 41
0.9
 72
     1
 11
-171.01928072223561
 21
-125.6319017984823
 31
0.0
  0
LINE
  8
SIZE
  6
CONTINUOUS
 62
    30
 10
-115.9676469600219
 20
0.0
 30
0.0
 11
-283.84631854910282
 21
0.0000000000001137
 31
0.0
  0
LINE
  8
SIZE
  6
CONTINUOUS
 62
    30
 10
-67.156782055448843
 20
56.306249994215918
 30
0.0
 11
-283.84631854910282
 21
56.306249994216053
 31
0.0
  0
LINE
  8
SIZE
  6
CONTINUOUS
 62
    30
 10
-263.84631854910282
 20
68.306249994215932
 30
0.0
 11
-263.84631854910282
 21
80.306249994216031
 31
0.0
  0
LINE
  8
SIZE
  6
CONTINUOUS
 62
    30
 10
-263.84631854910282
 20
-11.99999999999989
 30
0.0
 11
-263.84631854910282
 21
-249.54285714285709
 31
0.0
  0
LINE
  8
SIZE
  6
CONTINUOUS
 62
    30
 10
-263.84631854910282
 20
56.306249994216053
 30
0.0
 11
-263.84631854910282
 21
0.0000000000001137
 31
0.0
  0
CIRCLE
  8
SIZE
  6
CONTINUOUS
 62
    30
 10
-263.84631854910282
 20
56.306249994216053
 30
0.0
 40
6.0
  0
LINE
  8
SIZE
  6
CONTINUOUS
 62
    30
 10
-263.84631854910282
 20
56.306249994216053
 30
0.0
 11
-263.84631854910282
 21
68.306249994216046
 31
0.0
  0
CIRCLE
  8
SIZE
  6
CONTINUOUS
 62
    30
 10
-263.84631854910282
 20
0.0000000000001137
 30
0.0
 40
6.0
  0
LINE
  8
SIZE
  6
CONTINUOUS
 62
    30
 10
-263.84631854910282
 20
0.0000000000001137
 30
0.0
 11
-263.84631854910282
 21
-11.99999999999989
 31
0.0
  0
TEXT
  8
SIZE
  6
CONTINUOUS
 62
    30
 10
-288.84631854910282
 20
-224.54285714285709
 30
0.0
 40
64.0
  1
56.5
 50
90.0
 41
0.9
 72
     1
 11
-288.84631854910282
 21
-136.7714285714286
 31
0.0
  0
LINE
  8
SIZE
  6
CONTINUOUS
 62
    30
 10
-115.96764696002199
 20
0.0
 30
0.0
 11
-404.80900189023851
 21
0.0000000000001137
 31
0.0
  0
LINE
  8
SIZE
  6
CONTINUOUS
 62
    30
 10
-40.552493169586
 20
84.509380541940217
 30
0.0
 11
-404.80900189023851
 21
84.509380541940345
 31
0.0
  0
LINE
  8
SIZE
  6
CONTINUOUS
 62
    30
 10
-384.80900189023851
 20
72.509380541940345
 30
0.0
 11
-384.80900189023851
 21
12.00000000000011
 31
0.0
  0
LINE
  8
SIZE
  6
CONTINUOUS
 62
    30
 10
-384.80900189023851
 20
0.0000000000001137
 30
0.0
 11
-384.80900189023862
 21
-237.66736135373671
 31
0.0
  0
CIRCLE
  8
SIZE
  6
CONTINUOUS
 62
    30
 10
-384.80900189023851
 20
84.509380541940345
 30
0.0
 40
6.0
  0
LINE
  8
SIZE
  6
CONTINUOUS
 62
    30
 10
-384.80900189023851
 20
84.509380541940345
 30
0.0
 11
-384.80900189023851
 21
72.509380541940345
 31
0.0
  0
CIRCLE
  8
SIZE
  6
CONTINUOUS
 62
    30
 10
-384.80900189023851
 20
0.0000000000001137
 30
0.0
 40
6.0
  0
LINE
  8
SIZE
  6
CONTINUOUS
 62
    30
 10
-384.80900189023851
 20
0.0000000000001137
 30
0.0
 11
-384.80900189023851
 21
12.00000000000011
 31
0.0
  0
TEXT
  8
SIZE
  6
CONTINUOUS
 62
    30
 10
-409.80900189023851
 20
-212.6673613537366
 30
0.0
 40
64.0
  1
84.5
 50
90.0
 41
0.9
 72
     1
 11
-409.80900189023851
 21
-124.89593278230799
 31
0.0
  0
TEXT
  8
NOTE
  6
CONTINUOUS
 62
     4
 10
142.25035519483211
 20
57.07725143514746
 30
0.0
 40
64.0
  1
2-φ4×10
 41
0.9
  0
TEXT
  8
NOTE
  6
CONTINUOUS
 62
     4
 10
-530.7369237344551
 20
129.61743828542691
 30
0.0
 40
64.0
  1
2-φ5×7
 41
0.9
  0
TEXT
  8
NOTE
  6
CONTINUOUS
 62
     4
 10
140.95396177172009
 20
223.7835389778347
 30
0.0
 40
64.0
  1
EL
 41
0.9
  0
LINE
  8
NOTE
  6
CONTINUOUS
 62
     4
 10
-72.099484790491871
 20
5.826359673879665
 30
0.0
 11
-69.945829237579858
 21
0.0
 31
0.0
  0
LINE
  8
NOTE
  6
CONTINUOUS
 62
     4
 10
-69.945829237579858
 20
0.0
 30
0.0
 11
-74.724135475318349
 21
3.9689405120748229
 31
0.0
  0
LINE
  8
NOTE
  6
CONTINUOUS
 62
     4
 10
-69.945829237579858
 20
0.0
 30
0.0
 11
-76.877791028230433
 21
9.7953001859544884
 31
0.0
  0
LINE
  8
NOTE
  6
CONTINUOUS
 62
     4
 10
-76.877791028230376
 20
9.7953001859544884
 30
0.0
 11
-145.9522486855254
 21
107.40187511655721
 31
0.0
  0
LINE
  8
NOTE
  6
CONTINUOUS
 62
     4
 10
-145.9522486855254
 20
107.40187511655721
 30
0.0
 11
-539.66780816173377
 21
107.40187511655721
 31
0.0
  0
LINE
  8
NOTE
  6
CONTINUOUS
 62
     4
 10
63.782457971360152
 20
5.1062185557447037
 30
0.0
 11
60.245336069167827
 21
0.0
 31
0.0
  0
LINE
  8
NOTE
  6
CONTINUOUS
 62
     4
 10
60.245336069167827
 20
0.0
 30
0.0
 11
60.755454885875452
 21
6.1906767063740062
 31
0.0
  0
LINE
  8
NOTE
  6
CONTINUOUS
 62
     4
 10
60.245336069167827
 20
0.0
 30
0.0
 11
64.29257678806789
 21
11.2968952621186
 31
0.0
  0
LINE
  8
NOTE
  6
CONTINUOUS
 62
     4
 10
64.29257678806789
 20
11.2968952621186
 30
0.0
 11
128.95396177172009
 21
191.7835389778347
 31
0.0
  0
LINE
  8
NOTE
  6
CONTINUOUS
 62
     4
 10
128.95396177172009
 20
191.7835389778347
 30
0.0
 11
225.9825332002915
 21
191.7835389778347
 31
0.0
  0
LINE
  8
NOTE
  6
CONTINUOUS
 62
     4
 10
76.10311955087127
 20
0.8193388520101053
 30
0.0
 11
69.945735111388331
 21
0.0
 31
0.0
  0
LINE
  8
NOTE
  6
CONTINUOUS
 62
     4
 10
69.945735111388331
 20
0.0
 30
0.0
 11
74.868511322141558
 21
3.7882678982408611
 31
0.0
  0
LINE
  8
NOTE
  6
CONTINUOUS
 62
     4
 10
69.945735111388331
 20
0.0
 30
0.0
 11
81.025895761624497
 21
4.6076067502510796
 31
0.0
  0
LINE
  8
NOTE
  6
CONTINUOUS
 62
     4
 10
81.025895761624497
 20
4.6076067502510796
 30
0.0
 11
130.25035519483211
 21
25.077251435147449
 31
0.0
  0
LINE
  8
NOTE
  6
CONTINUOUS
 62
     4
 10
130.25035519483211
 20
25.077251435147449
 30
0.0
 11
538.73478000877276
 21
25.077251435147449
 31
0.0
  0
LINE
  8
DETAIL
  6
CONTINUOUS
 62
     5
 10
-13.416839999999979
 20
-15.069492560819191
 30
0.0
 11
13.416839999999979
 21
-15.069492560819191
 31
0.0
  0
LINE
  8
DETAIL
  6
CONTINUOUS
 62
     5
 10
13.416839999999979
 20
-15.069492560819191
 30
0.0
 11
13.416839999999979
 21
-16.89847022829338
 31
0.0
  0
LINE
  8
DETAIL
  6
CONTINUOUS
 62
     5
 10
13.416839999999979
 20
-16.89847022829338
 30
0.0
 11
-13.416839999999979
 21
-16.89847022829338
 31
0.0
  0
LINE
  8
DETAIL
  6
CONTINUOUS
 62
     5
 10
-13.416839999999979
 20
-16.89847022829338
 30
0.0
 11
-13.416839999999979
 21
-15.069492560819191
 31
0.0
  0
CIRCLE
  8
ARRANGE
  6
CONTINUOUS
 62
     1
 10
0.0
 20
0.0
 30
0.0
 40
40.0
  0
POINT
  8
ARRANGE
  6
CONTINUOUS
 62
     1
 10
0.0
 20
0.0
 30
0.0
  0
ARC
  8
DETAIL
  6
CONTINUOUS
 62
     5
 10
47.156797565770603
 20
55.806194488050487
 30
0.0
 40
0.500055506165326
 50
0.4999998792085026
 51
89.999986426802039
  0
LINE
  8
DETAIL
  6
CONTINUOUS
 62
     5
 10
-79.500058884180362
 20
0.0
 30
0.0
 11
79.499973743405462
 21
0.0
 31
0.0
  0
ARC
  8
DETAIL
  6
CONTINUOUS
 62
     5
 10
-0.0000470678955935
 20
9971.1067917816217
 30
0.0
 40
10001.11012215152
 50
269.5501840900676
 51
270.44981590994541
  0
LINE
  8
DETAIL
  6
CONTINUOUS
 62
     5
 10
-78.552476301108072
 20
-27.545742865186298
 30
0.0
 11
-52.368410978740258
 21
-27.71716893198132
 31
0.0
  0
LINE
  8
DETAIL
  6
CONTINUOUS
 62
     5
 10
-79.544813297622795
 20
-26.589116334233609
 30
0.0
 11
-79.534271593993481
 21
-26.71435037491278
 31
0.0
  0
LINE
  8
DETAIL
  6
CONTINUOUS
 62
     5
 10
-79.534271593993481
 20
-26.71435037491278
 30
0.0
 11
-79.507461260846412
 21
-26.836755322163189
 31
0.0
  0
LINE
  8
DETAIL
  6
CONTINUOUS
 62
     5
 10
-79.507461260846412
 20
-26.836755322163189
 30
0.0
 11
-79.464731426834533
 21
-26.954741898774071
 31
0.0
  0
LINE
  8
DETAIL
  6
CONTINUOUS
 62
     5
 10
-79.464731426834533
 20
-26.954741898774071
 30
0.0
 11
-79.406537455003217
 21
-27.066886654843021
 31
0.0
  0
LINE
  8
DETAIL
  6
CONTINUOUS
 62
     5
 10
-79.406537455003217
 20
-27.066886654843021
 30
0.0
 11
-79.334211337603392
 21
-27.170523827469989
 31
0.0
  0
LINE
  8
DETAIL
  6
CONTINUOUS
 62
     5
 10
-79.334211337603392
 20
-27.170523827469989
 30
0.0
 11
-79.248707671095872
 21
-27.264312075966131
 31
0.0
  0
LINE
  8
DETAIL
  6
CONTINUOUS
 62
     5
 10
-79.248707671095872
 20
-27.264312075966131
 30
0.0
 11
-79.151587090910652
 21
-27.346590471468939
 31
0.0
  0
LINE
  8
DETAIL
  6
CONTINUOUS
 62
     5
 10
-79.151587090910652
 20
-27.346590471468939
 30
0.0
 11
-79.04439577877406
 21
-27.415993812340499
 31
0.0
  0
LINE
  8
DETAIL
  6
CONTINUOUS
 62
     5
 10
-79.04439577877406
 20
-27.415993812340499
 30
0.0
 11
-78.928926665201743
 21
-27.471422270499541
 31
0.0
  0
LINE
  8
DETAIL
  6
CONTINUOUS
 62
     5
 10
-78.928926665201743
 20
-27.471422270499541
 30
0.0
 11
-78.807094929177765
 21
-27.511915417439269
 31
0.0
  0
LINE
  8
DETAIL
  6
CONTINUOUS
 62
     5
 10
-78.807094929177765
 20
-27.511915417439269
 30
0.0
 11
-78.680644733805138
 21
-27.53705116360743
 31
0.0
  0
LINE
  8
DETAIL
  6
CONTINUOUS
 62
     5
 10
-78.680644733805138
 20
-27.53705116360743
 30
0.0
 11
-78.552476301108072
 21
-27.545742865186298
 31
0.0
  0
LINE
  8
DETAIL
  6
CONTINUOUS
 62
     5
 10
-79.507749514440548
 20
-28.712499051632729
 30
0.0
 11
-80.000047214889264
 21
-0.5087826780815021
 31
0.0
  0
ARC
  8
DETAIL
  6
CONTINUOUS
 62
     5
 10
-78.507790823817459
 20
-28.69504470770039
 30
0.0
 40
1.00011101233067
 50
181.00000000000179
 51
269.54824701919603
  0
ARC
  8
DETAIL
  6
CONTINUOUS
 62
     5
 10
-79.500058884180362
 20
-0.5000555061653813
 30
0.0
 40
0.50005550616533
 50
90.001029543201426
 51
180.99998203380849
  0
ARC
  8
DETAIL
  6
CONTINUOUS
 62
     5
 10
79.499973743405462
 20
-0.5000555061653813
 30
0.0
 40
0.50005550616533
 50
358.99999999989399
 51
90.0
  0
LINE
  8
DETAIL
  6
CONTINUOUS
 62
     5
 10
52.368316753206052
 20
-27.717168932381011
 30
0.0
 11
78.552382174584636
 21
-27.545742865586359
 31
0.0
  0
LINE
  8
DETAIL
  6
CONTINUOUS
 62
     5
 10
79.544719171199404
 20
-26.589116334633331
 30
0.0
 11
79.534177623787627
 21
-26.71434935309944
 31
0.0
  0
LINE
  8
DETAIL
  6
CONTINUOUS
 62
     5
 10
79.534177623787627
 20
-26.71434935309944
 30
0.0
 11
79.507367680283778
 21
-26.836753436553689
 31
0.0
  0
LINE
  8
DETAIL
  6
CONTINUOUS
 62
     5
 10
79.507367680283778
 20
-26.836753436553689
 30
0.0
 11
79.464638408134078
 21
-26.954739371193739
 31
0.0
  0
LINE
  8
DETAIL
  6
CONTINUOUS
 62
     5
 10
79.464638408134078
 20
-26.954739371193739
 30
0.0
 11
79.406445084074676
 21
-27.066883754420811
 31
0.0
  0
LINE
  8
DETAIL
  6
CONTINUOUS
 62
     5
 10
79.406445084074676
 20
-27.066883754420811
 30
0.0
 11
79.334119570142093
 21
-27.170520874542209
 31
0.0
  0
LINE
  8
DETAIL
  6
CONTINUOUS
 62
     5
 10
79.334119570142093
 20
-27.170520874542209
 30
0.0
 11
79.248616365985526
 21
-27.264309356664398
 31
0.0
  0
LINE
  8
DETAIL
  6
CONTINUOUS
 62
     5
 10
79.248616365985526
 20
-27.264309356664398
 30
0.0
 11
79.151496005224772
 21
-27.346588212418109
 31
0.0
  0
LINE
  8
DETAIL
  6
CONTINUOUS
 62
     5
 10
79.044304620780167
 20
-27.415992148355741
 30
0.0
 11
78.928835116364326
 21
-27.471421227784081
 31
0.0
  0
LINE
  8
DETAIL
  6
CONTINUOUS
 62
     5
 10
78.928835116364326
 20
-27.471421227784081
 30
0.0
 11
78.807002707666015
 21
-27.511914915383581
 31
0.0
  0
LINE
  8
DETAIL
  6
CONTINUOUS
 62
     5
 10
78.807002707666015
 20
-27.511914915383581
 30
0.0
 11
78.680551644296656
 21
-27.53705103029256
 31
0.0
  0
LINE
  8
DETAIL
  6
CONTINUOUS
 62
     5
 10
78.680551644296656
 20
-27.53705103029256
 30
0.0
 11
78.552382174584636
 21
-27.545742865586359
 31
0.0
  0
LINE
  8
DETAIL
  6
CONTINUOUS
 62
     5
 10
79.151496005224772
 20
-27.346588212418109
 30
0.0
 11
79.044304620780167
 21
-27.415992148355741
 31
0.0
  0
LINE
  8
DETAIL
  6
CONTINUOUS
 62
     5
 10
79.50765538812152
 20
-28.712499051632729
 30
0.0
 11
79.999953088695293
 21
-0.5087826781010563
 31
0.0
  0
ARC
  8
DETAIL
  6
CONTINUOUS
 62
     5
 10
78.507696697498432
 20
-28.69504470770039
 30
0.0
 40
1.000111012330712
 50
270.44981590980211
 51
358.99999999999818
  0
LINE
  8
DETAIL
  6
CONTINUOUS
 62
     5
 10
26.420912717071591
 20
-27.820024027855709
 30
0.0
 11
52.605096044037737
 21
-27.717168775621762
 31
0.0
  0
LINE
  8
DETAIL
  6
CONTINUOUS
 62
     5
 10
0.2367321384101615
 20
-27.854308950282071
 30
0.0
 11
26.420912717071591
 21
-27.820024027855709
 31
0.0
  0
LINE
  8
DETAIL
  6
CONTINUOUS
 62
     5
 10
-52.131631687908339
 20
-27.717168775221609
 30
0.0
 11
-25.94744842044884
 21
-27.820024027555519
 31
0.0
  0
LINE
  8
DETAIL
  6
CONTINUOUS
 62
     5
 10
-25.94744842044884
 20
-27.820024027555519
 30
0.0
 11
0.2367321384101615
 21
-27.854308950282071
 31
0.0
  0
LINE
  8
DETAIL
  6
CONTINUOUS
 62
     5
 10
32.699024724465517
 20
56.306249994215882
 30
0.0
 11
32.141306359623741
 21
58.50649422134336
 31
0.0
  0
ARC
  8
DETAIL
  6
CONTINUOUS
 62
     5
 10
20.589749946364918
 20
81.909091909880615
 30
0.0
 40
2.6002886320597001
 50
0.0
 51
90.0
  0
LINE
  8
DETAIL
  6
CONTINUOUS
 62
     5
 10
23.190038578424488
 20
81.909091909880615
 30
0.0
 11
23.190038578424488
 21
58.50649422134336
 31
0.0
  0
LINE
  8
DETAIL
  6
CONTINUOUS
 62
     5
 10
20.589615480338811
 20
84.509380541940189
 30
0.0
 11
-20.589615480338811
 21
84.509380541940189
 31
0.0
  0
LINE
  8
DETAIL
  6
CONTINUOUS
 62
     5
 10
-47.15678205544873
 20
56.30624999421596
 30
0.0
 11
47.156782055448957
 21
56.306249994215882
 31
0.0
  0
ARC
  8
DETAIL
  6
CONTINUOUS
 62
     5
 10
-47.156797565770383
 20
55.806194488050551
 30
0.0
 40
0.500055506165326
 50
90.000013573197961
 51
179.5000001207915
  0
LINE
  8
DETAIL
  6
CONTINUOUS
 62
     5
 10
-47.656834031322433
 20
55.810558239127062
 30
0.0
 11
-47.656746934246662
 21
0.0
 31
0.0
  0
ARC
  8
DETAIL
  6
CONTINUOUS
 62
     5
 10
-20.589749946364691
 20
81.90909190988063
 30
0.0
 40
2.6002886320597001
 50
90.0
 51
180.0
  0
LINE
  8
DETAIL
  6
CONTINUOUS
 62
     5
 10
-23.190038578424261
 20
81.90909190988063
 30
0.0
 11
-23.190038578424261
 21
58.506494221343416
 31
0.0
  0
LINE
  8
DETAIL
  6
CONTINUOUS
 62
     5
 10
-32.293411368216773
 20
57.906427613945112
 30
0.0
 11
32.293411368216987
 21
57.906427613945063
 31
0.0
  0
LINE
  8
DETAIL
  6
CONTINUOUS
 62
     5
 10
-32.496218046341028
 20
57.106338804080679
 30
0.0
 11
32.496218046341262
 21
57.106338804080622
 31
0.0
  0
LINE
  8
DETAIL
  6
CONTINUOUS
 62
     5
 10
-32.141306359623513
 20
58.506494221343416
 30
0.0
 11
32.141306359623741
 21
58.50649422134336
 31
0.0
  0
ARC
  8
OUTLINE
  6
CONTINUOUS
 62
     3
 10
47.156797565770603
 20
55.806194488050487
 30
0.0
 40
0.500055506165326
 50
0.4999998792085026
 51
89.999986426802039
  0
LINE
  8
OUTLINE
  6
CONTINUOUS
 62
     3
 10
-79.500058884180362
 20
0.0
 30
0.0
 11
79.499973743405462
 21
0.0
 31
0.0
  0
ARC
  8
OUTLINE
  6
CONTINUOUS
 62
     3
 10
-0.0000470678955935
 20
9971.1067917816217
 30
0.0
 40
10001.11012215152
 50
269.5501840900676
 51
270.44981590994541
  0
LINE
  8
OUTLINE
  6
CONTINUOUS
 62
     3
 10
-79.507749514440548
 20
-28.712499051632729
 30
0.0
 11
-80.000047214889264
 21
-0.5087826780815021
 31
0.0
  0
ARC
  8
OUTLINE
  6
CONTINUOUS
 62
     3
 10
-78.507790823817459
 20
-28.69504470770039
 30
0.0
 40
1.00011101233067
 50
181.00000000000179
 51
269.54824701919603
  0
ARC
  8
OUTLINE
  6
CONTINUOUS
 62
     3
 10
-79.500058884180362
 20
-0.5000555061653813
 30
0.0
 40
0.50005550616533
 50
90.001029543201426
 51
180.99998203380849
  0
ARC
  8
OUTLINE
  6
CONTINUOUS
 62
     3
 10
79.499973743405462
 20
-0.5000555061653813
 30
0.0
 40
0.50005550616533
 50
358.99999999989399
 51
90.0
  0
LINE
  8
OUTLINE
  6
CONTINUOUS
 62
     3
 10
79.50765538812152
 20
-28.712499051632729
 30
0.0
 11
79.999953088695293
 21
-0.5087826781010563
 31
0.0
  0
ARC
  8
OUTLINE
  6
CONTINUOUS
 62
     3
 10
78.507696697498432
 20
-28.69504470770039
 30
0.0
 40
1.000111012330712
 50
270.44981590980211
 51
358.99999999999818
  0
LINE
  8
OUTLINE
  6
CONTINUOUS
 62
     3
 10
32.699024724465517
 20
56.306249994215882
 30
0.0
 11
32.141306359623741
 21
58.50649422134336
 31
0.0
  0
ARC
  8
OUTLINE
  6
CONTINUOUS
 62
     3
 10
20.589749946364918
 20
81.909091909880615
 30
0.0
 40
2.6002886320597001
 50
0.0
 51
90.0
  0
LINE
  8
OUTLINE
  6
CONTINUOUS
 62
     3
 10
23.190038578424488
 20
81.909091909880615
 30
0.0
 11
23.190038578424488
 21
58.50649422134336
 31
0.0
  0
LINE
  8
OUTLINE
  6
CONTINUOUS
 62
     3
 10
20.589615480339031
 20
84.509380541940189
 30
0.0
 11
-20.589615480338811
 21
84.509380541940189
 31
0.0
  0
LINE
  8
OUTLINE
  6
CONTINUOUS
 62
     3
 10
-47.15678205544873
 20
56.306249994215932
 30
0.0
 11
47.156782055448957
 21
56.306249994215882
 31
0.0
  0
ARC
  8
OUTLINE
  6
CONTINUOUS
 62
     3
 10
-47.156797565770383
 20
55.806194488050579
 30
0.0
 40
0.500055506165326
 50
90.000013573197961
 51
179.5000001207915
  0
LINE
  8
OUTLINE
  6
CONTINUOUS
 62
     3
 10
-47.656834031322433
 20
55.810558239127062
 30
0.0
 11
-47.656746934246662
 21
0.0
 31
0.0
  0
ARC
  8
OUTLINE
  6
CONTINUOUS
 62
     3
 10
-20.589749946364691
 20
81.90909190988063
 30
0.0
 40
2.6002886320597001
 50
90.0
 51
180.0
  0
LINE
  8
OUTLINE
  6
CONTINUOUS
 62
     3
 10
-23.190038578424261
 20
81.90909190988063
 30
0.0
 11
-23.190038578424261
 21
58.506494221343416
 31
0.0
  0
LINE
  8
OUTLINE
  6
CONTINUOUS
 62
     3
 10
-32.141306359623513
 20
58.506494221343416
 30
0.0
 11
32.141306359623741
 21
58.50649422134336
 31
0.0
  0
LINE
  8
OUTLINE
  6
CONTINUOUS
 62
     3
 10
-32.699024724465289
 20
56.306249994215882
 30
0.0
 11
-32.141306359623513
 21
58.50649422134336
 31
0.0
  0
LINE
  8
DETAIL
  6
CONTINUOUS
 62
     5
 10
47.656834031322433
 20
55.810558239127062
 30
0.0
 11
47.656746934246712
 21
0.0
 31
0.0
  0
LINE
  8
OUTLINE
  6
CONTINUOUS
 62
     3
 10
47.656834031322433
 20
55.810558239127062
 30
0.0
 11
47.656746934246712
 21
0.0
 31
0.0
  0
ENDSEC
  0
EOF
