  0
SECTION
  2
HEADER
  9
$ACADVER
  1
AC1009
  9
$DWGCODEPAGE
  3
dos932
  9
$INSBASE
 10
0.0
 20
0.0
 30
0.0
  9
$EXTMIN
 10
-630.8349443842144
 20
-380.67625775080711
 30
-0.0015258207003583
  9
$EXTMAX
 10
851.98975745820098
 20
641.51001784660548
 30
0.0000000349246037
  9
$LIMMIN
 10
-2970.0
 20
-2100.0
  9
$LIMMAX
 10
2970.0
 20
2100.0
  9
$ORTHOMODE
 70
     1
  9
$REGENMODE
 70
     1
  9
$FILLMODE
 70
     1
  9
$QTEXTMODE
 70
     0
  9
$MIRRTEXT
 70
     0
  9
$LTSCALE
 40
20.0
  9
$ATTMODE
 70
     1
  9
$TEXTSIZE
 40
64.0
  9
$TRACEWID
 40
0.05
  9
$TEXTSTYLE
  7
STANDARD
  9
$CLAYER
  8
SIZE
  9
$CELTYPE
  6
CONTINUOUS
  9
$CECOLOR
 62
     7
  9
$DIMSCALE
 40
1.0
  9
$DIMASZ
 40
12.0
  9
$DIMEXO
 40
20.0
  9
$DIMDLI
 40
200.0
  9
$DIMRND
 40
0.0
  9
$DIMDLE
 40
0.0
  9
$DIMEXE
 40
20.0
  9
$DIMTP
 40
0.0
  9
$DIMTM
 40
0.0
  9
$DIMTXT
 40
64.0
  9
$DIMCEN
 40
0.09
  9
$DIMTSZ
 40
0.0
  9
$DIMTOL
 70
     0
  9
$DIMLIM
 70
     0
  9
$DIMTIH
 70
     0
  9
$DIMTOH
 70
     0
  9
$DIMSE1
 70
     0
  9
$DIMSE2
 70
     0
  9
$DIMTAD
 70
     1
  9
$DIMZIN
 70
     8
  9
$DIMBLK
  1

  9
$DIMASO
 70
     1
  9
$DIMSHO
 70
     0
  9
$DIMPOST
  1

  9
$DIMAPOST
  1

  9
$DIMALT
 70
     0
  9
$DIMALTD
 70
     2
  9
$DIMALTF
 40
25.399999999999999
  9
$DIMLFAC
 40
1.0
  9
$DIMTOFL
 70
     1
  9
$DIMTVP
 40
0.0
  9
$DIMTIX
 70
     1
  9
$DIMSOXD
 70
     0
  9
$DIMSAH
 70
     0
  9
$DIMBLK1
  1

  9
$DIMBLK2
  1

  9
$DIMSTYLE
  2
STANDARD
  9
$DIMCLRD
 70
     7
  9
$DIMCLRE
 70
     7
  9
$DIMCLRT
 70
     7
  9
$DIMTFAC
 40
1.0
  9
$DIMGAP
 40
25.0
  9
$LUNITS
 70
     2
  9
$LUPREC
 70
     4
  9
$SKETCHINC
 40
0.1
  9
$FILLETRAD
 40
3.0
  9
$AUNITS
 70
     1
  9
$AUPREC
 70
     3
  9
$MENU
  1
ACAD
  9
$ELEVATION
 40
0.0
  9
$PELEVATION
 40
0.0
  9
$THICKNESS
 40
0.0
  9
$LIMCHECK
 70
     0
  9
$CHAMFERA
 40
0.0
  9
$CHAMFERB
 40
0.0
  9
$SKPOLY
 70
     0
  9
$TDCREATE
 40
2453019.623009259
  9
$TDUPDATE
 40
2459356.643536435
  9
$TDINDWG
 40
1.7248539468
  9
$TDUSRTIMER
 40
1.7248539468
  9
$USRTIMER
 70
     1
  9
$ANGBASE
 50
0.0
  9
$ANGDIR
 70
     0
  9
$PDMODE
 70
     3
  9
$PDSIZE
 40
-2.0
  9
$PLINEWID
 40
0.0
  9
$SPLFRAME
 70
     0
  9
$SPLINETYPE
 70
     6
  9
$SPLINESEGS
 70
     8
  9
$SURFTAB1
 70
     6
  9
$SURFTAB2
 70
     6
  9
$SURFTYPE
 70
     6
  9
$SURFU
 70
     6
  9
$SURFV
 70
     6
  9
$UCSNAME
  2

  9
$UCSORG
 10
0.0
 20
0.0
 30
0.0
  9
$UCSXDIR
 10
1.0
 20
0.0
 30
0.0
  9
$UCSYDIR
 10
0.0
 20
1.0
 30
0.0
  9
$PUCSNAME
  2

  9
$PUCSORG
 10
0.0
 20
0.0
 30
0.0
  9
$PUCSXDIR
 10
1.0
 20
0.0
 30
0.0
  9
$PUCSYDIR
 10
0.0
 20
1.0
 30
0.0
  9
$USERI1
 70
     0
  9
$USERI2
 70
     0
  9
$USERI3
 70
     0
  9
$USERI4
 70
     0
  9
$USERI5
 70
     0
  9
$USERR1
 40
20.0
  9
$USERR2
 40
0.0
  9
$USERR3
 40
0.0
  9
$USERR4
 40
0.0
  9
$USERR5
 40
0.0
  9
$WORLDVIEW
 70
     1
  9
$SHADEDGE
 70
     3
  9
$SHADEDIF
 70
    70
  9
$TILEMODE
 70
     1
  9
$MAXACTVP
 70
    48
  9
$PINSBASE
 10
0.0
 20
0.0
 30
0.0
  9
$PLIMCHECK
 70
     0
  9
$PEXTMIN
 10
-100000000000000000000.0
 20
-100000000000000000000.0
 30
-100000000000000000000.0
  9
$PEXTMAX
 10
100000000000000000000.0
 20
100000000000000000000.0
 30
100000000000000000000.0
  9
$PLIMMIN
 10
0.0
 20
0.0
  9
$PLIMMAX
 10
12.0
 20
9.0
  9
$UNITMODE
 70
     0
  9
$VISRETAIN
 70
     0
  9
$PLINEGEN
 70
     0
  9
$PSLTSCALE
 70
     0
  9
$TREEDEPTH
 70
  3020
  9
$ATTDIA
 70
     0
  9
$ATTREQ
 70
     1
  9
$BLIPMODE
 70
     1
  9
$COORDS
 70
     1
  9
$DRAGMODE
 70
     2
  9
$OSMODE
 70
     0
  9
$HANDLING
 70
     0
  9
$HANDSEED
  5
270
  0
ENDSEC
  0
SECTION
  2
TABLES
  0
TABLE
  2
LTYPE
 70
     2
  0
LTYPE
  2
CONTINUOUS
 70
     0
  3
実線
 72
    65
 73
     0
 40
0.0
  0
LTYPE
  2
DASHDOT
 70
     0
  3
____ _ ____ _ ____ _ ____ _ ____ _ ____ _ ____
 72
    65
 73
     4
 40
5.5
 49
4.0
 49
-0.6
 49
0.3
 49
-0.6
  0
ENDTAB
  0
TABLE
  2
LAYER
 70
    12
  0
LAYER
  2
SIZE
 70
     0
 62
    30
  6
CONTINUOUS
  0
LAYER
  2
BASIS
 70
     0
 62
     6
  6
DASHDOT
  0
LAYER
  2
OUTLINE
 70
     0
 62
     3
  6
CONTINUOUS
  0
LAYER
  2
DETAIL
 70
     0
 62
     5
  6
CONTINUOUS
  0
LAYER
  2
ARRANGE
 70
     0
 62
     1
  6
CONTINUOUS
  0
LAYER
  2
ETC
 70
     0
 62
    61
  6
CONTINUOUS
  0
LAYER
  2
FIX
 70
     0
 62
    11
  6
CONTINUOUS
  0
LAYER
  2
NOTE
 70
     0
 62
     4
  6
CONTINUOUS
  0
LAYER
  2
0
 70
    64
 62
     7
  6
CONTINUOUS
  0
LAYER
  2
DEFPOINTS
 70
    64
 62
     7
  6
CONTINUOUS
  0
LAYER
  2
SERVICESPACE
 70
    64
 62
     2
  6
DASHDOT
  0
LAYER
  2
SYMBOLLINE
 70
    64
 62
    15
  6
CONTINUOUS
  0
ENDTAB
  0
TABLE
  2
STYLE
 70
     1
  0
STYLE
  2
STANDARD
 70
     0
 40
64.0
 41
0.9
 50
0.0
 71
     0
 42
64.0
  3
SIMPLEX.shx
  4
BIGFONT.shx
  0
ENDTAB
  0
TABLE
  2
APPID
 70
    20
  0
APPID
  2
ACAD
 70
     0
  0
APPID
  2
ACADANNOTATIVE
 70
     0
  0
APPID
  2
AUTOCAD_POSTSCRIPT_FIGURE
 70
     0
  0
APPID
  2
ACAD_EXEMPT_FROM_CAD_STANDARDS
 70
     0
  0
APPID
  2
ACAD_PSEXT
 70
     0
  0
APPID
  2
ACAUTHENVIRON
 70
     0
  0
APPID
  2
GENIUS_GENOENT_13
 70
     0
  0
APPID
  2
GENIUS_GENCFG_13
 70
     0
  0
APPID
  2
GENIUS_GENCFG0_13
 70
     0
  0
APPID
  2
GENIUS_GENCFG1_13
 70
     0
  0
APPID
  2
GENIUS_GENCFG2_13
 70
     0
  0
APPID
  2
GENIUS_GENCFG3_13
 70
     0
  0
APPID
  2
GENIUS_GENCFG4_13
 70
     0
  0
APPID
  2
GENIUS_GEVCFG0_13
 70
     0
  0
APPID
  2
CONTENTBLOCKICON
 70
     0
  0
APPID
  2
CONTENTBLOCKDESCRIPTION
 70
     0
  0
APPID
  2
ACAD_NAV_VCDISPLAY
 70
     0
  0
APPID
  2
ACAD_MLEADERVER
 70
     0
  0
APPID
  2
ACDBDYNAMICBLOCKTRUENAME
 70
     0
  0
APPID
  2
ACDBDYNAMICBLOCKGUID
 70
     0
  0
ENDTAB
  0
TABLE
  2
DIMSTYLE
 70
     1
  0
DIMSTYLE
  2
STANDARD
 70
     0
  3

  4

  5

  6

  7

 40
1.0
 41
12.0
 42
20.0
 43
200.0
 44
20.0
 45
0.0
 46
0.0
 47
0.0
 48
0.0
140
64.0
141
0.09
142
0.0
143
25.399999999999999
144
1.0
145
0.0
146
1.0
147
25.0
 71
     0
 72
     0
 73
     0
 74
     0
 75
     0
 76
     0
 77
     1
 78
     8
170
     0
171
     2
172
     1
173
     0
174
     1
175
     0
176
     7
177
     7
178
     7
  0
ENDTAB
  0
TABLE
  2
VIEW
 70
     1
  0
VIEW
  2
ALL
 70
     0
 40
4282.6198079999986
 10
0.0
 20
41.309904000000003
 41
5940.0
 11
0.0
 21
0.0
 31
1.0
 12
0.0
 22
0.0
 32
0.0
 42
50.0
 43
0.0
 44
0.0
 50
0.0
 71
     0
  0
ENDTAB
  0
TABLE
  2
UCS
 70
     0
  0
ENDTAB
  0
TABLE
  2
VPORT
 70
     1
  0
VPORT
  2
*ACTIVE
 70
     0
 10
0.0
 20
0.0
 11
1.0
 21
1.0
 12
110.57740653699329
 22
130.41688004789921
 13
0.0
 23
0.0
 14
1.0
 24
1.0
 15
0.0
 25
0.0
 16
0.0
 26
0.0
 36
1.0
 17
0.0
 27
0.0
 37
0.0
 40
742.74764578680004
 41
2.0992248062015499
 42
50.0
 43
0.0
 44
0.0
 50
0.0
 51
0.0
 71
     0
 72
  1000
 73
     1
 74
     3
 75
     0
 76
     0
 77
     0
 78
     0
  0
ENDTAB
  0
ENDSEC
  0
SECTION
  2
BLOCKS
  0
ENDSEC
  0
SECTION
  2
ENTITIES
  0
TEXT
  8
ETC
  6
CONTINUOUS
 62
    61
 10
294.99778222561832
 20
577.19510092505948
 30
0.0
 40
64.0
  1
V-08KPL4_3
 41
0.9
  0
TEXT
  8
ETC
  6
CONTINUOUS
 62
    61
 10
290.81178822561787
 20
459.23979091022829
 30
0.0
 40
64.0
  1
換気扇
 41
0.9
  0
CIRCLE
  8
ARRANGE
  6
CONTINUOUS
 62
     1
 10
0.0
 20
0.0
 30
0.0
 40
40.0
  0
POINT
  8
ARRANGE
  6
CONTINUOUS
 62
     1
 10
0.0
 20
0.0
 30
0.0
  0
LINE
  8
BASIS
  6
DASHDOT
 62
     6
 10
0.0
 20
-109.2854010143142
 30
0.0
 11
0.0
 21
168.08021213011261
 31
0.0
  0
LINE
  8
BASIS
  6
DASHDOT
 62
     6
 10
95.967552833830439
 20
0.0
 30
0.0
 11
-95.967646960021909
 21
0.0
 31
0.0
  0
TEXT
  8
ETC
  6
CONTINUOUS
 62
    61
 10
341.51318647417372
 20
351.09101802400301
 30
0.0
 40
40.0
  1
V-08KPL4
 41
0.9
  0
LINE
  8
DETAIL
  6
CONTINUOUS
 62
     5
 10
-13.501768577741361
 20
-80.000128673445317
 30
0.0
 11
-13.501768577741361
 21
-83.809353978273236
 31
0.0
  0
LINE
  8
DETAIL
  6
CONTINUOUS
 62
     5
 10
13.5012201362394
 20
-80.000128673445317
 30
0.0
 11
13.5012201362394
 21
-83.809353978273236
 31
0.0
  0
ARC
  8
DETAIL
  6
CONTINUOUS
 62
     5
 10
-12.50165788463096
 20
-83.809353978273236
 30
0.0
 40
1.0001106931104
 50
180.0
 51
270.0
  0
LINE
  8
DETAIL
  6
CONTINUOUS
 62
     5
 10
12.501109443129
 20
-84.809464671383623
 30
0.0
 11
-12.50165788463096
 21
-84.809464671383623
 31
0.0
  0
ARC
  8
DETAIL
  6
CONTINUOUS
 62
     5
 10
12.501109443129
 20
-83.809353978273236
 30
0.0
 40
1.0001106931104
 50
270.0
 51
0.0
  0
LINE
  8
DETAIL
  6
CONTINUOUS
 62
     5
 10
78.999387908297763
 20
-80.000128673445317
 30
0.0
 11
-79.000416100298779
 21
-80.000128673445317
 31
0.0
  0
ARC
  8
DETAIL
  6
CONTINUOUS
 62
     5
 10
-79.000416100298779
 20
-79.000017980334945
 30
0.0
 40
1.0001106931104
 50
180.0
 51
270.0
  0
LINE
  8
DETAIL
  6
CONTINUOUS
 62
     5
 10
-80.000526793409151
 20
-79.000017980334945
 30
0.0
 11
-80.000526793409151
 21
78.999786028261738
 31
0.0
  0
LINE
  8
DETAIL
  6
CONTINUOUS
 62
     5
 10
79.999498601408263
 20
78.999786028261738
 30
0.0
 11
79.999498601408263
 21
-79.000017980334945
 31
0.0
  0
ARC
  8
DETAIL
  6
CONTINUOUS
 62
     5
 10
78.999387908297763
 20
-79.000017980334945
 30
0.0
 40
1.0001106931104
 50
270.0
 51
0.0
  0
ARC
  8
DETAIL
  6
CONTINUOUS
 62
     5
 10
-79.000416100298779
 20
78.999786028261738
 30
0.0
 40
1.0001106931104
 50
90.0
 51
180.0
  0
LINE
  8
DETAIL
  6
CONTINUOUS
 62
     5
 10
-79.000416100298779
 20
79.999896721372124
 30
0.0
 11
78.999387908297763
 21
79.999896721372124
 31
0.0
  0
ARC
  8
DETAIL
  6
CONTINUOUS
 62
     5
 10
78.999387908297763
 20
78.999786028261738
 30
0.0
 40
1.0001106931104
 50
0.0
 51
90.0
  0
LINE
  8
DETAIL
  6
CONTINUOUS
 62
     5
 10
80.003846866977895
 20
45.221077930902993
 30
0.0
 11
81.010025562943227
 21
59.093709790348598
 31
0.0
  0
LINE
  8
DETAIL
  6
CONTINUOUS
 62
     5
 10
81.010025562943227
 20
59.093709790348598
 30
0.0
 11
80.003846866977895
 21
59.307579674418832
 31
0.0
  0
LINE
  8
OUTLINE
  6
CONTINUOUS
 62
     3
 10
-13.501768577741361
 20
-80.000128673445317
 30
0.0
 11
-13.501768577741361
 21
-83.809353978273236
 31
0.0
  0
LINE
  8
OUTLINE
  6
CONTINUOUS
 62
     3
 10
13.5012201362394
 20
-80.000128673445317
 30
0.0
 11
13.5012201362394
 21
-83.809353978273236
 31
0.0
  0
ARC
  8
OUTLINE
  6
CONTINUOUS
 62
     3
 10
-12.50165788463096
 20
-83.809353978273236
 30
0.0
 40
1.0001106931104
 50
180.0
 51
270.0
  0
LINE
  8
OUTLINE
  6
CONTINUOUS
 62
     3
 10
12.501109443129
 20
-84.809464671383623
 30
0.0
 11
-12.50165788463096
 21
-84.809464671383623
 31
0.0
  0
ARC
  8
OUTLINE
  6
CONTINUOUS
 62
     3
 10
12.501109443129
 20
-83.809353978273236
 30
0.0
 40
1.0001106931104
 50
270.0
 51
0.0
  0
LINE
  8
OUTLINE
  6
CONTINUOUS
 62
     3
 10
78.999387908297763
 20
-80.000128673445317
 30
0.0
 11
-79.000416100298779
 21
-80.000128673445317
 31
0.0
  0
ARC
  8
OUTLINE
  6
CONTINUOUS
 62
     3
 10
-79.000416100298779
 20
-79.000017980334945
 30
0.0
 40
1.0001106931104
 50
180.0
 51
270.0
  0
LINE
  8
OUTLINE
  6
CONTINUOUS
 62
     3
 10
-80.000526793409151
 20
-79.000017980334945
 30
0.0
 11
-80.000526793409151
 21
78.999786028261738
 31
0.0
  0
LINE
  8
OUTLINE
  6
CONTINUOUS
 62
     3
 10
79.999498601408263
 20
78.999786028261738
 30
0.0
 11
79.999498601408263
 21
-79.000017980334945
 31
0.0
  0
ARC
  8
OUTLINE
  6
CONTINUOUS
 62
     3
 10
78.999387908297763
 20
-79.000017980334945
 30
0.0
 40
1.0001106931104
 50
270.0
 51
0.0
  0
ARC
  8
OUTLINE
  6
CONTINUOUS
 62
     3
 10
-79.000416100298779
 20
78.999786028261738
 30
0.0
 40
1.0001106931104
 50
90.0
 51
180.0
  0
LINE
  8
OUTLINE
  6
CONTINUOUS
 62
     3
 10
-79.000416100298779
 20
79.999896721372124
 30
0.0
 11
78.999387908297763
 21
79.999896721372124
 31
0.0
  0
ARC
  8
OUTLINE
  6
CONTINUOUS
 62
     3
 10
78.999387908297763
 20
78.999786028261738
 30
0.0
 40
1.0001106931104
 50
0.0
 51
90.0
  0
LINE
  8
SIZE
  6
CONTINUOUS
 62
    30
 10
79.999498601408263
 20
98.999786028261724
 30
0.0
 11
79.999498601408263
 21
225.21909118443889
 31
0.0
  0
LINE
  8
SIZE
  6
CONTINUOUS
 62
    30
 10
-80.000526793409207
 20
98.999786028261724
 30
0.0
 11
-80.000526793409207
 21
225.21909118443889
 31
0.0
  0
LINE
  8
SIZE
  6
CONTINUOUS
 62
    30
 10
91.999498601408277
 20
205.21909118443889
 30
0.0
 11
103.99949860140831
 21
205.21909118443889
 31
0.0
  0
LINE
  8
SIZE
  6
CONTINUOUS
 62
    30
 10
-92.000526793409193
 20
205.21909118443889
 30
0.0
 11
-104.00052679340919
 21
205.21909118443889
 31
0.0
  0
LINE
  8
SIZE
  6
CONTINUOUS
 62
    30
 10
79.999498601408263
 20
205.21909118443889
 30
0.0
 11
-80.000526793409207
 21
205.21909118443889
 31
0.0
  0
CIRCLE
  8
SIZE
  6
CONTINUOUS
 62
    30
 10
79.999498601408263
 20
205.21909118443889
 30
0.0
 40
6.0
  0
LINE
  8
SIZE
  6
CONTINUOUS
 62
    30
 10
79.999498601408263
 20
205.21909118443889
 30
0.0
 11
91.999498601408277
 21
205.21909118443889
 31
0.0
  0
CIRCLE
  8
SIZE
  6
CONTINUOUS
 62
    30
 10
-80.000526793409207
 20
205.21909118443889
 30
0.0
 40
6.0
  0
LINE
  8
SIZE
  6
CONTINUOUS
 62
    30
 10
-80.000526793409207
 20
205.21909118443889
 30
0.0
 11
-92.000526793409193
 21
205.21909118443889
 31
0.0
  0
TEXT
  8
SIZE
  6
CONTINUOUS
 62
    30
 10
-105.051942667429
 20
230.21909118443889
 30
0.0
 40
64.0
  1
□160
 41
0.9
 72
     1
 11
-0.0005140960004724
 21
230.21909118443889
 31
0.0
  0
LINE
  8
SIZE
  6
CONTINUOUS
 62
    30
 10
32.501109443129003
 20
-84.809464671383623
 30
0.0
 11
230.24325544648221
 21
-84.809464671383708
 31
0.0
  0
LINE
  8
SIZE
  6
CONTINUOUS
 62
    30
 10
98.999387908297763
 20
-80.000128673445317
 30
0.0
 11
230.24325544648221
 21
-80.000128673445374
 31
0.0
  0
LINE
  8
SIZE
  6
CONTINUOUS
 62
    30
 10
210.24325544648221
 20
-68.000128673445388
 30
0.0
 11
210.24325544648221
 21
-56.000128673445367
 31
0.0
  0
LINE
  8
SIZE
  6
CONTINUOUS
 62
    30
 10
210.24325544648221
 20
-96.809464671383651
 30
0.0
 11
210.2432554464821
 21
-197.2094646713837
 31
0.0
  0
LINE
  8
SIZE
  6
CONTINUOUS
 62
    30
 10
210.24325544648221
 20
-80.000128673445374
 30
0.0
 11
210.24325544648221
 21
-84.809464671383623
 31
0.0
  0
CIRCLE
  8
SIZE
  6
CONTINUOUS
 62
    30
 10
210.24325544648221
 20
-80.000128673445374
 30
0.0
 40
6.0
  0
LINE
  8
SIZE
  6
CONTINUOUS
 62
    30
 10
210.24325544648221
 20
-80.000128673445374
 30
0.0
 11
210.24325544648221
 21
-68.000128673445388
 31
0.0
  0
CIRCLE
  8
SIZE
  6
CONTINUOUS
 62
    30
 10
210.24325544648221
 20
-84.809464671383623
 30
0.0
 40
6.0
  0
LINE
  8
SIZE
  6
CONTINUOUS
 62
    30
 10
210.24325544648221
 20
-84.809464671383623
 30
0.0
 11
210.24325544648221
 21
-96.809464671383651
 31
0.0
  0
TEXT
  8
SIZE
  6
CONTINUOUS
 62
    30
 10
185.24325544648221
 20
-172.20946467138361
 30
0.0
 40
64.0
  1
5
 50
90.0
 41
0.9
 72
     1
 11
185.24325544648221
 21
-153.0094646713836
 31
0.0
  0
CIRCLE
  8
DETAIL
  6
CONTINUOUS
 62
     5
 10
0.0
 20
0.0
 30
0.0
 40
23.0
  0
CIRCLE
  8
DETAIL
  6
CONTINUOUS
 62
     5
 10
0.0
 20
0.0
 30
0.0
 40
47.5
  0
ARC
  8
DETAIL
  6
CONTINUOUS
 62
     5
 10
-69.999999944784008
 20
0.0
 30
0.0
 40
1.9999999984223999
 50
180.0
 51
0.0
  0
ARC
  8
DETAIL
  6
CONTINUOUS
 62
     5
 10
-69.999999944784008
 20
5.9999999952672169
 30
0.0
 40
1.9999999984223999
 50
0.0
 51
180.0
  0
ARC
  8
DETAIL
  6
CONTINUOUS
 62
     5
 10
69.999999944784008
 20
5.9999999952672169
 30
0.0
 40
1.9999999984223999
 50
0.0
 51
180.0
  0
ARC
  8
DETAIL
  6
CONTINUOUS
 62
     5
 10
69.999999944784008
 20
0.0
 30
0.0
 40
1.9999999984223999
 50
180.0
 51
0.0
  0
ARC
  8
DETAIL
  6
CONTINUOUS
 62
     5
 10
-70.74185157449881
 20
-69.327638013314584
 30
0.0
 40
2.4999999980279801
 50
45.0
 51
225.0
  0
ARC
  8
DETAIL
  6
CONTINUOUS
 62
     5
 10
-69.327638013214255
 20
-70.741851574598968
 30
0.0
 40
2.4999999980279801
 50
225.0
 51
45.0
  0
ARC
  8
DETAIL
  6
CONTINUOUS
 62
     5
 10
68.551041534427043
 20
68.551041534326941
 30
0.0
 40
2.4999999980279801
 50
135.0
 51
315.0
  0
ARC
  8
DETAIL
  6
CONTINUOUS
 62
     5
 10
69.965255095711427
 20
69.965255095611042
 30
0.0
 40
2.4999999980279801
 50
315.0
 51
135.0
  0
LINE
  8
DETAIL
  6
CONTINUOUS
 62
     5
 10
66.783274582821321
 20
70.318808485932323
 30
0.0
 11
68.197488144105989
 21
71.733022047217048
 31
0.0
  0
LINE
  8
DETAIL
  6
CONTINUOUS
 62
     5
 10
71.733022047217048
 20
68.197488144005661
 30
0.0
 11
70.318808486032708
 21
66.783274582821036
 31
0.0
  0
LINE
  8
DETAIL
  6
CONTINUOUS
 62
     5
 10
-71.09540496481992
 20
-72.509618526204349
 30
0.0
 11
-72.509618526104347
 21
-71.095404964920021
 31
0.0
  0
LINE
  8
DETAIL
  6
CONTINUOUS
 62
     5
 10
-68.974084622993075
 20
-67.559871061708861
 30
0.0
 11
-67.559871061708577
 21
-68.974084622993303
 31
0.0
  0
LINE
  8
DETAIL
  6
CONTINUOUS
 62
     5
 10
-71.999999943206376
 20
0.0
 30
0.0
 11
-71.999999943206376
 21
5.9999999952672169
 31
0.0
  0
LINE
  8
DETAIL
  6
CONTINUOUS
 62
     5
 10
-67.99999994636164
 20
5.9999999952672169
 30
0.0
 11
-67.99999994636164
 21
0.0
 31
0.0
  0
LINE
  8
DETAIL
  6
CONTINUOUS
 62
     5
 10
67.999999946361527
 20
0.0
 30
0.0
 11
67.999999946361527
 21
5.9999999952672169
 31
0.0
  0
LINE
  8
DETAIL
  6
CONTINUOUS
 62
     5
 10
71.999999943206376
 20
5.9999999952672169
 30
0.0
 11
71.999999943206376
 21
0.0
 31
0.0
  0
CIRCLE
  8
FIX
  6
CONTINUOUS
 62
    11
 10
69.965255095711427
 20
69.965255095611042
 30
0.0
 40
7.0441691683918863
  0
LINE
  8
NOTE
  6
CONTINUOUS
 62
     4
 10
69.965255095711427
 20
43.94343737316899
 30
0.0
 11
69.965255095711427
 21
95.98707281805315
 31
0.0
  0
LINE
  8
NOTE
  6
CONTINUOUS
 62
     4
 10
95.987072818153479
 20
69.965255095611042
 30
0.0
 11
43.943437373269319
 21
69.965255095611099
 31
0.0
  0
CIRCLE
  8
FIX
  6
CONTINUOUS
 62
    11
 10
69.999760096084287
 20
5.9999999952671601
 30
0.0
 40
7.0441691683918863
  0
LINE
  8
NOTE
  6
CONTINUOUS
 62
     4
 10
69.999760096084287
 20
-20.021817727174891
 30
0.0
 11
69.999760096084287
 21
32.021817717709268
 31
0.0
  0
LINE
  8
NOTE
  6
CONTINUOUS
 62
     4
 10
96.021577818526339
 20
5.9999999952671601
 30
0.0
 11
43.977942373642158
 21
5.9999999952672169
 31
0.0
  0
CIRCLE
  8
FIX
  6
CONTINUOUS
 62
    11
 10
-69.999999944784008
 20
5.9999999952671601
 30
0.0
 40
7.0441691683918863
  0
LINE
  8
NOTE
  6
CONTINUOUS
 62
     4
 10
-69.999999944784008
 20
-20.021817727174891
 30
0.0
 11
-69.999999944784008
 21
32.021817717709268
 31
0.0
  0
LINE
  8
NOTE
  6
CONTINUOUS
 62
     4
 10
-43.978182222341928
 20
5.9999999952671601
 30
0.0
 11
-96.021817667226088
 21
5.9999999952672169
 31
0.0
  0
CIRCLE
  8
FIX
  6
CONTINUOUS
 62
    11
 10
-69.999999944784008
 20
-69.999999944784008
 30
0.0
 40
7.0441691683918863
  0
LINE
  8
NOTE
  6
CONTINUOUS
 62
     4
 10
-69.999999944784008
 20
-96.021817667226088
 30
0.0
 11
-69.999999944784008
 21
-43.978182222341957
 31
0.0
  0
LINE
  8
NOTE
  6
CONTINUOUS
 62
     4
 10
-43.978182222341928
 20
-69.999999944784008
 30
0.0
 11
-96.021817667226088
 21
-69.999999944784008
 31
0.0
  0
LINE
  8
SIZE
  6
CONTINUOUS
 62
    30
 10
290.01312028767842
 20
182.71560678804769
 30
0.0
 11
50.341870613244851
 21
31.716652773571809
 31
0.0
  0
LINE
  8
SIZE
  6
CONTINUOUS
 62
    30
 10
-50.341870613244822
 20
-31.716652773571809
 30
0.0
 11
-60.494852921798383
 21
-38.113288627065288
 31
0.0
  0
TEXT
  8
SIZE
  6
CONTINUOUS
 62
    30
 10
120.471075892103
 20
105.4477956155212
 30
0.0
 40
64.0
  1
φ95
 50
32.211965945938573
 41
0.9
 72
     1
 11
194.03668484779399
 21
151.79599139969099
 31
0.0
  0
LINE
  8
SIZE
  6
CONTINUOUS
 62
    30
 10
-40.188888304691268
 20
-25.320016920078331
 30
0.0
 11
40.188888304691268
 21
25.320016920078331
 31
0.0
  0
CIRCLE
  8
SIZE
  6
CONTINUOUS
 62
    30
 10
-40.188888304691268
 20
-25.320016920078331
 30
0.0
 40
6.0
  0
LINE
  8
SIZE
  6
CONTINUOUS
 62
    30
 10
-40.188888304691268
 20
-25.320016920078331
 30
0.0
 11
-50.341870613244822
 21
-31.716652773571809
 31
0.0
  0
CIRCLE
  8
SIZE
  6
CONTINUOUS
 62
    30
 10
40.188888304691268
 20
25.320016920078331
 30
0.0
 40
6.0
  0
LINE
  8
SIZE
  6
CONTINUOUS
 62
    30
 10
40.188888304691268
 20
25.320016920078331
 30
0.0
 11
50.341870613244851
 21
31.716652773571809
 31
0.0
  0
LINE
  8
SIZE
  6
CONTINUOUS
 62
    30
 10
-436.85621046979799
 20
187.36768065816401
 30
0.0
 11
-32.16624675045977
 21
13.796107059186509
 31
0.0
  0
LINE
  8
SIZE
  6
CONTINUOUS
 62
    30
 10
32.16624675045977
 20
-13.796107059186509
 30
0.0
 11
43.194674207760279
 21
-18.526200908050441
 31
0.0
  0
TEXT
  8
SIZE
  6
CONTINUOUS
 62
    30
 10
-417.13403152644207
 20
206.11126341229459
 30
0.0
 40
64.0
  1
φ46
 50
336.78550110149052
 41
0.9
 72
     1
 11
-338.48558885952201
 21
172.37893699296771
 31
0.0
  0
LINE
  8
SIZE
  6
CONTINUOUS
 62
    30
 10
21.137819293159279
 20
-9.0660132103225788
 30
0.0
 11
-21.137819293159279
 21
9.0660132103225788
 31
0.0
  0
CIRCLE
  8
SIZE
  6
CONTINUOUS
 62
    30
 10
21.137819293159279
 20
-9.0660132103225788
 30
0.0
 40
6.0
  0
LINE
  8
SIZE
  6
CONTINUOUS
 62
    30
 10
21.137819293159279
 20
-9.0660132103225788
 30
0.0
 11
32.16624675045977
 21
-13.796107059186509
 31
0.0
  0
CIRCLE
  8
SIZE
  6
CONTINUOUS
 62
    30
 10
-21.137819293159279
 20
9.0660132103225788
 30
0.0
 40
6.0
  0
LINE
  8
SIZE
  6
CONTINUOUS
 62
    30
 10
-21.137819293159279
 20
9.0660132103225788
 30
0.0
 11
-32.16624675045977
 21
13.796107059186509
 31
0.0
  0
LINE
  8
SIZE
  6
CONTINUOUS
 62
    30
 10
69.999760096084287
 20
-40.021817727174891
 30
0.0
 11
69.999760096084287
 21
-380.45778241858909
 31
0.0
  0
LINE
  8
SIZE
  6
CONTINUOUS
 62
    30
 10
-69.999999944784008
 20
-116.0218176672261
 30
0.0
 11
-69.999999944784008
 21
-380.45778241858909
 31
0.0
  0
LINE
  8
SIZE
  6
CONTINUOUS
 62
    30
 10
57.999760096084287
 20
-360.45778241858909
 30
0.0
 11
-57.999999944784022
 21
-360.45778241858909
 31
0.0
  0
LINE
  8
SIZE
  6
CONTINUOUS
 62
    30
 10
-69.999999944784008
 20
-360.45778241858909
 30
0.0
 11
-269.14285708764118
 21
-360.45778241858909
 31
0.0
  0
CIRCLE
  8
SIZE
  6
CONTINUOUS
 62
    30
 10
69.999760096084287
 20
-360.45778241858909
 30
0.0
 40
6.0
  0
LINE
  8
SIZE
  6
CONTINUOUS
 62
    30
 10
69.999760096084287
 20
-360.45778241858909
 30
0.0
 11
57.999760096084287
 21
-360.45778241858909
 31
0.0
  0
CIRCLE
  8
SIZE
  6
CONTINUOUS
 62
    30
 10
-69.999999944784008
 20
-360.45778241858909
 30
0.0
 40
6.0
  0
LINE
  8
SIZE
  6
CONTINUOUS
 62
    30
 10
-69.999999944784008
 20
-360.45778241858909
 30
0.0
 11
-57.999999944784022
 21
-360.45778241858909
 31
0.0
  0
TEXT
  8
SIZE
  6
CONTINUOUS
 62
    30
 10
-244.1428570876412
 20
-335.45778241858898
 30
0.0
 40
64.0
  1
140
 41
0.9
 72
     1
 11
-175.57142851621259
 21
-335.45778241858898
 31
0.0
  0
LINE
  8
SIZE
  6
CONTINUOUS
 62
    30
 10
-115.9676469600219
 20
0.0
 30
0.0
 11
-332.69440381092602
 21
0.0000000000000568
 31
0.0
  0
LINE
  8
SIZE
  6
CONTINUOUS
 62
    30
 10
-116.0218176672261
 20
-69.999999944784008
 30
0.0
 11
-332.69440381092602
 21
-69.999999944783951
 31
0.0
  0
LINE
  8
SIZE
  6
CONTINUOUS
 62
    30
 10
-312.69440381092602
 20
12.00000000000006
 30
0.0
 11
-312.69440381092602
 21
24.00000000000006
 31
0.0
  0
LINE
  8
SIZE
  6
CONTINUOUS
 62
    30
 10
-312.69440381092602
 20
-81.999999944783951
 30
0.0
 11
-312.69440381092602
 21
-93.999999944783951
 31
0.0
  0
LINE
  8
SIZE
  6
CONTINUOUS
 62
    30
 10
-312.69440381092602
 20
0.0000000000000568
 30
0.0
 11
-312.69440381092602
 21
-69.999999944783951
 31
0.0
  0
CIRCLE
  8
SIZE
  6
CONTINUOUS
 62
    30
 10
-312.69440381092602
 20
0.0000000000000568
 30
0.0
 40
6.0
  0
LINE
  8
SIZE
  6
CONTINUOUS
 62
    30
 10
-312.69440381092602
 20
0.0000000000000568
 30
0.0
 11
-312.69440381092602
 21
12.00000000000006
 31
0.0
  0
CIRCLE
  8
SIZE
  6
CONTINUOUS
 62
    30
 10
-312.69440381092602
 20
-69.999999944783951
 30
0.0
 40
6.0
  0
LINE
  8
SIZE
  6
CONTINUOUS
 62
    30
 10
-312.69440381092602
 20
-69.999999944783951
 30
0.0
 11
-312.69440381092602
 21
-81.999999944783951
 31
0.0
  0
TEXT
  8
SIZE
  6
CONTINUOUS
 62
    30
 10
-337.69440381092602
 20
-81.628571400963438
 30
0.0
 40
64.0
  1
70
 50
90.0
 41
0.9
 72
     1
 11
-337.69440381092602
 21
-34.999999972391997
 31
0.0
  0
LINE
  8
SIZE
  6
CONTINUOUS
 62
    30
 10
115.9675528338305
 20
0.0
 30
0.0
 11
360.37606119114298
 21
-0.0000000000000568
 31
0.0
  0
LINE
  8
SIZE
  6
CONTINUOUS
 62
    30
 10
115.98707281815349
 20
69.965255095611042
 30
0.0
 11
360.37606119114298
 21
69.965255095610985
 31
0.0
  0
LINE
  8
SIZE
  6
CONTINUOUS
 62
    30
 10
340.37606119114292
 20
81.965255095611042
 30
0.0
 11
340.37606119114292
 21
93.965255095611042
 31
0.0
  0
LINE
  8
SIZE
  6
CONTINUOUS
 62
    30
 10
340.37606119114292
 20
-12.00000000000006
 30
0.0
 11
340.37606119114292
 21
-170.8364333394658
 31
0.0
  0
LINE
  8
SIZE
  6
CONTINUOUS
 62
    30
 10
340.37606119114292
 20
69.965255095610985
 30
0.0
 11
340.37606119114292
 21
-0.0000000000000568
 31
0.0
  0
CIRCLE
  8
SIZE
  6
CONTINUOUS
 62
    30
 10
340.37606119114292
 20
69.965255095610985
 30
0.0
 40
6.0
  0
LINE
  8
SIZE
  6
CONTINUOUS
 62
    30
 10
340.37606119114292
 20
69.965255095610985
 30
0.0
 11
340.37606119114292
 21
81.965255095611042
 31
0.0
  0
CIRCLE
  8
SIZE
  6
CONTINUOUS
 62
    30
 10
340.37606119114292
 20
-0.0000000000000568
 30
0.0
 40
6.0
  0
LINE
  8
SIZE
  6
CONTINUOUS
 62
    30
 10
340.37606119114292
 20
-0.0000000000000568
 30
0.0
 11
340.37606119114292
 21
-12.00000000000006
 31
0.0
  0
TEXT
  8
SIZE
  6
CONTINUOUS
 62
    30
 10
315.37606119114292
 20
-145.83643333946571
 30
0.0
 40
64.0
  1
70
 50
90.0
 41
0.9
 72
     1
 11
315.37606119114292
 21
-99.20786191089428
 31
0.0
  0
LINE
  8
SIZE
  6
CONTINUOUS
 62
    30
 10
-116.0218176672261
 20
5.9999999952672169
 30
0.0
 11
-332.69440381092602
 21
5.9999999952672738
 31
0.0
  0
LINE
  8
SIZE
  6
CONTINUOUS
 62
    30
 10
-116.0218176672261
 20
0.0
 30
0.0
 11
-332.69440381092602
 21
0.0000000000000568
 31
0.0
  0
LINE
  8
SIZE
  6
CONTINUOUS
 62
    30
 10
-312.69440381092602
 20
-11.99999999999994
 30
0.0
 11
-312.69440381092602
 21
-23.99999999999994
 31
0.0
  0
LINE
  8
SIZE
  6
CONTINUOUS
 62
    30
 10
-312.69440381092602
 20
17.99999999526727
 30
0.0
 11
-312.69440381092602
 21
115.6571428524101
 31
0.0
  0
LINE
  8
SIZE
  6
CONTINUOUS
 62
    30
 10
-312.69440381092602
 20
0.0000000000000568
 30
0.0
 11
-312.69440381092602
 21
5.9999999952672738
 31
0.0
  0
CIRCLE
  8
SIZE
  6
CONTINUOUS
 62
    30
 10
-312.69440381092602
 20
0.0000000000000568
 30
0.0
 40
6.0
  0
LINE
  8
SIZE
  6
CONTINUOUS
 62
    30
 10
-312.69440381092602
 20
0.0000000000000568
 30
0.0
 11
-312.69440381092602
 21
-11.99999999999994
 31
0.0
  0
CIRCLE
  8
SIZE
  6
CONTINUOUS
 62
    30
 10
-312.69440381092602
 20
5.9999999952672738
 30
0.0
 40
6.0
  0
LINE
  8
SIZE
  6
CONTINUOUS
 62
    30
 10
-312.69440381092602
 20
5.9999999952672738
 30
0.0
 11
-312.69440381092602
 21
17.99999999526727
 31
0.0
  0
TEXT
  8
SIZE
  6
CONTINUOUS
 62
    30
 10
-337.69440381092602
 20
54.999999995267217
 30
0.0
 40
64.0
  1
6
 50
90.0
 41
0.9
 72
     1
 11
-337.69440381092602
 21
72.828571423838639
 31
0.0
  0
TEXT
  8
NOTE
  6
CONTINUOUS
 62
     4
 10
-254.86847195079409
 20
290.60998599513869
 30
0.0
 40
64.0
  1
EL
 41
0.9
 72
     2
 11
-169.83990052222271
 21
290.60998599513869
 31
0.0
  0
TEXT
  8
NOTE
  6
CONTINUOUS
 62
     4
 10
328.99549197537578
 20
160.39521061644791
 30
0.0
 40
64.0
  1
2-φ4×10
 41
0.9
  0
TEXT
  8
NOTE
  6
CONTINUOUS
 62
     4
 10
-630.02856705056456
 20
-204.1087589743465
 30
0.0
 40
64.0
  1
2-φ5×7
 41
0.9
 72
     2
 11
-272.35999562199322
 21
-204.1087589743465
 31
0.0
  0
LINE
  8
DETAIL
  6
CONTINUOUS
 62
     5
 10
-4.2807475094459724
 20
120.5024374020647
 30
0.0
 11
4.2807475094457459
 21
120.5024374020647
 31
0.0
  0
ARC
  8
DETAIL
  6
CONTINUOUS
 62
     5
 10
-4.2807475094459724
 20
121.0024926695647
 30
0.0
 40
0.5000552675
 50
183.57633437500459
 51
270.0
  0
ARC
  8
DETAIL
  6
CONTINUOUS
 62
     5
 10
4.2807475094457459
 20
121.0024926695647
 30
0.0
 40
0.5000552675000021
 50
270.0
 51
356.42366562499529
  0
LINE
  8
DETAIL
  6
CONTINUOUS
 62
     5
 10
5.0630595834372798
 20
125.50299007706469
 30
0.0
 11
0.0
 21
125.50299007706469
 31
0.0
  0
LINE
  8
DETAIL
  6
CONTINUOUS
 62
     5
 10
0.0
 20
124.0028242745647
 30
0.0
 11
-4.9692992207812949
 21
124.0028242745647
 31
0.0
  0
LINE
  8
DETAIL
  6
CONTINUOUS
 62
     5
 10
0.0
 20
122.5026584720647
 30
0.0
 11
-4.8755388581250827
 21
122.5026584720647
 31
0.0
  0
LINE
  8
DETAIL
  6
CONTINUOUS
 62
     5
 10
0.0
 20
124.0028242745647
 30
0.0
 11
0.0
 21
122.5026584720647
 31
0.0
  0
LINE
  8
DETAIL
  6
CONTINUOUS
 62
     5
 10
-3.0003316050001558
 20
80.001516706734506
 30
0.0
 11
-3.0003316050001558
 21
96.001969971135154
 31
0.0
  0
LINE
  8
DETAIL
  6
CONTINUOUS
 62
     5
 10
0.0
 20
79.999896721372124
 30
0.0
 11
0.0
 21
96.001969971135154
 31
0.0
  0
ARC
  8
DETAIL
  6
CONTINUOUS
 62
     5
 10
-1.5001658025000779
 20
93.403606581427766
 30
0.0
 40
3.0003316049999489
 50
59.999999999999453
 51
120.0000000000006
  0
LINE
  8
DETAIL
  6
CONTINUOUS
 62
     5
 10
3.000331604999928
 20
79.998276736009728
 30
0.0
 11
3.000331604999928
 21
96.001969971135154
 31
0.0
  0
ARC
  8
DETAIL
  6
CONTINUOUS
 62
     5
 10
1.500165802499851
 20
98.600333360842441
 30
0.0
 40
3.0003316050000501
 50
239.9999999999994
 51
300.00000000000051
  0
ARC
  8
DETAIL
  6
CONTINUOUS
 62
     5
 10
-1.5001658025000779
 20
97.404048721427785
 30
0.0
 40
3.0003316049999489
 50
59.999999999999453
 51
120.0000000000006
  0
ARC
  8
DETAIL
  6
CONTINUOUS
 62
     5
 10
1.500165802499851
 20
102.6007755008425
 30
0.0
 40
3.0003316050000501
 50
239.9999999999994
 51
300.00000000000051
  0
LINE
  8
DETAIL
  6
CONTINUOUS
 62
     5
 10
-3.0003316050001558
 20
100.0024121111351
 30
0.0
 11
-3.0003316050001558
 21
120.5024374020647
 31
0.0
  0
LINE
  8
DETAIL
  6
CONTINUOUS
 62
     5
 10
0.0
 20
100.0024121111351
 30
0.0
 11
0.0
 21
120.5024374020647
 31
0.0
  0
LINE
  8
DETAIL
  6
CONTINUOUS
 62
     5
 10
3.000331604999928
 20
100.0024121111351
 30
0.0
 11
3.000331604999928
 21
120.5024374020647
 31
0.0
  0
LINE
  8
DETAIL
  6
CONTINUOUS
 62
     5
 10
9.5010500824998871
 20
140.50464810206469
 30
0.0
 11
-9.5010500825001127
 21
140.50464810206469
 31
0.0
  0
LINE
  8
DETAIL
  6
CONTINUOUS
 62
     5
 10
12.501381687499819
 20
152.5059745220648
 30
0.0
 11
12.501381687499819
 21
143.50497970706459
 31
0.0
  0
LINE
  8
DETAIL
  6
CONTINUOUS
 62
     5
 10
-12.501381687500039
 20
152.5059745220648
 30
0.0
 11
-12.501381687500039
 21
143.50497970706459
 31
0.0
  0
ARC
  8
DETAIL
  6
CONTINUOUS
 62
     5
 10
9.5010500824998871
 20
143.50497970706459
 30
0.0
 40
3.000331605
 50
270.0
 51
0.0
  0
ARC
  8
DETAIL
  6
CONTINUOUS
 62
     5
 10
-9.5010500825001127
 20
143.50497970706459
 30
0.0
 40
3.000331605
 50
180.0
 51
270.0
  0
LINE
  8
DETAIL
  6
CONTINUOUS
 62
     5
 10
14.00154748999989
 20
143.50497970706459
 30
0.0
 11
12.501381687499819
 21
143.50497970706459
 31
0.0
  0
LINE
  8
DETAIL
  6
CONTINUOUS
 62
     5
 10
-14.001547490000121
 20
152.5059745220648
 30
0.0
 11
-14.001547490000121
 21
143.50497970706459
 31
0.0
  0
LINE
  8
DETAIL
  6
CONTINUOUS
 62
     5
 10
-12.501381687500039
 20
143.50497970706459
 30
0.0
 11
-14.001547490000121
 21
143.50497970706459
 31
0.0
  0
LINE
  8
DETAIL
  6
CONTINUOUS
 62
     5
 10
0.0
 20
127.0031558795647
 30
0.0
 11
0.0
 21
125.50299007706469
 31
0.0
  0
LINE
  8
DETAIL
  6
CONTINUOUS
 62
     5
 10
0.0
 20
130.00348748456469
 30
0.0
 11
0.0
 21
128.50332168206469
 31
0.0
  0
LINE
  8
DETAIL
  6
CONTINUOUS
 62
     5
 10
0.0
 20
133.0038190895647
 30
0.0
 11
0.0
 21
131.50365328706471
 31
0.0
  0
LINE
  8
DETAIL
  6
CONTINUOUS
 62
     5
 10
0.0
 20
136.00415069456469
 30
0.0
 11
0.0
 21
134.50398489206481
 31
0.0
  0
LINE
  8
DETAIL
  6
CONTINUOUS
 62
     5
 10
5.1568199460937203
 20
127.0031558795647
 30
0.0
 11
0.0
 21
127.0031558795647
 31
0.0
  0
LINE
  8
DETAIL
  6
CONTINUOUS
 62
     5
 10
0.0
 20
128.50332168206469
 30
0.0
 11
-5.250580308750159
 21
128.50332168206469
 31
0.0
  0
LINE
  8
DETAIL
  6
CONTINUOUS
 62
     5
 10
0.0
 20
130.00348748456469
 30
0.0
 11
-5.3443406714063713
 21
130.00348748456469
 31
0.0
  0
LINE
  8
DETAIL
  6
CONTINUOUS
 62
     5
 10
5.4381010340623561
 20
131.50365328706471
 30
0.0
 11
0.0
 21
131.50365328706471
 31
0.0
  0
LINE
  8
DETAIL
  6
CONTINUOUS
 62
     5
 10
5.5318613967185684
 20
133.0038190895647
 30
0.0
 11
0.0
 21
133.0038190895647
 31
0.0
  0
LINE
  8
DETAIL
  6
CONTINUOUS
 62
     5
 10
0.0
 20
134.50398489206481
 30
0.0
 11
-5.625621759375008
 21
134.50398489206481
 31
0.0
  0
LINE
  8
DETAIL
  6
CONTINUOUS
 62
     5
 10
0.0
 20
136.00415069456469
 30
0.0
 11
-5.7193821220314476
 21
136.00415069456469
 31
0.0
  0
ARC
  8
DETAIL
  6
CONTINUOUS
 62
     5
 10
7.8797733372164194
 20
138.50442703206471
 30
0.0
 40
2.0002210699999941
 50
90.0
 51
176.4236656250018
  0
ARC
  8
DETAIL
  6
CONTINUOUS
 62
     5
 10
-7.8797733372166467
 20
138.50442703206471
 30
0.0
 40
2.0002210699999998
 50
3.5763343749981651
 51
90.0
  0
LINE
  8
DETAIL
  6
CONTINUOUS
 62
     5
 10
-5.8834475407675191
 20
138.62919739434281
 30
0.0
 11
-4.7798289585584834
 21
120.9713000789951
 31
0.0
  0
LINE
  8
DETAIL
  6
CONTINUOUS
 62
     5
 10
5.8834475407672926
 20
138.62919739434281
 30
0.0
 11
4.7798289585580278
 21
120.9713000789951
 31
0.0
  0
LINE
  8
DETAIL
  6
CONTINUOUS
 62
     5
 10
9.5010500824998871
 20
140.50464810206469
 30
0.0
 11
-9.5010500825001127
 21
140.50464810206469
 31
0.0
  0
LINE
  8
DETAIL
  6
CONTINUOUS
 62
     5
 10
12.501381687499819
 20
152.5059745220648
 30
0.0
 11
12.501381687499819
 21
143.50497970706459
 31
0.0
  0
LINE
  8
DETAIL
  6
CONTINUOUS
 62
     5
 10
-12.501381687500039
 20
152.5059745220648
 30
0.0
 11
-12.501381687500039
 21
143.50497970706459
 31
0.0
  0
ARC
  8
DETAIL
  6
CONTINUOUS
 62
     5
 10
9.5010500824998871
 20
143.50497970706459
 30
0.0
 40
3.000331605
 50
270.0
 51
0.0
  0
ARC
  8
DETAIL
  6
CONTINUOUS
 62
     5
 10
-9.5010500825001127
 20
143.50497970706459
 30
0.0
 40
3.000331605
 50
180.0
 51
270.0
  0
LINE
  8
DETAIL
  6
CONTINUOUS
 62
     5
 10
14.00154748999989
 20
143.50497970706459
 30
0.0
 11
12.501381687499819
 21
143.50497970706459
 31
0.0
  0
LINE
  8
DETAIL
  6
CONTINUOUS
 62
     5
 10
-14.001547490000121
 20
152.5059745220648
 30
0.0
 11
-14.001547490000121
 21
143.50497970706459
 31
0.0
  0
LINE
  8
DETAIL
  6
CONTINUOUS
 62
     5
 10
-12.501381687500039
 20
143.50497970706459
 30
0.0
 11
-14.001547490000121
 21
143.50497970706459
 31
0.0
  0
LINE
  8
DETAIL
  6
CONTINUOUS
 62
     5
 10
9.5010500824998871
 20
155.5063061270647
 30
0.0
 11
-9.5010500825001127
 21
155.5063061270647
 31
0.0
  0
ARC
  8
DETAIL
  6
CONTINUOUS
 62
     5
 10
9.5010500824998871
 20
152.5059745220648
 30
0.0
 40
3.000331605
 50
0.0
 51
90.0
  0
ARC
  8
DETAIL
  6
CONTINUOUS
 62
     5
 10
-9.5010500825001127
 20
152.5059745220648
 30
0.0
 40
3.000331605
 50
90.0
 51
180.0
  0
LINE
  8
DETAIL
  6
CONTINUOUS
 62
     5
 10
14.00154748999989
 20
152.5059745220648
 30
0.0
 11
12.501381687499819
 21
152.5059745220648
 31
0.0
  0
LINE
  8
DETAIL
  6
CONTINUOUS
 62
     5
 10
-12.501381687500039
 20
152.5059745220648
 30
0.0
 11
-14.001547490000121
 21
152.5059745220648
 31
0.0
  0
LINE
  8
DETAIL
  6
CONTINUOUS
 62
     5
 10
9.5010500824998871
 20
155.5063061270647
 30
0.0
 11
-9.5010500825001127
 21
155.5063061270647
 31
0.0
  0
ARC
  8
DETAIL
  6
CONTINUOUS
 62
     5
 10
9.5010500824998871
 20
152.5059745220648
 30
0.0
 40
3.000331605
 50
0.0
 51
90.0
  0
ARC
  8
DETAIL
  6
CONTINUOUS
 62
     5
 10
-9.5010500825001127
 20
152.5059745220648
 30
0.0
 40
3.000331605
 50
90.0
 51
180.0
  0
LINE
  8
DETAIL
  6
CONTINUOUS
 62
     5
 10
14.00154748999989
 20
152.5059745220648
 30
0.0
 11
12.501381687499819
 21
152.5059745220648
 31
0.0
  0
LINE
  8
DETAIL
  6
CONTINUOUS
 62
     5
 10
-12.501381687500039
 20
152.5059745220648
 30
0.0
 11
-14.001547490000121
 21
152.5059745220648
 31
0.0
  0
LINE
  8
NOTE
  6
CONTINUOUS
 62
     4
 10
-2.865093468714861
 20
85.511333803071182
 30
0.0
 11
0.0
 21
79.999896721372124
 31
0.0
  0
LINE
  8
NOTE
  6
CONTINUOUS
 62
     4
 10
0.0
 20
79.999896721372124
 30
0.0
 11
-5.2369673029097612
 21
83.340386619314373
 31
0.0
  0
LINE
  8
NOTE
  6
CONTINUOUS
 62
     4
 10
0.0
 20
79.999896721372124
 30
0.0
 11
-8.10206077162462
 21
88.851823701013416
 31
0.0
  0
LINE
  8
NOTE
  6
CONTINUOUS
 62
     4
 10
-8.10206077162462
 20
88.851823701013416
 30
0.0
 11
-166.81365058385441
 21
262.25257240447229
 31
0.0
  0
LINE
  8
NOTE
  6
CONTINUOUS
 62
     4
 10
-166.81365058385441
 20
262.25257240447229
 30
0.0
 11
-263.84222201242579
 21
262.25257240447229
 31
0.0
  0
LINE
  8
NOTE
  6
CONTINUOUS
 62
     4
 10
76.089964416309229
 20
7.2235325962061552
 30
0.0
 11
69.999999944784008
 21
5.9999999952672169
 31
0.0
  0
LINE
  8
NOTE
  6
CONTINUOUS
 62
     4
 10
69.999999944784008
 20
5.9999999952672169
 30
0.0
 11
74.662291399404694
 21
10.104599571616969
 31
0.0
  0
LINE
  8
NOTE
  6
CONTINUOUS
 62
     4
 10
69.999999944784008
 20
5.9999999952672169
 30
0.0
 11
80.752255870929957
 21
11.32813217255597
 31
0.0
  0
LINE
  8
NOTE
  6
CONTINUOUS
 62
     4
 10
80.752255870929957
 20
11.32813217255597
 30
0.0
 11
316.99549197537578
 21
128.39521061644791
 31
0.0
  0
LINE
  8
NOTE
  6
CONTINUOUS
 62
     4
 10
316.99549197537578
 20
128.39521061644791
 30
0.0
 11
728.86622469500844
 21
128.9251607479782
 31
0.0
  0
LINE
  8
NOTE
  6
CONTINUOUS
 62
     4
 10
-75.577858101882711
 20
-72.733532031533173
 30
0.0
 11
-69.999999944784008
 21
-69.999999944784008
 31
0.0
  0
LINE
  8
NOTE
  6
CONTINUOUS
 62
     4
 10
-69.999999944784008
 20
-69.999999944784008
 30
0.0
 11
-73.463792993999704
 21
-75.156242472265163
 31
0.0
  0
LINE
  8
NOTE
  6
CONTINUOUS
 62
     4
 10
-69.999999944784008
 20
-69.999999944784008
 30
0.0
 11
-79.041651151098449
 21
-77.889774559014299
 31
0.0
  0
LINE
  8
NOTE
  6
CONTINUOUS
 62
     4
 10
-79.041651151098449
 20
-77.889774559014299
 30
0.0
 11
-260.35999562199328
 21
-236.1087589743465
 31
0.0
  0
LINE
  8
NOTE
  6
CONTINUOUS
 62
     4
 10
-260.35999562199328
 20
-236.1087589743465
 30
0.0
 11
-630.56355384562357
 21
-236.1087589743465
 31
0.0
  0
LINE
  8
DETAIL
  6
CONTINUOUS
 62
     5
 10
14.00154748999989
 20
152.5059745220648
 30
0.0
 11
14.00154748999989
 21
143.50497970706459
 31
0.0
  0
ENDSEC
  0
EOF
