  0
SECTION
  2
HEADER
  9
$ACADVER
  1
AC1009
  9
$DWGCODEPAGE
  3
dos932
  9
$INSBASE
 10
0.0
 20
0.0
 30
0.0
  9
$EXTMIN
 10
-644.43052545472892
 20
-458.86229299807752
 30
-0.0015258207003583
  9
$EXTMAX
 10
629.92859997312553
 20
703.03345541822819
 30
0.0000000349246037
  9
$LIMMIN
 10
-2970.0
 20
-2100.0
  9
$LIMMAX
 10
2970.0
 20
2100.0
  9
$ORTHOMODE
 70
     1
  9
$REGENMODE
 70
     1
  9
$FILLMODE
 70
     1
  9
$QTEXTMODE
 70
     0
  9
$MIRRTEXT
 70
     0
  9
$LTSCALE
 40
20.0
  9
$ATTMODE
 70
     1
  9
$TEXTSIZE
 40
64.0
  9
$TRACEWID
 40
0.05
  9
$TEXTSTYLE
  7
STANDARD
  9
$CLAYER
  8
SIZE
  9
$CELTYPE
  6
CONTINUOUS
  9
$CECOLOR
 62
     7
  9
$DIMSCALE
 40
1.0
  9
$DIMASZ
 40
12.0
  9
$DIMEXO
 40
20.0
  9
$DIMDLI
 40
200.0
  9
$DIMRND
 40
0.0
  9
$DIMDLE
 40
0.0
  9
$DIMEXE
 40
20.0
  9
$DIMTP
 40
0.0
  9
$DIMTM
 40
0.0
  9
$DIMTXT
 40
64.0
  9
$DIMCEN
 40
0.09
  9
$DIMTSZ
 40
0.0
  9
$DIMTOL
 70
     0
  9
$DIMLIM
 70
     0
  9
$DIMTIH
 70
     0
  9
$DIMTOH
 70
     0
  9
$DIMSE1
 70
     0
  9
$DIMSE2
 70
     0
  9
$DIMTAD
 70
     1
  9
$DIMZIN
 70
     8
  9
$DIMBLK
  1

  9
$DIMASO
 70
     1
  9
$DIMSHO
 70
     0
  9
$DIMPOST
  1

  9
$DIMAPOST
  1

  9
$DIMALT
 70
     0
  9
$DIMALTD
 70
     2
  9
$DIMALTF
 40
25.399999999999999
  9
$DIMLFAC
 40
1.0
  9
$DIMTOFL
 70
     1
  9
$DIMTVP
 40
0.0
  9
$DIMTIX
 70
     1
  9
$DIMSOXD
 70
     0
  9
$DIMSAH
 70
     0
  9
$DIMBLK1
  1

  9
$DIMBLK2
  1

  9
$DIMSTYLE
  2
STANDARD
  9
$DIMCLRD
 70
     7
  9
$DIMCLRE
 70
     7
  9
$DIMCLRT
 70
     7
  9
$DIMTFAC
 40
1.0
  9
$DIMGAP
 40
25.0
  9
$LUNITS
 70
     2
  9
$LUPREC
 70
     4
  9
$SKETCHINC
 40
0.1
  9
$FILLETRAD
 40
3.0
  9
$AUNITS
 70
     1
  9
$AUPREC
 70
     3
  9
$MENU
  1
ACAD
  9
$ELEVATION
 40
0.0
  9
$PELEVATION
 40
0.0
  9
$THICKNESS
 40
0.0
  9
$LIMCHECK
 70
     0
  9
$CHAMFERA
 40
0.0
  9
$CHAMFERB
 40
0.0
  9
$SKPOLY
 70
     0
  9
$TDCREATE
 40
2453019.623009259
  9
$TDUPDATE
 40
2459356.643644213
  9
$TDINDWG
 40
1.7250854282
  9
$TDUSRTIMER
 40
1.7250854282
  9
$USRTIMER
 70
     1
  9
$ANGBASE
 50
0.0
  9
$ANGDIR
 70
     0
  9
$PDMODE
 70
     3
  9
$PDSIZE
 40
-2.0
  9
$PLINEWID
 40
0.0
  9
$SPLFRAME
 70
     0
  9
$SPLINETYPE
 70
     6
  9
$SPLINESEGS
 70
     8
  9
$SURFTAB1
 70
     6
  9
$SURFTAB2
 70
     6
  9
$SURFTYPE
 70
     6
  9
$SURFU
 70
     6
  9
$SURFV
 70
     6
  9
$UCSNAME
  2

  9
$UCSORG
 10
0.0
 20
0.0
 30
0.0
  9
$UCSXDIR
 10
1.0
 20
0.0
 30
0.0
  9
$UCSYDIR
 10
0.0
 20
1.0
 30
0.0
  9
$PUCSNAME
  2

  9
$PUCSORG
 10
0.0
 20
0.0
 30
0.0
  9
$PUCSXDIR
 10
1.0
 20
0.0
 30
0.0
  9
$PUCSYDIR
 10
0.0
 20
1.0
 30
0.0
  9
$USERI1
 70
     0
  9
$USERI2
 70
     0
  9
$USERI3
 70
     0
  9
$USERI4
 70
     0
  9
$USERI5
 70
     0
  9
$USERR1
 40
20.0
  9
$USERR2
 40
0.0
  9
$USERR3
 40
0.0
  9
$USERR4
 40
0.0
  9
$USERR5
 40
0.0
  9
$WORLDVIEW
 70
     1
  9
$SHADEDGE
 70
     3
  9
$SHADEDIF
 70
    70
  9
$TILEMODE
 70
     1
  9
$MAXACTVP
 70
    48
  9
$PINSBASE
 10
0.0
 20
0.0
 30
0.0
  9
$PLIMCHECK
 70
     0
  9
$PEXTMIN
 10
-100000000000000000000.0
 20
-100000000000000000000.0
 30
-100000000000000000000.0
  9
$PEXTMAX
 10
100000000000000000000.0
 20
100000000000000000000.0
 30
100000000000000000000.0
  9
$PLIMMIN
 10
0.0
 20
0.0
  9
$PLIMMAX
 10
12.0
 20
9.0
  9
$UNITMODE
 70
     0
  9
$VISRETAIN
 70
     0
  9
$PLINEGEN
 70
     0
  9
$PSLTSCALE
 70
     0
  9
$TREEDEPTH
 70
  3020
  9
$ATTDIA
 70
     0
  9
$ATTREQ
 70
     1
  9
$BLIPMODE
 70
     1
  9
$COORDS
 70
     1
  9
$DRAGMODE
 70
     2
  9
$OSMODE
 70
     0
  9
$HANDLING
 70
     0
  9
$HANDSEED
  5
774
  0
ENDSEC
  0
SECTION
  2
TABLES
  0
TABLE
  2
LTYPE
 70
     2
  0
LTYPE
  2
CONTINUOUS
 70
     0
  3
実線
 72
    65
 73
     0
 40
0.0
  0
LTYPE
  2
DASHDOT
 70
     0
  3
____ _ ____ _ ____ _ ____ _ ____ _ ____ _ ____
 72
    65
 73
     4
 40
5.5
 49
4.0
 49
-0.6
 49
0.3
 49
-0.6
  0
ENDTAB
  0
TABLE
  2
LAYER
 70
    12
  0
LAYER
  2
SIZE
 70
     0
 62
    30
  6
CONTINUOUS
  0
LAYER
  2
BASIS
 70
     0
 62
     6
  6
DASHDOT
  0
LAYER
  2
OUTLINE
 70
     0
 62
     3
  6
CONTINUOUS
  0
LAYER
  2
DETAIL
 70
     0
 62
     5
  6
CONTINUOUS
  0
LAYER
  2
ARRANGE
 70
     0
 62
     1
  6
CONTINUOUS
  0
LAYER
  2
ETC
 70
     0
 62
    61
  6
CONTINUOUS
  0
LAYER
  2
FIX
 70
     0
 62
    11
  6
CONTINUOUS
  0
LAYER
  2
NOTE
 70
     0
 62
     4
  6
CONTINUOUS
  0
LAYER
  2
0
 70
    64
 62
     7
  6
CONTINUOUS
  0
LAYER
  2
DEFPOINTS
 70
    64
 62
     7
  6
CONTINUOUS
  0
LAYER
  2
SERVICESPACE
 70
    64
 62
     2
  6
DASHDOT
  0
LAYER
  2
SYMBOLLINE
 70
    64
 62
    15
  6
CONTINUOUS
  0
ENDTAB
  0
TABLE
  2
STYLE
 70
     1
  0
STYLE
  2
STANDARD
 70
     0
 40
64.0
 41
0.9
 50
0.0
 71
     0
 42
64.0
  3
SIMPLEX.shx
  4
BIGFONT.shx
  0
ENDTAB
  0
TABLE
  2
APPID
 70
    20
  0
APPID
  2
ACAD
 70
     0
  0
APPID
  2
ACADANNOTATIVE
 70
     0
  0
APPID
  2
AUTOCAD_POSTSCRIPT_FIGURE
 70
     0
  0
APPID
  2
ACAD_EXEMPT_FROM_CAD_STANDARDS
 70
     0
  0
APPID
  2
ACAD_PSEXT
 70
     0
  0
APPID
  2
ACAUTHENVIRON
 70
     0
  0
APPID
  2
GENIUS_GENOENT_13
 70
     0
  0
APPID
  2
GENIUS_GENCFG_13
 70
     0
  0
APPID
  2
GENIUS_GENCFG0_13
 70
     0
  0
APPID
  2
GENIUS_GENCFG1_13
 70
     0
  0
APPID
  2
GENIUS_GENCFG2_13
 70
     0
  0
APPID
  2
GENIUS_GENCFG3_13
 70
     0
  0
APPID
  2
GENIUS_GENCFG4_13
 70
     0
  0
APPID
  2
GENIUS_GEVCFG0_13
 70
     0
  0
APPID
  2
CONTENTBLOCKICON
 70
     0
  0
APPID
  2
CONTENTBLOCKDESCRIPTION
 70
     0
  0
APPID
  2
ACAD_NAV_VCDISPLAY
 70
     0
  0
APPID
  2
ACAD_MLEADERVER
 70
     0
  0
APPID
  2
ACDBDYNAMICBLOCKTRUENAME
 70
     0
  0
APPID
  2
ACDBDYNAMICBLOCKGUID
 70
     0
  0
ENDTAB
  0
TABLE
  2
DIMSTYLE
 70
     1
  0
DIMSTYLE
  2
STANDARD
 70
     0
  3

  4

  5

  6

  7

 40
1.0
 41
12.0
 42
20.0
 43
200.0
 44
20.0
 45
0.0
 46
0.0
 47
0.0
 48
0.0
140
64.0
141
0.09
142
0.0
143
25.399999999999999
144
1.0
145
0.0
146
1.0
147
25.0
 71
     0
 72
     0
 73
     0
 74
     0
 75
     0
 76
     0
 77
     1
 78
     8
170
     0
171
     2
172
     1
173
     0
174
     1
175
     0
176
     7
177
     7
178
     7
  0
ENDTAB
  0
TABLE
  2
VIEW
 70
     1
  0
VIEW
  2
ALL
 70
     0
 40
4282.6198079999986
 10
0.0
 20
41.309904000000003
 41
5940.0
 11
0.0
 21
0.0
 31
1.0
 12
0.0
 22
0.0
 32
0.0
 42
50.0
 43
0.0
 44
0.0
 50
0.0
 71
     0
  0
ENDTAB
  0
TABLE
  2
UCS
 70
     0
  0
ENDTAB
  0
TABLE
  2
VPORT
 70
     1
  0
VPORT
  2
*ACTIVE
 70
     0
 10
0.0
 20
0.0
 11
1.0
 21
1.0
 12
-7.2509627408016399
 22
122.0855812100754
 13
0.0
 23
0.0
 14
1.0
 24
1.0
 15
0.0
 25
0.0
 16
0.0
 26
0.0
 36
1.0
 17
0.0
 27
0.0
 37
0.0
 40
776.30490081822199
 41
2.195615514333896
 42
50.0
 43
0.0
 44
0.0
 50
0.0
 51
0.0
 71
     0
 72
  1000
 73
     1
 74
     3
 75
     0
 76
     0
 77
     0
 78
     0
  0
ENDTAB
  0
ENDSEC
  0
SECTION
  2
BLOCKS
  0
ENDSEC
  0
SECTION
  2
ENTITIES
  0
TEXT
  8
ETC
  6
CONTINUOUS
 62
    61
 10
72.999327905253736
 20
638.72277176253851
 30
0.0
 40
64.0
  1
V-08KPL4_5
 41
0.9
  0
TEXT
  8
ETC
  6
CONTINUOUS
 62
    61
 10
68.81333390525333
 20
520.76746174770722
 30
0.0
 40
64.0
  1
換気扇
 41
0.9
  0
LINE
  8
BASIS
  6
DASHDOT
 62
     6
 10
0.0
 20
-109.2854010143142
 30
0.0
 11
0.0
 21
109.2854010143142
 31
0.0
  0
LINE
  8
BASIS
  6
DASHDOT
 62
     6
 10
95.967552833830496
 20
0.0
 30
0.0
 11
-95.967646960021952
 21
0.0
 31
0.0
  0
TEXT
  8
ETC
  6
CONTINUOUS
 62
    61
 10
119.51473215380931
 20
412.61868886148198
 30
0.0
 40
40.0
  1
V-08KPL4
 41
0.9
  0
CIRCLE
  8
FIX
  6
CONTINUOUS
 62
    11
 10
0.0
 20
69.965255095611042
 30
0.0
 40
7.0441691683918863
  0
LINE
  8
NOTE
  6
CONTINUOUS
 62
     4
 10
0.0
 20
43.94343737316899
 30
0.0
 11
0.0
 21
95.98707281805315
 31
0.0
  0
LINE
  8
NOTE
  6
CONTINUOUS
 62
     4
 10
-26.021817722442051
 20
69.965255095611042
 30
0.0
 11
26.021817722442169
 21
69.965255095611042
 31
0.0
  0
CIRCLE
  8
FIX
  6
CONTINUOUS
 62
    11
 10
0.0
 20
5.9999999952671601
 30
0.0
 40
7.0441691683918863
  0
LINE
  8
NOTE
  6
CONTINUOUS
 62
     4
 10
0.0
 20
-20.021817727174891
 30
0.0
 11
0.0
 21
32.021817717709268
 31
0.0
  0
LINE
  8
NOTE
  6
CONTINUOUS
 62
     4
 10
-26.021817722442051
 20
5.9999999952671601
 30
0.0
 11
26.021817722442051
 21
5.9999999952672169
 31
0.0
  0
CIRCLE
  8
FIX
  6
CONTINUOUS
 62
    11
 10
0.0
 20
-69.999999944784179
 30
0.0
 40
7.0441691683918863
  0
LINE
  8
NOTE
  6
CONTINUOUS
 62
     4
 10
0.0
 20
-96.021817667226273
 30
0.0
 11
0.0
 21
-43.978182222342127
 31
0.0
  0
LINE
  8
NOTE
  6
CONTINUOUS
 62
     4
 10
-26.021817722442051
 20
-69.999999944784179
 30
0.0
 11
26.021817722442051
 21
-69.999999944784179
 31
0.0
  0
LINE
  8
SIZE
  6
CONTINUOUS
 62
    30
 10
30.003330334171551
 20
20.0
 30
0.0
 11
30.003330334171551
 21
328.42618669078161
 31
0.0
  0
LINE
  8
SIZE
  6
CONTINUOUS
 62
    30
 10
0.0
 20
129.2854010143142
 30
0.0
 11
0.0
 21
328.42618669078161
 31
0.0
  0
LINE
  8
SIZE
  6
CONTINUOUS
 62
    30
 10
42.003330334171551
 20
308.42618669078161
 30
0.0
 11
54.003330334171537
 21
308.42618669078161
 31
0.0
  0
LINE
  8
SIZE
  6
CONTINUOUS
 62
    30
 10
-12.0
 20
308.42618669078161
 30
0.0
 11
-24.0
 21
308.42618669078161
 31
0.0
  0
LINE
  8
SIZE
  6
CONTINUOUS
 62
    30
 10
30.003330334171551
 20
308.42618669078161
 30
0.0
 11
0.0
 21
308.42618669078161
 31
0.0
  0
CIRCLE
  8
SIZE
  6
CONTINUOUS
 62
    30
 10
30.003330334171551
 20
308.42618669078161
 30
0.0
 40
6.0
  0
LINE
  8
SIZE
  6
CONTINUOUS
 62
    30
 10
30.003330334171551
 20
308.42618669078161
 30
0.0
 11
42.003330334171551
 21
308.42618669078161
 31
0.0
  0
CIRCLE
  8
SIZE
  6
CONTINUOUS
 62
    30
 10
0.0
 20
308.42618669078161
 30
0.0
 40
6.0
  0
LINE
  8
SIZE
  6
CONTINUOUS
 62
    30
 10
0.0
 20
308.42618669078161
 30
0.0
 11
-12.0
 21
308.42618669078161
 31
0.0
  0
TEXT
  8
SIZE
  6
CONTINUOUS
 62
    30
 10
-31.62690626148564
 20
333.42618669078161
 30
0.0
 40
64.0
  1
30
 41
0.9
 72
     1
 11
15.001665167085781
 21
333.42618669078161
 31
0.0
  0
LINE
  8
SIZE
  6
CONTINUOUS
 62
    30
 10
20.508782677475441
 20
80.000047119583428
 30
0.0
 11
196.84834537482911
 21
80.000047119583314
 31
0.0
  0
LINE
  8
SIZE
  6
CONTINUOUS
 62
    30
 10
20.508782677494992
 20
-79.999952993389229
 30
0.0
 11
196.84834537482899
 21
-79.999952993389286
 31
0.0
  0
LINE
  8
SIZE
  6
CONTINUOUS
 62
    30
 10
176.84834537482899
 20
-67.999952993389286
 30
0.0
 11
176.84834537482911
 21
68.000047119583314
 31
0.0
  0
LINE
  8
SIZE
  6
CONTINUOUS
 62
    30
 10
176.84834537482911
 20
80.000047119583314
 30
0.0
 11
176.84834537482911
 21
344.42290426244051
 31
0.0
  0
CIRCLE
  8
SIZE
  6
CONTINUOUS
 62
    30
 10
176.84834537482899
 20
-79.999952993389286
 30
0.0
 40
6.0
  0
LINE
  8
SIZE
  6
CONTINUOUS
 62
    30
 10
176.84834537482899
 20
-79.999952993389286
 30
0.0
 11
176.84834537482899
 21
-67.999952993389286
 31
0.0
  0
CIRCLE
  8
SIZE
  6
CONTINUOUS
 62
    30
 10
176.84834537482911
 20
80.000047119583314
 30
0.0
 40
6.0
  0
LINE
  8
SIZE
  6
CONTINUOUS
 62
    30
 10
176.84834537482911
 20
80.000047119583314
 30
0.0
 11
176.84834537482911
 21
68.000047119583314
 31
0.0
  0
TEXT
  8
SIZE
  6
CONTINUOUS
 62
    30
 10
151.84834537482899
 20
113.1600471195834
 30
0.0
 40
64.0
  1
□160
 50
90.0
 41
0.9
 72
     1
 11
151.84834537482899
 21
218.211475691012
 31
0.0
  0
LINE
  8
SIZE
  6
CONTINUOUS
 62
    30
 10
-46.021817722442037
 20
69.965255095611042
 30
0.0
 11
-575.1592456340104
 21
69.965255095611212
 31
0.0
  0
LINE
  8
SIZE
  6
CONTINUOUS
 62
    30
 10
-115.9675528338305
 20
0.0
 30
0.0
 11
-575.1592456340104
 21
0.0000000000001137
 31
0.0
  0
LINE
  8
SIZE
  6
CONTINUOUS
 62
    30
 10
-555.1592456340104
 20
-11.99999999999989
 30
0.0
 11
-555.1592456340104
 21
-23.99999999999989
 31
0.0
  0
LINE
  8
SIZE
  6
CONTINUOUS
 62
    30
 10
-555.1592456340104
 20
81.965255095611226
 30
0.0
 11
-555.1592456340104
 21
242.0863185434647
 31
0.0
  0
LINE
  8
SIZE
  6
CONTINUOUS
 62
    30
 10
-555.1592456340104
 20
0.0000000000001137
 30
0.0
 11
-555.1592456340104
 21
69.965255095611212
 31
0.0
  0
CIRCLE
  8
SIZE
  6
CONTINUOUS
 62
    30
 10
-555.1592456340104
 20
0.0000000000001137
 30
0.0
 40
6.0
  0
LINE
  8
SIZE
  6
CONTINUOUS
 62
    30
 10
-555.1592456340104
 20
0.0000000000001137
 30
0.0
 11
-555.1592456340104
 21
-11.99999999999989
 31
0.0
  0
CIRCLE
  8
SIZE
  6
CONTINUOUS
 62
    30
 10
-555.1592456340104
 20
69.965255095611212
 30
0.0
 40
6.0
  0
LINE
  8
SIZE
  6
CONTINUOUS
 62
    30
 10
-555.1592456340104
 20
69.965255095611212
 30
0.0
 11
-555.1592456340104
 21
81.965255095611226
 31
0.0
  0
TEXT
  8
SIZE
  6
CONTINUOUS
 62
    30
 10
-580.1592456340104
 20
123.8291756863217
 30
0.0
 40
64.0
  1
70
 50
90.0
 41
0.9
 72
     1
 11
-580.1592456340104
 21
170.45774711489321
 31
0.0
  0
LINE
  8
SIZE
  6
CONTINUOUS
 62
    30
 10
-115.9675528338305
 20
0.0
 30
0.0
 11
-187.1591489740899
 21
0.0
 31
0.0
  0
LINE
  8
SIZE
  6
CONTINUOUS
 62
    30
 10
-46.021817722442037
 20
5.9999999952672169
 30
0.0
 11
-187.1591489740899
 21
5.9999999952672169
 31
0.0
  0
LINE
  8
SIZE
  6
CONTINUOUS
 62
    30
 10
-167.1591489740899
 20
-12.0
 30
0.0
 11
-167.1591489740899
 21
-23.99999999999994
 31
0.0
  0
LINE
  8
SIZE
  6
CONTINUOUS
 62
    30
 10
-167.1591489740899
 20
17.99999999526722
 30
0.0
 11
-167.1591489740899
 21
170.41916868416109
 31
0.0
  0
LINE
  8
SIZE
  6
CONTINUOUS
 62
    30
 10
-167.1591489740899
 20
0.0
 30
0.0
 11
-167.1591489740899
 21
5.9999999952672169
 31
0.0
  0
CIRCLE
  8
SIZE
  6
CONTINUOUS
 62
    30
 10
-167.1591489740899
 20
0.0
 30
0.0
 40
6.0
  0
LINE
  8
SIZE
  6
CONTINUOUS
 62
    30
 10
-167.1591489740899
 20
0.0
 30
0.0
 11
-167.1591489740899
 21
-12.0
 31
0.0
  0
CIRCLE
  8
SIZE
  6
CONTINUOUS
 62
    30
 10
-167.1591489740899
 20
5.9999999952672169
 30
0.0
 40
6.0
  0
LINE
  8
SIZE
  6
CONTINUOUS
 62
    30
 10
-167.1591489740899
 20
5.9999999952672169
 30
0.0
 11
-167.1591489740899
 21
17.99999999526722
 31
0.0
  0
TEXT
  8
SIZE
  6
CONTINUOUS
 62
    30
 10
-192.1591489740899
 20
109.76202582701831
 30
0.0
 40
64.0
  1
6
 50
90.0
 41
0.9
 72
     1
 11
-192.1591489740899
 21
127.5905972555897
 31
0.0
  0
LINE
  8
SIZE
  6
CONTINUOUS
 62
    30
 10
-115.9675528338305
 20
0.0
 30
0.0
 11
-575.1592456340104
 21
0.0000000000001137
 31
0.0
  0
LINE
  8
SIZE
  6
CONTINUOUS
 62
    30
 10
-46.021817722442037
 20
-69.999999944784179
 30
0.0
 11
-575.1592456340104
 21
-69.999999944784008
 31
0.0
  0
LINE
  8
SIZE
  6
CONTINUOUS
 62
    30
 10
-555.1592456340104
 20
12.00000000000011
 30
0.0
 11
-555.1592456340104
 21
24.00000000000011
 31
0.0
  0
LINE
  8
SIZE
  6
CONTINUOUS
 62
    30
 10
-555.1592456340104
 20
-81.999999944784008
 30
0.0
 11
-555.15924563401052
 21
-260.66450131800451
 31
0.0
  0
LINE
  8
SIZE
  6
CONTINUOUS
 62
    30
 10
-555.1592456340104
 20
0.0000000000001137
 30
0.0
 11
-555.1592456340104
 21
-69.999999944784008
 31
0.0
  0
CIRCLE
  8
SIZE
  6
CONTINUOUS
 62
    30
 10
-555.1592456340104
 20
0.0000000000001137
 30
0.0
 40
6.0
  0
LINE
  8
SIZE
  6
CONTINUOUS
 62
    30
 10
-555.1592456340104
 20
0.0000000000001137
 30
0.0
 11
-555.1592456340104
 21
12.00000000000011
 31
0.0
  0
CIRCLE
  8
SIZE
  6
CONTINUOUS
 62
    30
 10
-555.1592456340104
 20
-69.999999944784008
 30
0.0
 40
6.0
  0
LINE
  8
SIZE
  6
CONTINUOUS
 62
    30
 10
-555.1592456340104
 20
-69.999999944784008
 30
0.0
 11
-555.1592456340104
 21
-81.999999944784008
 31
0.0
  0
TEXT
  8
SIZE
  6
CONTINUOUS
 62
    30
 10
-580.1592456340104
 20
-235.6645013180046
 30
0.0
 40
64.0
  1
70
 50
90.0
 41
0.9
 72
     1
 11
-580.1592456340104
 21
-189.03592988943311
 31
0.0
  0
LINE
  8
SIZE
  6
CONTINUOUS
 62
    30
 10
-19.491217322505008
 20
-79.999952993389229
 30
0.0
 11
-240.42806508033209
 21
-79.999952993389172
 31
0.0
  0
LINE
  8
SIZE
  6
CONTINUOUS
 62
    30
 10
-3.4981683162071699
 20
-85.03557438758223
 30
0.0
 11
-240.42806508033209
 21
-85.03557438758223
 31
0.0
  0
LINE
  8
SIZE
  6
CONTINUOUS
 62
    30
 10
-220.42806508033209
 20
-67.999952993389172
 30
0.0
 11
-220.42806508033209
 21
-55.999952993389172
 31
0.0
  0
LINE
  8
SIZE
  6
CONTINUOUS
 62
    30
 10
-220.42806508033209
 20
-97.03557438758223
 30
0.0
 11
-220.42806508033209
 21
-209.7054340177352
 31
0.0
  0
LINE
  8
SIZE
  6
CONTINUOUS
 62
    30
 10
-220.42806508033209
 20
-79.999952993389172
 30
0.0
 11
-220.42806508033209
 21
-85.03557438758223
 31
0.0
  0
CIRCLE
  8
SIZE
  6
CONTINUOUS
 62
    30
 10
-220.42806508033209
 20
-79.999952993389172
 30
0.0
 40
6.0
  0
LINE
  8
SIZE
  6
CONTINUOUS
 62
    30
 10
-220.42806508033209
 20
-79.999952993389172
 30
0.0
 11
-220.42806508033209
 21
-67.999952993389172
 31
0.0
  0
CIRCLE
  8
SIZE
  6
CONTINUOUS
 62
    30
 10
-220.42806508033209
 20
-85.03557438758223
 30
0.0
 40
6.0
  0
LINE
  8
SIZE
  6
CONTINUOUS
 62
    30
 10
-220.42806508033209
 20
-85.03557438758223
 30
0.0
 11
-220.42806508033209
 21
-97.03557438758223
 31
0.0
  0
TEXT
  8
SIZE
  6
CONTINUOUS
 62
    30
 10
-245.42806508033209
 20
-184.70543401773531
 30
0.0
 40
64.0
  1
5
 50
90.0
 41
0.9
 72
     1
 11
-245.42806508033209
 21
-165.5054340177353
 31
0.0
  0
LINE
  8
SIZE
  6
CONTINUOUS
 62
    30
 10
-75.810558172638594
 20
-47.65683397454778
 30
0.0
 11
-452.25014154010307
 21
-47.656833974547681
 31
0.0
  0
LINE
  8
SIZE
  6
CONTINUOUS
 62
    30
 10
-71.982644977101941
 20
46.852470546058598
 30
0.0
 11
-452.25014154010307
 21
46.852470546058733
 31
0.0
  0
LINE
  8
SIZE
  6
CONTINUOUS
 62
    30
 10
-432.25014154010307
 20
-35.656833974547681
 30
0.0
 11
-432.25014154010307
 21
34.852470546058733
 31
0.0
  0
LINE
  8
SIZE
  6
CONTINUOUS
 62
    30
 10
-432.25014154010307
 20
46.852470546058733
 30
0.0
 11
-432.25014154010279
 21
270.9504957111152
 31
0.0
  0
CIRCLE
  8
SIZE
  6
CONTINUOUS
 62
    30
 10
-432.25014154010307
 20
-47.656833974547681
 30
0.0
 40
6.0
  0
LINE
  8
SIZE
  6
CONTINUOUS
 62
    30
 10
-432.25014154010307
 20
-47.656833974547681
 30
0.0
 11
-432.25014154010307
 21
-35.656833974547681
 31
0.0
  0
CIRCLE
  8
SIZE
  6
CONTINUOUS
 62
    30
 10
-432.25014154010307
 20
46.852470546058733
 30
0.0
 40
6.0
  0
LINE
  8
SIZE
  6
CONTINUOUS
 62
    30
 10
-432.25014154010307
 20
46.852470546058733
 30
0.0
 11
-432.25014154010307
 21
34.852470546058733
 31
0.0
  0
TEXT
  8
SIZE
  6
CONTINUOUS
 62
    30
 10
-467.91680820676959
 20
82.201924282543544
 30
0.0
 40
64.0
  1
φ95
 50
90.0
 41
0.9
 72
     1
 11
-467.91680820676959
 21
169.15049571111501
 31
0.0
  0
LINE
  8
SIZE
  6
CONTINUOUS
 62
    30
 10
-101.9090918123003
 20
-23.190038550797571
 30
0.0
 11
-309.72787987941678
 21
-23.19003855079751
 31
0.0
  0
LINE
  8
SIZE
  6
CONTINUOUS
 62
    30
 10
-99.725469620019908
 20
25.583892224123591
 30
0.0
 11
-309.72787987941678
 21
25.583892224123641
 31
0.0
  0
LINE
  8
SIZE
  6
CONTINUOUS
 62
    30
 10
-289.72787987941678
 20
-35.19003855079751
 30
0.0
 11
-289.72787987941678
 21
-47.19003855079751
 31
0.0
  0
LINE
  8
SIZE
  6
CONTINUOUS
 62
    30
 10
-289.72787987941678
 20
37.583892224123588
 30
0.0
 11
-289.72787987941678
 21
264.35006830833743
 31
0.0
  0
LINE
  8
SIZE
  6
CONTINUOUS
 62
    30
 10
-289.72787987941678
 20
-23.19003855079751
 30
0.0
 11
-289.72787987941678
 21
25.583892224123641
 31
0.0
  0
CIRCLE
  8
SIZE
  6
CONTINUOUS
 62
    30
 10
-289.72787987941678
 20
-23.19003855079751
 30
0.0
 40
6.0
  0
LINE
  8
SIZE
  6
CONTINUOUS
 62
    30
 10
-289.72787987941678
 20
-23.19003855079751
 30
0.0
 11
-289.72787987941678
 21
-35.19003855079751
 31
0.0
  0
CIRCLE
  8
SIZE
  6
CONTINUOUS
 62
    30
 10
-289.72787987941678
 20
25.583892224123641
 30
0.0
 40
6.0
  0
LINE
  8
SIZE
  6
CONTINUOUS
 62
    30
 10
-289.72787987941678
 20
25.583892224123641
 30
0.0
 11
-289.72787987941678
 21
37.583892224123588
 31
0.0
  0
TEXT
  8
SIZE
  6
CONTINUOUS
 62
    30
 10
-325.39454654608352
 20
78.344354022623151
 30
0.0
 40
64.0
  1
φ46
 50
90.0
 41
0.9
 72
     1
 11
-325.39454654608352
 21
163.92149687976601
 31
0.0
  0
LINE
  8
SIZE
  6
CONTINUOUS
 62
    30
 10
0.0
 20
-129.2854010143142
 30
0.0
 11
0.0
 21
-275.67477456083429
 31
0.0
  0
LINE
  8
SIZE
  6
CONTINUOUS
 62
    30
 10
-56.306249927136953
 20
-67.156781999269924
 30
0.0
 11
-56.306249927136953
 21
-275.67477456083429
 31
0.0
  0
LINE
  8
SIZE
  6
CONTINUOUS
 62
    30
 10
-68.30624992713696
 20
-255.67477456083429
 30
0.0
 11
-80.306249927136932
 21
-255.67477456083429
 31
0.0
  0
LINE
  8
SIZE
  6
CONTINUOUS
 62
    30
 10
12.0
 20
-255.67477456083429
 30
0.0
 11
249.5428571428572
 21
-255.67477456083429
 31
0.0
  0
LINE
  8
SIZE
  6
CONTINUOUS
 62
    30
 10
-56.306249927136953
 20
-255.67477456083429
 30
0.0
 11
0.0
 21
-255.67477456083429
 31
0.0
  0
CIRCLE
  8
SIZE
  6
CONTINUOUS
 62
    30
 10
-56.306249927136953
 20
-255.67477456083429
 30
0.0
 40
6.0
  0
LINE
  8
SIZE
  6
CONTINUOUS
 62
    30
 10
-56.306249927136953
 20
-255.67477456083429
 30
0.0
 11
-68.30624992713696
 21
-255.67477456083429
 31
0.0
  0
CIRCLE
  8
SIZE
  6
CONTINUOUS
 62
    30
 10
0.0
 20
-255.67477456083429
 30
0.0
 40
6.0
  0
LINE
  8
SIZE
  6
CONTINUOUS
 62
    30
 10
0.0
 20
-255.67477456083429
 30
0.0
 11
12.0
 21
-255.67477456083429
 31
0.0
  0
TEXT
  8
SIZE
  6
CONTINUOUS
 62
    30
 10
49.0
 20
-230.67477456083429
 30
0.0
 40
64.0
  1
56.5
 41
0.9
 72
     1
 11
136.7714285714286
 21
-230.67477456083429
 31
0.0
  0
LINE
  8
SIZE
  6
CONTINUOUS
 62
    30
 10
0.0
 20
-129.2854010143142
 30
0.0
 11
0.0
 21
-384.11544475201208
 31
0.0
  0
LINE
  8
SIZE
  6
CONTINUOUS
 62
    30
 10
-84.509380441262238
 20
-40.589615455809849
 30
0.0
 11
-84.509380441262238
 21
-384.11544475201208
 31
0.0
  0
LINE
  8
SIZE
  6
CONTINUOUS
 62
    30
 10
-72.509380441262238
 20
-364.11544475201208
 30
0.0
 11
-12.0
 21
-364.11544475201208
 31
0.0
  0
LINE
  8
SIZE
  6
CONTINUOUS
 62
    30
 10
0.0
 20
-364.11544475201208
 30
0.0
 11
237.5428571428572
 21
-364.11544475201208
 31
0.0
  0
CIRCLE
  8
SIZE
  6
CONTINUOUS
 62
    30
 10
-84.509380441262238
 20
-364.11544475201208
 30
0.0
 40
6.0
  0
LINE
  8
SIZE
  6
CONTINUOUS
 62
    30
 10
-84.509380441262238
 20
-364.11544475201208
 30
0.0
 11
-72.509380441262238
 21
-364.11544475201208
 31
0.0
  0
CIRCLE
  8
SIZE
  6
CONTINUOUS
 62
    30
 10
0.0
 20
-364.11544475201208
 30
0.0
 40
6.0
  0
LINE
  8
SIZE
  6
CONTINUOUS
 62
    30
 10
0.0
 20
-364.11544475201208
 30
0.0
 11
-12.0
 21
-364.11544475201208
 31
0.0
  0
TEXT
  8
SIZE
  6
CONTINUOUS
 62
    30
 10
37.0
 20
-339.11544475201208
 30
0.0
 40
64.0
  1
84.5
 41
0.9
 72
     1
 11
124.7714285714286
 21
-339.11544475201208
 31
0.0
  0
TEXT
  8
NOTE
  6
CONTINUOUS
 62
     4
 10
-186.01602690953581
 20
455.37886706370642
 30
0.0
 40
64.0
  1
EL
 41
0.9
 72
     2
 11
-100.9874554809644
 21
455.37886706370642
 31
0.0
  0
TEXT
  8
NOTE
  6
CONTINUOUS
 62
     4
 10
-547.08943631225577
 20
323.02024387141552
 30
0.0
 40
64.0
  1
2-φ4×10
 41
0.9
 72
     2
 11
-145.53515059797019
 21
323.02024387141552
 31
0.0
  0
TEXT
  8
NOTE
  6
CONTINUOUS
 62
     4
 10
-567.35257240589226
 20
-407.41707043213609
 30
0.0
 40
64.0
  1
2-φ5×7
 41
0.9
 72
     2
 11
-209.68400097732089
 21
-407.41707043213609
 31
0.0
  0
LINE
  8
NOTE
  6
CONTINUOUS
 62
     4
 10
2.02818342903447
 20
86.185161853919965
 30
0.0
 11
2.029457148395295
 21
79.973503647962502
 31
0.0
  0
LINE
  8
NOTE
  6
CONTINUOUS
 62
     4
 10
2.029457148395295
 20
79.973503647962502
 30
0.0
 11
-1.077483133478268
 21
85.352315912289214
 31
0.0
  0
LINE
  8
NOTE
  6
CONTINUOUS
 62
     4
 10
2.029457148395295
 20
79.973503647962502
 30
0.0
 11
-1.078756852839206
 21
91.563974118246691
 31
0.0
  0
LINE
  8
NOTE
  6
CONTINUOUS
 62
     4
 10
-1.078756852839206
 20
91.563974118246691
 30
0.0
 11
-93.406269177549575
 21
435.85149896991862
 31
0.0
  0
LINE
  8
NOTE
  6
CONTINUOUS
 62
     4
 10
-93.406269177549575
 20
435.85149896991862
 30
0.0
 11
-190.4348406061209
 21
435.85149896991862
 31
0.0
  0
LINE
  8
NOTE
  6
CONTINUOUS
 62
     4
 10
-1.0896991127631279
 20
12.11532951489596
 30
0.0
 11
0.0
 21
5.9999999952671601
 31
0.0
  0
LINE
  8
NOTE
  6
CONTINUOUS
 62
     4
 10
0.0
 20
5.9999999952671601
 30
0.0
 11
-4.0013790337068258
 21
10.75117512554931
 31
0.0
  0
LINE
  8
NOTE
  6
CONTINUOUS
 62
     4
 10
0.0
 20
5.9999999952671601
 30
0.0
 11
-5.0910781464699539
 21
16.866504645178111
 31
0.0
  0
LINE
  8
NOTE
  6
CONTINUOUS
 62
     4
 10
-5.0910781464699539
 20
16.866504645178111
 30
0.0
 11
-133.53515059797019
 21
291.02024387141552
 31
0.0
  0
LINE
  8
NOTE
  6
CONTINUOUS
 62
     4
 10
-133.53515059797019
 20
291.02024387141552
 30
0.0
 11
-554.08193658205846
 21
291.02024387141552
 31
0.0
  0
LINE
  8
NOTE
  6
CONTINUOUS
 62
     4
 10
-4.109140502926607
 20
-74.658289718639807
 30
0.0
 11
0.0
 21
-69.999999944784179
 31
0.0
  0
LINE
  8
NOTE
  6
CONTINUOUS
 62
     4
 10
0.0
 20
-69.999999944784179
 30
0.0
 11
-1.229466000894718
 21
-76.088769331338753
 31
0.0
  0
LINE
  8
NOTE
  6
CONTINUOUS
 62
     4
 10
0.0
 20
-69.999999944784179
 30
0.0
 11
-5.33860650382121
 21
-80.74705910519441
 31
0.0
  0
LINE
  8
NOTE
  6
CONTINUOUS
 62
     4
 10
-5.33860650382121
 20
-80.74705910519441
 30
0.0
 11
-197.68400097732089
 21
-458.80597436341202
 31
0.0
  0
LINE
  8
NOTE
  6
CONTINUOUS
 62
     4
 10
-197.68400097732089
 20
-458.80597436341202
 30
0.0
 11
-570.74936466990073
 21
-458.80597436341202
 31
0.0
  0
ARC
  8
DETAIL
  6
CONTINUOUS
 62
     5
 10
2.0089484799757429
 20
123.252587081763
 30
0.0
 40
0.7500829012499999
 50
90.0
 51
270.0
  0
ARC
  8
DETAIL
  6
CONTINUOUS
 62
     5
 10
2.0089484799757429
 20
126.2529186867631
 30
0.0
 40
0.7500829012499999
 50
270.0
 51
90.0
  0
ARC
  8
DETAIL
  6
CONTINUOUS
 62
     5
 10
2.0089484799757429
 20
129.25325029176301
 30
0.0
 40
0.7500829012499999
 50
90.0
 51
270.0
  0
ARC
  8
DETAIL
  6
CONTINUOUS
 62
     5
 10
2.0089484799757429
 20
132.25358189676311
 30
0.0
 40
0.7500829012499999
 50
270.0
 51
90.0
  0
ARC
  8
DETAIL
  6
CONTINUOUS
 62
     5
 10
2.0089484799757429
 20
135.25391350176301
 30
0.0
 40
0.7500829012499999
 50
90.0
 51
270.0
  0
LINE
  8
DETAIL
  6
CONTINUOUS
 62
     5
 10
3.509114282475593
 20
97.001926214583364
 30
0.0
 11
3.509114282475593
 21
79.947676136647843
 31
0.0
  0
LINE
  8
DETAIL
  6
CONTINUOUS
 62
     5
 10
0.5087826774754376
 20
97.001926214583364
 30
0.0
 11
0.5087826774754376
 21
80.000047119583428
 31
0.0
  0
ARC
  8
DETAIL
  6
CONTINUOUS
 62
     5
 10
2.7590313812254408
 20
98.301107909437064
 30
0.0
 40
1.500165802500024
 50
239.9999999999994
 51
299.99999999999972
  0
ARC
  8
DETAIL
  6
CONTINUOUS
 62
     5
 10
1.25886557872559
 20
95.702744519729762
 30
0.0
 40
1.500165802499976
 50
59.999999999999453
 51
120.0000000000006
  0
LINE
  8
DETAIL
  6
CONTINUOUS
 62
     5
 10
3.509114282475593
 20
120.50228311051301
 30
0.0
 11
3.509114282475593
 21
100.00225781958341
 31
0.0
  0
LINE
  8
DETAIL
  6
CONTINUOUS
 62
     5
 10
0.5087826774754376
 20
120.50228311051301
 30
0.0
 11
0.5087826774754376
 21
100.00225781958341
 31
0.0
  0
LINE
  8
DETAIL
  6
CONTINUOUS
 62
     5
 10
0.0087274099753358
 20
152.50582023051311
 30
0.0
 11
0.0087274099753358
 21
143.5048254155131
 31
0.0
  0
LINE
  8
DETAIL
  6
CONTINUOUS
 62
     5
 10
11.009943294975759
 20
143.5048254155131
 30
0.0
 11
0.0087274099753358
 21
143.5048254155131
 31
0.0
  0
LINE
  8
DETAIL
  6
CONTINUOUS
 62
     5
 10
3.0090590149754921
 20
130.00333319301299
 30
0.0
 11
3.0090590149754921
 21
128.503167390513
 31
0.0
  0
LINE
  8
DETAIL
  6
CONTINUOUS
 62
     5
 10
3.0090590149754921
 20
124.00266998301311
 30
0.0
 11
3.0090590149754921
 21
122.5025041805131
 31
0.0
  0
LINE
  8
DETAIL
  6
CONTINUOUS
 62
     5
 10
1.0088379449755389
 20
127.00300158801311
 30
0.0
 11
1.0088379449755389
 21
125.502835785513
 31
0.0
  0
LINE
  8
DETAIL
  6
CONTINUOUS
 62
     5
 10
3.0090590149754921
 20
136.00399640301319
 30
0.0
 11
3.0090590149754921
 21
134.50383060051311
 31
0.0
  0
LINE
  8
DETAIL
  6
CONTINUOUS
 62
     5
 10
1.0088379449755389
 20
133.00366479801301
 30
0.0
 11
1.0088379449755389
 21
131.50349899551321
 31
0.0
  0
LINE
  8
DETAIL
  6
CONTINUOUS
 62
     5
 10
6.8330110605636492
 20
136.00399640301319
 30
0.0
 11
2.0089484799757429
 21
136.00399640301319
 31
0.0
  0
LINE
  8
DETAIL
  6
CONTINUOUS
 62
     5
 10
6.6565209661519029
 20
134.50383060051311
 30
0.0
 11
2.0089484799757429
 21
134.50383060051311
 31
0.0
  0
LINE
  8
DETAIL
  6
CONTINUOUS
 62
     5
 10
2.0089484799757429
 20
133.00366479801301
 30
0.0
 11
-2.4621339117891239
 21
133.00366479801301
 31
0.0
  0
LINE
  8
DETAIL
  6
CONTINUOUS
 62
     5
 10
2.0089484799757429
 20
131.50349899551321
 30
0.0
 11
-2.2856438173773772
 21
131.50349899551321
 31
0.0
  0
LINE
  8
DETAIL
  6
CONTINUOUS
 62
     5
 10
6.1270506829166607
 20
130.00333319301299
 30
0.0
 11
2.0089484799757429
 21
130.00333319301299
 31
0.0
  0
LINE
  8
DETAIL
  6
CONTINUOUS
 62
     5
 10
5.9505605885049144
 20
128.503167390513
 30
0.0
 11
2.0089484799757429
 21
128.503167390513
 31
0.0
  0
LINE
  8
DETAIL
  6
CONTINUOUS
 62
     5
 10
2.0089484799757429
 20
127.00300158801311
 30
0.0
 11
-1.756173534142135
 21
127.00300158801311
 31
0.0
  0
LINE
  8
DETAIL
  6
CONTINUOUS
 62
     5
 10
2.0089484799757429
 20
125.502835785513
 30
0.0
 11
-1.5796834397303881
 21
125.502835785513
 31
0.0
  0
LINE
  8
DETAIL
  6
CONTINUOUS
 62
     5
 10
5.4210903052696722
 20
124.00266998301311
 30
0.0
 11
2.0089484799757429
 21
124.00266998301311
 31
0.0
  0
LINE
  8
DETAIL
  6
CONTINUOUS
 62
     5
 10
5.244600210857925
 20
122.5025041805131
 30
0.0
 11
2.0089484799757429
 21
122.5025041805131
 31
0.0
  0
ARC
  8
DETAIL
  6
CONTINUOUS
 62
     5
 10
4.5646061510622076
 20
121.00233837801299
 30
0.0
 40
0.5000552675001021
 50
270.0
 51
353.29016319224411
  0
ARC
  8
DETAIL
  6
CONTINUOUS
 62
     5
 10
-0.5467091911111766
 20
121.00233837801299
 30
0.0
 40
0.5000552675
 50
186.70983680775279
 51
270.0
  0
ARC
  8
DETAIL
  6
CONTINUOUS
 62
     5
 10
8.0096116899755998
 20
139.68995256377971
 30
0.0
 40
1.0001105349999999
 50
86.423665624995323
 51
180.0
  0
ARC
  8
DETAIL
  6
CONTINUOUS
 62
     5
 10
-3.9917147300245688
 20
140.5549747077913
 30
0.0
 40
1.0001105349999639
 50
0.0
 51
70.528779365513728
  0
LINE
  8
DETAIL
  6
CONTINUOUS
 62
     5
 10
7.0095011549753963
 20
137.5041622055129
 30
0.0
 11
5.0612363421748796
 21
120.94391129670571
 31
0.0
  0
LINE
  8
DETAIL
  6
CONTINUOUS
 62
     5
 10
-2.9916041950243648
 20
137.50416220551301
 30
0.0
 11
-1.043339382223849
 21
120.94391129670571
 31
0.0
  0
LINE
  8
DETAIL
  6
CONTINUOUS
 62
     5
 10
7.0095011549753963
 20
137.50416220551301
 30
0.0
 11
-2.9916041950243648
 21
137.50416220551301
 31
0.0
  0
LINE
  8
DETAIL
  6
CONTINUOUS
 62
     5
 10
4.5646061510622076
 20
120.50228311051301
 30
0.0
 11
-0.5467091911111766
 21
120.50228311051301
 31
0.0
  0
LINE
  8
DETAIL
  6
CONTINUOUS
 62
     5
 10
7.0095011549753963
 20
139.68995256377971
 30
0.0
 11
7.0095011549753963
 21
137.5041622055129
 31
0.0
  0
LINE
  8
DETAIL
  6
CONTINUOUS
 62
     5
 10
-2.9916041950243648
 20
140.5549747077913
 30
0.0
 11
-2.9916041950243648
 21
137.50416220551301
 31
0.0
  0
ARC
  8
DETAIL
  6
CONTINUOUS
 62
     5
 10
-2.9916041950243648
 20
143.38371447272971
 30
0.0
 40
2.0002210699999941
 50
180.0
 51
266.42366562499529
  0
LINE
  8
DETAIL
  6
CONTINUOUS
 62
     5
 10
27.11833699864815
 20
151.1556710082632
 30
0.0
 11
27.11833699864815
 21
144.85497463776309
 31
0.0
  0
ARC
  8
DETAIL
  6
CONTINUOUS
 62
     5
 10
22.011159179975721
 20
148.0053228230131
 30
0.0
 40
6.0006632100000861
 50
328.33175674645992
 51
31.66824325354014
  0
CIRCLE
  8
DETAIL
  6
CONTINUOUS
 62
     5
 10
22.71123655447559
 20
148.0053228230131
 30
0.0
 40
1.9502155432500019
  0
LINE
  8
DETAIL
  6
CONTINUOUS
 62
     5
 10
27.11833699864815
 20
144.85497463776309
 30
0.0
 11
11.009943294975759
 21
144.85497463776309
 31
0.0
  0
LINE
  8
DETAIL
  6
CONTINUOUS
 62
     5
 10
-3.1163745573023789
 20
141.38738867628041
 30
0.0
 11
11.009943294975759
 21
140.50449381051291
 31
0.0
  0
LINE
  8
DETAIL
  6
CONTINUOUS
 62
     5
 10
-4.9918252650243176
 20
152.6269311732963
 30
0.0
 11
-4.9918252650243176
 21
143.38371447272971
 31
0.0
  0
LINE
  8
DETAIL
  6
CONTINUOUS
 62
     5
 10
11.009943294975759
 20
155.50615183551301
 30
0.0
 11
11.009943294975759
 21
140.50449381051291
 31
0.0
  0
ARC
  8
DETAIL
  6
CONTINUOUS
 62
     5
 10
2.7590313812254408
 20
101.30143951443711
 30
0.0
 40
1.500165802500024
 50
239.9999999999994
 51
299.99999999999972
  0
ARC
  8
DETAIL
  6
CONTINUOUS
 62
     5
 10
1.25886557872559
 20
98.703076124729705
 30
0.0
 40
1.500165802499976
 50
59.999999999999453
 51
120.0000000000006
  0
LINE
  8
DETAIL
  6
CONTINUOUS
 62
     5
 10
11.009943294975759
 20
152.50582023051311
 30
0.0
 11
0.0087274099753358
 21
152.50582023051311
 31
0.0
  0
ARC
  8
DETAIL
  6
CONTINUOUS
 62
     5
 10
-2.9916041950243648
 20
152.6269311732963
 30
0.0
 40
2.0002210699999998
 50
93.576334375004691
 51
180.0
  0
LINE
  8
DETAIL
  6
CONTINUOUS
 62
     5
 10
27.11833699864815
 20
151.1556710082632
 30
0.0
 11
11.009943294975759
 21
151.1556710082632
 31
0.0
  0
LINE
  8
DETAIL
  6
CONTINUOUS
 62
     5
 10
11.009943294975759
 20
155.50615183551301
 30
0.0
 11
-3.1163745573023789
 21
154.62325696974571
 31
0.0
  0
CIRCLE
  8
DETAIL
  6
CONTINUOUS
 62
     5
 10
22.71123655447559
 20
148.0053228230131
 30
0.0
 40
1.5501713292499979
  0
LINE
  8
NOTE
  6
CONTINUOUS
 62
     4
 10
-35.908049322864599
 20
-64.00639739702514
 30
0.0
 11
-34.003746042392322
 21
-58.093840563811341
 31
0.0
  0
LINE
  8
NOTE
  6
CONTINUOUS
 62
     4
 10
-34.003746042392322
 20
-58.093840563811341
 30
0.0
 11
-38.609205757745599
 21
-62.262106402293632
 31
0.0
  0
LINE
  8
NOTE
  6
CONTINUOUS
 62
     4
 10
-34.003746042392322
 20
-58.093840563811341
 30
0.0
 11
-40.513509038217883
 21
-68.174663235507353
 31
0.0
  0
LINE
  8
NOTE
  6
CONTINUOUS
 62
     4
 10
-40.513509038217883
 20
-68.174663235507353
 30
0.0
 11
-200.79330397851291
 21
-315.35896851159669
 31
0.0
  0
LINE
  8
NOTE
  6
CONTINUOUS
 62
     4
 10
-200.79330397851291
 20
-315.35896851159669
 30
0.0
 11
-495.07330397851291
 21
-315.35896851159652
 31
0.0
  0
TEXT
  8
NOTE
  6
CONTINUOUS
 62
     4
 10
-478.92003869767092
 20
-295.06268414536862
 30
0.0
 40
64.0
  1
パッキン
 41
0.9
 72
     2
 11
-221.64003869767089
 21
-295.06268414536862
 31
0.0
  0
CIRCLE
  8
ARRANGE
  6
CONTINUOUS
 62
     1
 10
0.0
 20
0.0
 30
0.0
 40
40.0
  0
POINT
  8
ARRANGE
  6
CONTINUOUS
 62
     1
 10
0.0
 20
0.0
 30
0.0
 50
180.0
  0
LINE
  8
DETAIL
  6
CONTINUOUS
 62
     5
 10
-56.306249927136832
 20
17.084011605229421
 30
0.0
 11
-56.356255477694049
 21
17.084011605229421
 31
0.0
  0
LINE
  8
DETAIL
  6
CONTINUOUS
 62
     5
 10
-56.306249927136832
 20
-31.36743966274787
 30
0.0
 11
-56.356255477694049
 21
-31.36743966274787
 31
0.0
  0
LINE
  8
DETAIL
  6
CONTINUOUS
 62
     5
 10
-57.056333185491212
 20
-32.067526015804837
 30
0.0
 11
-57.056333185491212
 21
-32.167519826399598
 31
0.0
  0
ARC
  8
DETAIL
  6
CONTINUOUS
 62
     5
 10
-56.356255477694049
 20
-32.067517370545318
 30
0.0
 40
0.7000777077974799
 50
90.0
 51
180.00007265870241
  0
LINE
  8
DETAIL
  6
CONTINUOUS
 62
     5
 10
-56.306249927136832
 20
-32.867606179456573
 30
0.0
 11
-56.356255477694049
 21
-32.867606179456573
 31
0.0
  0
LINE
  8
DETAIL
  6
CONTINUOUS
 62
     5
 10
-56.306249927136832
 20
-47.156781999269917
 30
0.0
 11
-56.306249927136832
 21
-32.69902468551021
 31
0.0
  0
ARC
  8
DETAIL
  6
CONTINUOUS
 62
     5
 10
-56.356255477694049
 20
-32.167528471659118
 30
0.0
 40
0.700077707797428
 50
179.99992734129759
 51
270.0
  0
LINE
  8
DETAIL
  6
CONTINUOUS
 62
     5
 10
-57.056333185491212
 20
13.56453444072741
 30
0.0
 11
-57.056333185491212
 21
13.46454063013277
 31
0.0
  0
LINE
  8
DETAIL
  6
CONTINUOUS
 62
     5
 10
-57.056333185491212
 20
16.383925252172389
 30
0.0
 11
-57.056333185491212
 21
16.283931441577579
 31
0.0
  0
ARC
  8
DETAIL
  6
CONTINUOUS
 62
     5
 10
-56.356255477694049
 20
16.38393389743192
 30
0.0
 40
0.7000777077974799
 50
90.0
 51
180.00007265870241
  0
ARC
  8
DETAIL
  6
CONTINUOUS
 62
     5
 10
-56.356255477694049
 20
13.46453198487308
 30
0.0
 40
0.700077707797428
 50
179.99992734129759
 51
270.0
  0
ARC
  8
DETAIL
  6
CONTINUOUS
 62
     5
 10
-56.356255477694049
 20
13.564543085987051
 30
0.0
 40
0.7000777077974799
 50
90.0
 51
180.00007265870241
  0
ARC
  8
DETAIL
  6
CONTINUOUS
 62
     5
 10
-56.356255477694049
 20
16.283922796318169
 30
0.0
 40
0.700077707797428
 50
179.99992734129759
 51
270.0
  0
LINE
  8
DETAIL
  6
CONTINUOUS
 62
     5
 10
-43.880609641863657
 20
39.705319189012471
 30
0.0
 11
-47.305250826884048
 21
39.826744284154422
 31
0.0
  0
LINE
  8
DETAIL
  6
CONTINUOUS
 62
     5
 10
-53.814505420144087
 20
46.821631451255477
 30
0.0
 11
0.0
 21
46.931063438621209
 31
0.0
  0
LINE
  8
DETAIL
  6
CONTINUOUS
 62
     5
 10
-46.494922611910852
 20
49.361420568543167
 30
0.0
 11
0.0
 21
49.464848138106653
 31
0.0
  0
LINE
  8
DETAIL
  6
CONTINUOUS
 62
     5
 10
-51.982644977101927
 20
46.852470546058612
 30
0.0
 11
-46.701340457747619
 21
49.314639911245649
 31
0.0
  0
ARC
  8
DETAIL
  6
CONTINUOUS
 62
     5
 10
-46.490109876403039
 20
48.861389278761521
 30
0.0
 40
0.5000544425515524
 50
90.557192122192404
 51
114.9775528577955
  0
LINE
  8
DETAIL
  6
CONTINUOUS
 62
     5
 10
-34.503829884302377
 20
44.048109714823568
 30
0.0
 11
-34.503829884302377
 21
41.822018833468967
 31
0.0
  0
LINE
  8
DETAIL
  6
CONTINUOUS
 62
     5
 10
-47.305250826884048
 20
43.939702750778679
 30
0.0
 11
-34.503829884302377
 21
44.048109714823568
 31
0.0
  0
LINE
  8
DETAIL
  6
CONTINUOUS
 62
     5
 10
-34.503829884302377
 20
41.822018833468967
 30
0.0
 11
-47.305250826884048
 21
41.713611869424199
 31
0.0
  0
ARC
  8
DETAIL
  6
CONTINUOUS
 62
     5
 10
-53.805972399288983
 20
46.321648755367853
 30
0.0
 40
0.5000555055696
 50
90.977751084214987
 51
180.0
  0
LINE
  8
DETAIL
  6
CONTINUOUS
 62
     5
 10
-54.306027904858638
 20
46.321648754967782
 30
0.0
 11
-54.306027904858638
 21
25.609979592132849
 31
0.0
  0
LINE
  8
DETAIL
  6
CONTINUOUS
 62
     5
 10
-54.306027904858638
 20
44.168510143708197
 30
0.0
 11
-47.305250826884048
 21
44.206321457640001
 31
0.0
  0
LINE
  8
DETAIL
  6
CONTINUOUS
 62
     5
 10
-34.457659650161077
 20
39.362415721063833
 30
0.0
 11
-43.880609641863657
 21
39.705319189012471
 31
0.0
  0
LINE
  8
DETAIL
  6
CONTINUOUS
 62
     5
 10
-34.497472933088368
 20
31.063839185354141
 30
0.0
 11
-34.4734072261233
 21
31.288959710265889
 31
0.0
  0
LINE
  8
DETAIL
  6
CONTINUOUS
 62
     5
 10
-34.67800258806642
 20
30.266753910431252
 30
0.0
 11
-34.607576034802612
 21
30.500193015495821
 31
0.0
  0
LINE
  8
DETAIL
  6
CONTINUOUS
 62
     5
 10
-34.619310546719589
 20
29.779041274405589
 30
0.0
 11
-34.584686028438909
 21
29.913816597407049
 31
0.0
  0
LINE
  8
DETAIL
  6
CONTINUOUS
 62
     5
 10
-34.584686028438909
 20
29.913816597407049
 30
0.0
 11
-34.537040312120553
 21
30.137302330459189
 31
0.0
  0
LINE
  8
DETAIL
  6
CONTINUOUS
 62
     5
 10
-34.537040312120553
 20
30.137302330459189
 30
0.0
 11
-34.500110378941827
 21
30.36670784559999
 31
0.0
  0
LINE
  8
DETAIL
  6
CONTINUOUS
 62
     5
 10
-34.500110378941827
 20
30.36670784559999
 30
0.0
 11
-34.474355905625544
 21
30.601391962859338
 31
0.0
  0
LINE
  8
DETAIL
  6
CONTINUOUS
 62
     5
 10
-34.474355905625544
 20
30.601391962859338
 30
0.0
 11
-34.460228003045358
 21
30.84066075881276
 31
0.0
  0
LINE
  8
DETAIL
  6
CONTINUOUS
 62
     5
 10
-34.460228003045358
 20
30.84066075881276
 30
0.0
 11
-34.457645609902563
 21
30.995167222847272
 31
0.0
  0
LINE
  8
DETAIL
  6
CONTINUOUS
 62
     5
 10
-34.607537498625113
 20
30.50027334761262
 30
0.0
 11
-34.57682509718461
 21
30.624743700274621
 31
0.0
  0
LINE
  8
DETAIL
  6
CONTINUOUS
 62
     5
 10
-34.57682509718461
 20
30.624743700274621
 30
0.0
 11
-34.532047038573182
 21
30.84222704076808
 31
0.0
  0
LINE
  8
DETAIL
  6
CONTINUOUS
 62
     5
 10
-34.532047038573182
 20
30.84222704076808
 30
0.0
 11
-34.497472933088368
 21
31.063839185354141
 31
0.0
  0
LINE
  8
DETAIL
  6
CONTINUOUS
 62
     5
 10
-47.305250826884048
 20
27.22210971572736
 30
0.0
 11
-39.505931735490996
 21
27.246237781514079
 31
0.0
  0
LINE
  8
DETAIL
  6
CONTINUOUS
 62
     5
 10
-39.505931729690253
 20
27.246241261100408
 30
0.0
 11
-39.242857112718873
 21
27.25283349883102
 31
0.0
  0
LINE
  8
DETAIL
  6
CONTINUOUS
 62
     5
 10
-39.242857112718873
 20
27.25283349883102
 30
0.0
 11
-38.856522349017268
 21
27.283549007616099
 31
0.0
  0
LINE
  8
DETAIL
  6
CONTINUOUS
 62
     5
 10
-38.856522349017268
 20
27.283549007616099
 30
0.0
 11
-38.475149381368958
 21
27.338916109498768
 31
0.0
  0
LINE
  8
DETAIL
  6
CONTINUOUS
 62
     5
 10
-38.475149381368958
 20
27.338916109498768
 30
0.0
 11
-38.100320527009437
 21
27.418492163146649
 31
0.0
  0
LINE
  8
DETAIL
  6
CONTINUOUS
 62
     5
 10
-38.100320527009437
 20
27.418492163146649
 30
0.0
 11
-37.733908522110369
 21
27.52174776719664
 31
0.0
  0
LINE
  8
DETAIL
  6
CONTINUOUS
 62
     5
 10
-37.733908522110369
 20
27.52174776719664
 30
0.0
 11
-37.377851022649111
 21
27.648051521463909
 31
0.0
  0
LINE
  8
DETAIL
  6
CONTINUOUS
 62
     5
 10
-37.377851022649111
 20
27.648051521463909
 30
0.0
 11
-37.034029491665933
 21
27.79668362365123
 31
0.0
  0
LINE
  8
DETAIL
  6
CONTINUOUS
 62
     5
 10
-37.034029491665933
 20
27.79668362365123
 30
0.0
 11
-36.704386945833221
 21
27.966798289978328
 31
0.0
  0
LINE
  8
DETAIL
  6
CONTINUOUS
 62
     5
 10
-36.704386945833221
 20
27.966798289978328
 30
0.0
 11
-36.390814032610713
 21
28.157428727131329
 31
0.0
  0
LINE
  8
DETAIL
  6
CONTINUOUS
 62
     5
 10
-36.390814032610713
 20
28.157428727131329
 30
0.0
 11
-36.095221706312259
 21
28.367499386125932
 31
0.0
  0
LINE
  8
DETAIL
  6
CONTINUOUS
 62
     5
 10
-36.095221706312259
 20
28.367499386125932
 30
0.0
 11
-35.819444073721122
 21
28.595796471032141
 31
0.0
  0
LINE
  8
DETAIL
  6
CONTINUOUS
 62
     5
 10
-35.819444073721122
 20
28.595796471032141
 30
0.0
 11
-35.565330298392837
 21
28.840991649106851
 31
0.0
  0
LINE
  8
DETAIL
  6
CONTINUOUS
 62
     5
 10
-35.565330298392837
 20
28.840991649106851
 30
0.0
 11
-35.334603412981323
 21
29.101641619145202
 31
0.0
  0
LINE
  8
DETAIL
  6
CONTINUOUS
 62
     5
 10
-35.334603412981323
 20
29.101641619145202
 30
0.0
 11
-35.128983219983184
 21
29.376188742851351
 31
0.0
  0
LINE
  8
DETAIL
  6
CONTINUOUS
 62
     5
 10
-35.128983219983184
 20
29.376188742851351
 30
0.0
 11
-34.950039972594368
 21
29.66297175132593
 31
0.0
  0
LINE
  8
DETAIL
  6
CONTINUOUS
 62
     5
 10
-34.950039972594368
 20
29.66297175132593
 30
0.0
 11
-34.799281194148307
 21
29.96031348680685
 31
0.0
  0
LINE
  8
DETAIL
  6
CONTINUOUS
 62
     5
 10
-34.799281194148307
 20
29.96031348680685
 30
0.0
 11
-34.67800258806642
 21
30.266753910431252
 31
0.0
  0
LINE
  8
DETAIL
  6
CONTINUOUS
 62
     5
 10
-39.157633876340697
 20
26.550066035773849
 30
0.0
 11
-38.906800694153837
 21
26.570911614208399
 31
0.0
  0
LINE
  8
DETAIL
  6
CONTINUOUS
 62
     5
 10
-38.906800694153837
 20
26.570911614208399
 30
0.0
 11
-38.544900020107427
 21
26.62008769259489
 31
0.0
  0
LINE
  8
DETAIL
  6
CONTINUOUS
 62
     5
 10
-38.544900020107427
 20
26.62008769259489
 30
0.0
 11
-38.188985713540212
 21
26.691134383993472
 31
0.0
  0
LINE
  8
DETAIL
  6
CONTINUOUS
 62
     5
 10
-38.188985713540212
 20
26.691134383993472
 30
0.0
 11
-37.840428769531847
 21
26.783593304524398
 31
0.0
  0
LINE
  8
DETAIL
  6
CONTINUOUS
 62
     5
 10
-37.840428769531847
 20
26.783593304524398
 30
0.0
 11
-37.500831146897553
 21
26.896915887997121
 31
0.0
  0
LINE
  8
DETAIL
  6
CONTINUOUS
 62
     5
 10
-37.500831146897553
 20
26.896915887997121
 30
0.0
 11
-37.171779915299787
 21
27.030475421747269
 31
0.0
  0
LINE
  8
DETAIL
  6
CONTINUOUS
 62
     5
 10
-37.171779915299787
 20
27.030475421747269
 30
0.0
 11
-36.854836503556037
 21
27.183563489541712
 31
0.0
  0
LINE
  8
DETAIL
  6
CONTINUOUS
 62
     5
 10
-36.854836503556037
 20
27.183563489541712
 30
0.0
 11
-36.551585450447867
 21
27.355396768532611
 31
0.0
  0
LINE
  8
DETAIL
  6
CONTINUOUS
 62
     5
 10
-36.551585450447867
 20
27.355396768532611
 30
0.0
 11
-36.26356265315826
 21
27.54508593450544
 31
0.0
  0
LINE
  8
DETAIL
  6
CONTINUOUS
 62
     5
 10
-36.26356265315826
 20
27.54508593450544
 30
0.0
 11
-35.992323852472047
 21
27.751668082579499
 31
0.0
  0
LINE
  8
DETAIL
  6
CONTINUOUS
 62
     5
 10
-35.992323852472047
 20
27.751668082579499
 30
0.0
 11
-35.739356251367781
 21
27.97406634192328
 31
0.0
  0
LINE
  8
DETAIL
  6
CONTINUOUS
 62
     5
 10
-35.739356251367781
 20
27.97406634192328
 30
0.0
 11
-35.506150538509253
 21
28.21113191572158
 31
0.0
  0
LINE
  8
DETAIL
  6
CONTINUOUS
 62
     5
 10
-35.506150538509253
 20
28.21113191572158
 30
0.0
 11
-35.294098210751827
 21
28.46162387963318
 31
0.0
  0
LINE
  8
DETAIL
  6
CONTINUOUS
 62
     5
 10
-35.294098210751827
 20
28.46162387963318
 30
0.0
 11
-35.10458480018724
 21
28.724220354531329
 31
0.0
  0
LINE
  8
DETAIL
  6
CONTINUOUS
 62
     5
 10
-35.10458480018724
 20
28.724220354531329
 30
0.0
 11
-34.938880442599611
 21
28.997522008291639
 31
0.0
  0
LINE
  8
DETAIL
  6
CONTINUOUS
 62
     5
 10
-34.938880442599611
 20
28.997522008291639
 30
0.0
 11
-34.798202386602043
 21
29.280132288298429
 31
0.0
  0
LINE
  8
DETAIL
  6
CONTINUOUS
 62
     5
 10
-34.798202386602043
 20
29.280132288298429
 30
0.0
 11
-34.683604782303519
 21
29.570832113735261
 31
0.0
  0
LINE
  8
DETAIL
  6
CONTINUOUS
 62
     5
 10
-34.683604782303519
 20
29.570832113735261
 30
0.0
 11
-34.619343216945708
 21
29.778982784013351
 31
0.0
  0
LINE
  8
DETAIL
  6
CONTINUOUS
 62
     5
 10
-47.305259882989283
 20
26.51434775468681
 30
0.0
 11
-47.302168533953363
 21
26.386678985104481
 31
0.0
  0
LINE
  8
DETAIL
  6
CONTINUOUS
 62
     5
 10
-47.302168533953363
 20
26.386678985104481
 30
0.0
 11
-47.280981390905708
 21
26.156801036424099
 31
0.0
  0
LINE
  8
DETAIL
  6
CONTINUOUS
 62
     5
 10
-47.280981390905708
 20
26.156801036424099
 30
0.0
 11
-47.261437315136391
 21
26.04816707588304
 31
0.0
  0
LINE
  8
DETAIL
  6
CONTINUOUS
 62
     5
 10
-47.305250826884048
 20
26.514498083973191
 30
0.0
 11
-47.305250826884048
 21
44.206321457640001
 31
0.0
  0
LINE
  8
DETAIL
  6
CONTINUOUS
 62
     5
 10
-34.4734072261233
 20
31.288959710265889
 30
0.0
 11
-34.460164291473347
 21
31.516936230690131
 31
0.0
  0
LINE
  8
DETAIL
  6
CONTINUOUS
 62
     5
 10
-34.460164291473347
 20
31.516936230690131
 30
0.0
 11
-34.457647258085437
 21
31.667576591091919
 31
0.0
  0
LINE
  8
DETAIL
  6
CONTINUOUS
 62
     5
 10
-34.457659650161077
 20
30.99536221499136
 30
0.0
 11
-34.457659650161077
 21
46.860993665684532
 31
0.0
  0
LINE
  8
DETAIL
  6
CONTINUOUS
 62
     5
 10
-56.306249927136832
 20
-44.791073660242724
 30
0.0
 11
-46.748034235401519
 21
-44.786289909651877
 31
0.0
  0
ARC
  8
DETAIL
  6
CONTINUOUS
 62
     5
 10
-55.806194421567398
 20
-47.156797509591463
 30
0.0
 40
0.5000555055695979
 50
180.000013573198
 51
269.50000012079153
  0
LINE
  8
DETAIL
  6
CONTINUOUS
 62
     5
 10
-55.810558172638594
 20
-47.65683397454778
 30
0.0
 11
0.0
 21
-47.656747022776571
 31
0.0
  0
LINE
  8
DETAIL
  6
CONTINUOUS
 62
     5
 10
-46.748034235401519
 20
-44.786289909651877
 30
0.0
 11
-34.457659650161077
 21
-44.775830597980871
 31
0.0
  0
LINE
  8
DETAIL
  6
CONTINUOUS
 62
     5
 10
-39.356725769605191
 20
-25.044422180086659
 30
0.0
 11
-38.582115723306288
 21
-25.030901311386462
 31
0.0
  0
LINE
  8
DETAIL
  6
CONTINUOUS
 62
     5
 10
-42.304695771188108
 20
-29.23315669706324
 30
0.0
 11
-42.304695771188108
 21
-28.02274869940749
 31
0.0
  0
ARC
  8
DETAIL
  6
CONTINUOUS
 62
     5
 10
-38.704296131087183
 20
-18.031190485664752
 30
0.0
 40
7.0007770779744414
 50
271.0000000069009
 51
307.34534456550199
  0
ARC
  8
DETAIL
  6
CONTINUOUS
 62
     5
 10
-39.304362737770589
 20
-28.04429824818175
 30
0.0
 40
3.000333033417681
 50
91.000000004698919
 51
179.58873503739969
  0
ARC
  8
DETAIL
  6
CONTINUOUS
 62
     5
 10
-45.305028804605627
 20
-29.233156761270379
 30
0.0
 40
3.0003330334176002
 50
275.21590856959909
 51
0.0000012253975939
  0
ARC
  8
DETAIL
  6
CONTINUOUS
 62
     5
 10
-44.80503888141584
 20
-34.710933020655553
 30
0.0
 40
2.500207793607653
 50
95.215908571404341
 51
180.00066171950141
  0
LINE
  8
DETAIL
  6
CONTINUOUS
 62
     5
 10
-47.305250826884048
 20
-44.786750054127481
 30
0.0
 11
-47.305250826884048
 21
-34.710961896060667
 31
0.0
  0
LINE
  8
DETAIL
  6
CONTINUOUS
 62
     5
 10
-38.6769996753128
 20
12.860473129654681
 30
0.0
 11
-38.981329321143683
 21
12.8880646737835
 31
0.0
  0
LINE
  8
DETAIL
  6
CONTINUOUS
 62
     5
 10
-35.638299796820768
 20
11.522976608823001
 30
0.0
 11
-35.643263171749368
 21
11.52713259843301
 31
0.0
  0
LINE
  8
DETAIL
  6
CONTINUOUS
 62
     5
 10
-35.643313256709007
 20
11.52715341724382
 30
0.0
 11
-35.813910623514857
 21
11.66496420917866
 31
0.0
  0
LINE
  8
DETAIL
  6
CONTINUOUS
 62
     5
 10
-34.635031834363872
 20
9.8165166969913003
 30
0.0
 11
-34.652311883328821
 21
9.8801079351435419
 31
0.0
  0
LINE
  8
DETAIL
  6
CONTINUOUS
 62
     5
 10
-34.652328612385418
 20
9.8801753077220269
 30
0.0
 11
-34.649559864557887
 21
9.8701955694826324
 31
0.0
  0
LINE
  8
DETAIL
  6
CONTINUOUS
 62
     5
 10
-34.649562998905822
 20
9.8702069010406035
 30
0.0
 11
-34.703091697428142
 21
10.047567121515099
 31
0.0
  0
LINE
  8
DETAIL
  6
CONTINUOUS
 62
     5
 10
-35.205458348832053
 20
11.0460554973439
 30
0.0
 11
-35.311004970182239
 21
11.184231361201279
 31
0.0
  0
LINE
  8
DETAIL
  6
CONTINUOUS
 62
     5
 10
-35.311004970182239
 20
11.184231361201279
 30
0.0
 11
-35.41026450567324
 21
11.30055168091906
 31
0.0
  0
LINE
  8
DETAIL
  6
CONTINUOUS
 62
     5
 10
-35.41026450567324
 20
11.30055168091906
 30
0.0
 11
-35.49966122590331
 21
11.395033619202421
 31
0.0
  0
LINE
  8
DETAIL
  6
CONTINUOUS
 62
     5
 10
-35.49966122590331
 20
11.395033619202421
 30
0.0
 11
-35.577078571537193
 21
11.469301164712309
 31
0.0
  0
LINE
  8
DETAIL
  6
CONTINUOUS
 62
     5
 10
-35.577078571537193
 20
11.469301164712309
 30
0.0
 11
-35.638373064753523
 21
11.523038000037269
 31
0.0
  0
LINE
  8
DETAIL
  6
CONTINUOUS
 62
     5
 10
-34.457656306089802
 20
8.4403636994364888
 30
0.0
 11
-34.461067337710119
 21
8.6339094912903533
 31
0.0
  0
LINE
  8
DETAIL
  6
CONTINUOUS
 62
     5
 10
-34.461067337710119
 20
8.6339094912903533
 30
0.0
 11
-34.4801642940497
 21
8.9362497862055079
 31
0.0
  0
LINE
  8
DETAIL
  6
CONTINUOUS
 62
     5
 10
-34.4801642940497
 20
8.9362497862055079
 30
0.0
 11
-34.515707364188764
 21
9.234665652313538
 31
0.0
  0
LINE
  8
DETAIL
  6
CONTINUOUS
 62
     5
 10
-34.515707364188764
 20
9.234665652313538
 30
0.0
 11
-34.567390963306927
 21
9.5283196415592784
 31
0.0
  0
LINE
  8
DETAIL
  6
CONTINUOUS
 62
     5
 10
-34.567390963306927
 20
9.5283196415592784
 30
0.0
 11
-34.635031834363872
 21
9.8165166969913003
 31
0.0
  0
LINE
  8
DETAIL
  6
CONTINUOUS
 62
     5
 10
-34.457659650161077
 20
-47.656800707144477
 30
0.0
 11
-34.457659650161077
 21
8.4403976017997593
 31
0.0
  0
LINE
  8
DETAIL
  6
CONTINUOUS
 62
     5
 10
-38.253967874883301
 20
12.793605820962449
 30
0.0
 11
-38.6769996753128
 21
12.860473129654681
 31
0.0
  0
LINE
  8
DETAIL
  6
CONTINUOUS
 62
     5
 10
-35.813910623514857
 20
11.66496420917866
 30
0.0
 11
-36.195988607219078
 21
11.940200997236619
 31
0.0
  0
LINE
  8
DETAIL
  6
CONTINUOUS
 62
     5
 10
-34.703091697428142
 20
10.047567121515099
 30
0.0
 11
-34.789146274084032
 21
10.284017689048479
 31
0.0
  0
LINE
  8
DETAIL
  6
CONTINUOUS
 62
     5
 10
-34.789146274084032
 20
10.284017689048479
 30
0.0
 11
-34.885425767093921
 21
10.50358450850575
 31
0.0
  0
LINE
  8
DETAIL
  6
CONTINUOUS
 62
     5
 10
-34.885425767093921
 20
10.50358450850575
 30
0.0
 11
-34.989024583840092
 21
10.70460127672925
 31
0.0
  0
LINE
  8
DETAIL
  6
CONTINUOUS
 62
     5
 10
-34.989024583840092
 20
10.70460127672925
 30
0.0
 11
-35.09687850159753
 21
10.88586153740374
 31
0.0
  0
LINE
  8
DETAIL
  6
CONTINUOUS
 62
     5
 10
-35.09687850159753
 20
10.88586153740374
 30
0.0
 11
-35.205458348832053
 21
11.0460554973439
 31
0.0
  0
LINE
  8
DETAIL
  6
CONTINUOUS
 62
     5
 10
-36.997301833039053
 20
12.38669294691482
 30
0.0
 11
-37.411571007727623
 21
12.55724143209488
 31
0.0
  0
LINE
  8
DETAIL
  6
CONTINUOUS
 62
     5
 10
-37.411571007727623
 20
12.55724143209488
 30
0.0
 11
-37.831344641804208
 21
12.692752136622859
 31
0.0
  0
LINE
  8
DETAIL
  6
CONTINUOUS
 62
     5
 10
-37.831344641804208
 20
12.692752136622859
 30
0.0
 11
-38.253967874883301
 21
12.793605820962449
 31
0.0
  0
LINE
  8
DETAIL
  6
CONTINUOUS
 62
     5
 10
-36.195988607219078
 20
11.940200997236619
 30
0.0
 11
-36.591280573359647
 21
12.18095198761176
 31
0.0
  0
LINE
  8
DETAIL
  6
CONTINUOUS
 62
     5
 10
-36.591280573359647
 20
12.18095198761176
 30
0.0
 11
-36.997301833039053
 21
12.38669294691482
 31
0.0
  0
LINE
  8
DETAIL
  6
CONTINUOUS
 62
     5
 10
-55.29757815816356
 20
25.368592229278871
 30
0.0
 11
-55.114974896417827
 21
25.45145746862238
 31
0.0
  0
LINE
  8
DETAIL
  6
CONTINUOUS
 62
     5
 10
-55.114974896417827
 20
25.45145746862238
 30
0.0
 11
-54.923690983829601
 21
25.517257568955639
 31
0.0
  0
LINE
  8
DETAIL
  6
CONTINUOUS
 62
     5
 10
-54.923690983829601
 20
25.517257568955639
 30
0.0
 11
-54.725611353825123
 21
25.56527711596868
 31
0.0
  0
LINE
  8
DETAIL
  6
CONTINUOUS
 62
     5
 10
-54.522722806636473
 20
25.594963123880461
 30
0.0
 11
-54.440078626230161
 21
25.601648680669431
 31
0.0
  0
LINE
  8
DETAIL
  6
CONTINUOUS
 62
     5
 10
-54.440079056177858
 20
25.601660587090919
 30
0.0
 11
-39.15763384243678
 21
26.550065263488019
 31
0.0
  0
LINE
  8
DETAIL
  6
CONTINUOUS
 62
     5
 10
-54.725611353825123
 20
25.56527711596868
 30
0.0
 11
-54.522722806636473
 21
25.594963123880461
 31
0.0
  0
LINE
  8
DETAIL
  6
CONTINUOUS
 62
     5
 10
-56.251152993042517
 20
24.222689463827351
 30
0.0
 11
-56.193464140347942
 21
24.39987268195512
 31
0.0
  0
LINE
  8
DETAIL
  6
CONTINUOUS
 62
     5
 10
-56.193464140347942
 20
24.39987268195512
 30
0.0
 11
-56.116122223586899
 21
24.570584543069689
 31
0.0
  0
LINE
  8
DETAIL
  6
CONTINUOUS
 62
     5
 10
-56.019974439496544
 20
24.733047488164399
 30
0.0
 11
-55.906019342815398
 21
24.885613652028042
 31
0.0
  0
LINE
  8
DETAIL
  6
CONTINUOUS
 62
     5
 10
-56.116122223586899
 20
24.570584543069689
 30
0.0
 11
-56.019974439496544
 21
24.733047488164399
 31
0.0
  0
LINE
  8
DETAIL
  6
CONTINUOUS
 62
     5
 10
-55.775433846880112
 20
25.026767098793702
 30
0.0
 11
-55.629468694720799
 21
25.155176506386169
 31
0.0
  0
LINE
  8
DETAIL
  6
CONTINUOUS
 62
     5
 10
-55.906019342815398
 20
24.885613652028042
 30
0.0
 11
-55.775433846880112
 21
25.026767098793702
 31
0.0
  0
LINE
  8
DETAIL
  6
CONTINUOUS
 62
     5
 10
-55.629468694720799
 20
25.155176506386169
 30
0.0
 11
-55.46964169801322
 21
25.26949723565167
 31
0.0
  0
LINE
  8
DETAIL
  6
CONTINUOUS
 62
     5
 10
-55.46964169801322
 20
25.26949723565167
 30
0.0
 11
-55.29757815816356
 21
25.368592229278871
 31
0.0
  0
LINE
  8
DETAIL
  6
CONTINUOUS
 62
     5
 10
-56.306240723815563
 20
23.80056670920089
 30
0.0
 11
-56.305275261750239
 21
23.856698117620791
 31
0.0
  0
LINE
  8
DETAIL
  6
CONTINUOUS
 62
     5
 10
-56.305275261750239
 20
23.856698117620791
 30
0.0
 11
-56.288558196875783
 21
24.040948166558561
 31
0.0
  0
LINE
  8
DETAIL
  6
CONTINUOUS
 62
     5
 10
-56.288558196875783
 20
24.040948166558561
 30
0.0
 11
-56.251152993042517
 21
24.222689463827351
 31
0.0
  0
LINE
  8
DETAIL
  6
CONTINUOUS
 62
     5
 10
-54.508100141237954
 20
13.85910161603533
 30
0.0
 11
-54.706345230108127
 21
13.887444313941501
 31
0.0
  0
LINE
  8
DETAIL
  6
CONTINUOUS
 62
     5
 10
-54.706345230108127
 20
13.887444313941501
 30
0.0
 11
-54.900327629525009
 21
13.934540925009509
 31
0.0
  0
LINE
  8
DETAIL
  6
CONTINUOUS
 62
     5
 10
-54.900327629525009
 20
13.934540925009509
 30
0.0
 11
-55.088174943054582
 21
13.99983782548833
 31
0.0
  0
LINE
  8
DETAIL
  6
CONTINUOUS
 62
     5
 10
-55.088174943054582
 20
13.99983782548833
 30
0.0
 11
-55.268114277907898
 21
14.08267370517285
 31
0.0
  0
LINE
  8
DETAIL
  6
CONTINUOUS
 62
     5
 10
-55.268114277907898
 20
14.08267370517285
 30
0.0
 11
-55.438414743257908
 21
14.18216935827274
 31
0.0
  0
LINE
  8
DETAIL
  6
CONTINUOUS
 62
     5
 10
-55.438414743257908
 20
14.18216935827274
 30
0.0
 11
-55.597394101478812
 21
14.29735532917908
 31
0.0
  0
LINE
  8
DETAIL
  6
CONTINUOUS
 62
     5
 10
-55.597394101478812
 20
14.29735532917908
 30
0.0
 11
-55.743472503708738
 21
14.427021778301651
 31
0.0
  0
LINE
  8
DETAIL
  6
CONTINUOUS
 62
     5
 10
-55.743472503708738
 20
14.427021778301651
 30
0.0
 11
-55.875164384451637
 21
14.569852864383281
 31
0.0
  0
LINE
  8
DETAIL
  6
CONTINUOUS
 62
     5
 10
-55.875164384451637
 20
14.569852864383281
 30
0.0
 11
-55.991190798246407
 21
14.72439076250714
 31
0.0
  0
LINE
  8
DETAIL
  6
CONTINUOUS
 62
     5
 10
-55.991190798246407
 20
14.72439076250714
 30
0.0
 11
-56.090355900555323
 21
14.889065898752341
 31
0.0
  0
LINE
  8
DETAIL
  6
CONTINUOUS
 62
     5
 10
-56.090355900555323
 20
14.889065898752341
 30
0.0
 11
-56.171708761326499
 21
15.0622119741621
 31
0.0
  0
LINE
  8
DETAIL
  6
CONTINUOUS
 62
     5
 10
-56.171708761326499
 20
15.0622119741621
 30
0.0
 11
-56.234408076976713
 21
15.24208139025421
 31
0.0
  0
LINE
  8
DETAIL
  6
CONTINUOUS
 62
     5
 10
-56.234408076976713
 20
15.24208139025421
 30
0.0
 11
-56.277832237907212
 21
15.426866734408859
 31
0.0
  0
LINE
  8
DETAIL
  6
CONTINUOUS
 62
     5
 10
-54.441360937665188
 20
13.853872296587101
 30
0.0
 11
-54.508100141237954
 21
13.85910161603533
 31
0.0
  0
LINE
  8
DETAIL
  6
CONTINUOUS
 62
     5
 10
-51.945224914519258
 20
13.69850171453623
 30
0.0
 11
-54.441361893171234
 21
13.85385924643867
 31
0.0
  0
LINE
  8
DETAIL
  6
CONTINUOUS
 62
     5
 10
-54.306027904858638
 20
13.845436169287041
 30
0.0
 11
-54.306027904858638
 21
-44.79093467723753
 31
0.0
  0
LINE
  8
DETAIL
  6
CONTINUOUS
 62
     5
 10
-38.981328704975112
 20
12.888071042690459
 30
0.0
 11
-51.945224914519258
 21
13.69850171453623
 31
0.0
  0
LINE
  8
DETAIL
  6
CONTINUOUS
 62
     5
 10
-56.277832237907212
 20
15.426866734408859
 30
0.0
 11
-56.301515017667732
 21
15.614718221501899
 31
0.0
  0
LINE
  8
DETAIL
  6
CONTINUOUS
 62
     5
 10
-56.301515017667732
 20
15.614718221501899
 30
0.0
 11
-56.306235016081928
 21
15.74442661728045
 31
0.0
  0
LINE
  8
DETAIL
  6
CONTINUOUS
 62
     5
 10
-54.304578402165589
 20
-24.223378527712612
 30
0.0
 11
-56.306249927136832
 21
-24.252938382321421
 31
0.0
  0
LINE
  8
DETAIL
  6
CONTINUOUS
 62
     5
 10
-55.807741566398818
 20
27.195806309780441
 30
0.0
 11
-54.306027904858638
 21
27.200452028849551
 31
0.0
  0
LINE
  8
DETAIL
  6
CONTINUOUS
 62
     5
 10
-54.306027904858638
 20
25.990089906485881
 30
0.0
 11
-56.306249927136832
 21
25.954484457055859
 31
0.0
  0
ARC
  8
DETAIL
  6
CONTINUOUS
 62
     5
 10
-55.806194421567398
 20
26.69575319757644
 30
0.0
 40
0.5000555055696
 50
90.177270337308357
 51
180.0
  0
LINE
  8
DETAIL
  6
CONTINUOUS
 62
     5
 10
-56.306249927136832
 20
15.74483638204066
 30
0.0
 11
-56.306249927136832
 21
26.69575319757644
 31
0.0
  0
LINE
  8
DETAIL
  6
CONTINUOUS
 62
     5
 10
0.0
 20
79.500058789470131
 30
0.0
 11
0.0
 21
-79.499973648695232
 31
0.0
  0
ARC
  8
DETAIL
  6
CONTINUOUS
 62
     5
 10
-9825.8857157535367
 20
0.0000470681608959
 30
0.0
 40
9855.8935873234859
 50
359.54355637297408
 51
0.4564436269998537
  0
LINE
  8
DETAIL
  6
CONTINUOUS
 62
     5
 10
27.545742832370369
 20
79.528115224683802
 30
0.0
 11
27.71716889896118
 21
52.368410916352559
 31
0.0
  0
LINE
  8
DETAIL
  6
CONTINUOUS
 62
     5
 10
28.712499017426811
 20
79.507749419721108
 30
0.0
 11
0.5087826774754376
 21
80.000047119583428
 31
0.0
  0
ARC
  8
DETAIL
  6
CONTINUOUS
 62
     5
 10
28.695044673515209
 20
78.507790730289344
 30
0.0
 40
1.000111011139214
 50
0.4517529808040108
 51
88.999999999998238
  0
ARC
  8
DETAIL
  6
CONTINUOUS
 62
     5
 10
0.5000555055696623
 20
79.500058789470131
 30
0.0
 40
0.500055505569602
 50
89.000017966191436
 51
179.99897045679859
  0
ARC
  8
DETAIL
  6
CONTINUOUS
 62
     5
 10
0.5000555055696623
 20
-79.499973648695232
 30
0.0
 40
0.500055505569602
 50
180.0
 51
271.00000000011249
  0
LINE
  8
DETAIL
  6
CONTINUOUS
 62
     5
 10
27.7171688993609
 20
-52.368316690818233
 30
0.0
 11
27.545742832770429
 21
-79.528021098363013
 31
0.0
  0
LINE
  8
DETAIL
  6
CONTINUOUS
 62
     5
 10
28.712499017426811
 20
-79.507655293402081
 30
0.0
 11
0.5087826774949917
 21
-79.999952993389229
 31
0.0
  0
ARC
  8
DETAIL
  6
CONTINUOUS
 62
     5
 10
28.695044673515209
 20
-78.507696603970274
 30
0.0
 40
1.0001110111392559
 50
271.00000000000182
 51
359.55018409019789
  0
LINE
  8
DETAIL
  6
CONTINUOUS
 62
     5
 10
15.001665167088049
 20
-83.509222367013649
 30
0.0
 11
15.001665167088049
 21
-80.25583896787208
 31
0.0
  0
LINE
  8
DETAIL
  6
CONTINUOUS
 62
     5
 10
17.001887189366361
 20
-80.203467959884932
 30
0.0
 11
17.001887189366361
 21
-84.535518882012695
 31
0.0
  0
ARC
  8
DETAIL
  6
CONTINUOUS
 62
     5
 10
17.501942694935909
 20
-80.203467959884932
 30
0.0
 40
0.5000555055696
 50
91.000000000001776
 51
180.0
  0
ARC
  8
DETAIL
  6
CONTINUOUS
 62
     5
 10
14.811644074971699
 20
-84.095908571588296
 30
0.0
 40
0.410045514567106
 50
180.0
 51
268.99999999999181
  0
ARC
  8
DETAIL
  6
CONTINUOUS
 62
     5
 10
14.811644074971699
 20
-83.922647173478268
 30
0.0
 40
0.4100455145670399
 50
91.000000000008285
 51
180.0
  0
LINE
  8
DETAIL
  6
CONTINUOUS
 62
     5
 10
14.401598560404519
 20
-84.095908571588296
 30
0.0
 11
14.401598560404519
 21
-83.922647173478268
 31
0.0
  0
LINE
  8
DETAIL
  6
CONTINUOUS
 62
     5
 10
14.804487793933051
 20
-83.512664110843048
 30
0.0
 11
15.001665167088049
 21
-83.509222367013649
 31
0.0
  0
ARC
  8
DETAIL
  6
CONTINUOUS
 62
     5
 10
15.50172067265771
 20
-84.517985706951094
 30
0.0
 40
0.5000555055696061
 50
180.0
 51
268.99999999999818
  0
ARC
  8
DETAIL
  6
CONTINUOUS
 62
     5
 10
16.501831683796809
 20
-84.535518882012695
 30
0.0
 40
0.5000555055696
 50
270.0
 51
0.0
  0
LINE
  8
DETAIL
  6
CONTINUOUS
 62
     5
 10
15.001665167088049
 20
-84.517985706951094
 30
0.0
 11
15.001665167088049
 21
-84.509333378152803
 31
0.0
  0
LINE
  8
DETAIL
  6
CONTINUOUS
 62
     5
 10
14.804487793933051
 20
-84.505891634223389
 30
0.0
 11
15.001665167088049
 21
-84.509333378152803
 31
0.0
  0
LINE
  8
DETAIL
  6
CONTINUOUS
 62
     5
 10
15.49299350065178
 20
-85.01796505166692
 30
0.0
 11
16.501831683796809
 21
-85.035574387582372
 31
0.0
  0
ARC
  8
DETAIL
  6
CONTINUOUS
 62
     5
 10
14.50160966151839
 20
-80.25583896787208
 30
0.0
 40
0.5000555055696041
 50
0.0
 51
91.000000000119044
  0
LINE
  8
DETAIL
  6
CONTINUOUS
 62
     5
 10
27.820023994712979
 20
-26.420912685595621
 30
0.0
 11
27.71716874260164
 21
-52.605095981367981
 31
0.0
  0
LINE
  8
DETAIL
  6
CONTINUOUS
 62
     5
 10
27.854308917098589
 20
-0.2367321381280476
 30
0.0
 11
27.820023994712979
 21
-26.420912685595621
 31
0.0
  0
LINE
  8
DETAIL
  6
CONTINUOUS
 62
     5
 10
27.717168742201469
 20
52.131631625802811
 30
0.0
 11
27.82002399441285
 21
25.947448389537161
 31
0.0
  0
LINE
  8
DETAIL
  6
CONTINUOUS
 62
     5
 10
27.82002399441285
 20
25.947448389537161
 30
0.0
 11
27.854308917098589
 21
-0.2367321381280476
 31
0.0
  0
ARC
  8
DETAIL
  6
CONTINUOUS
 62
     5
 10
-44.804973299036192
 20
43.116279034851694
 30
0.0
 40
8.0008880891135998
 50
90.50000000000459
 51
113.6989531831896
  0
LINE
  8
DETAIL
  6
CONTINUOUS
 62
     5
 10
-44.8747933329646
 20
51.116862474663087
 30
0.0
 11
0.0
 21
51.196872120717899
 31
0.0
  0
ARC
  8
DETAIL
  6
CONTINUOUS
 62
     5
 10
-62.696049777464168
 20
27.059063437188001
 30
0.0
 40
1.889300300200687
 50
269.26402476224177
 51
0.0
  0
LINE
  8
DETAIL
  6
CONTINUOUS
 62
     5
 10
-62.696049777464168
 20
25.169763136987399
 30
0.0
 11
-65.907315634073257
 21
25.169763136987399
 31
0.0
  0
LINE
  8
DETAIL
  6
CONTINUOUS
 62
     5
 10
-48.020778626160109
 20
50.442451726821332
 30
0.0
 11
-56.021666715273803
 21
46.93048175006993
 31
0.0
  0
LINE
  8
DETAIL
  6
CONTINUOUS
 62
     5
 10
-60.806749477263338
 20
27.059063437188001
 30
0.0
 11
-60.806749477263338
 21
39.604309058100277
 31
0.0
  0
ARC
  8
DETAIL
  6
CONTINUOUS
 62
     5
 10
-52.805861388149879
 20
39.604309058100277
 30
0.0
 40
8.0008880891135998
 50
113.69895318319681
 51
180.0
  0
ARC
  8
DETAIL
  6
CONTINUOUS
 62
     5
 10
-53.805972399288983
 20
38.073095003256981
 30
0.0
 40
1.0001110111392
 50
119.9999999999925
 51
180.0
  0
LINE
  8
DETAIL
  6
CONTINUOUS
 62
     5
 10
-54.806083410428073
 20
27.198905051248399
 30
0.0
 11
-54.806083410428073
 21
38.073095003256981
 31
0.0
  0
LINE
  8
DETAIL
  6
CONTINUOUS
 62
     5
 10
-58.50649415164321
 20
17.06442964755524
 30
0.0
 11
-56.520676677723259
 21
17.06442964755524
 31
0.0
  0
LINE
  8
DETAIL
  6
CONTINUOUS
 62
     5
 10
-58.50649415164321
 20
-31.6409765949237
 30
0.0
 11
-56.911387681486083
 21
-31.6409765949237
 31
0.0
  0
ARC
  8
DETAIL
  6
CONTINUOUS
 62
     5
 10
-55.806194421567398
 20
-23.140033000240589
 30
0.0
 40
0.5000555055696599
 50
90.0
 51
179.99993853920151
  0
LINE
  8
DETAIL
  6
CONTINUOUS
 62
     5
 10
-54.306027904858638
 20
-22.639977494671029
 30
0.0
 11
-55.806194421567398
 21
-22.639977494671029
 31
0.0
  0
ARC
  8
DETAIL
  6
CONTINUOUS
 62
     5
 10
-59.006549657212872
 20
-23.690094056367119
 30
0.0
 40
0.5000555055696
 50
8.9999999999991029
 51
90.0
  0
LINE
  8
DETAIL
  6
CONTINUOUS
 62
     5
 10
-56.306249927136832
 20
-7.7922838147359244
 30
0.0
 11
-57.106338736048663
 21
-7.7922838147359244
 31
0.0
  0
LINE
  8
DETAIL
  6
CONTINUOUS
 62
     5
 10
-56.306249927136832
 20
-16.36904796261064
 30
0.0
 11
-57.106338736048663
 21
-16.36904796261064
 31
0.0
  0
ARC
  8
DETAIL
  6
CONTINUOUS
 62
     5
 10
-81.909091812300403
 20
-20.589749921835679
 30
0.0
 40
2.600288628961914
 50
180.0
 51
270.0
  0
LINE
  8
DETAIL
  6
CONTINUOUS
 62
     5
 10
-81.909091812300403
 20
-23.19003855079745
 30
0.0
 11
-59.006549657212872
 21
-23.19003855079745
 31
0.0
  0
LINE
  8
DETAIL
  6
CONTINUOUS
 62
     5
 10
-84.508218651905281
 20
20.591323098156408
 30
0.0
 11
-84.499671729007105
 21
20.87698298386567
 31
0.0
  0
LINE
  8
DETAIL
  6
CONTINUOUS
 62
     5
 10
-84.499671729007105
 20
20.87698298386567
 30
0.0
 11
-84.456066184742895
 21
21.29832160575415
 31
0.0
  0
LINE
  8
DETAIL
  6
CONTINUOUS
 62
     5
 10
-84.456066184742895
 20
21.29832160575415
 30
0.0
 11
-84.370715763046974
 21
21.736767267704291
 31
0.0
  0
LINE
  8
DETAIL
  6
CONTINUOUS
 62
     5
 10
-84.370715763046974
 20
21.736767267704291
 30
0.0
 11
-84.240047361609186
 21
22.183057682712391
 31
0.0
  0
LINE
  8
DETAIL
  6
CONTINUOUS
 62
     5
 10
-84.240047361609186
 20
22.183057682712391
 30
0.0
 11
-84.063056904577934
 21
22.628282257313689
 31
0.0
  0
LINE
  8
DETAIL
  6
CONTINUOUS
 62
     5
 10
-84.063056904577934
 20
22.628282257313689
 30
0.0
 11
-83.838749511522792
 21
23.066032076025522
 31
0.0
  0
LINE
  8
DETAIL
  6
CONTINUOUS
 62
     5
 10
-83.838749511522792
 20
23.066032076025522
 30
0.0
 11
-83.569162151944283
 21
23.488542297960411
 31
0.0
  0
LINE
  8
DETAIL
  6
CONTINUOUS
 62
     5
 10
-84.509380441262238
 20
-20.589615455809909
 30
0.0
 11
-84.509380441262238
 21
20.58961545581008
 31
0.0
  0
LINE
  8
DETAIL
  6
CONTINUOUS
 62
     5
 10
-56.306249927136832
 20
15.744446434280119
 30
0.0
 11
-56.306249927136832
 21
12.76445427707557
 31
0.0
  0
LINE
  8
DETAIL
  6
CONTINUOUS
 62
     5
 10
-56.306249927136832
 20
-32.69902468551021
 30
0.0
 11
-56.306249927136832
 21
12.76445427707557
 31
0.0
  0
LINE
  8
DETAIL
  6
CONTINUOUS
 62
     5
 10
-65.907315634073257
 20
21.736353356260452
 30
0.0
 11
-58.50649415164321
 21
21.736353356260452
 31
0.0
  0
LINE
  8
DETAIL
  6
CONTINUOUS
 62
     5
 10
-58.50649415164321
 20
22.680377613936461
 30
0.0
 11
-57.906427544959797
 21
22.680377613936461
 31
0.0
  0
LINE
  8
DETAIL
  6
CONTINUOUS
 62
     5
 10
-57.106338736048663
 20
23.075278321647939
 30
0.0
 11
-57.906427544959797
 21
23.075278321647939
 31
0.0
  0
LINE
  8
DETAIL
  6
CONTINUOUS
 62
     5
 10
-56.306249927136832
 20
23.665162321073922
 30
0.0
 11
-57.106338736048663
 21
23.665162321073922
 31
0.0
  0
LINE
  8
DETAIL
  6
CONTINUOUS
 62
     5
 10
-79.725494045731239
 20
25.583891823579052
 30
0.0
 11
-67.607504353009972
 21
25.583891823579052
 31
0.0
  0
LINE
  8
DETAIL
  6
CONTINUOUS
 62
     5
 10
-67.607504353009972
 20
26.183958430262692
 30
0.0
 11
-66.507382240756669
 21
26.183958430262692
 31
0.0
  0
LINE
  8
DETAIL
  6
CONTINUOUS
 62
     5
 10
-65.907315634073257
 20
21.736353356260452
 30
0.0
 11
-65.907315634073257
 21
25.579275962823889
 31
0.0
  0
LINE
  8
DETAIL
  6
CONTINUOUS
 62
     5
 10
-67.607504353009972
 20
22.482932595372858
 30
0.0
 11
-67.607504353009972
 21
26.18377652677157
 31
0.0
  0
LINE
  8
DETAIL
  6
CONTINUOUS
 62
     5
 10
-81.408332612721779
 20
25.279659710474451
 30
0.0
 11
-81.239699049195451
 21
25.339716526309761
 31
0.0
  0
LINE
  8
DETAIL
  6
CONTINUOUS
 62
     5
 10
-81.239699049195451
 20
25.339716526309761
 30
0.0
 11
-80.949759193914815
 21
25.426393065203339
 31
0.0
  0
LINE
  8
DETAIL
  6
CONTINUOUS
 62
     5
 10
-80.949759193914815
 20
25.426393065203339
 30
0.0
 11
-80.652418258922353
 21
25.494661963270229
 31
0.0
  0
LINE
  8
DETAIL
  6
CONTINUOUS
 62
     5
 10
-80.652418258922353
 20
25.494661963270229
 30
0.0
 11
-80.348271467788436
 21
25.544018281462971
 31
0.0
  0
LINE
  8
DETAIL
  6
CONTINUOUS
 62
     5
 10
-80.348271467788436
 20
25.544018281462971
 30
0.0
 11
-80.037940758946888
 21
25.573941074657679
 31
0.0
  0
LINE
  8
DETAIL
  6
CONTINUOUS
 62
     5
 10
-80.037940758946888
 20
25.573941074657679
 30
0.0
 11
-79.725469620019794
 21
25.583892224123591
 31
0.0
  0
LINE
  8
DETAIL
  6
CONTINUOUS
 62
     5
 10
-81.407855759891618
 20
25.279840667660441
 30
0.0
 11
-81.408348700507304
 21
25.279654437689029
 31
0.0
  0
LINE
  8
DETAIL
  6
CONTINUOUS
 62
     5
 10
-81.779337453619974
 20
25.104869018314279
 30
0.0
 11
-81.779825388080553
 21
25.104590264473131
 31
0.0
  0
LINE
  8
DETAIL
  6
CONTINUOUS
 62
     5
 10
-83.569162151944283
 20
23.488542297960411
 30
0.0
 11
-83.255815799469929
 21
23.889920659583709
 31
0.0
  0
LINE
  8
DETAIL
  6
CONTINUOUS
 62
     5
 10
-83.255815799469929
 20
23.889920659583709
 30
0.0
 11
-82.902478313226766
 21
24.264383432708659
 31
0.0
  0
LINE
  8
DETAIL
  6
CONTINUOUS
 62
     5
 10
-82.902478313226766
 20
24.264383432708659
 30
0.0
 11
-82.513237148918279
 21
24.606494402921609
 31
0.0
  0
LINE
  8
DETAIL
  6
CONTINUOUS
 62
     5
 10
-82.513237148918279
 20
24.606494402921609
 30
0.0
 11
-82.092765346545548
 21
24.912370290083231
 31
0.0
  0
LINE
  8
DETAIL
  6
CONTINUOUS
 62
     5
 10
-82.092765346545548
 20
24.912370290083231
 30
0.0
 11
-81.77649487459712
 21
25.106464674630391
 31
0.0
  0
ARC
  8
DETAIL
  6
CONTINUOUS
 62
     5
 10
-80.4896348647585
 20
22.849207995809021
 30
0.0
 40
2.5982998130057422
 50
110.69507705860271
 51
119.77169782900241
  0
ARC
  8
DETAIL
  6
CONTINUOUS
 62
     5
 10
-66.507382240756669
 20
25.583891823579052
 30
0.0
 40
0.6000666066834861
 50
0.0
 51
90.0
  0
LINE
  8
DETAIL
  6
CONTINUOUS
 62
     5
 10
-57.906427544959797
 20
-31.6409765949237
 30
0.0
 11
-57.906427544960017
 21
23.075278321647939
 31
0.0
  0
LINE
  8
DETAIL
  6
CONTINUOUS
 62
     5
 10
-57.106338736048663
 20
-31.6409765949237
 30
0.0
 11
-57.106338736048663
 21
23.665162321073922
 31
0.0
  0
LINE
  8
DETAIL
  6
CONTINUOUS
 62
     5
 10
-58.50649415164321
 20
-32.141306321332991
 30
0.0
 11
-58.50649415164321
 21
22.680377613936461
 31
0.0
  0
LINE
  8
DETAIL
  6
CONTINUOUS
 62
     5
 10
-58.50649415164321
 20
9.563322843171818
 30
0.0
 11
-59.436724425003383
 21
9.563322843171818
 31
0.0
  0
LINE
  8
DETAIL
  6
CONTINUOUS
 62
     5
 10
-61.186245944222257
 20
15.864011058810551
 30
0.0
 11
-61.148161498593943
 21
15.842022993861409
 31
0.0
  0
ARC
  8
DETAIL
  6
CONTINUOUS
 62
     5
 10
-55.106116713770007
 20
13.56376688772855
 30
0.0
 40
6.4573025380431996
 50
186.67056334699851
 51
200.65980733110251
  0
ARC
  8
DETAIL
  6
CONTINUOUS
 62
     5
 10
-55.106116713770007
 20
13.56376688772855
 30
0.0
 40
6.4573025380433364
 50
159.34019266889939
 51
173.32943665300149
  0
ARC
  8
DETAIL
  6
CONTINUOUS
 62
     5
 10
-59.436724425003383
 20
16.064044415576522
 30
0.0
 40
1.5001665167087259
 50
90.0
 51
149.99999999999841
  0
ARC
  8
DETAIL
  6
CONTINUOUS
 62
     5
 10
-59.436724425003383
 20
11.063489359880521
 30
0.0
 40
1.5001665167087721
 50
210.0000000000019
 51
270.0
  0
LINE
  8
DETAIL
  6
CONTINUOUS
 62
     5
 10
-60.735906738403173
 20
10.313406101526139
 30
0.0
 11
-61.182014339219222
 21
11.252306525262551
 31
0.0
  0
LINE
  8
DETAIL
  6
CONTINUOUS
 62
     5
 10
-61.148161498593943
 20
12.81368362937417
 30
0.0
 11
-61.176823696564043
 21
13.18990699622287
 31
0.0
  0
LINE
  8
DETAIL
  6
CONTINUOUS
 62
     5
 10
-61.176716663683457
 20
13.93973809708814
 30
0.0
 11
-61.148161498593943
 21
14.313850146082981
 31
0.0
  0
LINE
  8
DETAIL
  6
CONTINUOUS
 62
     5
 10
-61.186265264466783
 20
13.56376688772855
 30
0.0
 11
-61.176716663683457
 21
13.93973809708814
 31
0.0
  0
LINE
  8
DETAIL
  6
CONTINUOUS
 62
     5
 10
-61.176823696564043
 20
13.18990699622287
 30
0.0
 11
-61.186265264466783
 21
13.56376688772855
 31
0.0
  0
LINE
  8
DETAIL
  6
CONTINUOUS
 62
     5
 10
-60.735906738403173
 20
16.814127673931011
 30
0.0
 11
-61.182014339219222
 21
15.8752272500945
 31
0.0
  0
LINE
  8
DETAIL
  6
CONTINUOUS
 62
     5
 10
-61.148161498593943
 20
11.28551078159575
 30
0.0
 11
-61.186245944222257
 21
11.26352271664649
 31
0.0
  0
LINE
  8
DETAIL
  6
CONTINUOUS
 62
     5
 10
-61.519706283825599
 20
12.81368362937417
 30
0.0
 11
-61.148161498593943
 21
12.81368362937417
 31
0.0
  0
LINE
  8
DETAIL
  6
CONTINUOUS
 62
     5
 10
-61.519706283825599
 20
14.313850146082981
 30
0.0
 11
-61.148161498593943
 21
14.313850146082981
 31
0.0
  0
LINE
  8
DETAIL
  6
CONTINUOUS
 62
     5
 10
-58.50649415164321
 20
17.564210932285391
 30
0.0
 11
-59.436724425003383
 21
17.564210932285391
 31
0.0
  0
LINE
  8
DETAIL
  6
CONTINUOUS
 62
     5
 10
-61.186245944222257
 20
-25.840618105694151
 30
0.0
 11
-61.148161498593943
 21
-25.862606170643229
 31
0.0
  0
ARC
  8
DETAIL
  6
CONTINUOUS
 62
     5
 10
-55.106116713770007
 20
-28.140862276776151
 30
0.0
 40
6.4573025380432512
 50
186.67056334699851
 51
200.65980733110251
  0
ARC
  8
DETAIL
  6
CONTINUOUS
 62
     5
 10
-55.106116713770007
 20
-28.140862276776151
 30
0.0
 40
6.4573025380433204
 50
159.34019266889939
 51
173.32943665300149
  0
ARC
  8
DETAIL
  6
CONTINUOUS
 62
     5
 10
-59.436724425003383
 20
-25.64058474892812
 30
0.0
 40
1.5001665167087399
 50
90.0
 51
149.99999999999841
  0
ARC
  8
DETAIL
  6
CONTINUOUS
 62
     5
 10
-59.436724425003383
 20
-30.641139804624121
 30
0.0
 40
1.5001665167088001
 50
210.0000000000019
 51
270.0
  0
LINE
  8
DETAIL
  6
CONTINUOUS
 62
     5
 10
-60.735906738403173
 20
-31.391223062978501
 30
0.0
 11
-61.182014339219222
 21
-30.45232263924208
 31
0.0
  0
LINE
  8
DETAIL
  6
CONTINUOUS
 62
     5
 10
-61.176716663683457
 20
-27.76489106741661
 30
0.0
 11
-61.148161498593943
 21
-27.39077901842165
 31
0.0
  0
LINE
  8
DETAIL
  6
CONTINUOUS
 62
     5
 10
-61.186265264466783
 20
-28.140862276776151
 30
0.0
 11
-61.176716663683457
 21
-27.76489106741661
 31
0.0
  0
LINE
  8
DETAIL
  6
CONTINUOUS
 62
     5
 10
-61.176823696564043
 20
-28.514722168281761
 30
0.0
 11
-61.186265264466783
 21
-28.140862276776151
 31
0.0
  0
LINE
  8
DETAIL
  6
CONTINUOUS
 62
     5
 10
-61.148161498593943
 20
-28.89094553513047
 30
0.0
 11
-61.176823696564043
 21
-28.514722168281761
 31
0.0
  0
LINE
  8
DETAIL
  6
CONTINUOUS
 62
     5
 10
-60.735906738403173
 20
-24.890501490573801
 30
0.0
 11
-61.182014339219222
 21
-25.829401914410141
 31
0.0
  0
LINE
  8
DETAIL
  6
CONTINUOUS
 62
     5
 10
-61.148161498593943
 20
-30.419118382908891
 30
0.0
 11
-61.186245944222257
 21
-30.44110644785815
 31
0.0
  0
LINE
  8
DETAIL
  6
CONTINUOUS
 62
     5
 10
-58.50649415164321
 20
-32.141306321332991
 30
0.0
 11
-59.436724425003383
 21
-32.141306321332991
 31
0.0
  0
LINE
  8
DETAIL
  6
CONTINUOUS
 62
     5
 10
-61.519706283825599
 20
-28.89094553513047
 30
0.0
 11
-61.148161498593943
 21
-28.89094553513047
 31
0.0
  0
LINE
  8
DETAIL
  6
CONTINUOUS
 62
     5
 10
-61.519706283825599
 20
-27.39077901842165
 30
0.0
 11
-61.148161498593943
 21
-27.39077901842165
 31
0.0
  0
LINE
  8
DETAIL
  6
CONTINUOUS
 62
     5
 10
-58.50649415164321
 20
-24.1404182322193
 30
0.0
 11
-59.436724425003383
 21
-24.1404182322193
 31
0.0
  0
LINE
  8
OUTLINE
  6
CONTINUOUS
 62
     3
 10
-57.056333185491212
 20
-32.067526015804837
 30
0.0
 11
-57.056333185491212
 21
-32.167519826399598
 31
0.0
  0
ARC
  8
OUTLINE
  6
CONTINUOUS
 62
     3
 10
-56.356255477694049
 20
-32.067517370545318
 30
0.0
 40
0.7000777077974799
 50
90.0
 51
180.00007265870241
  0
LINE
  8
OUTLINE
  6
CONTINUOUS
 62
     3
 10
-56.306249927136832
 20
-32.867606179456573
 30
0.0
 11
-56.356255477694049
 21
-32.867606179456573
 31
0.0
  0
LINE
  8
OUTLINE
  6
CONTINUOUS
 62
     3
 10
-56.306249927136832
 20
-47.156781999269917
 30
0.0
 11
-56.306249927136832
 21
-32.69902468551021
 31
0.0
  0
ARC
  8
OUTLINE
  6
CONTINUOUS
 62
     3
 10
-56.356255477694049
 20
-32.167528471659118
 30
0.0
 40
0.700077707797428
 50
179.99992734129759
 51
270.0
  0
ARC
  8
OUTLINE
  6
CONTINUOUS
 62
     3
 10
-55.806194421567398
 20
-47.156797509591463
 30
0.0
 40
0.5000555055695979
 50
180.000013573198
 51
269.50000012079153
  0
LINE
  8
OUTLINE
  6
CONTINUOUS
 62
     3
 10
-55.810558172638594
 20
-47.65683397454778
 30
0.0
 11
0.0
 21
-47.656747022776571
 31
0.0
  0
LINE
  8
OUTLINE
  6
CONTINUOUS
 62
     3
 10
0.0
 20
79.500058789470131
 30
0.0
 11
0.0
 21
-79.499973648695232
 31
0.0
  0
ARC
  8
OUTLINE
  6
CONTINUOUS
 62
     3
 10
-9825.8857157535367
 20
0.0000470681608959
 30
0.0
 40
9855.8935873234859
 50
359.54355637297408
 51
0.4564436269998537
  0
LINE
  8
OUTLINE
  6
CONTINUOUS
 62
     3
 10
28.712499017426811
 20
79.507749419721108
 30
0.0
 11
0.5087826774754376
 21
80.000047119583428
 31
0.0
  0
ARC
  8
OUTLINE
  6
CONTINUOUS
 62
     3
 10
28.695044673515209
 20
78.507790730289344
 30
0.0
 40
1.000111011139214
 50
0.4517529808040108
 51
88.999999999998238
  0
ARC
  8
OUTLINE
  6
CONTINUOUS
 62
     3
 10
0.5000555055696623
 20
79.500058789470131
 30
0.0
 40
0.500055505569602
 50
89.000017966191436
 51
179.99897045679859
  0
ARC
  8
OUTLINE
  6
CONTINUOUS
 62
     3
 10
0.5000555055696623
 20
-79.499973648695232
 30
0.0
 40
0.500055505569602
 50
180.0
 51
271.00000000011249
  0
LINE
  8
OUTLINE
  6
CONTINUOUS
 62
     3
 10
28.712499017426811
 20
-79.507655293402081
 30
0.0
 11
0.5087826774949917
 21
-79.999952993389229
 31
0.0
  0
ARC
  8
OUTLINE
  6
CONTINUOUS
 62
     3
 10
28.695044673515209
 20
-78.507696603970302
 30
0.0
 40
1.0001110111392559
 50
271.00000000000182
 51
359.55018409019789
  0
ARC
  8
OUTLINE
  6
CONTINUOUS
 62
     3
 10
-44.804973299036192
 20
43.116279034851694
 30
0.0
 40
8.0008880891135998
 50
90.50000000000459
 51
113.6989531831896
  0
LINE
  8
OUTLINE
  6
CONTINUOUS
 62
     3
 10
-44.8747933329646
 20
51.116862474663087
 30
0.0
 11
0.0
 21
51.196872120717792
 31
0.0
  0
ARC
  8
OUTLINE
  6
CONTINUOUS
 62
     3
 10
-62.696049777464168
 20
27.059063437187891
 30
0.0
 40
1.889300300200687
 50
269.26402476224177
 51
0.0
  0
LINE
  8
OUTLINE
  6
CONTINUOUS
 62
     3
 10
-62.696049777464168
 20
25.169763136987399
 30
0.0
 11
-65.907315634073257
 21
25.169763136987399
 31
0.0
  0
LINE
  8
OUTLINE
  6
CONTINUOUS
 62
     3
 10
-48.020778626160109
 20
50.442451726821332
 30
0.0
 11
-56.021666715273803
 21
46.93048175006993
 31
0.0
  0
LINE
  8
OUTLINE
  6
CONTINUOUS
 62
     3
 10
-60.806749477263338
 20
27.059063437187891
 30
0.0
 11
-60.806749477263338
 21
39.604309058100277
 31
0.0
  0
ARC
  8
OUTLINE
  6
CONTINUOUS
 62
     3
 10
-52.805861388149879
 20
39.604309058100277
 30
0.0
 40
8.0008880891135998
 50
113.69895318319681
 51
180.0
  0
LINE
  8
OUTLINE
  6
CONTINUOUS
 62
     3
 10
-58.50649415164321
 20
-31.6409765949237
 30
0.0
 11
-56.911387681486083
 21
-31.6409765949237
 31
0.0
  0
ARC
  8
OUTLINE
  6
CONTINUOUS
 62
     3
 10
-59.006549657212872
 20
-23.690094056367119
 30
0.0
 40
0.5000555055696
 50
8.9999999999991029
 51
90.0
  0
ARC
  8
OUTLINE
  6
CONTINUOUS
 62
     3
 10
-81.909091812300403
 20
-20.589749921835679
 30
0.0
 40
2.600288628961914
 50
180.0
 51
270.0
  0
LINE
  8
OUTLINE
  6
CONTINUOUS
 62
     3
 10
-81.909091812300403
 20
-23.19003855079745
 30
0.0
 11
-59.006549657212872
 21
-23.19003855079745
 31
0.0
  0
LINE
  8
OUTLINE
  6
CONTINUOUS
 62
     3
 10
-84.508218651905281
 20
20.591323098156408
 30
0.0
 11
-84.499671729007105
 21
20.87698298386567
 31
0.0
  0
LINE
  8
OUTLINE
  6
CONTINUOUS
 62
     3
 10
-84.499671729007105
 20
20.87698298386567
 30
0.0
 11
-84.456066184742895
 21
21.29832160575415
 31
0.0
  0
LINE
  8
OUTLINE
  6
CONTINUOUS
 62
     3
 10
-84.456066184742895
 20
21.29832160575415
 30
0.0
 11
-84.370715763046974
 21
21.736767267704291
 31
0.0
  0
LINE
  8
OUTLINE
  6
CONTINUOUS
 62
     3
 10
-84.370715763046974
 20
21.736767267704291
 30
0.0
 11
-84.240047361609186
 21
22.183057682712391
 31
0.0
  0
LINE
  8
OUTLINE
  6
CONTINUOUS
 62
     3
 10
-84.240047361609186
 20
22.183057682712391
 30
0.0
 11
-84.063056904577934
 21
22.628282257313689
 31
0.0
  0
LINE
  8
OUTLINE
  6
CONTINUOUS
 62
     3
 10
-84.063056904577934
 20
22.628282257313689
 30
0.0
 11
-83.838749511522792
 21
23.066032076025522
 31
0.0
  0
LINE
  8
OUTLINE
  6
CONTINUOUS
 62
     3
 10
-83.838749511522792
 20
23.066032076025522
 30
0.0
 11
-83.569162151944283
 21
23.488542297960411
 31
0.0
  0
LINE
  8
OUTLINE
  6
CONTINUOUS
 62
     3
 10
-84.509380441262238
 20
-20.589615455809849
 30
0.0
 11
-84.509380441262238
 21
20.58961545581008
 31
0.0
  0
LINE
  8
OUTLINE
  6
CONTINUOUS
 62
     3
 10
-79.725494045731239
 20
25.583891823579052
 30
0.0
 11
-67.607504353009972
 21
25.583891823579052
 31
0.0
  0
LINE
  8
OUTLINE
  6
CONTINUOUS
 62
     3
 10
-67.607504353009972
 20
26.183958430262692
 30
0.0
 11
-66.507382240756669
 21
26.183958430262692
 31
0.0
  0
LINE
  8
OUTLINE
  6
CONTINUOUS
 62
     3
 10
-65.907315634073257
 20
21.736353356260341
 30
0.0
 11
-65.907315634073257
 21
25.579275962823889
 31
0.0
  0
LINE
  8
OUTLINE
  6
CONTINUOUS
 62
     3
 10
-67.607504353009972
 20
22.482932595372858
 30
0.0
 11
-67.607504353009972
 21
26.18377652677157
 31
0.0
  0
LINE
  8
OUTLINE
  6
CONTINUOUS
 62
     3
 10
-81.408332612721779
 20
25.279659710474451
 30
0.0
 11
-81.239699049195451
 21
25.339716526309761
 31
0.0
  0
LINE
  8
OUTLINE
  6
CONTINUOUS
 62
     3
 10
-81.239699049195451
 20
25.339716526309761
 30
0.0
 11
-80.949759193914815
 21
25.426393065203339
 31
0.0
  0
LINE
  8
OUTLINE
  6
CONTINUOUS
 62
     3
 10
-80.949759193914815
 20
25.426393065203339
 30
0.0
 11
-80.652418258922353
 21
25.494661963270229
 31
0.0
  0
LINE
  8
OUTLINE
  6
CONTINUOUS
 62
     3
 10
-80.652418258922353
 20
25.494661963270229
 30
0.0
 11
-80.348271467788436
 21
25.544018281462971
 31
0.0
  0
LINE
  8
OUTLINE
  6
CONTINUOUS
 62
     3
 10
-80.348271467788436
 20
25.544018281462971
 30
0.0
 11
-80.037940758946888
 21
25.573941074657679
 31
0.0
  0
LINE
  8
OUTLINE
  6
CONTINUOUS
 62
     3
 10
-80.037940758946888
 20
25.573941074657679
 30
0.0
 11
-79.725469620019794
 21
25.583892224123471
 31
0.0
  0
LINE
  8
OUTLINE
  6
CONTINUOUS
 62
     3
 10
-81.407855759891618
 20
25.279840667660441
 30
0.0
 11
-81.408348700507304
 21
25.279654437689029
 31
0.0
  0
LINE
  8
OUTLINE
  6
CONTINUOUS
 62
     3
 10
-81.779337453619974
 20
25.104869018314279
 30
0.0
 11
-81.779825388080553
 21
25.104590264473131
 31
0.0
  0
LINE
  8
OUTLINE
  6
CONTINUOUS
 62
     3
 10
-83.569162151944283
 20
23.488542297960411
 30
0.0
 11
-83.255815799469929
 21
23.889920659583709
 31
0.0
  0
LINE
  8
OUTLINE
  6
CONTINUOUS
 62
     3
 10
-83.255815799469929
 20
23.889920659583709
 30
0.0
 11
-82.902478313226766
 21
24.264383432708659
 31
0.0
  0
LINE
  8
OUTLINE
  6
CONTINUOUS
 62
     3
 10
-82.902478313226766
 20
24.264383432708659
 30
0.0
 11
-82.513237148918279
 21
24.606494402921729
 31
0.0
  0
LINE
  8
OUTLINE
  6
CONTINUOUS
 62
     3
 10
-82.513237148918279
 20
24.606494402921729
 30
0.0
 11
-82.092765346545548
 21
24.912370290083231
 31
0.0
  0
LINE
  8
OUTLINE
  6
CONTINUOUS
 62
     3
 10
-82.092765346545548
 20
24.912370290083231
 30
0.0
 11
-81.77649487459712
 21
25.106464674630391
 31
0.0
  0
ARC
  8
OUTLINE
  6
CONTINUOUS
 62
     3
 10
-80.4896348647585
 20
22.849207995809021
 30
0.0
 40
2.5982998130057422
 50
110.69507705860271
 51
119.77169782900241
  0
ARC
  8
OUTLINE
  6
CONTINUOUS
 62
     3
 10
-66.507382240756669
 20
25.583891823579052
 30
0.0
 40
0.6000666066834861
 50
0.0
 51
90.0
  0
LINE
  8
OUTLINE
  6
CONTINUOUS
 62
     3
 10
-58.50649415164321
 20
-32.141306321332991
 30
0.0
 11
-58.512650664711373
 21
-23.611868140862899
 31
0.0
  0
LINE
  8
OUTLINE
  6
CONTINUOUS
 62
     3
 10
-61.186245944222257
 20
-25.840618105694151
 30
0.0
 11
-61.148161498593943
 21
-25.862606170643229
 31
0.0
  0
ARC
  8
OUTLINE
  6
CONTINUOUS
 62
     3
 10
-55.106116713770007
 20
-28.140862276776151
 30
0.0
 40
6.4573025380432512
 50
186.67056334699851
 51
200.65980733110669
  0
ARC
  8
OUTLINE
  6
CONTINUOUS
 62
     3
 10
-55.106116713770007
 20
-28.140862276776151
 30
0.0
 40
6.4573025380433204
 50
159.34019266889339
 51
173.32943665300149
  0
ARC
  8
OUTLINE
  6
CONTINUOUS
 62
     3
 10
-59.436724425003383
 20
-25.64058474892812
 30
0.0
 40
1.5001665167087399
 50
90.0
 51
149.99999999999841
  0
ARC
  8
OUTLINE
  6
CONTINUOUS
 62
     3
 10
-59.436724425003383
 20
-30.641139804624121
 30
0.0
 40
1.5001665167088001
 50
210.0000000000019
 51
270.0
  0
LINE
  8
OUTLINE
  6
CONTINUOUS
 62
     3
 10
-60.735906738403173
 20
-31.391223062978501
 30
0.0
 11
-61.182014339219222
 21
-30.45232263924208
 31
0.0
  0
LINE
  8
OUTLINE
  6
CONTINUOUS
 62
     3
 10
-61.176716663683457
 20
-27.76489106741667
 30
0.0
 11
-61.148161498593943
 21
-27.39077901842165
 31
0.0
  0
LINE
  8
OUTLINE
  6
CONTINUOUS
 62
     3
 10
-61.186265264466783
 20
-28.140862276776151
 30
0.0
 11
-61.176716663683457
 21
-27.76489106741667
 31
0.0
  0
LINE
  8
OUTLINE
  6
CONTINUOUS
 62
     3
 10
-61.176823696564043
 20
-28.514722168281761
 30
0.0
 11
-61.186265264466783
 21
-28.140862276776151
 31
0.0
  0
LINE
  8
OUTLINE
  6
CONTINUOUS
 62
     3
 10
-61.148161498593943
 20
-28.89094553513047
 30
0.0
 11
-61.176823696564043
 21
-28.514722168281761
 31
0.0
  0
LINE
  8
OUTLINE
  6
CONTINUOUS
 62
     3
 10
-60.735906738403173
 20
-24.890501490573801
 30
0.0
 11
-61.182014339219222
 21
-25.829401914410141
 31
0.0
  0
LINE
  8
OUTLINE
  6
CONTINUOUS
 62
     3
 10
-61.148161498593943
 20
-30.419118382908891
 30
0.0
 11
-61.186245944222257
 21
-30.44110644785815
 31
0.0
  0
LINE
  8
OUTLINE
  6
CONTINUOUS
 62
     3
 10
-58.50649415164321
 20
-32.141306321332991
 30
0.0
 11
-59.436724425003383
 21
-32.141306321332991
 31
0.0
  0
LINE
  8
OUTLINE
  6
CONTINUOUS
 62
     3
 10
-61.519706283825599
 20
-28.89094553513047
 30
0.0
 11
-61.148161498593943
 21
-28.89094553513047
 31
0.0
  0
LINE
  8
OUTLINE
  6
CONTINUOUS
 62
     3
 10
-61.519706283825599
 20
-27.39077901842165
 30
0.0
 11
-61.148161498593943
 21
-27.39077901842165
 31
0.0
  0
LINE
  8
OUTLINE
  6
CONTINUOUS
 62
     3
 10
-58.50649415164321
 20
-24.1404182322193
 30
0.0
 11
-59.436724425003383
 21
-24.1404182322193
 31
0.0
  0
LINE
  8
DETAIL
  6
CONTINUOUS
 62
     5
 10
-67.607504353009972
 20
22.482932595372858
 30
0.0
 11
-65.907315634073257
 21
21.736353356260452
 31
0.0
  0
LINE
  8
OUTLINE
  6
CONTINUOUS
 62
     3
 10
15.001665167088049
 20
-83.509222367013649
 30
0.0
 11
15.001665167088049
 21
-80.25583896787208
 31
0.0
  0
LINE
  8
OUTLINE
  6
CONTINUOUS
 62
     3
 10
17.001887189366361
 20
-80.203467959884932
 30
0.0
 11
17.001887189366361
 21
-84.535518882012695
 31
0.0
  0
ARC
  8
OUTLINE
  6
CONTINUOUS
 62
     3
 10
17.501942694935909
 20
-80.203467959884932
 30
0.0
 40
0.5000555055696
 50
91.000000000001776
 51
180.0
  0
ARC
  8
OUTLINE
  6
CONTINUOUS
 62
     3
 10
14.811644074971699
 20
-84.095908571588296
 30
0.0
 40
0.410045514567106
 50
180.0
 51
268.99999999999181
  0
ARC
  8
OUTLINE
  6
CONTINUOUS
 62
     3
 10
14.811644074971699
 20
-83.922647173478268
 30
0.0
 40
0.4100455145670399
 50
91.000000000008285
 51
180.0
  0
LINE
  8
OUTLINE
  6
CONTINUOUS
 62
     3
 10
14.401598560404519
 20
-84.095908571588296
 30
0.0
 11
14.401598560404519
 21
-83.922647173478268
 31
0.0
  0
LINE
  8
OUTLINE
  6
CONTINUOUS
 62
     3
 10
14.804487793933051
 20
-83.512664110843048
 30
0.0
 11
15.001665167088049
 21
-83.509222367013649
 31
0.0
  0
ARC
  8
OUTLINE
  6
CONTINUOUS
 62
     3
 10
15.50172067265771
 20
-84.517985706951094
 30
0.0
 40
0.5000555055696061
 50
180.0
 51
268.99999999999818
  0
ARC
  8
OUTLINE
  6
CONTINUOUS
 62
     3
 10
16.501831683796809
 20
-84.535518882012695
 30
0.0
 40
0.5000555055696
 50
270.0
 51
0.0
  0
LINE
  8
OUTLINE
  6
CONTINUOUS
 62
     3
 10
15.001665167088049
 20
-84.517985706951094
 30
0.0
 11
15.001665167088049
 21
-84.509333378152803
 31
0.0
  0
LINE
  8
OUTLINE
  6
CONTINUOUS
 62
     3
 10
14.804487793933051
 20
-84.505891634223389
 30
0.0
 11
15.001665167088049
 21
-84.509333378152803
 31
0.0
  0
LINE
  8
OUTLINE
  6
CONTINUOUS
 62
     3
 10
15.49299350065178
 20
-85.01796505166692
 30
0.0
 11
16.501831683796809
 21
-85.035574387582372
 31
0.0
  0
ARC
  8
OUTLINE
  6
CONTINUOUS
 62
     3
 10
14.50160966151839
 20
-80.25583896787208
 30
0.0
 40
0.5000555055696041
 50
0.0
 51
91.000000000119044
  0
ENDSEC
  0
EOF
