  0
SECTION
  2
HEADER
  9
$ACADVER
  1
AC1009
  9
$DWGCODEPAGE
  3
dos932
  9
$INSBASE
 10
0.0
 20
0.0
 30
0.0
  9
$EXTMIN
 10
-209.8692519576326
 20
-109.2854010143142
 30
0.0
  9
$EXTMAX
 10
851.37157384058855
 20
512.58113883720102
 30
0.0
  9
$LIMMIN
 10
-2970.0
 20
-2100.0
  9
$LIMMAX
 10
2970.0
 20
2100.0
  9
$ORTHOMODE
 70
     1
  9
$REGENMODE
 70
     1
  9
$FILLMODE
 70
     1
  9
$QTEXTMODE
 70
     0
  9
$MIRRTEXT
 70
     0
  9
$LTSCALE
 40
20.0
  9
$ATTMODE
 70
     1
  9
$TEXTSIZE
 40
64.0
  9
$TRACEWID
 40
0.05
  9
$TEXTSTYLE
  7
STANDARD
  9
$CLAYER
  8
SIZE
  9
$CELTYPE
  6
CONTINUOUS
  9
$CECOLOR
 62
     7
  9
$DIMSCALE
 40
1.0
  9
$DIMASZ
 40
12.0
  9
$DIMEXO
 40
20.0
  9
$DIMDLI
 40
200.0
  9
$DIMRND
 40
0.0
  9
$DIMDLE
 40
0.0
  9
$DIMEXE
 40
20.0
  9
$DIMTP
 40
0.0
  9
$DIMTM
 40
0.0
  9
$DIMTXT
 40
64.0
  9
$DIMCEN
 40
0.09
  9
$DIMTSZ
 40
0.0
  9
$DIMTOL
 70
     0
  9
$DIMLIM
 70
     0
  9
$DIMTIH
 70
     0
  9
$DIMTOH
 70
     0
  9
$DIMSE1
 70
     0
  9
$DIMSE2
 70
     0
  9
$DIMTAD
 70
     1
  9
$DIMZIN
 70
     8
  9
$DIMBLK
  1

  9
$DIMASO
 70
     1
  9
$DIMSHO
 70
     0
  9
$DIMPOST
  1

  9
$DIMAPOST
  1

  9
$DIMALT
 70
     0
  9
$DIMALTD
 70
     2
  9
$DIMALTF
 40
25.399999999999999
  9
$DIMLFAC
 40
1.0
  9
$DIMTOFL
 70
     1
  9
$DIMTVP
 40
0.0
  9
$DIMTIX
 70
     1
  9
$DIMSOXD
 70
     0
  9
$DIMSAH
 70
     0
  9
$DIMBLK1
  1

  9
$DIMBLK2
  1

  9
$DIMSTYLE
  2
STANDARD
  9
$DIMCLRD
 70
     7
  9
$DIMCLRE
 70
     7
  9
$DIMCLRT
 70
     7
  9
$DIMTFAC
 40
1.0
  9
$DIMGAP
 40
25.0
  9
$LUNITS
 70
     2
  9
$LUPREC
 70
     4
  9
$SKETCHINC
 40
0.1
  9
$FILLETRAD
 40
3.0
  9
$AUNITS
 70
     1
  9
$AUPREC
 70
     3
  9
$MENU
  1
ACAD
  9
$ELEVATION
 40
0.0
  9
$PELEVATION
 40
0.0
  9
$THICKNESS
 40
0.0
  9
$LIMCHECK
 70
     0
  9
$CHAMFERA
 40
0.0
  9
$CHAMFERB
 40
0.0
  9
$SKPOLY
 70
     0
  9
$TDCREATE
 40
2453019.623009259
  9
$TDUPDATE
 40
2459356.644095116
  9
$TDINDWG
 40
1.7517868171
  9
$TDUSRTIMER
 40
1.7517868171
  9
$USRTIMER
 70
     1
  9
$ANGBASE
 50
0.0
  9
$ANGDIR
 70
     0
  9
$PDMODE
 70
     3
  9
$PDSIZE
 40
-2.0
  9
$PLINEWID
 40
0.0
  9
$SPLFRAME
 70
     0
  9
$SPLINETYPE
 70
     6
  9
$SPLINESEGS
 70
     8
  9
$SURFTAB1
 70
     6
  9
$SURFTAB2
 70
     6
  9
$SURFTYPE
 70
     6
  9
$SURFU
 70
     6
  9
$SURFV
 70
     6
  9
$UCSNAME
  2

  9
$UCSORG
 10
0.0
 20
0.0
 30
0.0
  9
$UCSXDIR
 10
1.0
 20
0.0
 30
0.0
  9
$UCSYDIR
 10
0.0
 20
1.0
 30
0.0
  9
$PUCSNAME
  2

  9
$PUCSORG
 10
0.0
 20
0.0
 30
0.0
  9
$PUCSXDIR
 10
1.0
 20
0.0
 30
0.0
  9
$PUCSYDIR
 10
0.0
 20
1.0
 30
0.0
  9
$USERI1
 70
     0
  9
$USERI2
 70
     0
  9
$USERI3
 70
     0
  9
$USERI4
 70
     0
  9
$USERI5
 70
     0
  9
$USERR1
 40
20.0
  9
$USERR2
 40
0.0
  9
$USERR3
 40
0.0
  9
$USERR4
 40
0.0
  9
$USERR5
 40
0.0
  9
$WORLDVIEW
 70
     1
  9
$SHADEDGE
 70
     3
  9
$SHADEDIF
 70
    70
  9
$TILEMODE
 70
     1
  9
$MAXACTVP
 70
    48
  9
$PINSBASE
 10
0.0
 20
0.0
 30
0.0
  9
$PLIMCHECK
 70
     0
  9
$PEXTMIN
 10
-100000000000000000000.0
 20
-100000000000000000000.0
 30
-100000000000000000000.0
  9
$PEXTMAX
 10
100000000000000000000.0
 20
100000000000000000000.0
 30
100000000000000000000.0
  9
$PLIMMIN
 10
0.0
 20
0.0
  9
$PLIMMAX
 10
12.0
 20
9.0
  9
$UNITMODE
 70
     0
  9
$VISRETAIN
 70
     0
  9
$PLINEGEN
 70
     0
  9
$PSLTSCALE
 70
     0
  9
$TREEDEPTH
 70
  3020
  9
$ATTDIA
 70
     0
  9
$ATTREQ
 70
     1
  9
$BLIPMODE
 70
     1
  9
$COORDS
 70
     1
  9
$DRAGMODE
 70
     2
  9
$OSMODE
 70
     0
  9
$HANDLING
 70
     0
  9
$HANDSEED
  5
252
  0
ENDSEC
  0
SECTION
  2
TABLES
  0
TABLE
  2
LTYPE
 70
     2
  0
LTYPE
  2
CONTINUOUS
 70
     0
  3
実線
 72
    65
 73
     0
 40
0.0
  0
LTYPE
  2
DASHDOT
 70
     0
  3
____ _ ____ _ ____ _ ____ _ ____ _ ____ _ ____
 72
    65
 73
     4
 40
5.5
 49
4.0
 49
-0.6
 49
0.3
 49
-0.6
  0
ENDTAB
  0
TABLE
  2
LAYER
 70
    12
  0
LAYER
  2
SIZE
 70
     0
 62
    30
  6
CONTINUOUS
  0
LAYER
  2
BASIS
 70
     0
 62
     6
  6
DASHDOT
  0
LAYER
  2
OUTLINE
 70
     0
 62
     3
  6
CONTINUOUS
  0
LAYER
  2
DETAIL
 70
     0
 62
     5
  6
CONTINUOUS
  0
LAYER
  2
ARRANGE
 70
     0
 62
     1
  6
CONTINUOUS
  0
LAYER
  2
ETC
 70
     0
 62
    61
  6
CONTINUOUS
  0
LAYER
  2
FIX
 70
     0
 62
    11
  6
CONTINUOUS
  0
LAYER
  2
NOTE
 70
     0
 62
     4
  6
CONTINUOUS
  0
LAYER
  2
0
 70
    64
 62
     7
  6
CONTINUOUS
  0
LAYER
  2
DEFPOINTS
 70
    64
 62
     7
  6
CONTINUOUS
  0
LAYER
  2
SERVICESPACE
 70
    64
 62
     2
  6
DASHDOT
  0
LAYER
  2
SYMBOLLINE
 70
    64
 62
    15
  6
CONTINUOUS
  0
ENDTAB
  0
TABLE
  2
STYLE
 70
     1
  0
STYLE
  2
STANDARD
 70
     0
 40
64.0
 41
0.9
 50
0.0
 71
     0
 42
64.0
  3
SIMPLEX.shx
  4
BIGFONT.shx
  0
ENDTAB
  0
TABLE
  2
APPID
 70
    20
  0
APPID
  2
ACAD
 70
     0
  0
APPID
  2
ACADANNOTATIVE
 70
     0
  0
APPID
  2
AUTOCAD_POSTSCRIPT_FIGURE
 70
     0
  0
APPID
  2
ACAD_EXEMPT_FROM_CAD_STANDARDS
 70
     0
  0
APPID
  2
ACAD_PSEXT
 70
     0
  0
APPID
  2
ACAUTHENVIRON
 70
     0
  0
APPID
  2
GENIUS_GENOENT_13
 70
     0
  0
APPID
  2
GENIUS_GENCFG_13
 70
     0
  0
APPID
  2
GENIUS_GENCFG0_13
 70
     0
  0
APPID
  2
GENIUS_GENCFG1_13
 70
     0
  0
APPID
  2
GENIUS_GENCFG2_13
 70
     0
  0
APPID
  2
GENIUS_GENCFG3_13
 70
     0
  0
APPID
  2
GENIUS_GENCFG4_13
 70
     0
  0
APPID
  2
GENIUS_GEVCFG0_13
 70
     0
  0
APPID
  2
CONTENTBLOCKICON
 70
     0
  0
APPID
  2
CONTENTBLOCKDESCRIPTION
 70
     0
  0
APPID
  2
ACAD_NAV_VCDISPLAY
 70
     0
  0
APPID
  2
ACAD_MLEADERVER
 70
     0
  0
APPID
  2
ACDBDYNAMICBLOCKTRUENAME
 70
     0
  0
APPID
  2
ACDBDYNAMICBLOCKGUID
 70
     0
  0
ENDTAB
  0
TABLE
  2
DIMSTYLE
 70
     1
  0
DIMSTYLE
  2
STANDARD
 70
     0
  3

  4

  5

  6

  7

 40
1.0
 41
12.0
 42
20.0
 43
200.0
 44
20.0
 45
0.0
 46
0.0
 47
0.0
 48
0.0
140
64.0
141
0.09
142
0.0
143
25.399999999999999
144
1.0
145
0.0
146
1.0
147
25.0
 71
     0
 72
     0
 73
     0
 74
     0
 75
     0
 76
     0
 77
     1
 78
     8
170
     0
171
     2
172
     1
173
     0
174
     1
175
     0
176
     7
177
     7
178
     7
  0
ENDTAB
  0
TABLE
  2
VIEW
 70
     1
  0
VIEW
  2
ALL
 70
     0
 40
4282.6198079999986
 10
0.0
 20
41.309904000000003
 41
5940.0
 11
0.0
 21
0.0
 31
1.0
 12
0.0
 22
0.0
 32
0.0
 42
50.0
 43
0.0
 44
0.0
 50
0.0
 71
     0
  0
ENDTAB
  0
TABLE
  2
UCS
 70
     0
  0
ENDTAB
  0
TABLE
  2
VPORT
 70
     1
  0
VPORT
  2
*ACTIVE
 70
     0
 10
0.0
 20
0.0
 11
1.0
 21
1.0
 12
320.62913407644731
 22
212.65537718199579
 13
0.0
 23
0.0
 14
1.0
 24
1.0
 15
0.0
 25
0.0
 16
0.0
 26
0.0
 36
1.0
 17
0.0
 27
0.0
 37
0.0
 40
618.59067432609459
 41
1.767337807606264
 42
50.0
 43
0.0
 44
0.0
 50
0.0
 51
0.0
 71
     0
 72
  1000
 73
     1
 74
     3
 75
     0
 76
     0
 77
     0
 78
     0
  0
ENDTAB
  0
ENDSEC
  0
SECTION
  2
BLOCKS
  0
ENDSEC
  0
SECTION
  2
ENTITIES
  0
TEXT
  8
ETC
  6
CONTINUOUS
 62
    61
 10
223.25728812630311
 20
448.58113883720091
 30
0.0
 40
64.0
  1
V-08P8-BL_2
 41
0.9
  0
TEXT
  8
ETC
  6
CONTINUOUS
 62
    61
 10
219.07129412630269
 20
330.62582882236978
 30
0.0
 40
64.0
  1
換気扇
 41
0.9
  0
CIRCLE
  8
ARRANGE
  6
CONTINUOUS
 62
     1
 10
0.0
 20
-0.0000000000000071
 30
0.0
 40
40.0
  0
POINT
  8
ARRANGE
  6
CONTINUOUS
 62
     1
 10
0.0
 20
-0.0000000000000071
 30
0.0
  0
LINE
  8
BASIS
  6
DASHDOT
 62
     6
 10
0.0
 20
-109.2854010143142
 30
0.0
 11
0.0
 21
166.11490573973489
 31
0.0
  0
LINE
  8
BASIS
  6
DASHDOT
 62
     6
 10
95.967552833830439
 20
-0.0000000000000071
 30
0.0
 11
-95.967646960021909
 21
0.0000000000000071
 31
0.0
  0
TEXT
  8
ETC
  6
CONTINUOUS
 62
    61
 10
269.77269237485871
 20
222.47705593614461
 30
0.0
 40
40.0
  1
V-08P8-BL
 41
0.9
  0
TEXT
  8
ETC
  6
CONTINUOUS
 62
    61
 10
269.77269237485871
 20
156.47705593614461
 30
0.0
 40
40.0
  1
V-08PP8-BL
 41
0.9
  0
LINE
  8
OUTLINE
  6
CONTINUOUS
 62
     3
 10
-13.501768577741389
 20
-80.000128673445317
 30
0.0
 11
-13.501768577741389
 21
-83.809353978273236
 31
0.0
  0
LINE
  8
OUTLINE
  6
CONTINUOUS
 62
     3
 10
13.501220136239381
 20
-80.000128673445317
 30
0.0
 11
13.501220136239381
 21
-83.809353978273236
 31
0.0
  0
ARC
  8
OUTLINE
  6
CONTINUOUS
 62
     3
 10
-12.501657884631021
 20
-83.809353978273236
 30
0.0
 40
1.0001106931104
 50
180.0
 51
270.0
  0
LINE
  8
OUTLINE
  6
CONTINUOUS
 62
     3
 10
12.50110944312901
 20
-84.809464671383623
 30
0.0
 11
-12.501657884631021
 21
-84.809464671383623
 31
0.0
  0
ARC
  8
OUTLINE
  6
CONTINUOUS
 62
     3
 10
12.50110944312901
 20
-83.809353978273236
 30
0.0
 40
1.0001106931104
 50
270.0
 51
0.0
  0
LINE
  8
OUTLINE
  6
CONTINUOUS
 62
     3
 10
78.999387908297763
 20
-80.000128673445317
 30
0.0
 11
-79.000416100298779
 21
-80.000128673445317
 31
0.0
  0
ARC
  8
OUTLINE
  6
CONTINUOUS
 62
     3
 10
-79.000416100298779
 20
-79.000017980334945
 30
0.0
 40
1.0001106931104
 50
180.0
 51
270.0
  0
LINE
  8
OUTLINE
  6
CONTINUOUS
 62
     3
 10
-80.000526793409151
 20
-79.000017980334945
 30
0.0
 11
-80.000526793409151
 21
78.999786028261738
 31
0.0
  0
LINE
  8
OUTLINE
  6
CONTINUOUS
 62
     3
 10
79.999498601408263
 20
78.999786028261738
 30
0.0
 11
79.999498601408263
 21
-79.000017980334945
 31
0.0
  0
ARC
  8
OUTLINE
  6
CONTINUOUS
 62
     3
 10
78.999387908297763
 20
-79.000017980334945
 30
0.0
 40
1.0001106931104
 50
270.0
 51
0.0
  0
ARC
  8
OUTLINE
  6
CONTINUOUS
 62
     3
 10
-79.000416100298779
 20
78.999786028261738
 30
0.0
 40
1.0001106931104
 50
90.0
 51
180.0
  0
LINE
  8
OUTLINE
  6
CONTINUOUS
 62
     3
 10
-79.000416100298779
 20
79.999896721372096
 30
0.0
 11
78.999387908297763
 21
79.999896721372096
 31
0.0
  0
ARC
  8
OUTLINE
  6
CONTINUOUS
 62
     3
 10
78.999387908297763
 20
78.999786028261738
 30
0.0
 40
1.0001106931104
 50
0.0
 51
90.0
  0
LINE
  8
SIZE
  6
CONTINUOUS
 62
    30
 10
79.999498601408263
 20
98.999786028261724
 30
0.0
 11
79.999498601408263
 21
225.21909118443881
 31
0.0
  0
LINE
  8
SIZE
  6
CONTINUOUS
 62
    30
 10
-80.000526793409207
 20
98.999786028261724
 30
0.0
 11
-80.000526793409207
 21
225.21909118443881
 31
0.0
  0
LINE
  8
SIZE
  6
CONTINUOUS
 62
    30
 10
91.999498601408277
 20
205.21909118443881
 30
0.0
 11
103.99949860140831
 21
205.21909118443881
 31
0.0
  0
LINE
  8
SIZE
  6
CONTINUOUS
 62
    30
 10
-92.000526793409193
 20
205.21909118443881
 30
0.0
 11
-104.00052679340919
 21
205.21909118443881
 31
0.0
  0
LINE
  8
SIZE
  6
CONTINUOUS
 62
    30
 10
79.999498601408263
 20
205.21909118443881
 30
0.0
 11
-80.000526793409207
 21
205.21909118443881
 31
0.0
  0
CIRCLE
  8
SIZE
  6
CONTINUOUS
 62
    30
 10
79.999498601408263
 20
205.21909118443881
 30
0.0
 40
6.0
  0
LINE
  8
SIZE
  6
CONTINUOUS
 62
    30
 10
79.999498601408263
 20
205.21909118443881
 30
0.0
 11
91.999498601408277
 21
205.21909118443881
 31
0.0
  0
CIRCLE
  8
SIZE
  6
CONTINUOUS
 62
    30
 10
-80.000526793409207
 20
205.21909118443881
 30
0.0
 40
6.0
  0
LINE
  8
SIZE
  6
CONTINUOUS
 62
    30
 10
-80.000526793409207
 20
205.21909118443881
 30
0.0
 11
-92.000526793409193
 21
205.21909118443881
 31
0.0
  0
TEXT
  8
SIZE
  6
CONTINUOUS
 62
    30
 10
-105.051942667429
 20
230.21909118443881
 30
0.0
 40
64.0
  1
□160
 41
0.9
 72
     1
 11
-0.0005140960004724
 21
230.21909118443881
 31
0.0
  0
LINE
  8
SIZE
  6
CONTINUOUS
 62
    30
 10
32.501109443129003
 20
-84.809464671383623
 30
0.0
 11
249.12121779692089
 21
-84.809464671383708
 31
0.0
  0
LINE
  8
SIZE
  6
CONTINUOUS
 62
    30
 10
98.999387908297763
 20
-80.000128673445346
 30
0.0
 11
249.12121779692089
 21
-80.000128673445374
 31
0.0
  0
LINE
  8
SIZE
  6
CONTINUOUS
 62
    30
 10
229.12121779692089
 20
-96.80946467138368
 30
0.0
 11
229.12121779692089
 21
-108.80946467138369
 31
0.0
  0
LINE
  8
SIZE
  6
CONTINUOUS
 62
    30
 10
229.12121779692089
 20
-68.000128673445403
 30
0.0
 11
229.121217796921
 21
32.399871326554653
 31
0.0
  0
LINE
  8
SIZE
  6
CONTINUOUS
 62
    30
 10
229.12121779692089
 20
-84.809464671383708
 30
0.0
 11
229.12121779692089
 21
-80.000128673445374
 31
0.0
  0
CIRCLE
  8
SIZE
  6
CONTINUOUS
 62
    30
 10
229.12121779692089
 20
-84.809464671383708
 30
0.0
 40
6.0
  0
LINE
  8
SIZE
  6
CONTINUOUS
 62
    30
 10
229.12121779692089
 20
-84.809464671383708
 30
0.0
 11
229.12121779692089
 21
-96.80946467138368
 31
0.0
  0
CIRCLE
  8
SIZE
  6
CONTINUOUS
 62
    30
 10
229.12121779692089
 20
-80.000128673445374
 30
0.0
 40
6.0
  0
LINE
  8
SIZE
  6
CONTINUOUS
 62
    30
 10
229.12121779692089
 20
-80.000128673445374
 30
0.0
 11
229.12121779692089
 21
-68.000128673445403
 31
0.0
  0
TEXT
  8
SIZE
  6
CONTINUOUS
 62
    30
 10
204.121217796921
 20
-31.0001286734453
 30
0.0
 40
64.0
  1
5
 50
90.0
 41
0.9
 72
     1
 11
204.121217796921
 21
-11.800128673445309
 31
0.0
  0
LINE
  8
DETAIL
  6
CONTINUOUS
 62
     5
 10
-62.572642577800018
 20
-62.514818782799978
 30
0.0
 11
-62.572642577800018
 21
62.51521138979993
 31
0.0
  0
LINE
  8
DETAIL
  6
CONTINUOUS
 62
     5
 10
-57.403791868500093
 20
62.523935183899908
 30
0.0
 11
-57.403791868499873
 21
-62.523542576900027
 31
0.0
  0
LINE
  8
DETAIL
  6
CONTINUOUS
 62
     5
 10
-55.09580458649998
 20
-62.523542576900027
 30
0.0
 11
-55.09580458649998
 21
62.523935183899908
 31
0.0
  0
LINE
  8
DETAIL
  6
CONTINUOUS
 62
     5
 10
-49.903791868500093
 20
62.523935183899908
 30
0.0
 11
-49.903791868499873
 21
-62.523542576900027
 31
0.0
  0
LINE
  8
DETAIL
  6
CONTINUOUS
 62
     5
 10
-47.59580458649998
 20
-62.523542576900027
 30
0.0
 11
-47.59580458649998
 21
62.523935183899908
 31
0.0
  0
LINE
  8
DETAIL
  6
CONTINUOUS
 62
     5
 10
-42.403791868500093
 20
62.523935183899908
 30
0.0
 11
-42.403791868499873
 21
-62.523542576900027
 31
0.0
  0
LINE
  8
DETAIL
  6
CONTINUOUS
 62
     5
 10
-40.09580458649998
 20
-62.523542576900027
 30
0.0
 11
-40.09580458649998
 21
62.523935183899972
 31
0.0
  0
LINE
  8
DETAIL
  6
CONTINUOUS
 62
     5
 10
-34.903791868500093
 20
62.523935183899972
 30
0.0
 11
-34.903791868499873
 21
-62.523542576900027
 31
0.0
  0
LINE
  8
DETAIL
  6
CONTINUOUS
 62
     5
 10
-32.59580458649998
 20
-62.523542576900027
 30
0.0
 11
-32.59580458649998
 21
62.523935183899972
 31
0.0
  0
LINE
  8
DETAIL
  6
CONTINUOUS
 62
     5
 10
-27.40379186850009
 20
62.523935183899972
 30
0.0
 11
-27.403791868499869
 21
-62.523542576900027
 31
0.0
  0
LINE
  8
DETAIL
  6
CONTINUOUS
 62
     5
 10
-25.09580458649998
 20
-62.523542576900027
 30
0.0
 11
-25.09580458649998
 21
62.523935183899972
 31
0.0
  0
LINE
  8
DETAIL
  6
CONTINUOUS
 62
     5
 10
-19.90379186850009
 20
62.523935183899972
 30
0.0
 11
-19.903791868499869
 21
-62.523542576900027
 31
0.0
  0
LINE
  8
DETAIL
  6
CONTINUOUS
 62
     5
 10
-17.59580458649998
 20
-62.523542576900027
 30
0.0
 11
-17.59580458649998
 21
62.523935183899972
 31
0.0
  0
LINE
  8
DETAIL
  6
CONTINUOUS
 62
     5
 10
-12.40379186850009
 20
62.523935183899972
 30
0.0
 11
-12.403791868499869
 21
-62.523542576900027
 31
0.0
  0
LINE
  8
DETAIL
  6
CONTINUOUS
 62
     5
 10
-10.09580458649998
 20
-62.523542576900027
 30
0.0
 11
-10.09580458649998
 21
62.523935183899972
 31
0.0
  0
LINE
  8
DETAIL
  6
CONTINUOUS
 62
     5
 10
-4.9037918685000932
 20
62.523935183899972
 30
0.0
 11
-4.9037918684998658
 21
-62.523542576900027
 31
0.0
  0
LINE
  8
DETAIL
  6
CONTINUOUS
 62
     5
 10
-2.5958045864999799
 20
-62.523542576900027
 30
0.0
 11
-2.5958045864999799
 21
62.523935183899972
 31
0.0
  0
LINE
  8
DETAIL
  6
CONTINUOUS
 62
     5
 10
-4.9037918685000932
 20
62.515211389799987
 30
0.0
 11
-10.09580458649998
 21
62.515211389799987
 31
0.0
  0
LINE
  8
DETAIL
  6
CONTINUOUS
 62
     5
 10
-12.40379186850009
 20
62.515211389799987
 30
0.0
 11
-17.59580458649998
 21
62.515211389799987
 31
0.0
  0
LINE
  8
DETAIL
  6
CONTINUOUS
 62
     5
 10
-19.90379186850009
 20
62.515211389799987
 30
0.0
 11
-25.09580458649998
 21
62.515211389799987
 31
0.0
  0
LINE
  8
DETAIL
  6
CONTINUOUS
 62
     5
 10
-27.40379186850009
 20
62.515211389799987
 30
0.0
 11
-32.59580458649998
 21
62.515211389799987
 31
0.0
  0
LINE
  8
DETAIL
  6
CONTINUOUS
 62
     5
 10
-34.903791868500093
 20
62.515211389799987
 30
0.0
 11
-40.09580458649998
 21
62.515211389799987
 31
0.0
  0
LINE
  8
DETAIL
  6
CONTINUOUS
 62
     5
 10
-42.403791868500093
 20
62.51521138979993
 30
0.0
 11
-47.59580458649998
 21
62.51521138979993
 31
0.0
  0
LINE
  8
DETAIL
  6
CONTINUOUS
 62
     5
 10
-49.903791868500093
 20
62.51521138979993
 30
0.0
 11
-55.09580458649998
 21
62.51521138979993
 31
0.0
  0
LINE
  8
DETAIL
  6
CONTINUOUS
 62
     5
 10
-57.403791868500093
 20
62.51521138979993
 30
0.0
 11
-62.572642577800018
 21
62.51521138979993
 31
0.0
  0
LINE
  8
DETAIL
  6
CONTINUOUS
 62
     5
 10
-62.572642577800018
 20
-62.514818782799978
 30
0.0
 11
-57.403791868499873
 21
-62.514818782799978
 31
0.0
  0
LINE
  8
DETAIL
  6
CONTINUOUS
 62
     5
 10
-55.09580458649998
 20
-62.514818782799971
 30
0.0
 11
-49.903791868499873
 21
-62.514818782799978
 31
0.0
  0
LINE
  8
DETAIL
  6
CONTINUOUS
 62
     5
 10
-47.59580458649998
 20
-62.514818782799971
 30
0.0
 11
-42.403791868499873
 21
-62.514818782799978
 31
0.0
  0
LINE
  8
DETAIL
  6
CONTINUOUS
 62
     5
 10
-40.09580458649998
 20
-62.514818782799971
 30
0.0
 11
-34.903791868499873
 21
-62.514818782799978
 31
0.0
  0
LINE
  8
DETAIL
  6
CONTINUOUS
 62
     5
 10
-32.59580458649998
 20
-62.514818782799971
 30
0.0
 11
-27.403791868499869
 21
-62.514818782799978
 31
0.0
  0
LINE
  8
DETAIL
  6
CONTINUOUS
 62
     5
 10
-25.09580458649998
 20
-62.514818782799971
 30
0.0
 11
-19.903791868499869
 21
-62.514818782799978
 31
0.0
  0
LINE
  8
DETAIL
  6
CONTINUOUS
 62
     5
 10
-17.59580458649998
 20
-62.514818782799971
 30
0.0
 11
-12.403791868499869
 21
-62.514818782799978
 31
0.0
  0
LINE
  8
DETAIL
  6
CONTINUOUS
 62
     5
 10
-10.09580458649998
 20
-62.514818782799971
 30
0.0
 11
-4.9037918684998658
 21
-62.514818782799978
 31
0.0
  0
LINE
  8
DETAIL
  6
CONTINUOUS
 62
     5
 10
-2.5779201114000898
 20
62.515211389799987
 30
0.0
 11
2.5958045864999799
 21
62.515211389799987
 31
0.0
  0
LINE
  8
DETAIL
  6
CONTINUOUS
 62
     5
 10
4.9037918684998658
 20
62.515211389799987
 30
0.0
 11
10.09580458649998
 21
62.515211389799987
 31
0.0
  0
LINE
  8
DETAIL
  6
CONTINUOUS
 62
     5
 10
12.403791868499869
 20
62.515211389799987
 30
0.0
 11
17.59580458649998
 21
62.515211389799987
 31
0.0
  0
LINE
  8
DETAIL
  6
CONTINUOUS
 62
     5
 10
19.903791868499869
 20
62.515211389799987
 30
0.0
 11
25.09580458649998
 21
62.515211389799987
 31
0.0
  0
LINE
  8
DETAIL
  6
CONTINUOUS
 62
     5
 10
27.403791868499869
 20
62.515211389799987
 30
0.0
 11
32.59580458649998
 21
62.515211389799987
 31
0.0
  0
LINE
  8
DETAIL
  6
CONTINUOUS
 62
     5
 10
34.903791868499873
 20
62.515211389799987
 30
0.0
 11
40.09580458649998
 21
62.515211389799987
 31
0.0
  0
LINE
  8
DETAIL
  6
CONTINUOUS
 62
     5
 10
42.403791868499873
 20
62.515211389799987
 30
0.0
 11
47.59580458649998
 21
62.515211389799987
 31
0.0
  0
LINE
  8
DETAIL
  6
CONTINUOUS
 62
     5
 10
49.903791868499873
 20
62.515211389799987
 30
0.0
 11
55.09580458649998
 21
62.515211389799987
 31
0.0
  0
LINE
  8
DETAIL
  6
CONTINUOUS
 62
     5
 10
57.403791868499873
 20
62.515211389799987
 30
0.0
 11
62.572642577800018
 21
62.515211389799987
 31
0.0
  0
LINE
  8
DETAIL
  6
CONTINUOUS
 62
     5
 10
62.572642577800018
 20
-62.514818782799978
 30
0.0
 11
57.403791868499873
 21
-62.514818782799978
 31
0.0
  0
LINE
  8
DETAIL
  6
CONTINUOUS
 62
     5
 10
55.09580458649998
 20
-62.514818782799971
 30
0.0
 11
49.903791868499873
 21
-62.514818782799978
 31
0.0
  0
LINE
  8
DETAIL
  6
CONTINUOUS
 62
     5
 10
47.59580458649998
 20
-62.514818782799971
 30
0.0
 11
42.403791868499873
 21
-62.514818782799978
 31
0.0
  0
LINE
  8
DETAIL
  6
CONTINUOUS
 62
     5
 10
40.09580458649998
 20
-62.514818782799971
 30
0.0
 11
34.903791868499873
 21
-62.514818782799978
 31
0.0
  0
LINE
  8
DETAIL
  6
CONTINUOUS
 62
     5
 10
32.59580458649998
 20
-62.514818782799971
 30
0.0
 11
27.403791868499869
 21
-62.514818782799978
 31
0.0
  0
LINE
  8
DETAIL
  6
CONTINUOUS
 62
     5
 10
25.09580458649998
 20
-62.514818782799971
 30
0.0
 11
19.903791868499869
 21
-62.514818782799978
 31
0.0
  0
LINE
  8
DETAIL
  6
CONTINUOUS
 62
     5
 10
17.59580458649998
 20
-62.514818782799971
 30
0.0
 11
12.403791868499869
 21
-62.514818782799978
 31
0.0
  0
LINE
  8
DETAIL
  6
CONTINUOUS
 62
     5
 10
10.09580458649998
 20
-62.514818782799971
 30
0.0
 11
4.9037918684998658
 21
-62.514818782799978
 31
0.0
  0
LINE
  8
DETAIL
  6
CONTINUOUS
 62
     5
 10
2.5958045864999799
 20
-62.514818782799978
 30
0.0
 11
-2.5779201114000898
 21
-62.514818782799978
 31
0.0
  0
LINE
  8
DETAIL
  6
CONTINUOUS
 62
     5
 10
-13.5
 20
-79.991000000000014
 30
0.0
 11
-13.5
 21
-83.799803696500049
 31
0.0
  0
LINE
  8
DETAIL
  6
CONTINUOUS
 62
     5
 10
13.5
 20
-79.991000000000014
 30
0.0
 11
13.5
 21
-83.799803696500049
 31
0.0
  0
ARC
  8
DETAIL
  6
CONTINUOUS
 62
     5
 10
-12.5
 20
-83.799803696500049
 30
0.0
 40
1.0
 50
180.0
 51
270.0
  0
LINE
  8
DETAIL
  6
CONTINUOUS
 62
     5
 10
12.5
 20
-84.799803696500049
 30
0.0
 11
-12.5
 21
-84.799803696500049
 31
0.0
  0
ARC
  8
DETAIL
  6
CONTINUOUS
 62
     5
 10
12.5
 20
-83.799803696500049
 30
0.0
 40
1.0
 50
270.0
 51
0.0
  0
LINE
  8
DETAIL
  6
CONTINUOUS
 62
     5
 10
78.990918378599872
 20
-79.991000000000014
 30
0.0
 11
-78.991398075999982
 21
-79.991000000000014
 31
0.0
  0
ARC
  8
DETAIL
  6
CONTINUOUS
 62
     5
 10
-78.991398075999982
 20
-78.991000000000014
 30
0.0
 40
1.0
 50
180.0
 51
270.0
  0
LINE
  8
DETAIL
  6
CONTINUOUS
 62
     5
 10
-79.991398075999982
 20
-78.991000000000014
 30
0.0
 11
-79.991398075999982
 21
78.991316454599968
 31
0.0
  0
ARC
  8
DETAIL
  6
CONTINUOUS
 62
     5
 10
-78.991398075999982
 20
78.991316454599968
 30
0.0
 40
1.0
 50
90.0
 51
180.0
  0
LINE
  8
DETAIL
  6
CONTINUOUS
 62
     5
 10
-78.991398075999982
 20
79.991316454599968
 30
0.0
 11
78.990918378599872
 21
79.991316454599968
 31
0.0
  0
ARC
  8
DETAIL
  6
CONTINUOUS
 62
     5
 10
78.990918378599872
 20
78.991316454599968
 30
0.0
 40
1.0
 50
0.0
 51
90.0
  0
LINE
  8
DETAIL
  6
CONTINUOUS
 62
     5
 10
79.990918378599872
 20
78.991316454599968
 30
0.0
 11
79.990918378599872
 21
-78.991000000000014
 31
0.0
  0
ARC
  8
DETAIL
  6
CONTINUOUS
 62
     5
 10
78.990918378599872
 20
-78.991000000000014
 30
0.0
 40
1.0
 50
270.0
 51
0.0
  0
LINE
  8
DETAIL
  6
CONTINUOUS
 62
     5
 10
62.572642577800018
 20
-62.514818782799978
 30
0.0
 11
62.572642577800018
 21
62.515211389799987
 31
0.0
  0
LINE
  8
DETAIL
  6
CONTINUOUS
 62
     5
 10
57.403791868499873
 20
62.523935183899972
 30
0.0
 11
57.403791868499873
 21
-62.523542576900027
 31
0.0
  0
LINE
  8
DETAIL
  6
CONTINUOUS
 62
     5
 10
55.09580458649998
 20
-62.523542576900027
 30
0.0
 11
55.09580458649998
 21
62.523935183899972
 31
0.0
  0
LINE
  8
DETAIL
  6
CONTINUOUS
 62
     5
 10
49.903791868499873
 20
62.523935183899972
 30
0.0
 11
49.903791868499873
 21
-62.523542576900027
 31
0.0
  0
LINE
  8
DETAIL
  6
CONTINUOUS
 62
     5
 10
47.59580458649998
 20
-62.523542576900027
 30
0.0
 11
47.59580458649998
 21
62.523935183899972
 31
0.0
  0
LINE
  8
DETAIL
  6
CONTINUOUS
 62
     5
 10
42.403791868499873
 20
62.523935183899972
 30
0.0
 11
42.403791868499873
 21
-62.523542576900027
 31
0.0
  0
LINE
  8
DETAIL
  6
CONTINUOUS
 62
     5
 10
40.09580458649998
 20
-62.523542576900027
 30
0.0
 11
40.09580458649998
 21
62.523935183899972
 31
0.0
  0
LINE
  8
DETAIL
  6
CONTINUOUS
 62
     5
 10
34.903791868499873
 20
62.523935183899972
 30
0.0
 11
34.903791868499873
 21
-62.523542576900027
 31
0.0
  0
LINE
  8
DETAIL
  6
CONTINUOUS
 62
     5
 10
32.59580458649998
 20
-62.523542576900027
 30
0.0
 11
32.59580458649998
 21
62.523935183899972
 31
0.0
  0
LINE
  8
DETAIL
  6
CONTINUOUS
 62
     5
 10
27.403791868499869
 20
62.523935183899972
 30
0.0
 11
27.403791868499869
 21
-62.523542576900027
 31
0.0
  0
LINE
  8
DETAIL
  6
CONTINUOUS
 62
     5
 10
25.09580458649998
 20
-62.523542576900027
 30
0.0
 11
25.09580458649998
 21
62.523935183899972
 31
0.0
  0
LINE
  8
DETAIL
  6
CONTINUOUS
 62
     5
 10
19.903791868499869
 20
62.523935183899972
 30
0.0
 11
19.903791868499869
 21
-62.523542576900027
 31
0.0
  0
LINE
  8
DETAIL
  6
CONTINUOUS
 62
     5
 10
17.59580458649998
 20
-62.523542576900027
 30
0.0
 11
17.59580458649998
 21
62.523935183899972
 31
0.0
  0
LINE
  8
DETAIL
  6
CONTINUOUS
 62
     5
 10
12.403791868499869
 20
62.523935183899972
 30
0.0
 11
12.403791868499869
 21
-62.523542576900027
 31
0.0
  0
LINE
  8
DETAIL
  6
CONTINUOUS
 62
     5
 10
10.09580458649998
 20
-62.523542576900027
 30
0.0
 11
10.09580458649998
 21
62.523935183899972
 31
0.0
  0
LINE
  8
DETAIL
  6
CONTINUOUS
 62
     5
 10
4.9037918684998658
 20
62.523935183899972
 30
0.0
 11
4.9037918684998658
 21
-62.523542576900027
 31
0.0
  0
LINE
  8
DETAIL
  6
CONTINUOUS
 62
     5
 10
2.5958045864999799
 20
-62.523542576900027
 30
0.0
 11
2.5958045864999799
 21
62.523935183899972
 31
0.0
  0
ARC
  8
DETAIL
  6
CONTINUOUS
 62
     5
 10
0.0002741903997503
 20
0.0002741905000718
 30
0.0
 40
45.187627657500002
 50
339.78254444173251
 51
20.21745555826752
  0
ARC
  8
DETAIL
  6
CONTINUOUS
 62
     5
 10
0.0002741903997503
 20
0.0002741905000718
 30
0.0
 40
45.187627657500009
 50
320.57108464741458
 51
332.53741037194061
  0
ARC
  8
DETAIL
  6
CONTINUOUS
 62
     5
 10
0.0002741903997503
 20
0.0002741905000718
 30
0.0
 40
45.187627657500002
 50
307.33242731064098
 51
316.16501765608348
  0
ARC
  8
DETAIL
  6
CONTINUOUS
 62
     5
 10
0.0002741903997503
 20
0.0002741905000718
 30
0.0
 40
45.187627657500002
 50
296.13348206778852
 51
303.73571171488862
  0
ARC
  8
DETAIL
  6
CONTINUOUS
 62
     5
 10
0.0002741903997503
 20
0.0002741905000718
 30
0.0
 40
45.187627657500002
 50
285.93157866092668
 51
292.91643870489122
  0
ARC
  8
DETAIL
  6
CONTINUOUS
 62
     5
 10
0.0002741903997503
 20
0.0002741905000718
 30
0.0
 40
45.187627657500002
 50
276.22969627896651
 51
282.90960943209188
  0
ARC
  8
DETAIL
  6
CONTINUOUS
 62
     5
 10
0.0002741903997503
 20
0.0002741905000718
 30
0.0
 40
45.187627657500002
 50
266.70648113950898
 51
273.29282238941039
  0
ARC
  8
DETAIL
  6
CONTINUOUS
 62
     5
 10
0.0002741903997503
 20
0.0002741905000718
 30
0.0
 40
45.187627657500002
 50
257.08967721504428
 51
263.7696042692279
  0
ARC
  8
DETAIL
  6
CONTINUOUS
 62
     5
 10
0.0002741903997503
 20
0.0002741905000718
 30
0.0
 40
45.187627657500002
 50
247.08280639037559
 51
254.06769824284001
  0
ARC
  8
DETAIL
  6
CONTINUOUS
 62
     5
 10
0.0002741903997503
 20
0.0002741905000718
 30
0.0
 40
45.187627657500002
 50
236.2634521649027
 51
243.86574343204089
  0
ARC
  8
DETAIL
  6
CONTINUOUS
 62
     5
 10
0.0002741903997503
 20
0.0002741905000718
 30
0.0
 40
45.187627657500002
 50
223.83397838252259
 51
232.66669821010771
  0
ARC
  8
DETAIL
  6
CONTINUOUS
 62
     5
 10
0.0002741903997503
 20
0.0002741905000718
 30
0.0
 40
45.187627657500002
 50
207.46108185532481
 51
219.42782055378831
  0
ARC
  8
DETAIL
  6
CONTINUOUS
 62
     5
 10
0.0002741903997503
 20
0.0002741905000718
 30
0.0
 40
45.187627657499988
 50
159.78455655434669
 51
200.21544344565331
  0
ARC
  8
DETAIL
  6
CONTINUOUS
 62
     5
 10
0.0002741903997503
 20
0.0002741905000718
 30
0.0
 40
45.187627657499981
 50
140.57217944621149
 51
152.53891814467511
  0
ARC
  8
DETAIL
  6
CONTINUOUS
 62
     5
 10
0.0002741903997503
 20
0.0002741905000718
 30
0.0
 40
45.187627657500009
 50
127.3333017898922
 51
136.1660216174773
  0
ARC
  8
DETAIL
  6
CONTINUOUS
 62
     5
 10
0.0002741903997503
 20
0.0002741905000718
 30
0.0
 40
45.187627657500009
 50
116.1342565679591
 51
123.7365478350973
  0
ARC
  8
DETAIL
  6
CONTINUOUS
 62
     5
 10
0.0002741903997503
 20
0.0002741905000718
 30
0.0
 40
45.187627657500002
 50
105.93230175715991
 51
112.91719360962441
  0
ARC
  8
DETAIL
  6
CONTINUOUS
 62
     5
 10
0.0002741903997503
 20
0.0002741905000718
 30
0.0
 40
45.187627657500009
 50
96.230395730772045
 51
102.9103227849557
  0
ARC
  8
DETAIL
  6
CONTINUOUS
 62
     5
 10
0.0002741903997503
 20
0.0002741905000718
 30
0.0
 40
45.187627657500002
 50
86.707177610589625
 51
93.293518860491005
  0
ARC
  8
DETAIL
  6
CONTINUOUS
 62
     5
 10
0.0002741903997503
 20
0.0002741905000718
 30
0.0
 40
45.187627657499981
 50
77.090390567908102
 51
83.709376082601779
  0
ARC
  8
DETAIL
  6
CONTINUOUS
 62
     5
 10
0.0002741903997503
 20
0.0002741905000718
 30
0.0
 40
45.187627657500023
 50
67.083561295108822
 51
74.068421339073311
  0
ARC
  8
DETAIL
  6
CONTINUOUS
 62
     5
 10
0.0002741903997503
 20
0.0002741905000718
 30
0.0
 40
45.187627657500002
 50
56.264288285111341
 51
63.86651793221138
  0
ARC
  8
DETAIL
  6
CONTINUOUS
 62
     5
 10
0.0002741903997503
 20
0.0002741905000718
 30
0.0
 40
45.187627657500009
 50
43.83498234391655
 51
52.667572689358892
  0
ARC
  8
DETAIL
  6
CONTINUOUS
 62
     5
 10
0.0002741903997503
 20
0.0002741905000718
 30
0.0
 40
45.187627657500009
 50
27.46258962805944
 51
39.4289153525853
  0
LINE
  8
DETAIL
  6
CONTINUOUS
 62
     5
 10
-9.9866169171000347
 20
-43.880160570699978
 30
0.0
 11
-10.049725809600201
 21
-43.865998907099957
 31
0.0
  0
ARC
  8
DETAIL
  6
CONTINUOUS
 62
     5
 10
0.0002741903997503
 20
0.0002741905000718
 30
0.0
 40
12.5
 50
36.13377397556593
 51
66.903469660879395
  0
ARC
  8
DETAIL
  6
CONTINUOUS
 62
     5
 10
0.0002741903997503
 20
0.0002741905000718
 30
0.0
 40
12.50000000000003
 50
113.09926299223019
 51
143.87048893367361
  0
ARC
  8
DETAIL
  6
CONTINUOUS
 62
     5
 10
0.0002741903997503
 20
0.0002741905000718
 30
0.0
 40
12.50000000000002
 50
78.015771608089807
 51
101.9867980014741
  0
ARC
  8
DETAIL
  6
CONTINUOUS
 62
     5
 10
0.0002741903997503
 20
0.0002741905000718
 30
0.0
 40
12.499999999999989
 50
258.01320199852591
 51
281.98422839191022
  0
ARC
  8
DETAIL
  6
CONTINUOUS
 62
     5
 10
0.0002741903997503
 20
0.0002741905000718
 30
0.0
 40
12.499999999999989
 50
216.1295110663261
 51
246.90073700776981
  0
ARC
  8
DETAIL
  6
CONTINUOUS
 62
     5
 10
0.0002741903997503
 20
0.0002741905000718
 30
0.0
 40
12.500000000000011
 50
293.34648184179991
 51
323.86622602443413
  0
ARC
  8
DETAIL
  6
CONTINUOUS
 62
     5
 10
-1.500239848699948
 20
102.5896973220411
 30
0.0
 40
3.00000000000002
 50
239.99999999999989
 51
300.0
  0
ARC
  8
DETAIL
  6
CONTINUOUS
 62
     5
 10
1.499760151300052
 20
97.393544899334557
 30
0.0
 40
2.9999999999999498
 50
60.000000000000007
 51
120.0
  0
ARC
  8
DETAIL
  6
CONTINUOUS
 62
     5
 10
-1.500239848699948
 20
99.589697322041133
 30
0.0
 40
3.00000000000002
 50
239.99999999999989
 51
300.0
  0
LINE
  8
DETAIL
  6
CONTINUOUS
 62
     5
 10
-3.0002398486999482
 20
79.989696648282916
 30
0.0
 11
-3.0002398486999482
 21
96.991621110687774
 31
0.0
  0
ARC
  8
DETAIL
  6
CONTINUOUS
 62
     5
 10
1.499760151300052
 20
94.393544899334557
 30
0.0
 40
2.9999999999999498
 50
60.000000000000007
 51
120.0
  0
LINE
  8
DETAIL
  6
CONTINUOUS
 62
     5
 10
2.9997601513000518
 20
79.992936260917062
 30
0.0
 11
2.9997601513000518
 21
96.991621110687774
 31
0.0
  0
LINE
  8
DETAIL
  6
CONTINUOUS
 62
     5
 10
5.8497601512999609
 20
151.13938068176321
 30
0.0
 11
6.8497601512999609
 21
151.13938068176321
 31
0.0
  0
LINE
  8
DETAIL
  6
CONTINUOUS
 62
     5
 10
5.8497601512999609
 20
144.83938068176329
 30
0.0
 11
6.8497601512999609
 21
144.83938068176329
 31
0.0
  0
LINE
  8
DETAIL
  6
CONTINUOUS
 62
     5
 10
12.49976015130005
 20
143.48938068176329
 30
0.0
 11
13.99976015130005
 21
143.48938068176329
 31
0.0
  0
LINE
  8
DETAIL
  6
CONTINUOUS
 62
     5
 10
12.49976015130005
 20
152.48938068176321
 30
0.0
 11
13.99976015130005
 21
152.48938068176321
 31
0.0
  0
LINE
  8
DETAIL
  6
CONTINUOUS
 62
     5
 10
-14.00023984869995
 20
152.48938068176321
 30
0.0
 11
-14.00023984869995
 21
143.48938068176329
 31
0.0
  0
LINE
  8
DETAIL
  6
CONTINUOUS
 62
     5
 10
13.99976015130005
 20
152.48938068176321
 30
0.0
 11
13.99976015130005
 21
143.48938068176329
 31
0.0
  0
LINE
  8
DETAIL
  6
CONTINUOUS
 62
     5
 10
-14.00023984869995
 20
152.48938068176321
 30
0.0
 11
-12.50023984869995
 21
152.48938068176321
 31
0.0
  0
LINE
  8
DETAIL
  6
CONTINUOUS
 62
     5
 10
-14.00023984869995
 20
143.48938068176329
 30
0.0
 11
-12.50023984869995
 21
143.48938068176329
 31
0.0
  0
LINE
  8
DETAIL
  6
CONTINUOUS
 62
     5
 10
-6.8502398486998564
 20
151.13938068176321
 30
0.0
 11
-5.8502398486998564
 21
151.13938068176321
 31
0.0
  0
LINE
  8
DETAIL
  6
CONTINUOUS
 62
     5
 10
-6.8502398486998564
 20
144.83938068176329
 30
0.0
 11
-5.8502398486998564
 21
144.83938068176329
 31
0.0
  0
LINE
  8
DETAIL
  6
CONTINUOUS
 62
     5
 10
5.8497601512999609
 20
151.13938068176321
 30
0.0
 11
5.8497601512999609
 21
144.83938068176329
 31
0.0
  0
LINE
  8
DETAIL
  6
CONTINUOUS
 62
     5
 10
6.8497601512999609
 20
151.13938068176321
 30
0.0
 11
6.8497601512999609
 21
144.83938068176329
 31
0.0
  0
LINE
  8
DETAIL
  6
CONTINUOUS
 62
     5
 10
-6.8502398486998564
 20
151.13938068176321
 30
0.0
 11
-6.8502398486998564
 21
144.83938068176329
 31
0.0
  0
LINE
  8
DETAIL
  6
CONTINUOUS
 62
     5
 10
-5.8502398486998564
 20
151.13938068176321
 30
0.0
 11
-5.8502398486998564
 21
144.83938068176329
 31
0.0
  0
ARC
  8
DETAIL
  6
CONTINUOUS
 62
     5
 10
9.4997601513000518
 20
152.48938068176321
 30
0.0
 40
2.999999999999944
 50
0.0
 51
90.0
  0
ARC
  8
DETAIL
  6
CONTINUOUS
 62
     5
 10
9.4997601513000518
 20
143.48938068176329
 30
0.0
 40
3.0
 50
270.0
 51
0.0
  0
ARC
  8
DETAIL
  6
CONTINUOUS
 62
     5
 10
-9.5002398486999482
 20
143.48938068176329
 30
0.0
 40
3.000000000000056
 50
180.0
 51
270.0
  0
ARC
  8
DETAIL
  6
CONTINUOUS
 62
     5
 10
-9.5002398486999482
 20
152.48938068176321
 30
0.0
 40
3.0
 50
90.0
 51
180.0
  0
LINE
  8
DETAIL
  6
CONTINUOUS
 62
     5
 10
12.49976015130005
 20
152.48938068176321
 30
0.0
 11
12.49976015130005
 21
143.48938068176329
 31
0.0
  0
LINE
  8
DETAIL
  6
CONTINUOUS
 62
     5
 10
-12.50023984869995
 20
152.48938068176321
 30
0.0
 11
-12.50023984869995
 21
143.48938068176329
 31
0.0
  0
LINE
  8
DETAIL
  6
CONTINUOUS
 62
     5
 10
-9.5002398486999482
 20
140.48938068176329
 30
0.0
 11
9.4997601513000518
 21
140.48938068176329
 31
0.0
  0
LINE
  8
DETAIL
  6
CONTINUOUS
 62
     5
 10
-9.5002398486999482
 20
155.48938068176321
 30
0.0
 11
9.4997601513000518
 21
155.48938068176321
 31
0.0
  0
LINE
  8
DETAIL
  6
CONTINUOUS
 62
     5
 10
-5.8830371344693049
 20
138.6141372540736
 30
0.0
 11
-4.7795405272577227
 21
120.9581915386856
 31
0.0
  0
LINE
  8
DETAIL
  6
CONTINUOUS
 62
     5
 10
5.8825574370694076
 20
138.6141372540736
 30
0.0
 11
4.7790608298575989
 21
120.9581915386856
 31
0.0
  0
ARC
  8
DETAIL
  6
CONTINUOUS
 62
     5
 10
7.8786625940351778
 20
138.48938068176329
 30
0.0
 40
2.0
 50
90.0
 51
176.4236656250018
  0
ARC
  8
DETAIL
  6
CONTINUOUS
 62
     5
 10
-7.8791422914352989
 20
138.48938068176329
 30
0.0
 40
1.999999999999994
 50
3.5763343749981651
 51
90.0
  0
LINE
  8
DETAIL
  6
CONTINUOUS
 62
     5
 10
-0.0002398486999482
 20
135.98938068176329
 30
0.0
 11
5.7185101513000518
 21
135.98938068176329
 31
0.0
  0
LINE
  8
DETAIL
  6
CONTINUOUS
 62
     5
 10
-0.0002398486999482
 20
134.48938068176329
 30
0.0
 11
5.6247601513000518
 21
134.48938068176329
 31
0.0
  0
LINE
  8
DETAIL
  6
CONTINUOUS
 62
     5
 10
-5.5314898486999482
 20
132.98938068176329
 30
0.0
 11
-0.0002398486999482
 21
132.98938068176329
 31
0.0
  0
LINE
  8
DETAIL
  6
CONTINUOUS
 62
     5
 10
-5.4377398486999482
 20
131.48938068176329
 30
0.0
 11
-0.0002398486999482
 21
131.48938068176329
 31
0.0
  0
LINE
  8
DETAIL
  6
CONTINUOUS
 62
     5
 10
-0.0002398486999482
 20
129.98938068176329
 30
0.0
 11
5.3435101513000518
 21
129.98938068176329
 31
0.0
  0
LINE
  8
DETAIL
  6
CONTINUOUS
 62
     5
 10
-0.0002398486999482
 20
128.48938068176329
 30
0.0
 11
5.2497601513000518
 21
128.48938068176329
 31
0.0
  0
LINE
  8
DETAIL
  6
CONTINUOUS
 62
     5
 10
-5.1564898486999482
 20
126.98938068176329
 30
0.0
 11
-0.0002398486999482
 21
126.98938068176329
 31
0.0
  0
LINE
  8
DETAIL
  6
CONTINUOUS
 62
     5
 10
-0.0002398486999482
 20
135.98938068176329
 30
0.0
 11
-0.0002398486999482
 21
134.48938068176329
 31
0.0
  0
LINE
  8
DETAIL
  6
CONTINUOUS
 62
     5
 10
-0.0002398486999482
 20
132.98938068176329
 30
0.0
 11
-0.0002398486999482
 21
131.48938068176329
 31
0.0
  0
LINE
  8
DETAIL
  6
CONTINUOUS
 62
     5
 10
-0.0002398486999482
 20
129.98938068176329
 30
0.0
 11
-0.0002398486999482
 21
128.48938068176329
 31
0.0
  0
LINE
  8
DETAIL
  6
CONTINUOUS
 62
     5
 10
-0.0002398486999482
 20
126.98938068176329
 30
0.0
 11
-0.0002398486999482
 21
125.48938068176329
 31
0.0
  0
LINE
  8
DETAIL
  6
CONTINUOUS
 62
     5
 10
5.8497601512999609
 20
151.13938068176321
 30
0.0
 11
6.8497601512999609
 21
151.13938068176321
 31
0.0
  0
LINE
  8
DETAIL
  6
CONTINUOUS
 62
     5
 10
5.8497601512999609
 20
144.83938068176329
 30
0.0
 11
6.8497601512999609
 21
144.83938068176329
 31
0.0
  0
LINE
  8
DETAIL
  6
CONTINUOUS
 62
     5
 10
12.49976015130005
 20
143.48938068176329
 30
0.0
 11
13.99976015130005
 21
143.48938068176329
 31
0.0
  0
LINE
  8
DETAIL
  6
CONTINUOUS
 62
     5
 10
12.49976015130005
 20
152.48938068176321
 30
0.0
 11
13.99976015130005
 21
152.48938068176321
 31
0.0
  0
LINE
  8
DETAIL
  6
CONTINUOUS
 62
     5
 10
-14.00023984869995
 20
152.48938068176321
 30
0.0
 11
-14.00023984869995
 21
143.48938068176329
 31
0.0
  0
LINE
  8
DETAIL
  6
CONTINUOUS
 62
     5
 10
13.99976015130005
 20
152.48938068176321
 30
0.0
 11
13.99976015130005
 21
143.48938068176329
 31
0.0
  0
LINE
  8
DETAIL
  6
CONTINUOUS
 62
     5
 10
-14.00023984869995
 20
152.48938068176321
 30
0.0
 11
-12.50023984869995
 21
152.48938068176321
 31
0.0
  0
LINE
  8
DETAIL
  6
CONTINUOUS
 62
     5
 10
-14.00023984869995
 20
143.48938068176329
 30
0.0
 11
-12.50023984869995
 21
143.48938068176329
 31
0.0
  0
LINE
  8
DETAIL
  6
CONTINUOUS
 62
     5
 10
-6.8502398486998564
 20
151.13938068176321
 30
0.0
 11
-5.8502398486998564
 21
151.13938068176321
 31
0.0
  0
LINE
  8
DETAIL
  6
CONTINUOUS
 62
     5
 10
-6.8502398486998564
 20
144.83938068176329
 30
0.0
 11
-5.8502398486998564
 21
144.83938068176329
 31
0.0
  0
LINE
  8
DETAIL
  6
CONTINUOUS
 62
     5
 10
5.8497601512999609
 20
151.13938068176321
 30
0.0
 11
5.8497601512999609
 21
144.83938068176329
 31
0.0
  0
LINE
  8
DETAIL
  6
CONTINUOUS
 62
     5
 10
6.8497601512999609
 20
151.13938068176321
 30
0.0
 11
6.8497601512999609
 21
144.83938068176329
 31
0.0
  0
LINE
  8
DETAIL
  6
CONTINUOUS
 62
     5
 10
-6.8502398486998564
 20
151.13938068176321
 30
0.0
 11
-6.8502398486998564
 21
144.83938068176329
 31
0.0
  0
LINE
  8
DETAIL
  6
CONTINUOUS
 62
     5
 10
-5.8502398486998564
 20
151.13938068176321
 30
0.0
 11
-5.8502398486998564
 21
144.83938068176329
 31
0.0
  0
ARC
  8
DETAIL
  6
CONTINUOUS
 62
     5
 10
9.4997601513000518
 20
152.48938068176321
 30
0.0
 40
2.999999999999944
 50
0.0
 51
90.0
  0
ARC
  8
DETAIL
  6
CONTINUOUS
 62
     5
 10
9.4997601513000518
 20
143.48938068176329
 30
0.0
 40
3.0
 50
270.0
 51
0.0
  0
ARC
  8
DETAIL
  6
CONTINUOUS
 62
     5
 10
-9.5002398486999482
 20
143.48938068176329
 30
0.0
 40
3.000000000000056
 50
180.0
 51
270.0
  0
ARC
  8
DETAIL
  6
CONTINUOUS
 62
     5
 10
-9.5002398486999482
 20
152.48938068176321
 30
0.0
 40
3.0
 50
90.0
 51
180.0
  0
LINE
  8
DETAIL
  6
CONTINUOUS
 62
     5
 10
12.49976015130005
 20
152.48938068176321
 30
0.0
 11
12.49976015130005
 21
143.48938068176329
 31
0.0
  0
LINE
  8
DETAIL
  6
CONTINUOUS
 62
     5
 10
-12.50023984869995
 20
152.48938068176321
 30
0.0
 11
-12.50023984869995
 21
143.48938068176329
 31
0.0
  0
LINE
  8
DETAIL
  6
CONTINUOUS
 62
     5
 10
-9.5002398486999482
 20
140.48938068176329
 30
0.0
 11
9.4997601513000518
 21
140.48938068176329
 31
0.0
  0
LINE
  8
DETAIL
  6
CONTINUOUS
 62
     5
 10
-9.5002398486999482
 20
155.48938068176321
 30
0.0
 11
9.4997601513000518
 21
155.48938068176321
 31
0.0
  0
LINE
  8
DETAIL
  6
CONTINUOUS
 62
     5
 10
-3.0002398486999482
 20
99.991621110687774
 30
0.0
 11
-3.0002398486999482
 21
120.48938068176329
 31
0.0
  0
LINE
  8
DETAIL
  6
CONTINUOUS
 62
     5
 10
2.9997601513000518
 20
99.991621110687774
 30
0.0
 11
2.9997601513000518
 21
120.48938068176329
 31
0.0
  0
LINE
  8
DETAIL
  6
CONTINUOUS
 62
     5
 10
-0.0002398486999482
 20
123.98938068176329
 30
0.0
 11
-0.0002398486999482
 21
122.48938068176329
 31
0.0
  0
LINE
  8
DETAIL
  6
CONTINUOUS
 62
     5
 10
-0.0002398486999482
 20
122.48938068176329
 30
0.0
 11
4.8747601513000518
 21
122.48938068176329
 31
0.0
  0
LINE
  8
DETAIL
  6
CONTINUOUS
 62
     5
 10
-0.0002398486999482
 20
123.98938068176329
 30
0.0
 11
4.9685101513000518
 21
123.98938068176329
 31
0.0
  0
LINE
  8
DETAIL
  6
CONTINUOUS
 62
     5
 10
-5.0627398486999482
 20
125.48938068176329
 30
0.0
 11
-0.0002398486999482
 21
125.48938068176329
 31
0.0
  0
ARC
  8
DETAIL
  6
CONTINUOUS
 62
     5
 10
-4.2805142380161669
 20
120.98938068176329
 30
0.0
 40
0.500000000000002
 50
183.57633437500459
 51
270.0
  0
ARC
  8
DETAIL
  6
CONTINUOUS
 62
     5
 10
4.2800345406162723
 20
120.98938068176329
 30
0.0
 40
0.5
 50
270.0
 51
356.42366562499529
  0
LINE
  8
DETAIL
  6
CONTINUOUS
 62
     5
 10
4.2800345406162723
 20
120.48938068176329
 30
0.0
 11
-4.2805142380161669
 21
120.48938068176329
 31
0.0
  0
ARC
  8
DETAIL
  6
CONTINUOUS
 62
     5
 10
-12.2547801886609
 20
-12.063864165879369
 30
0.0
 40
14.51743146821237
 50
311.70958787734008
 51
358.32896359252038
  0
ARC
  8
DETAIL
  6
CONTINUOUS
 62
     5
 10
-47.108791977179287
 20
18.768226496158569
 30
0.0
 40
61.307738775941971
 50
307.13743910248093
 51
313.50491124320979
  0
ARC
  8
DETAIL
  6
CONTINUOUS
 62
     5
 10
-43.835580545398557
 20
31.54944910875421
 30
0.0
 40
70.467521781793081
 50
291.86190751292708
 51
296.49055955899462
  0
ARC
  8
DETAIL
  6
CONTINUOUS
 62
     5
 10
-22.37201652454166
 20
-30.309479309171291
 30
0.0
 40
4.9218786130195804
 50
236.4029651207189
 51
300.10166681345032
  0
ARC
  8
DETAIL
  6
CONTINUOUS
 62
     5
 10
34.980567072460083
 20
33.905510278993503
 30
0.0
 40
91.159022153516716
 50
222.15780653682131
 51
226.81600059746151
  0
ARC
  8
DETAIL
  6
CONTINUOUS
 62
     5
 10
44.183450607250393
 20
21.537826475134501
 30
0.0
 40
91.358597072457783
 50
202.70455743561439
 51
210.039985203198
  0
ARC
  8
DETAIL
  6
CONTINUOUS
 62
     5
 10
-38.528219636800827
 20
8.1556664522638371
 30
0.0
 40
3.7874140898294049
 50
26.579021894252769
 51
114.4450790808194
  0
ARC
  8
DETAIL
  6
CONTINUOUS
 62
     5
 10
-2.0686484468518529
 20
30.95715950510434
 30
0.0
 40
39.580352143832407
 50
219.5325116555791
 51
230.20169212944691
  0
ARC
  8
DETAIL
  6
CONTINUOUS
 62
     5
 10
-9.5525701205518754
 20
16.989286546503681
 30
0.0
 40
23.45889311242728
 50
228.50447600979271
 51
243.81712335735369
  0
ARC
  8
DETAIL
  6
CONTINUOUS
 62
     5
 10
-11.739510445185831
 20
15.294337749064921
 30
0.0
 40
20.12689704625851
 50
253.08486497764139
 51
267.86312102225628
  0
ARC
  8
DETAIL
  6
CONTINUOUS
 62
     5
 10
157.148710244222
 20
141.94497229342639
 30
0.0
 40
217.8783923026908
 50
216.67594472795571
 51
218.9042453252483
  0
ARC
  8
DETAIL
  6
CONTINUOUS
 62
     5
 10
11.79009642093126
 20
26.138165487839029
 30
0.0
 40
32.866945028344468
 50
164.64433015906329
 51
195.35566984093691
  0
ARC
  8
DETAIL
  6
CONTINUOUS
 62
     5
 10
14.424318866336881
 20
-40.335436173632068
 30
0.0
 40
85.354864781013902
 50
108.3191280920723
 51
112.0328394365104
  0
ARC
  8
DETAIL
  6
CONTINUOUS
 62
     5
 10
1.7689167194344011
 20
-11.825373766577821
 30
0.0
 40
54.436296225586041
 50
97.040636218233587
 51
102.588715881095
  0
ARC
  8
DETAIL
  6
CONTINUOUS
 62
     5
 10
-0.813219485742593
 20
-42.80451955434809
 30
0.0
 40
85.209676114240267
 50
87.706944021638265
 51
91.165812885394956
  0
ARC
  8
DETAIL
  6
CONTINUOUS
 62
     5
 10
-3.6587815565233091
 20
-18.19469659075607
 30
0.0
 40
60.918442824860023
 50
76.950580469281377
 51
81.919603958469267
  0
ARC
  8
DETAIL
  6
CONTINUOUS
 62
     5
 10
-24.874056316347041
 20
-64.867874083347289
 30
0.0
 40
111.7722236330131
 50
67.668151614052789
 51
70.51751635468419
  0
ARC
  8
DETAIL
  6
CONTINUOUS
 62
     5
 10
-63.43219674753766
 20
-99.185619845006443
 30
0.0
 40
159.98409774779191
 50
56.402395858575318
 51
58.607129705314357
  0
ARC
  8
DETAIL
  6
CONTINUOUS
 62
     5
 10
25.797214604839951
 20
28.831999193621328
 30
0.0
 40
3.7661908875080372
 50
295.25525061404261
 51
64.744749385957348
  0
ARC
  8
DETAIL
  6
CONTINUOUS
 62
     5
 10
35.041124273966368
 20
-307.73767990511948
 30
0.0
 40
333.40975671157747
 50
91.709289102124586
 51
92.602166722301604
  0
ARC
  8
DETAIL
  6
CONTINUOUS
 62
     5
 10
24.967726084585021
 20
3.443223609669225
 30
0.0
 40
22.578109910395799
 50
109.0561933692524
 51
123.81086149522901
  0
ARC
  8
DETAIL
  6
CONTINUOUS
 62
     5
 10
14.91003745436501
 20
10.885758416690379
 30
0.0
 40
11.563088547472461
 50
114.60254511981751
 51
149.92123861324751
  0
ARC
  8
DETAIL
  6
CONTINUOUS
 62
     5
 10
28.184571986535161
 20
-92.802817044694123
 30
0.0
 40
102.68619865745259
 50
95.918577756627116
 51
98.840074076800917
  0
ARC
  8
DETAIL
  6
CONTINUOUS
 62
     5
 10
-58.058442131622542
 20
-514.13021462224674
 30
0.0
 40
529.21271494945279
 50
80.959723556786201
 51
81.528472962980672
  0
ARC
  8
DETAIL
  6
CONTINUOUS
 62
     5
 10
-17.324756486759501
 20
-100.58789501719249
 30
0.0
 40
117.28096233451799
 50
64.808082224759815
 51
67.58070022024306
  0
ARC
  8
DETAIL
  6
CONTINUOUS
 62
     5
 10
-79.512476196415477
 20
-139.73191448828371
 30
0.0
 40
183.81595210764621
 50
49.405799429208862
 51
51.504611358976497
  0
ARC
  8
DETAIL
  6
CONTINUOUS
 62
     5
 10
-51.324063751072693
 20
26.9934331804142
 30
0.0
 40
100.237507569085
 50
329.34333483017411
 51
335.78814395254022
  0
ARC
  8
DETAIL
  6
CONTINUOUS
 62
     5
 10
-118.3326389848347
 20
118.2841923499503
 30
0.0
 40
209.56583403747081
 50
314.06085987622748
 51
316.07076043750368
  0
ARC
  8
DETAIL
  6
CONTINUOUS
 62
     5
 10
-29.982140796496761
 20
48.340868657240136
 30
0.0
 40
99.169178501655196
 50
300.20142521358741
 51
303.73803248071772
  0
ARC
  8
DETAIL
  6
CONTINUOUS
 62
     5
 10
-24.784075755026041
 20
66.787648722144695
 30
0.0
 40
113.4902472549165
 50
289.12783831718309
 51
291.927033707882
  0
ARC
  8
DETAIL
  6
CONTINUOUS
 62
     5
 10
11.696222452173171
 20
-37.036592427006077
 30
0.0
 40
3.868663709771103
 50
114.43222972571679
 51
245.56777027428319
  0
ARC
  8
DETAIL
  6
CONTINUOUS
 62
     5
 10
-14.188556082832751
 20
-22.675893687041729
 30
0.0
 40
27.222441093966442
 50
348.24129295604041
 51
1.782327046951363
  0
ARC
  8
DETAIL
  6
CONTINUOUS
 62
     5
 10
3.480144363170552
 20
-18.42801568141854
 30
0.0
 40
10.12870178436477
 50
340.37895666947469
 51
28.23036850322292
  0
CIRCLE
  8
FIX
  6
CONTINUOUS
 62
    11
 10
-0.0002398486999482
 20
79.991316454599968
 30
0.0
 40
7.0441691683918863
  0
LINE
  8
NOTE
  6
CONTINUOUS
 62
     4
 10
-0.0002398486999482
 20
53.969498732157923
 30
0.0
 11
-0.0002398486999482
 21
106.0131341770421
 31
0.0
  0
LINE
  8
NOTE
  6
CONTINUOUS
 62
     4
 10
-26.022057571142
 20
79.991316454599968
 30
0.0
 11
26.0215778737421
 21
79.991316454600025
 31
0.0
  0
LINE
  8
NOTE
  6
CONTINUOUS
 62
     4
 10
-3.893851476143511
 20
84.833189202477683
 30
0.0
 11
0.0026376904787924
 21
79.99562044695648
 31
0.0
  0
LINE
  8
NOTE
  6
CONTINUOUS
 62
     4
 10
0.0026376904787924
 20
79.99562044695648
 30
0.0
 11
-5.7906086685226796
 21
82.23682456838678
 31
0.0
  0
LINE
  8
NOTE
  6
CONTINUOUS
 62
     4
 10
0.0026376904787924
 20
79.99562044695648
 30
0.0
 11
-9.6870978351449821
 21
87.074393323908026
 31
0.0
  0
LINE
  8
NOTE
  6
CONTINUOUS
 62
     4
 10
-9.6870978351449519
 20
87.074393323908026
 30
0.0
 11
-112.8406805290612
 21
162.4406703282057
 31
0.0
  0
LINE
  8
NOTE
  6
CONTINUOUS
 62
     4
 10
-112.8406805290612
 20
162.4406703282057
 30
0.0
 11
-209.8692519576326
 21
162.4406703282057
 31
0.0
  0
TEXT
  8
NOTE
  6
CONTINUOUS
 62
     4
 10
-209.8692519576326
 20
186.14207943785601
 30
0.0
 40
64.0
  1
EL
 41
0.9
 72
     2
 11
-124.8406805290612
 21
186.14207943785601
 31
0.0
  0
ENDSEC
  0
EOF
