  0
SECTION
  2
HEADER
  9
$ACADVER
  1
AC1009
  9
$DWGCODEPAGE
  3
dos932
  9
$INSBASE
 10
0.0
 20
0.0
 30
0.0
  9
$EXTMIN
 10
-261.53148841805051
 20
-109.2854010143142
 30
0.0
  9
$EXTMAX
 10
634.05062570929135
 20
478.19113212402931
 30
0.0
  9
$LIMMIN
 10
-2970.0
 20
-2100.0
  9
$LIMMAX
 10
2970.0
 20
2100.0
  9
$ORTHOMODE
 70
     1
  9
$REGENMODE
 70
     1
  9
$FILLMODE
 70
     1
  9
$QTEXTMODE
 70
     0
  9
$MIRRTEXT
 70
     0
  9
$LTSCALE
 40
20.0
  9
$ATTMODE
 70
     1
  9
$TEXTSIZE
 40
64.0
  9
$TRACEWID
 40
0.05
  9
$TEXTSTYLE
  7
STANDARD
  9
$CLAYER
  8
SIZE
  9
$CELTYPE
  6
CONTINUOUS
  9
$CECOLOR
 62
     7
  9
$DIMSCALE
 40
1.0
  9
$DIMASZ
 40
12.0
  9
$DIMEXO
 40
20.0
  9
$DIMDLI
 40
200.0
  9
$DIMRND
 40
0.0
  9
$DIMDLE
 40
0.0
  9
$DIMEXE
 40
20.0
  9
$DIMTP
 40
0.0
  9
$DIMTM
 40
0.0
  9
$DIMTXT
 40
64.0
  9
$DIMCEN
 40
0.09
  9
$DIMTSZ
 40
0.0
  9
$DIMTOL
 70
     0
  9
$DIMLIM
 70
     0
  9
$DIMTIH
 70
     0
  9
$DIMTOH
 70
     0
  9
$DIMSE1
 70
     0
  9
$DIMSE2
 70
     0
  9
$DIMTAD
 70
     1
  9
$DIMZIN
 70
     8
  9
$DIMBLK
  1

  9
$DIMASO
 70
     1
  9
$DIMSHO
 70
     0
  9
$DIMPOST
  1

  9
$DIMAPOST
  1

  9
$DIMALT
 70
     0
  9
$DIMALTD
 70
     2
  9
$DIMALTF
 40
25.399999999999999
  9
$DIMLFAC
 40
1.0
  9
$DIMTOFL
 70
     1
  9
$DIMTVP
 40
0.0
  9
$DIMTIX
 70
     1
  9
$DIMSOXD
 70
     0
  9
$DIMSAH
 70
     0
  9
$DIMBLK1
  1

  9
$DIMBLK2
  1

  9
$DIMSTYLE
  2
STANDARD
  9
$DIMCLRD
 70
     7
  9
$DIMCLRE
 70
     7
  9
$DIMCLRT
 70
     7
  9
$DIMTFAC
 40
1.0
  9
$DIMGAP
 40
25.0
  9
$LUNITS
 70
     2
  9
$LUPREC
 70
     4
  9
$SKETCHINC
 40
0.1
  9
$FILLETRAD
 40
3.0
  9
$AUNITS
 70
     1
  9
$AUPREC
 70
     3
  9
$MENU
  1
ACAD
  9
$ELEVATION
 40
0.0
  9
$PELEVATION
 40
0.0
  9
$THICKNESS
 40
0.0
  9
$LIMCHECK
 70
     0
  9
$CHAMFERA
 40
0.0
  9
$CHAMFERB
 40
0.0
  9
$SKPOLY
 70
     0
  9
$TDCREATE
 40
2453019.623009259
  9
$TDUPDATE
 40
2459356.64378897
  9
$TDINDWG
 40
1.7500275579
  9
$TDUSRTIMER
 40
1.7500275579
  9
$USRTIMER
 70
     1
  9
$ANGBASE
 50
0.0
  9
$ANGDIR
 70
     0
  9
$PDMODE
 70
     3
  9
$PDSIZE
 40
-2.0
  9
$PLINEWID
 40
0.0
  9
$SPLFRAME
 70
     0
  9
$SPLINETYPE
 70
     6
  9
$SPLINESEGS
 70
     8
  9
$SURFTAB1
 70
     6
  9
$SURFTAB2
 70
     6
  9
$SURFTYPE
 70
     6
  9
$SURFU
 70
     6
  9
$SURFV
 70
     6
  9
$UCSNAME
  2

  9
$UCSORG
 10
0.0
 20
0.0
 30
0.0
  9
$UCSXDIR
 10
1.0
 20
0.0
 30
0.0
  9
$UCSYDIR
 10
0.0
 20
1.0
 30
0.0
  9
$PUCSNAME
  2

  9
$PUCSORG
 10
0.0
 20
0.0
 30
0.0
  9
$PUCSXDIR
 10
1.0
 20
0.0
 30
0.0
  9
$PUCSYDIR
 10
0.0
 20
1.0
 30
0.0
  9
$USERI1
 70
     0
  9
$USERI2
 70
     0
  9
$USERI3
 70
     0
  9
$USERI4
 70
     0
  9
$USERI5
 70
     0
  9
$USERR1
 40
20.0
  9
$USERR2
 40
0.0
  9
$USERR3
 40
0.0
  9
$USERR4
 40
0.0
  9
$USERR5
 40
0.0
  9
$WORLDVIEW
 70
     1
  9
$SHADEDGE
 70
     3
  9
$SHADEDIF
 70
    70
  9
$TILEMODE
 70
     1
  9
$MAXACTVP
 70
    48
  9
$PINSBASE
 10
0.0
 20
0.0
 30
0.0
  9
$PLIMCHECK
 70
     0
  9
$PEXTMIN
 10
-100000000000000000000.0
 20
-100000000000000000000.0
 30
-100000000000000000000.0
  9
$PEXTMAX
 10
100000000000000000000.0
 20
100000000000000000000.0
 30
100000000000000000000.0
  9
$PLIMMIN
 10
0.0
 20
0.0
  9
$PLIMMAX
 10
12.0
 20
9.0
  9
$UNITMODE
 70
     0
  9
$VISRETAIN
 70
     0
  9
$PLINEGEN
 70
     0
  9
$PSLTSCALE
 70
     0
  9
$TREEDEPTH
 70
  3020
  9
$ATTDIA
 70
     0
  9
$ATTREQ
 70
     1
  9
$BLIPMODE
 70
     1
  9
$COORDS
 70
     1
  9
$DRAGMODE
 70
     2
  9
$OSMODE
 70
     0
  9
$HANDLING
 70
     0
  9
$HANDSEED
  5
252
  0
ENDSEC
  0
SECTION
  2
TABLES
  0
TABLE
  2
LTYPE
 70
     2
  0
LTYPE
  2
CONTINUOUS
 70
     0
  3
実線
 72
    65
 73
     0
 40
0.0
  0
LTYPE
  2
DASHDOT
 70
     0
  3
____ _ ____ _ ____ _ ____ _ ____ _ ____ _ ____
 72
    65
 73
     4
 40
5.5
 49
4.0
 49
-0.6
 49
0.3
 49
-0.6
  0
ENDTAB
  0
TABLE
  2
LAYER
 70
    12
  0
LAYER
  2
SIZE
 70
     0
 62
    30
  6
CONTINUOUS
  0
LAYER
  2
BASIS
 70
     0
 62
     6
  6
DASHDOT
  0
LAYER
  2
OUTLINE
 70
     0
 62
     3
  6
CONTINUOUS
  0
LAYER
  2
DETAIL
 70
     0
 62
     5
  6
CONTINUOUS
  0
LAYER
  2
ARRANGE
 70
     0
 62
     1
  6
CONTINUOUS
  0
LAYER
  2
ETC
 70
     0
 62
    61
  6
CONTINUOUS
  0
LAYER
  2
FIX
 70
     0
 62
    11
  6
CONTINUOUS
  0
LAYER
  2
NOTE
 70
     0
 62
     4
  6
CONTINUOUS
  0
LAYER
  2
0
 70
    64
 62
     7
  6
CONTINUOUS
  0
LAYER
  2
DEFPOINTS
 70
    64
 62
     7
  6
CONTINUOUS
  0
LAYER
  2
SERVICESPACE
 70
    64
 62
     2
  6
DASHDOT
  0
LAYER
  2
SYMBOLLINE
 70
    64
 62
    15
  6
CONTINUOUS
  0
ENDTAB
  0
TABLE
  2
STYLE
 70
     1
  0
STYLE
  2
STANDARD
 70
     0
 40
64.0
 41
0.9
 50
0.0
 71
     0
 42
64.0
  3
SIMPLEX.shx
  4
BIGFONT.shx
  0
ENDTAB
  0
TABLE
  2
APPID
 70
    20
  0
APPID
  2
ACAD
 70
     0
  0
APPID
  2
ACADANNOTATIVE
 70
     0
  0
APPID
  2
AUTOCAD_POSTSCRIPT_FIGURE
 70
     0
  0
APPID
  2
ACAD_EXEMPT_FROM_CAD_STANDARDS
 70
     0
  0
APPID
  2
ACAD_PSEXT
 70
     0
  0
APPID
  2
ACAUTHENVIRON
 70
     0
  0
APPID
  2
GENIUS_GENOENT_13
 70
     0
  0
APPID
  2
GENIUS_GENCFG_13
 70
     0
  0
APPID
  2
GENIUS_GENCFG0_13
 70
     0
  0
APPID
  2
GENIUS_GENCFG1_13
 70
     0
  0
APPID
  2
GENIUS_GENCFG2_13
 70
     0
  0
APPID
  2
GENIUS_GENCFG3_13
 70
     0
  0
APPID
  2
GENIUS_GENCFG4_13
 70
     0
  0
APPID
  2
GENIUS_GEVCFG0_13
 70
     0
  0
APPID
  2
CONTENTBLOCKICON
 70
     0
  0
APPID
  2
CONTENTBLOCKDESCRIPTION
 70
     0
  0
APPID
  2
ACAD_NAV_VCDISPLAY
 70
     0
  0
APPID
  2
ACAD_MLEADERVER
 70
     0
  0
APPID
  2
ACDBDYNAMICBLOCKTRUENAME
 70
     0
  0
APPID
  2
ACDBDYNAMICBLOCKGUID
 70
     0
  0
ENDTAB
  0
TABLE
  2
DIMSTYLE
 70
     1
  0
DIMSTYLE
  2
STANDARD
 70
     0
  3

  4

  5

  6

  7

 40
1.0
 41
12.0
 42
20.0
 43
200.0
 44
20.0
 45
0.0
 46
0.0
 47
0.0
 48
0.0
140
64.0
141
0.09
142
0.0
143
25.399999999999999
144
1.0
145
0.0
146
1.0
147
25.0
 71
     0
 72
     0
 73
     0
 74
     0
 75
     0
 76
     0
 77
     1
 78
     8
170
     0
171
     2
172
     1
173
     0
174
     1
175
     0
176
     7
177
     7
178
     7
  0
ENDTAB
  0
TABLE
  2
VIEW
 70
     1
  0
VIEW
  2
ALL
 70
     0
 40
4282.6198079999986
 10
0.0
 20
41.309904000000003
 41
5940.0
 11
0.0
 21
0.0
 31
1.0
 12
0.0
 22
0.0
 32
0.0
 42
50.0
 43
0.0
 44
0.0
 50
0.0
 71
     0
  0
ENDTAB
  0
TABLE
  2
UCS
 70
     0
  0
ENDTAB
  0
TABLE
  2
VPORT
 70
     1
  0
VPORT
  2
*ACTIVE
 70
     0
 10
0.0
 20
0.0
 11
1.0
 21
1.0
 12
186.25947449619241
 22
217.0610498013888
 13
0.0
 23
0.0
 14
1.0
 24
1.0
 15
0.0
 25
0.0
 16
0.0
 26
0.0
 36
1.0
 17
0.0
 27
0.0
 37
0.0
 40
527.16772747478558
 41
1.767337807606264
 42
50.0
 43
0.0
 44
0.0
 50
0.0
 51
0.0
 71
     0
 72
  1000
 73
     1
 74
     3
 75
     0
 76
     0
 77
     0
 78
     0
  0
ENDTAB
  0
ENDSEC
  0
SECTION
  2
BLOCKS
  0
ENDSEC
  0
SECTION
  2
ENTITIES
  0
CIRCLE
  8
ARRANGE
  6
CONTINUOUS
 62
     1
 10
0.0
 20
-0.0000000000000071
 30
0.0
 40
40.0
  0
POINT
  8
ARRANGE
  6
CONTINUOUS
 62
     1
 10
0.0
 20
-0.0000000000000071
 30
0.0
  0
LINE
  8
BASIS
  6
DASHDOT
 62
     6
 10
0.0
 20
-109.2854010143142
 30
0.0
 11
0.0
 21
126.9384051865775
 31
0.0
  0
LINE
  8
BASIS
  6
DASHDOT
 62
     6
 10
95.967552833830439
 20
-0.0000000000000071
 30
0.0
 11
-95.967646960021909
 21
0.0000000000000071
 31
0.0
  0
LINE
  8
SIZE
  6
CONTINUOUS
 62
    30
 10
79.999498601408263
 20
98.999786028261724
 30
0.0
 11
79.999498601408263
 21
225.21909118443881
 31
0.0
  0
LINE
  8
SIZE
  6
CONTINUOUS
 62
    30
 10
-80.000526793409207
 20
98.999786028261724
 30
0.0
 11
-80.000526793409207
 21
225.21909118443881
 31
0.0
  0
LINE
  8
SIZE
  6
CONTINUOUS
 62
    30
 10
91.999498601408277
 20
205.21909118443881
 30
0.0
 11
103.99949860140831
 21
205.21909118443881
 31
0.0
  0
LINE
  8
SIZE
  6
CONTINUOUS
 62
    30
 10
-92.000526793409193
 20
205.21909118443881
 30
0.0
 11
-104.00052679340919
 21
205.21909118443881
 31
0.0
  0
LINE
  8
SIZE
  6
CONTINUOUS
 62
    30
 10
79.999498601408263
 20
205.21909118443881
 30
0.0
 11
-80.000526793409207
 21
205.21909118443881
 31
0.0
  0
CIRCLE
  8
SIZE
  6
CONTINUOUS
 62
    30
 10
79.999498601408263
 20
205.21909118443881
 30
0.0
 40
6.0
  0
LINE
  8
SIZE
  6
CONTINUOUS
 62
    30
 10
79.999498601408263
 20
205.21909118443881
 30
0.0
 11
91.999498601408277
 21
205.21909118443881
 31
0.0
  0
CIRCLE
  8
SIZE
  6
CONTINUOUS
 62
    30
 10
-80.000526793409207
 20
205.21909118443881
 30
0.0
 40
6.0
  0
LINE
  8
SIZE
  6
CONTINUOUS
 62
    30
 10
-80.000526793409207
 20
205.21909118443881
 30
0.0
 11
-92.000526793409193
 21
205.21909118443881
 31
0.0
  0
TEXT
  8
SIZE
  6
CONTINUOUS
 62
    30
 10
-105.051942667429
 20
230.21909118443881
 30
0.0
 40
64.0
  1
□160
 41
0.9
 72
     1
 11
-0.0005140960004724
 21
230.21909118443881
 31
0.0
  0
LINE
  8
SIZE
  6
CONTINUOUS
 62
    30
 10
32.501109443129003
 20
-84.809464671383623
 30
0.0
 11
249.12121779692089
 21
-84.809464671383708
 31
0.0
  0
LINE
  8
SIZE
  6
CONTINUOUS
 62
    30
 10
98.999387908297763
 20
-80.000128673445346
 30
0.0
 11
249.12121779692089
 21
-80.000128673445374
 31
0.0
  0
LINE
  8
SIZE
  6
CONTINUOUS
 62
    30
 10
229.12121779692089
 20
-96.80946467138368
 30
0.0
 11
229.12121779692089
 21
-108.80946467138369
 31
0.0
  0
LINE
  8
SIZE
  6
CONTINUOUS
 62
    30
 10
229.12121779692089
 20
-68.000128673445403
 30
0.0
 11
229.121217796921
 21
32.399871326554653
 31
0.0
  0
LINE
  8
SIZE
  6
CONTINUOUS
 62
    30
 10
229.12121779692089
 20
-84.809464671383708
 30
0.0
 11
229.12121779692089
 21
-80.000128673445374
 31
0.0
  0
CIRCLE
  8
SIZE
  6
CONTINUOUS
 62
    30
 10
229.12121779692089
 20
-84.809464671383708
 30
0.0
 40
6.0
  0
LINE
  8
SIZE
  6
CONTINUOUS
 62
    30
 10
229.12121779692089
 20
-84.809464671383708
 30
0.0
 11
229.12121779692089
 21
-96.80946467138368
 31
0.0
  0
CIRCLE
  8
SIZE
  6
CONTINUOUS
 62
    30
 10
229.12121779692089
 20
-80.000128673445374
 30
0.0
 40
6.0
  0
LINE
  8
SIZE
  6
CONTINUOUS
 62
    30
 10
229.12121779692089
 20
-80.000128673445374
 30
0.0
 11
229.12121779692089
 21
-68.000128673445403
 31
0.0
  0
TEXT
  8
SIZE
  6
CONTINUOUS
 62
    30
 10
204.121217796921
 20
-31.0001286734453
 30
0.0
 40
64.0
  1
5
 50
90.0
 41
0.9
 72
     1
 11
204.121217796921
 21
-11.800128673445309
 31
0.0
  0
TEXT
  8
ETC
  6
CONTINUOUS
 62
    61
 10
181.47919713786311
 20
414.19113212402931
 30
0.0
 40
64.0
  1
V-08P8_2
 41
0.9
  0
TEXT
  8
ETC
  6
CONTINUOUS
 62
    61
 10
177.29320313786269
 20
296.23582210919812
 30
0.0
 40
64.0
  1
換気扇
 41
0.9
  0
TEXT
  8
ETC
  6
CONTINUOUS
 62
    61
 10
227.99460138641871
 20
188.08704922297281
 30
0.0
 40
40.0
  1
V-08P8
 41
0.9
  0
LINE
  8
DETAIL
  6
CONTINUOUS
 62
     5
 10
2.5958045864999799
 20
-62.523542576899978
 30
0.0
 11
2.5958045864999799
 21
62.523935183900043
 31
0.0
  0
LINE
  8
DETAIL
  6
CONTINUOUS
 62
     5
 10
4.9037918684999804
 20
62.523935183900043
 30
0.0
 11
4.9037918684999804
 21
-62.523542576899978
 31
0.0
  0
LINE
  8
DETAIL
  6
CONTINUOUS
 62
     5
 10
10.09580458649998
 20
-62.523542576899978
 30
0.0
 11
10.09580458649998
 21
62.523935183900043
 31
0.0
  0
LINE
  8
DETAIL
  6
CONTINUOUS
 62
     5
 10
12.40379186849998
 20
62.523935183900043
 30
0.0
 11
12.40379186849998
 21
-62.523542576899978
 31
0.0
  0
LINE
  8
DETAIL
  6
CONTINUOUS
 62
     5
 10
17.59580458649998
 20
-62.523542576899978
 30
0.0
 11
17.59580458649998
 21
62.523935183900043
 31
0.0
  0
LINE
  8
DETAIL
  6
CONTINUOUS
 62
     5
 10
19.90379186849998
 20
62.523935183900043
 30
0.0
 11
19.90379186849998
 21
-62.523542576899978
 31
0.0
  0
LINE
  8
DETAIL
  6
CONTINUOUS
 62
     5
 10
25.09580458649998
 20
-62.523542576899978
 30
0.0
 11
25.09580458649998
 21
62.523935183900043
 31
0.0
  0
LINE
  8
DETAIL
  6
CONTINUOUS
 62
     5
 10
27.40379186849998
 20
62.523935183900043
 30
0.0
 11
27.40379186849998
 21
-62.523542576899978
 31
0.0
  0
LINE
  8
DETAIL
  6
CONTINUOUS
 62
     5
 10
32.59580458649998
 20
-62.523542576899978
 30
0.0
 11
32.59580458649998
 21
62.523935183900043
 31
0.0
  0
LINE
  8
DETAIL
  6
CONTINUOUS
 62
     5
 10
34.90379186849998
 20
62.523935183900043
 30
0.0
 11
34.90379186849998
 21
-62.523542576899978
 31
0.0
  0
LINE
  8
DETAIL
  6
CONTINUOUS
 62
     5
 10
40.09580458649998
 20
-62.523542576899978
 30
0.0
 11
40.09580458649998
 21
62.523935183900043
 31
0.0
  0
LINE
  8
DETAIL
  6
CONTINUOUS
 62
     5
 10
42.403791868499972
 20
62.523935183900043
 30
0.0
 11
42.403791868499972
 21
-62.523542576899978
 31
0.0
  0
LINE
  8
DETAIL
  6
CONTINUOUS
 62
     5
 10
47.59580458649998
 20
-62.523542576899978
 30
0.0
 11
47.59580458649998
 21
62.523935183900043
 31
0.0
  0
LINE
  8
DETAIL
  6
CONTINUOUS
 62
     5
 10
49.903791868500093
 20
62.523935183900043
 30
0.0
 11
49.903791868500093
 21
-62.523542576899978
 31
0.0
  0
LINE
  8
DETAIL
  6
CONTINUOUS
 62
     5
 10
55.09580458649998
 20
-62.523542576899978
 30
0.0
 11
55.09580458649998
 21
62.523935183900043
 31
0.0
  0
LINE
  8
DETAIL
  6
CONTINUOUS
 62
     5
 10
57.403791868500093
 20
62.523935183900043
 30
0.0
 11
57.403791868500093
 21
-62.523542576899978
 31
0.0
  0
LINE
  8
DETAIL
  6
CONTINUOUS
 62
     5
 10
62.572642577800018
 20
-62.514818782799942
 30
0.0
 11
62.572642577800018
 21
62.515211389800037
 31
0.0
  0
ARC
  8
DETAIL
  6
CONTINUOUS
 62
     5
 10
78.990918378599986
 20
-78.990999999999957
 30
0.0
 40
1.0
 50
270.0
 51
0.0
  0
LINE
  8
DETAIL
  6
CONTINUOUS
 62
     5
 10
79.990918378599986
 20
78.991316454599982
 30
0.0
 11
79.990918378599986
 21
-78.990999999999957
 31
0.0
  0
ARC
  8
DETAIL
  6
CONTINUOUS
 62
     5
 10
78.990918378599986
 20
78.991316454599982
 30
0.0
 40
1.0
 50
0.0
 51
90.0
  0
LINE
  8
DETAIL
  6
CONTINUOUS
 62
     5
 10
-78.991398075999982
 20
79.991316454599982
 30
0.0
 11
78.990918378599986
 21
79.991316454599982
 31
0.0
  0
ARC
  8
DETAIL
  6
CONTINUOUS
 62
     5
 10
-78.991398075999982
 20
78.991316454599982
 30
0.0
 40
1.0
 50
90.0
 51
180.0
  0
LINE
  8
DETAIL
  6
CONTINUOUS
 62
     5
 10
-79.991398075999982
 20
-78.990999999999957
 30
0.0
 11
-79.991398075999982
 21
78.991316454599982
 31
0.0
  0
ARC
  8
DETAIL
  6
CONTINUOUS
 62
     5
 10
-78.991398075999982
 20
-78.990999999999957
 30
0.0
 40
1.0
 50
180.0
 51
270.0
  0
LINE
  8
DETAIL
  6
CONTINUOUS
 62
     5
 10
78.990918378599986
 20
-79.990999999999957
 30
0.0
 11
-78.991398075999982
 21
-79.990999999999957
 31
0.0
  0
ARC
  8
DETAIL
  6
CONTINUOUS
 62
     5
 10
12.5
 20
-83.799803696499964
 30
0.0
 40
1.0
 50
270.0
 51
0.0
  0
LINE
  8
DETAIL
  6
CONTINUOUS
 62
     5
 10
12.5
 20
-84.799803696499964
 30
0.0
 11
-12.5
 21
-84.799803696499964
 31
0.0
  0
ARC
  8
DETAIL
  6
CONTINUOUS
 62
     5
 10
-12.5
 20
-83.799803696499964
 30
0.0
 40
1.0
 50
180.0
 51
270.0
  0
LINE
  8
DETAIL
  6
CONTINUOUS
 62
     5
 10
13.5
 20
-79.990999999999957
 30
0.0
 11
13.5
 21
-83.799803696499964
 31
0.0
  0
LINE
  8
DETAIL
  6
CONTINUOUS
 62
     5
 10
-13.5
 20
-79.990999999999957
 30
0.0
 11
-13.5
 21
-83.799803696499964
 31
0.0
  0
LINE
  8
DETAIL
  6
CONTINUOUS
 62
     5
 10
2.5958045864999799
 20
-61.999803696499967
 30
0.0
 11
-2.5779201113999761
 21
-61.999803696499967
 31
0.0
  0
LINE
  8
DETAIL
  6
CONTINUOUS
 62
     5
 10
10.09580458649998
 20
-61.999803696499953
 30
0.0
 11
4.9037918684999804
 21
-61.999803696499967
 31
0.0
  0
LINE
  8
DETAIL
  6
CONTINUOUS
 62
     5
 10
17.59580458649998
 20
-61.999803696499953
 30
0.0
 11
12.40379186849998
 21
-61.999803696499967
 31
0.0
  0
LINE
  8
DETAIL
  6
CONTINUOUS
 62
     5
 10
25.09580458649998
 20
-61.999803696499953
 30
0.0
 11
19.90379186849998
 21
-61.999803696499967
 31
0.0
  0
LINE
  8
DETAIL
  6
CONTINUOUS
 62
     5
 10
32.59580458649998
 20
-61.999803696499953
 30
0.0
 11
27.40379186849998
 21
-61.999803696499967
 31
0.0
  0
LINE
  8
DETAIL
  6
CONTINUOUS
 62
     5
 10
40.09580458649998
 20
-61.999803696499953
 30
0.0
 11
34.90379186849998
 21
-61.999803696499967
 31
0.0
  0
LINE
  8
DETAIL
  6
CONTINUOUS
 62
     5
 10
47.59580458649998
 20
-61.999803696499953
 30
0.0
 11
42.403791868499972
 21
-61.999803696499967
 31
0.0
  0
LINE
  8
DETAIL
  6
CONTINUOUS
 62
     5
 10
55.09580458649998
 20
-61.999803696499953
 30
0.0
 11
49.903791868500093
 21
-61.999803696499967
 31
0.0
  0
LINE
  8
DETAIL
  6
CONTINUOUS
 62
     5
 10
62.572642577800018
 20
-61.999803696499967
 30
0.0
 11
57.403791868500093
 21
-61.999803696499967
 31
0.0
  0
LINE
  8
DETAIL
  6
CONTINUOUS
 62
     5
 10
57.403791868500093
 20
62.00019630350004
 30
0.0
 11
62.572642577800018
 21
62.00019630350004
 31
0.0
  0
LINE
  8
DETAIL
  6
CONTINUOUS
 62
     5
 10
49.903791868500093
 20
62.00019630350004
 30
0.0
 11
55.09580458649998
 21
62.00019630350004
 31
0.0
  0
LINE
  8
DETAIL
  6
CONTINUOUS
 62
     5
 10
42.403791868499972
 20
62.00019630350004
 30
0.0
 11
47.59580458649998
 21
62.00019630350004
 31
0.0
  0
LINE
  8
DETAIL
  6
CONTINUOUS
 62
     5
 10
34.90379186849998
 20
62.00019630350004
 30
0.0
 11
40.09580458649998
 21
62.00019630350004
 31
0.0
  0
LINE
  8
DETAIL
  6
CONTINUOUS
 62
     5
 10
27.40379186849998
 20
62.00019630350004
 30
0.0
 11
32.59580458649998
 21
62.00019630350004
 31
0.0
  0
LINE
  8
DETAIL
  6
CONTINUOUS
 62
     5
 10
19.90379186849998
 20
62.00019630350004
 30
0.0
 11
25.09580458649998
 21
62.00019630350004
 31
0.0
  0
LINE
  8
DETAIL
  6
CONTINUOUS
 62
     5
 10
12.40379186849998
 20
62.00019630350004
 30
0.0
 11
17.59580458649998
 21
62.00019630350004
 31
0.0
  0
LINE
  8
DETAIL
  6
CONTINUOUS
 62
     5
 10
4.9037918684999804
 20
62.00019630350004
 30
0.0
 11
10.09580458649998
 21
62.00019630350004
 31
0.0
  0
LINE
  8
DETAIL
  6
CONTINUOUS
 62
     5
 10
-2.5779201113999761
 20
62.00019630350004
 30
0.0
 11
2.5958045864999799
 21
62.00019630350004
 31
0.0
  0
LINE
  8
DETAIL
  6
CONTINUOUS
 62
     5
 10
-10.09580458649998
 20
-61.999803696499953
 30
0.0
 11
-4.9037918684998658
 21
-61.999803696499967
 31
0.0
  0
LINE
  8
DETAIL
  6
CONTINUOUS
 62
     5
 10
-17.59580458649998
 20
-61.999803696499953
 30
0.0
 11
-12.403791868499869
 21
-61.999803696499967
 31
0.0
  0
LINE
  8
DETAIL
  6
CONTINUOUS
 62
     5
 10
-25.09580458649998
 20
-61.999803696499953
 30
0.0
 11
-19.903791868499869
 21
-61.999803696499967
 31
0.0
  0
LINE
  8
DETAIL
  6
CONTINUOUS
 62
     5
 10
-32.59580458649998
 20
-61.999803696499953
 30
0.0
 11
-27.403791868499869
 21
-61.999803696499967
 31
0.0
  0
LINE
  8
DETAIL
  6
CONTINUOUS
 62
     5
 10
-40.09580458649998
 20
-61.999803696499953
 30
0.0
 11
-34.903791868499873
 21
-61.999803696499967
 31
0.0
  0
LINE
  8
DETAIL
  6
CONTINUOUS
 62
     5
 10
-47.59580458649998
 20
-61.999803696499953
 30
0.0
 11
-42.403791868499873
 21
-61.999803696499967
 31
0.0
  0
LINE
  8
DETAIL
  6
CONTINUOUS
 62
     5
 10
-55.09580458649998
 20
-61.999803696499953
 30
0.0
 11
-49.903791868499873
 21
-61.999803696499967
 31
0.0
  0
LINE
  8
DETAIL
  6
CONTINUOUS
 62
     5
 10
-62.572642577800018
 20
-61.999803696499967
 30
0.0
 11
-57.403791868499873
 21
-61.999803696499967
 31
0.0
  0
LINE
  8
DETAIL
  6
CONTINUOUS
 62
     5
 10
-57.403791868499972
 20
62.000196303499941
 30
0.0
 11
-62.572642577800018
 21
62.000196303499941
 31
0.0
  0
LINE
  8
DETAIL
  6
CONTINUOUS
 62
     5
 10
-49.903791868499972
 20
62.000196303499941
 30
0.0
 11
-55.09580458649998
 21
62.000196303499941
 31
0.0
  0
LINE
  8
DETAIL
  6
CONTINUOUS
 62
     5
 10
-42.403791868499972
 20
62.000196303499941
 30
0.0
 11
-47.59580458649998
 21
62.000196303499941
 31
0.0
  0
LINE
  8
DETAIL
  6
CONTINUOUS
 62
     5
 10
-34.90379186849998
 20
62.00019630350004
 30
0.0
 11
-40.09580458649998
 21
62.00019630350004
 31
0.0
  0
LINE
  8
DETAIL
  6
CONTINUOUS
 62
     5
 10
-27.40379186849998
 20
62.00019630350004
 30
0.0
 11
-32.59580458649998
 21
62.00019630350004
 31
0.0
  0
LINE
  8
DETAIL
  6
CONTINUOUS
 62
     5
 10
-19.90379186849998
 20
62.00019630350004
 30
0.0
 11
-25.09580458649998
 21
62.00019630350004
 31
0.0
  0
LINE
  8
DETAIL
  6
CONTINUOUS
 62
     5
 10
-12.40379186849998
 20
62.00019630350004
 30
0.0
 11
-17.59580458649998
 21
62.00019630350004
 31
0.0
  0
LINE
  8
DETAIL
  6
CONTINUOUS
 62
     5
 10
-4.9037918684999804
 20
62.00019630350004
 30
0.0
 11
-10.09580458649998
 21
62.00019630350004
 31
0.0
  0
LINE
  8
DETAIL
  6
CONTINUOUS
 62
     5
 10
-2.5958045864999799
 20
-62.523542576899978
 30
0.0
 11
-2.5958045864999799
 21
62.523935183900043
 31
0.0
  0
LINE
  8
DETAIL
  6
CONTINUOUS
 62
     5
 10
-4.9037918684999804
 20
62.523935183900043
 30
0.0
 11
-4.9037918684998658
 21
-62.523542576899978
 31
0.0
  0
LINE
  8
DETAIL
  6
CONTINUOUS
 62
     5
 10
-10.09580458649998
 20
-62.523542576899978
 30
0.0
 11
-10.09580458649998
 21
62.523935183900043
 31
0.0
  0
LINE
  8
DETAIL
  6
CONTINUOUS
 62
     5
 10
-12.40379186849998
 20
62.523935183900043
 30
0.0
 11
-12.403791868499869
 21
-62.523542576899978
 31
0.0
  0
LINE
  8
DETAIL
  6
CONTINUOUS
 62
     5
 10
-17.59580458649998
 20
-62.523542576899978
 30
0.0
 11
-17.59580458649998
 21
62.523935183900043
 31
0.0
  0
LINE
  8
DETAIL
  6
CONTINUOUS
 62
     5
 10
-19.90379186849998
 20
62.523935183900043
 30
0.0
 11
-19.903791868499869
 21
-62.523542576899978
 31
0.0
  0
LINE
  8
DETAIL
  6
CONTINUOUS
 62
     5
 10
-25.09580458649998
 20
-62.523542576899978
 30
0.0
 11
-25.09580458649998
 21
62.523935183900043
 31
0.0
  0
LINE
  8
DETAIL
  6
CONTINUOUS
 62
     5
 10
-27.40379186849998
 20
62.523935183900043
 30
0.0
 11
-27.403791868499869
 21
-62.523542576899978
 31
0.0
  0
LINE
  8
DETAIL
  6
CONTINUOUS
 62
     5
 10
-32.59580458649998
 20
-62.523542576899978
 30
0.0
 11
-32.59580458649998
 21
62.523935183900043
 31
0.0
  0
LINE
  8
DETAIL
  6
CONTINUOUS
 62
     5
 10
-34.90379186849998
 20
62.523935183900043
 30
0.0
 11
-34.903791868499873
 21
-62.523542576899978
 31
0.0
  0
LINE
  8
DETAIL
  6
CONTINUOUS
 62
     5
 10
-40.09580458649998
 20
-62.523542576899978
 30
0.0
 11
-40.09580458649998
 21
62.523935183900043
 31
0.0
  0
LINE
  8
DETAIL
  6
CONTINUOUS
 62
     5
 10
-42.403791868499972
 20
62.523935183899972
 30
0.0
 11
-42.403791868499873
 21
-62.523542576899978
 31
0.0
  0
LINE
  8
DETAIL
  6
CONTINUOUS
 62
     5
 10
-47.59580458649998
 20
-62.523542576899978
 30
0.0
 11
-47.59580458649998
 21
62.523935183899972
 31
0.0
  0
LINE
  8
DETAIL
  6
CONTINUOUS
 62
     5
 10
-49.903791868499972
 20
62.523935183899972
 30
0.0
 11
-49.903791868499873
 21
-62.523542576899978
 31
0.0
  0
LINE
  8
DETAIL
  6
CONTINUOUS
 62
     5
 10
-55.09580458649998
 20
-62.523542576899978
 30
0.0
 11
-55.09580458649998
 21
62.523935183899972
 31
0.0
  0
LINE
  8
DETAIL
  6
CONTINUOUS
 62
     5
 10
-57.403791868499972
 20
62.523935183899972
 30
0.0
 11
-57.403791868499873
 21
-62.523542576899978
 31
0.0
  0
LINE
  8
DETAIL
  6
CONTINUOUS
 62
     5
 10
-62.572642577800018
 20
-62.514818782799942
 30
0.0
 11
-62.572642577800018
 21
62.515211389800008
 31
0.0
  0
ARC
  8
DETAIL
  6
CONTINUOUS
 62
     5
 10
0.000274190399864
 20
0.0002741905000718
 30
0.0
 40
45.187627657500009
 50
27.46258962806025
 51
39.428915352584262
  0
ARC
  8
DETAIL
  6
CONTINUOUS
 62
     5
 10
0.000274190399864
 20
0.0002741905000718
 30
0.0
 40
45.187627657500009
 50
43.834982343915819
 51
52.667572689359083
  0
ARC
  8
DETAIL
  6
CONTINUOUS
 62
     5
 10
0.000274190399864
 20
0.0002741905000718
 30
0.0
 40
45.187627657500002
 50
56.264288285111078
 51
63.866517932211202
  0
ARC
  8
DETAIL
  6
CONTINUOUS
 62
     5
 10
0.000274190399864
 20
0.0002741905000718
 30
0.0
 40
45.187627657500023
 50
67.083561295108964
 51
74.06842133907341
  0
ARC
  8
DETAIL
  6
CONTINUOUS
 62
     5
 10
0.000274190399864
 20
0.0002741905000718
 30
0.0
 40
45.187627657499981
 50
77.090390567908031
 51
83.709376082601779
  0
ARC
  8
DETAIL
  6
CONTINUOUS
 62
     5
 10
0.000274190399864
 20
0.0002741905000718
 30
0.0
 40
45.187627657500002
 50
86.707177610589653
 51
93.293518860491005
  0
ARC
  8
DETAIL
  6
CONTINUOUS
 62
     5
 10
0.000274190399864
 20
0.0002741905000718
 30
0.0
 40
45.187627657500009
 50
96.230395730772003
 51
102.9103227849557
  0
ARC
  8
DETAIL
  6
CONTINUOUS
 62
     5
 10
0.000274190399864
 20
0.0002741905000718
 30
0.0
 40
45.187627657500002
 50
105.93230175716
 51
112.91719360962441
  0
ARC
  8
DETAIL
  6
CONTINUOUS
 62
     5
 10
0.000274190399864
 20
0.0002741905000718
 30
0.0
 40
45.187627657500009
 50
116.1342565679589
 51
123.7365478350976
  0
ARC
  8
DETAIL
  6
CONTINUOUS
 62
     5
 10
0.000274190399864
 20
0.0002741905000718
 30
0.0
 40
45.187627657500009
 50
127.3333017898923
 51
136.16602161747841
  0
ARC
  8
DETAIL
  6
CONTINUOUS
 62
     5
 10
0.000274190399864
 20
0.0002741905000718
 30
0.0
 40
45.187627657499981
 50
140.572179446212
 51
152.53891814467511
  0
ARC
  8
DETAIL
  6
CONTINUOUS
 62
     5
 10
0.000274190399864
 20
0.0002741905000718
 30
0.0
 40
45.187627657499988
 50
159.78455655434519
 51
200.21544344565299
  0
ARC
  8
DETAIL
  6
CONTINUOUS
 62
     5
 10
0.000274190399864
 20
0.0002741905000718
 30
0.0
 40
45.187627657500002
 50
207.46108185532481
 51
219.427820553788
  0
ARC
  8
DETAIL
  6
CONTINUOUS
 62
     5
 10
0.000274190399864
 20
0.0002741905000718
 30
0.0
 40
45.187627657500002
 50
223.83397838252159
 51
232.6666982101076
  0
ARC
  8
DETAIL
  6
CONTINUOUS
 62
     5
 10
0.000274190399864
 20
0.0002741905000718
 30
0.0
 40
45.187627657500002
 50
236.26345216490239
 51
243.86574343204111
  0
ARC
  8
DETAIL
  6
CONTINUOUS
 62
     5
 10
0.000274190399864
 20
0.0002741905000718
 30
0.0
 40
45.187627657500002
 50
247.08280639037559
 51
254.06769824284001
  0
ARC
  8
DETAIL
  6
CONTINUOUS
 62
     5
 10
0.000274190399864
 20
0.0002741905000718
 30
0.0
 40
45.187627657500002
 50
257.08967721504428
 51
263.7696042692279
  0
ARC
  8
DETAIL
  6
CONTINUOUS
 62
     5
 10
0.000274190399864
 20
0.0002741905000718
 30
0.0
 40
45.187627657500002
 50
266.70648113950898
 51
273.29282238941039
  0
ARC
  8
DETAIL
  6
CONTINUOUS
 62
     5
 10
0.000274190399864
 20
0.0002741905000718
 30
0.0
 40
45.187627657500002
 50
276.22969627895992
 51
282.90960943209188
  0
ARC
  8
DETAIL
  6
CONTINUOUS
 62
     5
 10
0.000274190399864
 20
0.0002741905000718
 30
0.0
 40
45.187627657500002
 50
285.93157866092662
 51
292.91643870489088
  0
ARC
  8
DETAIL
  6
CONTINUOUS
 62
     5
 10
0.000274190399864
 20
0.0002741905000718
 30
0.0
 40
45.187627657500002
 50
296.13348206778869
 51
303.73571171488908
  0
ARC
  8
DETAIL
  6
CONTINUOUS
 62
     5
 10
0.000274190399864
 20
0.0002741905000718
 30
0.0
 40
45.187627657500002
 50
307.33242731064092
 51
316.16501765608427
  0
ARC
  8
DETAIL
  6
CONTINUOUS
 62
     5
 10
0.000274190399864
 20
0.0002741905000718
 30
0.0
 40
45.187627657500009
 50
320.57108464741572
 51
332.53741037193993
  0
ARC
  8
DETAIL
  6
CONTINUOUS
 62
     5
 10
0.000274190399864
 20
0.0002741905000718
 30
0.0
 40
45.187627657500002
 50
339.78254444173331
 51
20.21745555826671
  0
ARC
  8
DETAIL
  6
CONTINUOUS
 62
     5
 10
0.000274190399864
 20
0.0002741905000718
 30
0.0
 40
12.500000000000011
 50
293.34648184179969
 51
323.86622602443413
  0
ARC
  8
DETAIL
  6
CONTINUOUS
 62
     5
 10
0.000274190399864
 20
0.0002741905000718
 30
0.0
 40
12.499999999999989
 50
216.12951106632539
 51
246.90073700776969
  0
ARC
  8
DETAIL
  6
CONTINUOUS
 62
     5
 10
0.000274190399864
 20
0.0002741905000718
 30
0.0
 40
12.499999999999989
 50
258.01320199852591
 51
281.98422839191022
  0
ARC
  8
DETAIL
  6
CONTINUOUS
 62
     5
 10
0.000274190399864
 20
0.0002741905000718
 30
0.0
 40
12.50000000000002
 50
78.015771608089807
 51
101.986798001474
  0
ARC
  8
DETAIL
  6
CONTINUOUS
 62
     5
 10
0.000274190399864
 20
0.0002741905000718
 30
0.0
 40
12.50000000000003
 50
113.09926299223029
 51
143.8704889336741
  0
ARC
  8
DETAIL
  6
CONTINUOUS
 62
     5
 10
0.000274190399864
 20
0.0002741905000718
 30
0.0
 40
12.5
 50
36.133773975565887
 51
66.903469660879395
  0
LINE
  8
DETAIL
  6
CONTINUOUS
 62
     5
 10
-81.000785113343227
 20
59.087443438299942
 30
0.0
 11
-79.994717782099983
 21
59.301289651067769
 31
0.0
  0
LINE
  8
DETAIL
  6
CONTINUOUS
 62
     5
 10
-79.994717782099983
 20
45.216347013662457
 30
0.0
 11
-81.000785113343227
 21
59.087443438299942
 31
0.0
  0
ARC
  8
DETAIL
  6
CONTINUOUS
 62
     5
 10
-12.255054379060541
 20
-12.06413835637944
 30
0.0
 40
14.51743146821237
 50
311.70958787734008
 51
358.32896359252197
  0
ARC
  8
DETAIL
  6
CONTINUOUS
 62
     5
 10
-47.109066167579158
 20
18.76795230565855
 30
0.0
 40
61.307738775941971
 50
307.1374391024807
 51
313.50491124320968
  0
ARC
  8
DETAIL
  6
CONTINUOUS
 62
     5
 10
-43.835854735798407
 20
31.54917491825417
 30
0.0
 40
70.467521781793081
 50
291.86190751292708
 51
296.49055955899439
  0
ARC
  8
DETAIL
  6
CONTINUOUS
 62
     5
 10
-22.372290714941411
 20
-30.309753499671309
 30
0.0
 40
4.9218786130195804
 50
236.4029651207191
 51
300.10166681345032
  0
ARC
  8
DETAIL
  6
CONTINUOUS
 62
     5
 10
34.980292882060333
 20
33.905236088493488
 30
0.0
 40
91.159022153516716
 50
222.15780653682029
 51
226.81600059746131
  0
ARC
  8
DETAIL
  6
CONTINUOUS
 62
     5
 10
44.183176416850529
 20
21.537552284634469
 30
0.0
 40
91.358597072457783
 50
202.70455743561419
 51
210.0399852032001
  0
ARC
  8
DETAIL
  6
CONTINUOUS
 62
     5
 10
-38.528493827200577
 20
8.1553922617638008
 30
0.0
 40
3.7874140898294049
 50
26.57902189425289
 51
114.4450790808195
  0
ARC
  8
DETAIL
  6
CONTINUOUS
 62
     5
 10
-2.0689226372517169
 20
30.9568853146043
 30
0.0
 40
39.580352143832407
 50
219.5325116555812
 51
230.20169212944651
  0
ARC
  8
DETAIL
  6
CONTINUOUS
 62
     5
 10
-9.5528443109516292
 20
16.989012356003649
 30
0.0
 40
23.45889311242728
 50
228.5044760097928
 51
243.81712335734639
  0
ARC
  8
DETAIL
  6
CONTINUOUS
 62
     5
 10
-11.739784635585581
 20
15.294063558564851
 30
0.0
 40
20.12689704625851
 50
253.0848649776415
 51
267.86312102225628
  0
ARC
  8
DETAIL
  6
CONTINUOUS
 62
     5
 10
157.14843605382231
 20
141.9446981029264
 30
0.0
 40
217.8783923026908
 50
216.6759447279581
 51
218.90424532524801
  0
ARC
  8
DETAIL
  6
CONTINUOUS
 62
     5
 10
11.78982223053163
 20
26.137891297338989
 30
0.0
 40
32.866945028344468
 50
164.64433015906519
 51
195.35566984093481
  0
ARC
  8
DETAIL
  6
CONTINUOUS
 62
     5
 10
14.424044675937131
 20
-40.335710364132098
 30
0.0
 40
85.354864781013902
 50
108.3191280920723
 51
112.0328394365106
  0
ARC
  8
DETAIL
  6
CONTINUOUS
 62
     5
 10
1.768642529034651
 20
-11.825647957077861
 30
0.0
 40
54.436296225586041
 50
97.040636218233587
 51
102.588715881095
  0
ARC
  8
DETAIL
  6
CONTINUOUS
 62
     5
 10
-0.8134936761423433
 20
-42.804793744848133
 30
0.0
 40
85.209676114240267
 50
87.706944021638293
 51
91.165812885394956
  0
ARC
  8
DETAIL
  6
CONTINUOUS
 62
     5
 10
-3.659055746923058
 20
-18.194970781256089
 30
0.0
 40
60.918442824860023
 50
76.950580469288042
 51
81.919603958469267
  0
ARC
  8
DETAIL
  6
CONTINUOUS
 62
     5
 10
-24.874330506746791
 20
-64.868148273847311
 30
0.0
 40
111.7722236330131
 50
67.668151614059923
 51
70.517516354684048
  0
ARC
  8
DETAIL
  6
CONTINUOUS
 62
     5
 10
-63.432470937937403
 20
-99.185894035506479
 30
0.0
 40
159.98409774779191
 50
56.402395858575296
 51
58.607129705322087
  0
ARC
  8
DETAIL
  6
CONTINUOUS
 62
     5
 10
25.796940414440311
 20
28.831725003121299
 30
0.0
 40
3.7661908875080372
 50
295.25525061404238
 51
64.744749385957533
  0
ARC
  8
DETAIL
  6
CONTINUOUS
 62
     5
 10
35.040850083566731
 20
-307.73795409561939
 30
0.0
 40
333.40975671157747
 50
91.709289102124586
 51
92.602166722301604
  0
ARC
  8
DETAIL
  6
CONTINUOUS
 62
     5
 10
24.96745189418516
 20
3.4429494191692172
 30
0.0
 40
22.578109910395799
 50
109.05619336924541
 51
123.81086149522871
  0
ARC
  8
DETAIL
  6
CONTINUOUS
 62
     5
 10
14.90976326396526
 20
10.885484226190339
 30
0.0
 40
11.563088547472461
 50
114.60254511981741
 51
149.92123861324569
  0
ARC
  8
DETAIL
  6
CONTINUOUS
 62
     5
 10
28.184297796135521
 20
-92.803091235194131
 30
0.0
 40
102.68619865745259
 50
95.918577756627101
 51
98.840074076807525
  0
ARC
  8
DETAIL
  6
CONTINUOUS
 62
     5
 10
-58.058716322022278
 20
-514.13048881274688
 30
0.0
 40
529.21271494945279
 50
80.959723556786273
 51
81.528472962980672
  0
ARC
  8
DETAIL
  6
CONTINUOUS
 62
     5
 10
-17.325030677159251
 20
-100.5881692076925
 30
0.0
 40
117.28096233451799
 50
64.808082224759687
 51
67.580700220243173
  0
ARC
  8
DETAIL
  6
CONTINUOUS
 62
     5
 10
-79.512750386815213
 20
-139.73218867878381
 30
0.0
 40
183.81595210764621
 50
49.405799429207917
 51
51.504611358969299
  0
ARC
  8
DETAIL
  6
CONTINUOUS
 62
     5
 10
-51.32433794147255
 20
26.993158989914139
 30
0.0
 40
100.237507569085
 50
329.34333483017991
 51
335.78814395253892
  0
ARC
  8
DETAIL
  6
CONTINUOUS
 62
     5
 10
-118.33291317523449
 20
118.2839181594502
 30
0.0
 40
209.56583403747081
 50
314.06085987621918
 51
316.07076043751232
  0
ARC
  8
DETAIL
  6
CONTINUOUS
 62
     5
 10
-29.982414986896519
 20
48.340594466740093
 30
0.0
 40
99.169178501655196
 50
300.20142521358758
 51
303.73803248071772
  0
ARC
  8
DETAIL
  6
CONTINUOUS
 62
     5
 10
-24.784349945425792
 20
66.787374531644673
 30
0.0
 40
113.4902472549165
 50
289.12783831718332
 51
291.92703370788212
  0
ARC
  8
DETAIL
  6
CONTINUOUS
 62
     5
 10
11.69594826177331
 20
-37.036866617506092
 30
0.0
 40
3.868663709771103
 50
114.43222972571699
 51
245.56777027428299
  0
ARC
  8
DETAIL
  6
CONTINUOUS
 62
     5
 10
-14.188830273232499
 20
-22.67616787754174
 30
0.0
 40
27.222441093966442
 50
348.24129295603888
 51
1.7823270469497481
  0
ARC
  8
DETAIL
  6
CONTINUOUS
 62
     5
 10
3.4798701727708021
 20
-18.428289871918569
 30
0.0
 40
10.12870178436477
 50
340.37895666947361
 51
28.23036850322179
  0
ARC
  8
OUTLINE
  6
CONTINUOUS
 62
     3
 10
78.990918378599986
 20
-78.990999999999957
 30
0.0
 40
1.0
 50
270.0
 51
0.0
  0
LINE
  8
OUTLINE
  6
CONTINUOUS
 62
     3
 10
79.990918378599986
 20
78.991316454599982
 30
0.0
 11
79.990918378599986
 21
-78.990999999999957
 31
0.0
  0
ARC
  8
OUTLINE
  6
CONTINUOUS
 62
     3
 10
78.990918378599986
 20
78.991316454599982
 30
0.0
 40
1.0
 50
0.0
 51
90.0
  0
LINE
  8
OUTLINE
  6
CONTINUOUS
 62
     3
 10
-78.991398075999982
 20
79.991316454599982
 30
0.0
 11
78.990918378599986
 21
79.991316454599982
 31
0.0
  0
ARC
  8
OUTLINE
  6
CONTINUOUS
 62
     3
 10
-78.991398075999982
 20
78.991316454599982
 30
0.0
 40
1.0
 50
90.0
 51
180.0
  0
LINE
  8
OUTLINE
  6
CONTINUOUS
 62
     3
 10
-79.991398075999982
 20
-78.990999999999957
 30
0.0
 11
-79.991398075999982
 21
78.991316454599982
 31
0.0
  0
ARC
  8
OUTLINE
  6
CONTINUOUS
 62
     3
 10
-78.991398075999982
 20
-78.990999999999957
 30
0.0
 40
1.0
 50
180.0
 51
270.0
  0
LINE
  8
OUTLINE
  6
CONTINUOUS
 62
     3
 10
78.990918378599986
 20
-79.990999999999957
 30
0.0
 11
-78.991398075999982
 21
-79.990999999999957
 31
0.0
  0
LINE
  8
DETAIL
  6
CONTINUOUS
 62
     5
 10
2.1401371946580809
 20
100.2403485681816
 30
0.0
 11
-2.1401371946579961
 21
100.2403485681816
 31
0.0
  0
ARC
  8
DETAIL
  6
CONTINUOUS
 62
     5
 10
2.1401371946580809
 20
100.4903485681816
 30
0.0
 40
0.25
 50
270.0
 51
356.42366562499529
  0
ARC
  8
DETAIL
  6
CONTINUOUS
 62
     5
 10
-2.1401371946579961
 20
100.4903485681816
 30
0.0
 40
0.250000000000058
 50
183.57633437500459
 51
270.0
  0
LINE
  8
DETAIL
  6
CONTINUOUS
 62
     5
 10
-2.531249999999885
 20
102.7403485681816
 30
0.0
 11
0.0000000000001137
 21
102.7403485681816
 31
0.0
  0
LINE
  8
DETAIL
  6
CONTINUOUS
 62
     5
 10
0.0000000000001137
 20
101.9903485681816
 30
0.0
 11
2.4843750000001141
 21
101.9903485681816
 31
0.0
  0
LINE
  8
DETAIL
  6
CONTINUOUS
 62
     5
 10
0.0000000000001137
 20
101.2403485681816
 30
0.0
 11
2.4375000000001141
 21
101.2403485681816
 31
0.0
  0
LINE
  8
DETAIL
  6
CONTINUOUS
 62
     5
 10
0.0000000000001137
 20
101.9903485681816
 30
0.0
 11
0.0000000000001137
 21
101.2403485681816
 31
0.0
  0
LINE
  8
DETAIL
  6
CONTINUOUS
 62
     5
 10
1.5
 20
79.992126357758536
 30
0.0
 11
1.5
 21
88.491468782643892
 31
0.0
  0
ARC
  8
DETAIL
  6
CONTINUOUS
 62
     5
 10
0.7500000000001137
 20
87.192430676967263
 30
0.0
 40
1.4999999999999749
 50
59.999999999999957
 51
120.0000000000003
  0
LINE
  8
DETAIL
  6
CONTINUOUS
 62
     5
 10
-1.5
 20
79.990506551441456
 30
0.0
 11
-1.5
 21
88.491468782643892
 31
0.0
  0
ARC
  8
DETAIL
  6
CONTINUOUS
 62
     5
 10
-0.7499999999998863
 20
89.790506888320593
 30
0.0
 40
1.5000000000000251
 50
239.99999999999969
 51
300.0
  0
ARC
  8
DETAIL
  6
CONTINUOUS
 62
     5
 10
0.7500000000001137
 20
88.692430676967263
 30
0.0
 40
1.4999999999999749
 50
59.999999999999957
 51
120.0000000000003
  0
ARC
  8
DETAIL
  6
CONTINUOUS
 62
     5
 10
-0.7499999999998863
 20
91.290506888320579
 30
0.0
 40
1.5000000000000251
 50
239.99999999999969
 51
300.0
  0
LINE
  8
DETAIL
  6
CONTINUOUS
 62
     5
 10
1.5000000000001139
 20
89.991468782643892
 30
0.0
 11
1.5000000000001139
 21
100.2403485681816
 31
0.0
  0
LINE
  8
DETAIL
  6
CONTINUOUS
 62
     5
 10
-1.4999999999998861
 20
89.991468782643892
 30
0.0
 11
-1.4999999999998861
 21
100.2403485681816
 31
0.0
  0
LINE
  8
DETAIL
  6
CONTINUOUS
 62
     5
 10
-4.7499999999999014
 20
117.7403485681816
 30
0.0
 11
4.7500000000001137
 21
117.7403485681816
 31
0.0
  0
LINE
  8
DETAIL
  6
CONTINUOUS
 62
     5
 10
-4.7499999999999014
 20
110.2403485681816
 30
0.0
 11
4.7500000000001137
 21
110.2403485681816
 31
0.0
  0
LINE
  8
DETAIL
  6
CONTINUOUS
 62
     5
 10
-6.2499999999999014
 20
116.2403485681816
 30
0.0
 11
-6.2499999999999014
 21
111.7403485681816
 31
0.0
  0
LINE
  8
DETAIL
  6
CONTINUOUS
 62
     5
 10
6.2500000000001137
 20
116.2403485681816
 30
0.0
 11
6.2500000000001137
 21
111.7403485681816
 31
0.0
  0
ARC
  8
DETAIL
  6
CONTINUOUS
 62
     5
 10
-4.7499999999999014
 20
116.2403485681816
 30
0.0
 40
1.5
 50
90.0
 51
180.0
  0
ARC
  8
DETAIL
  6
CONTINUOUS
 62
     5
 10
-4.7499999999999014
 20
111.7403485681816
 30
0.0
 40
1.5
 50
180.0
 51
270.0
  0
ARC
  8
DETAIL
  6
CONTINUOUS
 62
     5
 10
4.7500000000001137
 20
111.7403485681816
 30
0.0
 40
1.5
 50
270.0
 51
0.0
  0
ARC
  8
DETAIL
  6
CONTINUOUS
 62
     5
 10
4.7500000000001137
 20
116.2403485681816
 30
0.0
 40
1.5
 50
0.0
 51
90.0
  0
LINE
  8
DETAIL
  6
CONTINUOUS
 62
     5
 10
-2.9249999999999692
 20
115.56534856818161
 30
0.0
 11
-2.9249999999999692
 21
112.4153485681816
 31
0.0
  0
LINE
  8
DETAIL
  6
CONTINUOUS
 62
     5
 10
-3.4249999999999692
 20
115.56534856818161
 30
0.0
 11
-3.4249999999999692
 21
112.4153485681816
 31
0.0
  0
LINE
  8
DETAIL
  6
CONTINUOUS
 62
     5
 10
3.425000000000054
 20
115.56534856818161
 30
0.0
 11
3.425000000000054
 21
112.4153485681816
 31
0.0
  0
LINE
  8
DETAIL
  6
CONTINUOUS
 62
     5
 10
2.925000000000054
 20
115.56534856818161
 30
0.0
 11
2.925000000000054
 21
112.4153485681816
 31
0.0
  0
LINE
  8
DETAIL
  6
CONTINUOUS
 62
     5
 10
-3.4249999999999692
 20
112.4153485681816
 30
0.0
 11
-2.9249999999999692
 21
112.4153485681816
 31
0.0
  0
LINE
  8
DETAIL
  6
CONTINUOUS
 62
     5
 10
-3.4249999999999692
 20
115.56534856818161
 30
0.0
 11
-2.9249999999999692
 21
115.56534856818161
 31
0.0
  0
LINE
  8
DETAIL
  6
CONTINUOUS
 62
     5
 10
-6.9999999999999014
 20
111.7403485681816
 30
0.0
 11
-6.2499999999999014
 21
111.7403485681816
 31
0.0
  0
LINE
  8
DETAIL
  6
CONTINUOUS
 62
     5
 10
-6.9999999999999014
 20
116.2403485681816
 30
0.0
 11
-6.2499999999999014
 21
116.2403485681816
 31
0.0
  0
LINE
  8
DETAIL
  6
CONTINUOUS
 62
     5
 10
7.0000000000001137
 20
116.2403485681816
 30
0.0
 11
7.0000000000001137
 21
111.7403485681816
 31
0.0
  0
LINE
  8
DETAIL
  6
CONTINUOUS
 62
     5
 10
-6.9999999999999014
 20
116.2403485681816
 30
0.0
 11
-6.9999999999999014
 21
111.7403485681816
 31
0.0
  0
LINE
  8
DETAIL
  6
CONTINUOUS
 62
     5
 10
6.2500000000001137
 20
116.2403485681816
 30
0.0
 11
7.0000000000001137
 21
116.2403485681816
 31
0.0
  0
LINE
  8
DETAIL
  6
CONTINUOUS
 62
     5
 10
6.2500000000001137
 20
111.7403485681816
 30
0.0
 11
7.0000000000001137
 21
111.7403485681816
 31
0.0
  0
LINE
  8
DETAIL
  6
CONTINUOUS
 62
     5
 10
2.925000000000054
 20
112.4153485681816
 30
0.0
 11
3.425000000000054
 21
112.4153485681816
 31
0.0
  0
LINE
  8
DETAIL
  6
CONTINUOUS
 62
     5
 10
2.925000000000054
 20
115.56534856818161
 30
0.0
 11
3.425000000000054
 21
115.56534856818161
 31
0.0
  0
LINE
  8
DETAIL
  6
CONTINUOUS
 62
     5
 10
0.0000000000001137
 20
103.4903485681816
 30
0.0
 11
0.0000000000001137
 21
102.7403485681816
 31
0.0
  0
LINE
  8
DETAIL
  6
CONTINUOUS
 62
     5
 10
0.0000000000001137
 20
104.9903485681816
 30
0.0
 11
0.0000000000001137
 21
104.2403485681816
 31
0.0
  0
LINE
  8
DETAIL
  6
CONTINUOUS
 62
     5
 10
0.0000000000001137
 20
106.4903485681816
 30
0.0
 11
0.0000000000001137
 21
105.7403485681816
 31
0.0
  0
LINE
  8
DETAIL
  6
CONTINUOUS
 62
     5
 10
0.0000000000001137
 20
107.9903485681816
 30
0.0
 11
0.0000000000001137
 21
107.2403485681816
 31
0.0
  0
LINE
  8
DETAIL
  6
CONTINUOUS
 62
     5
 10
-2.578124999999885
 20
103.4903485681816
 30
0.0
 11
0.0000000000001137
 21
103.4903485681816
 31
0.0
  0
LINE
  8
DETAIL
  6
CONTINUOUS
 62
     5
 10
0.0000000000001137
 20
104.2403485681816
 30
0.0
 11
2.6250000000001141
 21
104.2403485681816
 31
0.0
  0
LINE
  8
DETAIL
  6
CONTINUOUS
 62
     5
 10
0.0000000000001137
 20
104.9903485681816
 30
0.0
 11
2.6718750000001141
 21
104.9903485681816
 31
0.0
  0
LINE
  8
DETAIL
  6
CONTINUOUS
 62
     5
 10
-2.718749999999885
 20
105.7403485681816
 30
0.0
 11
0.0000000000001137
 21
105.7403485681816
 31
0.0
  0
LINE
  8
DETAIL
  6
CONTINUOUS
 62
     5
 10
-2.765625
 20
106.4903485681816
 30
0.0
 11
0.0000000000001137
 21
106.4903485681816
 31
0.0
  0
LINE
  8
DETAIL
  6
CONTINUOUS
 62
     5
 10
0.0000000000001137
 20
107.2403485681816
 30
0.0
 11
2.8125000000001141
 21
107.2403485681816
 31
0.0
  0
LINE
  8
DETAIL
  6
CONTINUOUS
 62
     5
 10
0.0000000000001137
 20
107.9903485681816
 30
0.0
 11
2.8593750000001141
 21
107.9903485681816
 31
0.0
  0
ARC
  8
DETAIL
  6
CONTINUOUS
 62
     5
 10
-3.9394512213675772
 20
109.2403485681816
 30
0.0
 40
0.999999999999997
 50
3.5763343749981509
 51
90.0
  0
ARC
  8
DETAIL
  6
CONTINUOUS
 62
     5
 10
3.9394512213676758
 20
109.2403485681816
 30
0.0
 40
1.0
 50
90.0
 51
176.4236656250018
  0
LINE
  8
DETAIL
  6
CONTINUOUS
 62
     5
 10
2.9413986428848058
 20
109.3027268543368
 30
0.0
 11
2.389650339278873
 21
100.4747539966428
 31
0.0
  0
LINE
  8
DETAIL
  6
CONTINUOUS
 62
     5
 10
-2.941398642884693
 20
109.3027268543368
 30
0.0
 11
-2.389650339278774
 21
100.4747539966428
 31
0.0
  0
LINE
  8
DETAIL
  6
CONTINUOUS
 62
     5
 10
-4.7499999999999014
 20
117.7403485681816
 30
0.0
 11
4.7500000000001137
 21
117.7403485681816
 31
0.0
  0
LINE
  8
DETAIL
  6
CONTINUOUS
 62
     5
 10
-4.7499999999999014
 20
110.2403485681816
 30
0.0
 11
4.7500000000001137
 21
110.2403485681816
 31
0.0
  0
LINE
  8
DETAIL
  6
CONTINUOUS
 62
     5
 10
-6.2499999999999014
 20
116.2403485681816
 30
0.0
 11
-6.2499999999999014
 21
111.7403485681816
 31
0.0
  0
LINE
  8
DETAIL
  6
CONTINUOUS
 62
     5
 10
6.2500000000001137
 20
116.2403485681816
 30
0.0
 11
6.2500000000001137
 21
111.7403485681816
 31
0.0
  0
ARC
  8
DETAIL
  6
CONTINUOUS
 62
     5
 10
-4.7499999999999014
 20
116.2403485681816
 30
0.0
 40
1.5
 50
90.0
 51
180.0
  0
ARC
  8
DETAIL
  6
CONTINUOUS
 62
     5
 10
-4.7499999999999014
 20
111.7403485681816
 30
0.0
 40
1.5
 50
180.0
 51
270.0
  0
ARC
  8
DETAIL
  6
CONTINUOUS
 62
     5
 10
4.7500000000001137
 20
111.7403485681816
 30
0.0
 40
1.5
 50
270.0
 51
0.0
  0
ARC
  8
DETAIL
  6
CONTINUOUS
 62
     5
 10
4.7500000000001137
 20
116.2403485681816
 30
0.0
 40
1.5
 50
0.0
 51
90.0
  0
LINE
  8
DETAIL
  6
CONTINUOUS
 62
     5
 10
-2.9249999999999692
 20
115.56534856818161
 30
0.0
 11
-2.9249999999999692
 21
112.4153485681816
 31
0.0
  0
LINE
  8
DETAIL
  6
CONTINUOUS
 62
     5
 10
-3.4249999999999692
 20
115.56534856818161
 30
0.0
 11
-3.4249999999999692
 21
112.4153485681816
 31
0.0
  0
LINE
  8
DETAIL
  6
CONTINUOUS
 62
     5
 10
3.425000000000054
 20
115.56534856818161
 30
0.0
 11
3.425000000000054
 21
112.4153485681816
 31
0.0
  0
LINE
  8
DETAIL
  6
CONTINUOUS
 62
     5
 10
2.925000000000054
 20
115.56534856818161
 30
0.0
 11
2.925000000000054
 21
112.4153485681816
 31
0.0
  0
LINE
  8
DETAIL
  6
CONTINUOUS
 62
     5
 10
-3.4249999999999692
 20
112.4153485681816
 30
0.0
 11
-2.9249999999999692
 21
112.4153485681816
 31
0.0
  0
LINE
  8
DETAIL
  6
CONTINUOUS
 62
     5
 10
-3.4249999999999692
 20
115.56534856818161
 30
0.0
 11
-2.9249999999999692
 21
115.56534856818161
 31
0.0
  0
LINE
  8
DETAIL
  6
CONTINUOUS
 62
     5
 10
-6.9999999999999014
 20
111.7403485681816
 30
0.0
 11
-6.2499999999999014
 21
111.7403485681816
 31
0.0
  0
LINE
  8
DETAIL
  6
CONTINUOUS
 62
     5
 10
-6.9999999999999014
 20
116.2403485681816
 30
0.0
 11
-6.2499999999999014
 21
116.2403485681816
 31
0.0
  0
LINE
  8
DETAIL
  6
CONTINUOUS
 62
     5
 10
7.0000000000001137
 20
116.2403485681816
 30
0.0
 11
7.0000000000001137
 21
111.7403485681816
 31
0.0
  0
LINE
  8
DETAIL
  6
CONTINUOUS
 62
     5
 10
-6.9999999999999014
 20
116.2403485681816
 30
0.0
 11
-6.9999999999999014
 21
111.7403485681816
 31
0.0
  0
LINE
  8
DETAIL
  6
CONTINUOUS
 62
     5
 10
6.2500000000001137
 20
116.2403485681816
 30
0.0
 11
7.0000000000001137
 21
116.2403485681816
 31
0.0
  0
LINE
  8
DETAIL
  6
CONTINUOUS
 62
     5
 10
6.2500000000001137
 20
111.7403485681816
 30
0.0
 11
7.0000000000001137
 21
111.7403485681816
 31
0.0
  0
LINE
  8
DETAIL
  6
CONTINUOUS
 62
     5
 10
2.925000000000054
 20
112.4153485681816
 30
0.0
 11
3.425000000000054
 21
112.4153485681816
 31
0.0
  0
LINE
  8
DETAIL
  6
CONTINUOUS
 62
     5
 10
2.925000000000054
 20
115.56534856818161
 30
0.0
 11
3.425000000000054
 21
115.56534856818161
 31
0.0
  0
CIRCLE
  8
FIX
  6
CONTINUOUS
 62
    11
 10
0.0
 20
79.991316454599982
 30
0.0
 40
7.0441691683918863
  0
LINE
  8
NOTE
  6
CONTINUOUS
 62
     4
 10
-26.021817722442108
 20
79.991316454599982
 30
0.0
 11
26.021817722442108
 21
79.991316454600025
 31
0.0
  0
LINE
  8
NOTE
  6
CONTINUOUS
 62
     4
 10
-3.2938568436699129
 20
85.257738995890108
 30
0.0
 11
0.0
 21
79.991316454599982
 31
0.0
  0
LINE
  8
NOTE
  6
CONTINUOUS
 62
     4
 10
0.0
 20
79.991316454599982
 30
0.0
 11
-5.4857793648106963
 21
82.905235473827787
 31
0.0
  0
LINE
  8
NOTE
  6
CONTINUOUS
 62
     4
 10
0.0
 20
79.991316454599982
 30
0.0
 11
-8.7796362084806088
 21
88.171658015117913
 31
0.0
  0
LINE
  8
NOTE
  6
CONTINUOUS
 62
     4
 10
-8.7796362084806088
 20
88.171658015117913
 30
0.0
 11
-164.5029169894791
 21
236.36002004215541
 31
0.0
  0
LINE
  8
NOTE
  6
CONTINUOUS
 62
     4
 10
-164.5029169894791
 20
236.36002004215541
 30
0.0
 11
-261.53148841805051
 21
236.36002004215541
 31
0.0
  0
TEXT
  8
NOTE
  6
CONTINUOUS
 62
     4
 10
-257.04605092606153
 20
258.907799186386
 30
0.0
 40
64.0
  1
EL
 41
0.9
 72
     2
 11
-172.01747949749009
 21
258.907799186386
 31
0.0
  0
LINE
  8
NOTE
  6
CONTINUOUS
 62
     4
 10
0.0
 20
70.722117155827561
 30
0.0
 11
0.0
 21
89.260515753372445
 31
0.0
  0
ARC
  8
OUTLINE
  6
CONTINUOUS
 62
     3
 10
-12.5
 20
-83.799803696499993
 30
0.0
 40
1.0
 50
180.0
 51
270.0
  0
LINE
  8
OUTLINE
  6
CONTINUOUS
 62
     3
 10
-12.5
 20
-84.799803696499993
 30
0.0
 11
12.5
 21
-84.799803696499993
 31
0.0
  0
ARC
  8
OUTLINE
  6
CONTINUOUS
 62
     3
 10
12.5
 20
-83.799803696499993
 30
0.0
 40
1.0
 50
270.0
 51
0.0
  0
LINE
  8
OUTLINE
  6
CONTINUOUS
 62
     3
 10
-13.5
 20
-79.990999999999957
 30
0.0
 11
-13.5
 21
-83.799803696499993
 31
0.0
  0
LINE
  8
OUTLINE
  6
CONTINUOUS
 62
     3
 10
13.5
 20
-79.990999999999957
 30
0.0
 11
13.5
 21
-83.799803696499993
 31
0.0
  0
ENDSEC
  0
EOF
