  0
SECTION
  2
HEADER
  9
$ACADVER
  1
AC1009
  9
$DWGCODEPAGE
  3
dos932
  9
$INSBASE
 10
0.0
 20
0.0
 30
0.0
  9
$EXTMIN
 10
-644.43052545472892
 20
-459.82359671013359
 30
-0.0015258207003583
  9
$EXTMAX
 10
643.0709950079563
 20
599.53308908680083
 30
0.0000000349246037
  9
$LIMMIN
 10
-2970.0
 20
-2100.0
  9
$LIMMAX
 10
2970.0
 20
2100.0
  9
$ORTHOMODE
 70
     1
  9
$REGENMODE
 70
     1
  9
$FILLMODE
 70
     1
  9
$QTEXTMODE
 70
     0
  9
$MIRRTEXT
 70
     0
  9
$LTSCALE
 40
20.0
  9
$ATTMODE
 70
     1
  9
$TEXTSIZE
 40
64.0
  9
$TRACEWID
 40
0.05
  9
$TEXTSTYLE
  7
STANDARD
  9
$CLAYER
  8
SIZE
  9
$CELTYPE
  6
CONTINUOUS
  9
$CECOLOR
 62
     7
  9
$DIMSCALE
 40
1.0
  9
$DIMASZ
 40
12.0
  9
$DIMEXO
 40
20.0
  9
$DIMDLI
 40
200.0
  9
$DIMRND
 40
0.0
  9
$DIMDLE
 40
0.0
  9
$DIMEXE
 40
20.0
  9
$DIMTP
 40
0.0
  9
$DIMTM
 40
0.0
  9
$DIMTXT
 40
64.0
  9
$DIMCEN
 40
0.09
  9
$DIMTSZ
 40
0.0
  9
$DIMTOL
 70
     0
  9
$DIMLIM
 70
     0
  9
$DIMTIH
 70
     0
  9
$DIMTOH
 70
     0
  9
$DIMSE1
 70
     0
  9
$DIMSE2
 70
     0
  9
$DIMTAD
 70
     1
  9
$DIMZIN
 70
     8
  9
$DIMBLK
  1

  9
$DIMASO
 70
     1
  9
$DIMSHO
 70
     0
  9
$DIMPOST
  1

  9
$DIMAPOST
  1

  9
$DIMALT
 70
     0
  9
$DIMALTD
 70
     2
  9
$DIMALTF
 40
25.399999999999999
  9
$DIMLFAC
 40
1.0
  9
$DIMTOFL
 70
     1
  9
$DIMTVP
 40
0.0
  9
$DIMTIX
 70
     1
  9
$DIMSOXD
 70
     0
  9
$DIMSAH
 70
     0
  9
$DIMBLK1
  1

  9
$DIMBLK2
  1

  9
$DIMSTYLE
  2
STANDARD
  9
$DIMCLRD
 70
     7
  9
$DIMCLRE
 70
     7
  9
$DIMCLRT
 70
     7
  9
$DIMTFAC
 40
1.0
  9
$DIMGAP
 40
25.0
  9
$LUNITS
 70
     2
  9
$LUPREC
 70
     4
  9
$SKETCHINC
 40
0.1
  9
$FILLETRAD
 40
3.0
  9
$AUNITS
 70
     1
  9
$AUPREC
 70
     3
  9
$MENU
  1
ACAD
  9
$ELEVATION
 40
0.0
  9
$PELEVATION
 40
0.0
  9
$THICKNESS
 40
0.0
  9
$LIMCHECK
 70
     0
  9
$CHAMFERA
 40
0.0
  9
$CHAMFERB
 40
0.0
  9
$SKPOLY
 70
     0
  9
$TDCREATE
 40
2453019.623009259
  9
$TDUPDATE
 40
2459356.643944873
  9
$TDINDWG
 40
1.7577937616
  9
$TDUSRTIMER
 40
1.7577937616
  9
$USRTIMER
 70
     1
  9
$ANGBASE
 50
0.0
  9
$ANGDIR
 70
     0
  9
$PDMODE
 70
     3
  9
$PDSIZE
 40
-2.0
  9
$PLINEWID
 40
0.0
  9
$SPLFRAME
 70
     0
  9
$SPLINETYPE
 70
     6
  9
$SPLINESEGS
 70
     8
  9
$SURFTAB1
 70
     6
  9
$SURFTAB2
 70
     6
  9
$SURFTYPE
 70
     6
  9
$SURFU
 70
     6
  9
$SURFV
 70
     6
  9
$UCSNAME
  2

  9
$UCSORG
 10
0.0
 20
0.0
 30
0.0
  9
$UCSXDIR
 10
1.0
 20
0.0
 30
0.0
  9
$UCSYDIR
 10
0.0
 20
1.0
 30
0.0
  9
$PUCSNAME
  2

  9
$PUCSORG
 10
0.0
 20
0.0
 30
0.0
  9
$PUCSXDIR
 10
1.0
 20
0.0
 30
0.0
  9
$PUCSYDIR
 10
0.0
 20
1.0
 30
0.0
  9
$USERI1
 70
     0
  9
$USERI2
 70
     0
  9
$USERI3
 70
     0
  9
$USERI4
 70
     0
  9
$USERI5
 70
     0
  9
$USERR1
 40
20.0
  9
$USERR2
 40
0.0
  9
$USERR3
 40
0.0
  9
$USERR4
 40
0.0
  9
$USERR5
 40
0.0
  9
$WORLDVIEW
 70
     1
  9
$SHADEDGE
 70
     3
  9
$SHADEDIF
 70
    70
  9
$TILEMODE
 70
     1
  9
$MAXACTVP
 70
    48
  9
$PINSBASE
 10
0.0
 20
0.0
 30
0.0
  9
$PLIMCHECK
 70
     0
  9
$PEXTMIN
 10
-100000000000000000000.0
 20
-100000000000000000000.0
 30
-100000000000000000000.0
  9
$PEXTMAX
 10
100000000000000000000.0
 20
100000000000000000000.0
 30
100000000000000000000.0
  9
$PLIMMIN
 10
0.0
 20
0.0
  9
$PLIMMAX
 10
12.0
 20
9.0
  9
$UNITMODE
 70
     0
  9
$VISRETAIN
 70
     0
  9
$PLINEGEN
 70
     0
  9
$PSLTSCALE
 70
     0
  9
$TREEDEPTH
 70
  3020
  9
$ATTDIA
 70
     0
  9
$ATTREQ
 70
     1
  9
$BLIPMODE
 70
     1
  9
$COORDS
 70
     1
  9
$DRAGMODE
 70
     2
  9
$OSMODE
 70
     0
  9
$HANDLING
 70
     0
  9
$HANDSEED
  5
62B
  0
ENDSEC
  0
SECTION
  2
TABLES
  0
TABLE
  2
LTYPE
 70
     2
  0
LTYPE
  2
CONTINUOUS
 70
     0
  3
実線
 72
    65
 73
     0
 40
0.0
  0
LTYPE
  2
DASHDOT
 70
     0
  3
____ _ ____ _ ____ _ ____ _ ____ _ ____ _ ____
 72
    65
 73
     4
 40
5.5
 49
4.0
 49
-0.6
 49
0.3
 49
-0.6
  0
ENDTAB
  0
TABLE
  2
LAYER
 70
    12
  0
LAYER
  2
SIZE
 70
     0
 62
    30
  6
CONTINUOUS
  0
LAYER
  2
BASIS
 70
     0
 62
     6
  6
DASHDOT
  0
LAYER
  2
OUTLINE
 70
     0
 62
     3
  6
CONTINUOUS
  0
LAYER
  2
DETAIL
 70
     0
 62
     5
  6
CONTINUOUS
  0
LAYER
  2
ARRANGE
 70
     0
 62
     1
  6
CONTINUOUS
  0
LAYER
  2
ETC
 70
     0
 62
    61
  6
CONTINUOUS
  0
LAYER
  2
FIX
 70
     0
 62
    11
  6
CONTINUOUS
  0
LAYER
  2
NOTE
 70
     0
 62
     4
  6
CONTINUOUS
  0
LAYER
  2
0
 70
    64
 62
     7
  6
CONTINUOUS
  0
LAYER
  2
DEFPOINTS
 70
    64
 62
     7
  6
CONTINUOUS
  0
LAYER
  2
SERVICESPACE
 70
    64
 62
     2
  6
DASHDOT
  0
LAYER
  2
SYMBOLLINE
 70
    64
 62
    15
  6
CONTINUOUS
  0
ENDTAB
  0
TABLE
  2
STYLE
 70
     1
  0
STYLE
  2
STANDARD
 70
     0
 40
64.0
 41
0.9
 50
0.0
 71
     0
 42
64.0
  3
SIMPLEX.shx
  4
BIGFONT.shx
  0
ENDTAB
  0
TABLE
  2
APPID
 70
    20
  0
APPID
  2
ACAD
 70
     0
  0
APPID
  2
ACADANNOTATIVE
 70
     0
  0
APPID
  2
AUTOCAD_POSTSCRIPT_FIGURE
 70
     0
  0
APPID
  2
ACAD_EXEMPT_FROM_CAD_STANDARDS
 70
     0
  0
APPID
  2
ACAD_PSEXT
 70
     0
  0
APPID
  2
ACAUTHENVIRON
 70
     0
  0
APPID
  2
GENIUS_GENOENT_13
 70
     0
  0
APPID
  2
GENIUS_GENCFG_13
 70
     0
  0
APPID
  2
GENIUS_GENCFG0_13
 70
     0
  0
APPID
  2
GENIUS_GENCFG1_13
 70
     0
  0
APPID
  2
GENIUS_GENCFG2_13
 70
     0
  0
APPID
  2
GENIUS_GENCFG3_13
 70
     0
  0
APPID
  2
GENIUS_GENCFG4_13
 70
     0
  0
APPID
  2
GENIUS_GEVCFG0_13
 70
     0
  0
APPID
  2
CONTENTBLOCKICON
 70
     0
  0
APPID
  2
CONTENTBLOCKDESCRIPTION
 70
     0
  0
APPID
  2
ACAD_NAV_VCDISPLAY
 70
     0
  0
APPID
  2
ACAD_MLEADERVER
 70
     0
  0
APPID
  2
ACDBDYNAMICBLOCKTRUENAME
 70
     0
  0
APPID
  2
ACDBDYNAMICBLOCKGUID
 70
     0
  0
ENDTAB
  0
TABLE
  2
DIMSTYLE
 70
     1
  0
DIMSTYLE
  2
STANDARD
 70
     0
  3

  4

  5

  6

  7

 40
1.0
 41
12.0
 42
20.0
 43
200.0
 44
20.0
 45
0.0
 46
0.0
 47
0.0
 48
0.0
140
64.0
141
0.09
142
0.0
143
25.399999999999999
144
1.0
145
0.0
146
1.0
147
25.0
 71
     0
 72
     0
 73
     0
 74
     0
 75
     0
 76
     0
 77
     1
 78
     8
170
     0
171
     2
172
     1
173
     0
174
     1
175
     0
176
     7
177
     7
178
     7
  0
ENDTAB
  0
TABLE
  2
VIEW
 70
     1
  0
VIEW
  2
ALL
 70
     0
 40
4282.6198079999986
 10
0.0
 20
41.309904000000003
 41
5940.0
 11
0.0
 21
0.0
 31
1.0
 12
0.0
 22
0.0
 32
0.0
 42
50.0
 43
0.0
 44
0.0
 50
0.0
 71
     0
  0
ENDTAB
  0
TABLE
  2
UCS
 70
     0
  0
ENDTAB
  0
TABLE
  2
VPORT
 70
     1
  0
VPORT
  2
*ACTIVE
 70
     0
 10
0.0
 20
0.0
 11
1.0
 21
1.0
 12
-0.6797652233863119
 22
69.854746188333536
 13
0.0
 23
0.0
 14
1.0
 24
1.0
 15
0.0
 25
0.0
 16
0.0
 26
0.0
 36
1.0
 17
0.0
 27
0.0
 37
0.0
 40
893.68032262074018
 41
1.946595460614152
 42
50.0
 43
0.0
 44
0.0
 50
0.0
 51
0.0
 71
     0
 72
  1000
 73
     1
 74
     3
 75
     0
 76
     0
 77
     0
 78
     0
  0
ENDTAB
  0
ENDSEC
  0
SECTION
  2
BLOCKS
  0
ENDSEC
  0
SECTION
  2
ENTITIES
  0
LINE
  8
BASIS
  6
DASHDOT
 62
     6
 10
0.0
 20
-109.2854010143142
 30
0.0
 11
0.0
 21
121.6387447639145
 31
0.0
  0
LINE
  8
BASIS
  6
DASHDOT
 62
     6
 10
-95.967552833830439
 20
0.0
 30
0.0
 11
95.967646960021909
 21
0.0000000000000142
 31
0.0
  0
CIRCLE
  8
FIX
  6
CONTINUOUS
 62
    11
 10
0.0
 20
69.965255095611042
 30
0.0
 40
7.0441691683918863
  0
LINE
  8
NOTE
  6
CONTINUOUS
 62
     4
 10
0.0
 20
43.943437373168962
 30
0.0
 11
0.0
 21
95.98707281805315
 31
0.0
  0
LINE
  8
NOTE
  6
CONTINUOUS
 62
     4
 10
-26.021817722442069
 20
69.965255095611042
 30
0.0
 11
26.02181772244208
 21
69.96525509561107
 31
0.0
  0
CIRCLE
  8
FIX
  6
CONTINUOUS
 62
    11
 10
0.0
 20
5.9999999952671743
 30
0.0
 40
7.0441691683918863
  0
LINE
  8
NOTE
  6
CONTINUOUS
 62
     4
 10
0.0
 20
-20.021817727174891
 30
0.0
 11
0.0
 21
32.021817717709268
 31
0.0
  0
LINE
  8
NOTE
  6
CONTINUOUS
 62
     4
 10
-26.02181772244208
 20
5.9999999952671743
 30
0.0
 11
26.02181772244208
 21
5.9999999952671894
 31
0.0
  0
CIRCLE
  8
FIX
  6
CONTINUOUS
 62
    11
 10
0.0
 20
-69.999999944784179
 30
0.0
 40
7.0441691683918863
  0
LINE
  8
NOTE
  6
CONTINUOUS
 62
     4
 10
0.0
 20
-96.021817667226273
 30
0.0
 11
0.0
 21
-43.97818222234212
 31
0.0
  0
LINE
  8
NOTE
  6
CONTINUOUS
 62
     4
 10
-26.02181772244208
 20
-69.999999944784179
 30
0.0
 11
26.02181772244208
 21
-69.999999944784179
 31
0.0
  0
CIRCLE
  8
FIX
  6
CONTINUOUS
 62
    11
 10
0.0000000000000071
 20
80.000196303508062
 30
0.0
 40
7.0441691683918863
  0
LINE
  8
NOTE
  6
CONTINUOUS
 62
     4
 10
0.0
 20
27.510942853512599
 30
0.0
 11
0.0
 21
79.554578298396763
 31
0.0
  0
LINE
  8
NOTE
  6
CONTINUOUS
 62
     4
 10
26.021817722442051
 20
80.000196303508062
 30
0.0
 11
-26.021817722442101
 21
80.000196303508091
 31
0.0
  0
LINE
  8
SIZE
  6
CONTINUOUS
 62
    30
 10
30.003330334171551
 20
20.0
 30
0.0
 11
30.003330334171579
 21
328.42618669078172
 31
0.0
  0
LINE
  8
SIZE
  6
CONTINUOUS
 62
    30
 10
0.0
 20
141.6387447639145
 30
0.0
 11
0.0000000000000142
 21
328.42618669078172
 31
0.0
  0
LINE
  8
SIZE
  6
CONTINUOUS
 62
    30
 10
42.003330334171579
 20
308.42618669078172
 30
0.0
 11
54.003330334171579
 21
308.42618669078172
 31
0.0
  0
LINE
  8
SIZE
  6
CONTINUOUS
 62
    30
 10
-11.999999999999989
 20
308.42618669078172
 30
0.0
 11
-23.999999999999989
 21
308.42618669078172
 31
0.0
  0
LINE
  8
SIZE
  6
CONTINUOUS
 62
    30
 10
30.003330334171579
 20
308.42618669078172
 30
0.0
 11
0.0000000000000142
 21
308.42618669078172
 31
0.0
  0
CIRCLE
  8
SIZE
  6
CONTINUOUS
 62
    30
 10
30.003330334171579
 20
308.42618669078172
 30
0.0
 40
6.0
  0
LINE
  8
SIZE
  6
CONTINUOUS
 62
    30
 10
30.003330334171579
 20
308.42618669078172
 30
0.0
 11
42.003330334171579
 21
308.42618669078172
 31
0.0
  0
CIRCLE
  8
SIZE
  6
CONTINUOUS
 62
    30
 10
0.0000000000000142
 20
308.42618669078172
 30
0.0
 40
6.0
  0
LINE
  8
SIZE
  6
CONTINUOUS
 62
    30
 10
0.0000000000000142
 20
308.42618669078172
 30
0.0
 11
-11.999999999999989
 21
308.42618669078172
 31
0.0
  0
TEXT
  8
SIZE
  6
CONTINUOUS
 62
    30
 10
-31.62690626148563
 20
333.42618669078172
 30
0.0
 40
64.0
  1
30
 41
0.9
 72
     1
 11
15.00166516708579
 21
333.42618669078172
 31
0.0
  0
LINE
  8
SIZE
  6
CONTINUOUS
 62
    30
 10
20.508782677475441
 20
80.0000471195834
 30
0.0
 11
211.2437907112508
 21
80.000047119583343
 31
0.0
  0
LINE
  8
SIZE
  6
CONTINUOUS
 62
    30
 10
20.508782677495049
 20
-79.999952993389257
 30
0.0
 11
211.2437907112508
 21
-79.9999529933893
 31
0.0
  0
LINE
  8
SIZE
  6
CONTINUOUS
 62
    30
 10
191.24379071125071
 20
-67.9999529933893
 30
0.0
 11
191.2437907112508
 21
68.000047119583343
 31
0.0
  0
LINE
  8
SIZE
  6
CONTINUOUS
 62
    30
 10
191.2437907112508
 20
80.000047119583343
 30
0.0
 11
191.24379071125091
 21
344.42290426244051
 31
0.0
  0
CIRCLE
  8
SIZE
  6
CONTINUOUS
 62
    30
 10
191.24379071125071
 20
-79.9999529933893
 30
0.0
 40
6.0
  0
LINE
  8
SIZE
  6
CONTINUOUS
 62
    30
 10
191.24379071125071
 20
-79.9999529933893
 30
0.0
 11
191.24379071125071
 21
-67.9999529933893
 31
0.0
  0
CIRCLE
  8
SIZE
  6
CONTINUOUS
 62
    30
 10
191.2437907112508
 20
80.000047119583343
 30
0.0
 40
6.0
  0
LINE
  8
SIZE
  6
CONTINUOUS
 62
    30
 10
191.2437907112508
 20
80.000047119583343
 30
0.0
 11
191.2437907112508
 21
68.000047119583343
 31
0.0
  0
TEXT
  8
SIZE
  6
CONTINUOUS
 62
    30
 10
166.2437907112508
 20
113.1600471195834
 30
0.0
 40
64.0
  1
□160
 50
90.0
 41
0.9
 72
     1
 11
166.2437907112508
 21
218.211475691012
 31
0.0
  0
LINE
  8
SIZE
  6
CONTINUOUS
 62
    30
 10
-46.021817722442073
 20
69.96525509561107
 30
0.0
 11
-575.1592456340104
 21
69.965255095611212
 31
0.0
  0
LINE
  8
SIZE
  6
CONTINUOUS
 62
    30
 10
-115.9675528338305
 20
0.0000000000000142
 30
0.0
 11
-575.1592456340104
 21
0.0000000000001421
 31
0.0
  0
LINE
  8
SIZE
  6
CONTINUOUS
 62
    30
 10
-555.1592456340104
 20
-11.99999999999987
 30
0.0
 11
-555.1592456340104
 21
-23.999999999999861
 31
0.0
  0
LINE
  8
SIZE
  6
CONTINUOUS
 62
    30
 10
-555.1592456340104
 20
81.965255095611226
 30
0.0
 11
-555.1592456340104
 21
242.0863185434647
 31
0.0
  0
LINE
  8
SIZE
  6
CONTINUOUS
 62
    30
 10
-555.1592456340104
 20
0.0000000000001279
 30
0.0
 11
-555.1592456340104
 21
69.965255095611212
 31
0.0
  0
CIRCLE
  8
SIZE
  6
CONTINUOUS
 62
    30
 10
-555.1592456340104
 20
0.0000000000001279
 30
0.0
 40
6.0
  0
LINE
  8
SIZE
  6
CONTINUOUS
 62
    30
 10
-555.1592456340104
 20
0.0000000000001279
 30
0.0
 11
-555.1592456340104
 21
-11.99999999999986
 31
0.0
  0
CIRCLE
  8
SIZE
  6
CONTINUOUS
 62
    30
 10
-555.1592456340104
 20
69.965255095611212
 30
0.0
 40
6.0
  0
LINE
  8
SIZE
  6
CONTINUOUS
 62
    30
 10
-555.1592456340104
 20
69.965255095611212
 30
0.0
 11
-555.1592456340104
 21
81.965255095611226
 31
0.0
  0
TEXT
  8
SIZE
  6
CONTINUOUS
 62
    30
 10
-580.1592456340104
 20
123.8291756863217
 30
0.0
 40
64.0
  1
70
 50
90.0
 41
0.9
 72
     1
 11
-580.1592456340104
 21
170.45774711489321
 31
0.0
  0
LINE
  8
SIZE
  6
CONTINUOUS
 62
    30
 10
-115.9675528338305
 20
0.0000000000000142
 30
0.0
 11
-187.1591489740899
 21
0.0000000000000284
 31
0.0
  0
LINE
  8
SIZE
  6
CONTINUOUS
 62
    30
 10
-46.021817722442073
 20
5.9999999952671894
 30
0.0
 11
-187.1591489740899
 21
5.9999999952672169
 31
0.0
  0
LINE
  8
SIZE
  6
CONTINUOUS
 62
    30
 10
-167.1591489740899
 20
-11.99999999999998
 30
0.0
 11
-167.1591489740899
 21
-23.999999999999972
 31
0.0
  0
LINE
  8
SIZE
  6
CONTINUOUS
 62
    30
 10
-167.1591489740899
 20
17.99999999526722
 30
0.0
 11
-167.1591489740899
 21
170.41916868416121
 31
0.0
  0
LINE
  8
SIZE
  6
CONTINUOUS
 62
    30
 10
-167.1591489740899
 20
0.0000000000000284
 30
0.0
 11
-167.1591489740899
 21
5.9999999952672169
 31
0.0
  0
CIRCLE
  8
SIZE
  6
CONTINUOUS
 62
    30
 10
-167.1591489740899
 20
0.0000000000000284
 30
0.0
 40
6.0
  0
LINE
  8
SIZE
  6
CONTINUOUS
 62
    30
 10
-167.1591489740899
 20
0.0000000000000284
 30
0.0
 11
-167.1591489740899
 21
-11.99999999999997
 31
0.0
  0
CIRCLE
  8
SIZE
  6
CONTINUOUS
 62
    30
 10
-167.1591489740899
 20
5.9999999952672169
 30
0.0
 40
6.0
  0
LINE
  8
SIZE
  6
CONTINUOUS
 62
    30
 10
-167.1591489740899
 20
5.9999999952672169
 30
0.0
 11
-167.1591489740899
 21
17.99999999526722
 31
0.0
  0
TEXT
  8
SIZE
  6
CONTINUOUS
 62
    30
 10
-192.1591489740899
 20
109.76202582701831
 30
0.0
 40
64.0
  1
6
 50
90.0
 41
0.9
 72
     1
 11
-192.1591489740899
 21
127.5905972555897
 31
0.0
  0
LINE
  8
SIZE
  6
CONTINUOUS
 62
    30
 10
-115.9675528338305
 20
0.0000000000000142
 30
0.0
 11
-575.1592456340104
 21
0.0000000000001421
 31
0.0
  0
LINE
  8
SIZE
  6
CONTINUOUS
 62
    30
 10
-46.021817722442073
 20
-69.999999944784179
 30
0.0
 11
-575.1592456340104
 21
-69.999999944784037
 31
0.0
  0
LINE
  8
SIZE
  6
CONTINUOUS
 62
    30
 10
-555.1592456340104
 20
12.00000000000013
 30
0.0
 11
-555.1592456340104
 21
24.000000000000139
 31
0.0
  0
LINE
  8
SIZE
  6
CONTINUOUS
 62
    30
 10
-555.1592456340104
 20
-81.999999944784037
 30
0.0
 11
-555.15924563401052
 21
-260.66450131800451
 31
0.0
  0
LINE
  8
SIZE
  6
CONTINUOUS
 62
    30
 10
-555.1592456340104
 20
0.0000000000001279
 30
0.0
 11
-555.1592456340104
 21
-69.999999944784037
 31
0.0
  0
CIRCLE
  8
SIZE
  6
CONTINUOUS
 62
    30
 10
-555.1592456340104
 20
0.0000000000001279
 30
0.0
 40
6.0
  0
LINE
  8
SIZE
  6
CONTINUOUS
 62
    30
 10
-555.1592456340104
 20
0.0000000000001279
 30
0.0
 11
-555.1592456340104
 21
12.00000000000013
 31
0.0
  0
CIRCLE
  8
SIZE
  6
CONTINUOUS
 62
    30
 10
-555.1592456340104
 20
-69.999999944784037
 30
0.0
 40
6.0
  0
LINE
  8
SIZE
  6
CONTINUOUS
 62
    30
 10
-555.1592456340104
 20
-69.999999944784037
 30
0.0
 11
-555.1592456340104
 21
-81.999999944784037
 31
0.0
  0
TEXT
  8
SIZE
  6
CONTINUOUS
 62
    30
 10
-580.1592456340104
 20
-235.6645013180046
 30
0.0
 40
64.0
  1
70
 50
90.0
 41
0.9
 72
     1
 11
-580.1592456340104
 21
-189.03592988943311
 31
0.0
  0
LINE
  8
SIZE
  6
CONTINUOUS
 62
    30
 10
-19.49121732250493
 20
-79.999952993389229
 30
0.0
 11
-240.42806508033209
 21
-79.999952993389158
 31
0.0
  0
LINE
  8
SIZE
  6
CONTINUOUS
 62
    30
 10
-3.498168316207114
 20
-85.035574387582258
 30
0.0
 11
-240.42806508033209
 21
-85.03557438758223
 31
0.0
  0
LINE
  8
SIZE
  6
CONTINUOUS
 62
    30
 10
-220.42806508033209
 20
-67.999952993389172
 30
0.0
 11
-220.42806508033209
 21
-55.999952993389172
 31
0.0
  0
LINE
  8
SIZE
  6
CONTINUOUS
 62
    30
 10
-220.42806508033209
 20
-97.03557438758223
 30
0.0
 11
-220.42806508033209
 21
-209.7054340177352
 31
0.0
  0
LINE
  8
SIZE
  6
CONTINUOUS
 62
    30
 10
-220.42806508033209
 20
-79.999952993389172
 30
0.0
 11
-220.42806508033209
 21
-85.03557438758223
 31
0.0
  0
CIRCLE
  8
SIZE
  6
CONTINUOUS
 62
    30
 10
-220.42806508033209
 20
-79.999952993389172
 30
0.0
 40
6.0
  0
LINE
  8
SIZE
  6
CONTINUOUS
 62
    30
 10
-220.42806508033209
 20
-79.999952993389172
 30
0.0
 11
-220.42806508033209
 21
-67.999952993389172
 31
0.0
  0
CIRCLE
  8
SIZE
  6
CONTINUOUS
 62
    30
 10
-220.42806508033209
 20
-85.03557438758223
 30
0.0
 40
6.0
  0
LINE
  8
SIZE
  6
CONTINUOUS
 62
    30
 10
-220.42806508033209
 20
-85.03557438758223
 30
0.0
 11
-220.42806508033209
 21
-97.03557438758223
 31
0.0
  0
TEXT
  8
SIZE
  6
CONTINUOUS
 62
    30
 10
-245.42806508033209
 20
-184.70543401773531
 30
0.0
 40
64.0
  1
5
 50
90.0
 41
0.9
 72
     1
 11
-245.42806508033209
 21
-165.5054340177353
 31
0.0
  0
LINE
  8
SIZE
  6
CONTINUOUS
 62
    30
 10
-43.000000004728747
 20
-47.504089243498584
 30
0.0
 11
-452.25014154010307
 21
-47.504089243498463
 31
0.0
  0
LINE
  8
SIZE
  6
CONTINUOUS
 62
    30
 10
-43.000111265100031
 20
47.504636653301453
 30
0.0
 11
-452.25014154010307
 21
47.504636653301567
 31
0.0
  0
LINE
  8
SIZE
  6
CONTINUOUS
 62
    30
 10
-432.25014154010307
 20
-35.50408924349847
 30
0.0
 11
-432.25014154010307
 21
35.50463665330156
 31
0.0
  0
LINE
  8
SIZE
  6
CONTINUOUS
 62
    30
 10
-432.25014154010307
 20
47.504636653301567
 30
0.0
 11
-432.25014154010279
 21
270.9504957111152
 31
0.0
  0
CIRCLE
  8
SIZE
  6
CONTINUOUS
 62
    30
 10
-432.25014154010307
 20
-47.504089243498463
 30
0.0
 40
6.0
  0
LINE
  8
SIZE
  6
CONTINUOUS
 62
    30
 10
-432.25014154010307
 20
-47.504089243498463
 30
0.0
 11
-432.25014154010307
 21
-35.50408924349847
 31
0.0
  0
CIRCLE
  8
SIZE
  6
CONTINUOUS
 62
    30
 10
-432.25014154010307
 20
47.504636653301567
 30
0.0
 40
6.0
  0
LINE
  8
SIZE
  6
CONTINUOUS
 62
    30
 10
-432.25014154010307
 20
47.504636653301567
 30
0.0
 11
-432.25014154010307
 21
35.50463665330156
 31
0.0
  0
TEXT
  8
SIZE
  6
CONTINUOUS
 62
    30
 10
-467.91680820676959
 20
82.201924282543544
 30
0.0
 40
64.0
  1
φ95
 50
90.0
 41
0.9
 72
     1
 11
-467.91680820676959
 21
169.15049571111501
 31
0.0
  0
LINE
  8
SIZE
  6
CONTINUOUS
 62
    30
 10
-90.900000000000077
 20
-22.849725809598599
 30
0.0
 11
-309.72787987941678
 21
-22.849725809598539
 31
0.0
  0
LINE
  8
SIZE
  6
CONTINUOUS
 62
    30
 10
-88.716620187200064
 20
25.91879111670141
 30
0.0
 11
-309.72787987941678
 21
25.91879111670147
 31
0.0
  0
LINE
  8
SIZE
  6
CONTINUOUS
 62
    30
 10
-289.72787987941678
 20
-34.849725809598553
 30
0.0
 11
-289.72787987941678
 21
-46.849725809598553
 31
0.0
  0
LINE
  8
SIZE
  6
CONTINUOUS
 62
    30
 10
-289.72787987941678
 20
37.91879111670147
 30
0.0
 11
-289.72787987941678
 21
264.35006830833743
 31
0.0
  0
LINE
  8
SIZE
  6
CONTINUOUS
 62
    30
 10
-289.72787987941678
 20
-22.849725809598549
 30
0.0
 11
-289.72787987941678
 21
25.91879111670147
 31
0.0
  0
CIRCLE
  8
SIZE
  6
CONTINUOUS
 62
    30
 10
-289.72787987941678
 20
-22.849725809598549
 30
0.0
 40
6.0
  0
LINE
  8
SIZE
  6
CONTINUOUS
 62
    30
 10
-289.72787987941678
 20
-22.849725809598549
 30
0.0
 11
-289.72787987941678
 21
-34.849725809598553
 31
0.0
  0
CIRCLE
  8
SIZE
  6
CONTINUOUS
 62
    30
 10
-289.72787987941678
 20
25.91879111670147
 30
0.0
 40
6.0
  0
LINE
  8
SIZE
  6
CONTINUOUS
 62
    30
 10
-289.72787987941678
 20
25.91879111670147
 30
0.0
 11
-289.72787987941678
 21
37.918791116701492
 31
0.0
  0
TEXT
  8
SIZE
  6
CONTINUOUS
 62
    30
 10
-325.39454654608352
 20
78.344354022623151
 30
0.0
 40
64.0
  1
φ46
 50
90.0
 41
0.9
 72
     1
 11
-325.39454654608352
 21
163.92149687976601
 31
0.0
  0
LINE
  8
SIZE
  6
CONTINUOUS
 62
    30
 10
0.0
 20
-129.2854010143142
 30
0.0
 11
-0.0000000000000071
 21
-275.67477456083429
 31
0.0
  0
LINE
  8
SIZE
  6
CONTINUOUS
 62
    30
 10
-45.299999999999933
 20
-66.813808977898574
 30
0.0
 11
-45.299999999999969
 21
-275.67477456083429
 31
0.0
  0
LINE
  8
SIZE
  6
CONTINUOUS
 62
    30
 10
-57.299999999999969
 20
-255.67477456083429
 30
0.0
 11
-69.299999999999969
 21
-255.67477456083429
 31
0.0
  0
LINE
  8
SIZE
  6
CONTINUOUS
 62
    30
 10
11.999999999999989
 20
-255.67477456083429
 30
0.0
 11
249.5428571428572
 21
-255.67477456083429
 31
0.0
  0
LINE
  8
SIZE
  6
CONTINUOUS
 62
    30
 10
-45.299999999999969
 20
-255.67477456083429
 30
0.0
 11
-0.0000000000000071
 21
-255.67477456083429
 31
0.0
  0
CIRCLE
  8
SIZE
  6
CONTINUOUS
 62
    30
 10
-45.299999999999969
 20
-255.67477456083429
 30
0.0
 40
6.0
  0
LINE
  8
SIZE
  6
CONTINUOUS
 62
    30
 10
-45.299999999999969
 20
-255.67477456083429
 30
0.0
 11
-57.299999999999969
 21
-255.67477456083429
 31
0.0
  0
CIRCLE
  8
SIZE
  6
CONTINUOUS
 62
    30
 10
-0.0000000000000071
 20
-255.67477456083429
 30
0.0
 40
6.0
  0
LINE
  8
SIZE
  6
CONTINUOUS
 62
    30
 10
-0.0000000000000071
 20
-255.67477456083429
 30
0.0
 11
12.0
 21
-255.67477456083429
 31
0.0
  0
TEXT
  8
SIZE
  6
CONTINUOUS
 62
    30
 10
49.0
 20
-230.67477456083429
 30
0.0
 40
64.0
  1
45.5
 41
0.9
 72
     1
 11
136.7714285714286
 21
-230.67477456083429
 31
0.0
  0
LINE
  8
SIZE
  6
CONTINUOUS
 62
    30
 10
0.0
 20
-129.2854010143142
 30
0.0
 11
-0.0000000000000142
 21
-384.11544475201208
 31
0.0
  0
LINE
  8
SIZE
  6
CONTINUOUS
 62
    30
 10
-73.5
 20
-40.249591358498563
 30
0.0
 11
-73.500000000000028
 21
-384.11544475201208
 31
0.0
  0
LINE
  8
SIZE
  6
CONTINUOUS
 62
    30
 10
-85.500000000000014
 20
-364.11544475201208
 30
0.0
 11
-97.5
 21
-364.11544475201208
 31
0.0
  0
LINE
  8
SIZE
  6
CONTINUOUS
 62
    30
 10
11.999999999999989
 20
-364.11544475201208
 30
0.0
 11
249.5428571428572
 21
-364.11544475201208
 31
0.0
  0
LINE
  8
SIZE
  6
CONTINUOUS
 62
    30
 10
-73.500000000000014
 20
-364.11544475201208
 30
0.0
 11
-0.0000000000000142
 21
-364.11544475201208
 31
0.0
  0
CIRCLE
  8
SIZE
  6
CONTINUOUS
 62
    30
 10
-73.500000000000014
 20
-364.11544475201208
 30
0.0
 40
6.0
  0
LINE
  8
SIZE
  6
CONTINUOUS
 62
    30
 10
-73.500000000000014
 20
-364.11544475201208
 30
0.0
 11
-85.500000000000014
 21
-364.11544475201208
 31
0.0
  0
CIRCLE
  8
SIZE
  6
CONTINUOUS
 62
    30
 10
-0.0000000000000142
 20
-364.11544475201208
 30
0.0
 40
6.0
  0
LINE
  8
SIZE
  6
CONTINUOUS
 62
    30
 10
-0.0000000000000142
 20
-364.11544475201208
 30
0.0
 11
11.999999999999989
 21
-364.11544475201208
 31
0.0
  0
TEXT
  8
SIZE
  6
CONTINUOUS
 62
    30
 10
48.999999999999993
 20
-339.11544475201208
 30
0.0
 40
64.0
  1
73.5
 41
0.9
 72
     1
 11
136.7714285714286
 21
-339.11544475201208
 31
0.0
  0
TEXT
  8
NOTE
  6
CONTINUOUS
 62
     4
 10
-192.46429775451631
 20
467.87819162546418
 30
0.0
 40
64.0
  1
EL
 41
0.9
 72
     2
 11
-107.4357263259449
 21
467.87819162546418
 31
0.0
  0
TEXT
  8
NOTE
  6
CONTINUOUS
 62
     4
 10
-547.08943631225577
 20
323.02024387141552
 30
0.0
 40
64.0
  1
2-φ4×10
 41
0.9
 72
     2
 11
-145.53515059797019
 21
323.02024387141552
 31
0.0
  0
TEXT
  8
NOTE
  6
CONTINUOUS
 62
     4
 10
-573.92818902898637
 20
-427.80648568144562
 30
0.0
 40
64.0
  1
2-φ5×7
 41
0.9
 72
     2
 11
-216.25961760041491
 21
-427.80648568144562
 31
0.0
  0
LINE
  8
NOTE
  6
CONTINUOUS
 62
     4
 10
-3.1069402818735838
 20
85.379008567834774
 30
0.0
 11
0.0000000000000071
 21
80.000196303508062
 31
0.0
  0
LINE
  8
NOTE
  6
CONTINUOUS
 62
     4
 10
0.0000000000000071
 20
80.000196303508062
 30
0.0
 11
-0.0012737193609382
 21
86.211854509465581
 31
0.0
  0
LINE
  8
NOTE
  6
CONTINUOUS
 62
     4
 10
0.0000000000000071
 20
80.000196303508062
 30
0.0
 11
-3.1082140012345292
 21
91.590666773792265
 31
0.0
  0
LINE
  8
NOTE
  6
CONTINUOUS
 62
     4
 10
-3.1082140012345429
 20
91.590666773792222
 30
0.0
 11
-95.435726325944884
 21
435.87819162546418
 31
0.0
  0
LINE
  8
NOTE
  6
CONTINUOUS
 62
     4
 10
-95.435726325944884
 20
435.87819162546418
 30
0.0
 11
-192.46429775451631
 21
435.87819162546418
 31
0.0
  0
LINE
  8
NOTE
  6
CONTINUOUS
 62
     4
 10
-4.0013790337067956
 20
10.75117512554932
 30
0.0
 11
0.0
 21
5.9999999952671743
 31
0.0
  0
LINE
  8
NOTE
  6
CONTINUOUS
 62
     4
 10
0.0
 20
5.9999999952671743
 30
0.0
 11
-1.0896991127631639
 21
12.11532951489596
 31
0.0
  0
LINE
  8
NOTE
  6
CONTINUOUS
 62
     4
 10
0.0
 20
5.9999999952671743
 30
0.0
 11
-5.0910781464699681
 21
16.866504645178111
 31
0.0
  0
LINE
  8
NOTE
  6
CONTINUOUS
 62
     4
 10
-5.0910781464699681
 20
16.866504645178111
 30
0.0
 11
-133.53515059797019
 21
291.02024387141552
 31
0.0
  0
LINE
  8
NOTE
  6
CONTINUOUS
 62
     4
 10
-133.53515059797019
 20
291.02024387141552
 30
0.0
 11
-548.48483332455089
 21
291.02024387141552
 31
0.0
  0
LINE
  8
NOTE
  6
CONTINUOUS
 62
     4
 10
-1.3680885197204591
 20
-76.059128024979302
 30
0.0
 11
0.0
 21
-69.999999944784179
 31
0.0
  0
LINE
  8
NOTE
  6
CONTINUOUS
 62
     4
 10
0.0
 20
-69.999999944784179
 30
0.0
 11
-4.2143703294548658
 21
-74.563308176342758
 31
0.0
  0
LINE
  8
NOTE
  6
CONTINUOUS
 62
     4
 10
0.0
 20
-69.999999944784179
 30
0.0
 11
-5.5824588491753246
 21
-80.62243625653791
 31
0.0
  0
LINE
  8
NOTE
  6
CONTINUOUS
 62
     4
 10
-5.5824588491753317
 20
-80.622436256537895
 30
0.0
 11
-204.25961760041491
 21
-459.80648568144562
 31
0.0
  0
LINE
  8
NOTE
  6
CONTINUOUS
 62
     4
 10
-204.25961760041491
 20
-459.80648568144562
 30
0.0
 11
-580.57343562287417
 21
-459.80648568144562
 31
0.0
  0
TEXT
  8
ETC
  6
CONTINUOUS
 62
    61
 10
190.4189420775588
 20
535.49821371591997
 30
0.0
 40
64.0
  1
V-08P8_5
 41
0.9
  0
TEXT
  8
ETC
  6
CONTINUOUS
 62
    61
 10
186.2329480775584
 20
417.54290370108879
 30
0.0
 40
64.0
  1
換気扇
 41
0.9
  0
TEXT
  8
ETC
  6
CONTINUOUS
 62
    61
 10
236.93434632611431
 20
309.3941308148635
 30
0.0
 40
40.0
  1
V-08P8
 41
0.9
  0
CIRCLE
  8
ARRANGE
  6
CONTINUOUS
 62
     1
 10
0.0
 20
0.0
 30
0.0
 40
40.0
  0
POINT
  8
ARRANGE
  6
CONTINUOUS
 62
     1
 10
0.0
 20
0.0
 30
0.0
 50
180.0
  0
ARC
  8
DETAIL
  6
CONTINUOUS
 62
     5
 10
14.5
 20
-80.246781419026732
 30
0.0
 40
0.49999999999999
 50
0.0000000000016284
 51
91.000000000171156
  0
ARC
  8
DETAIL
  6
CONTINUOUS
 62
     5
 10
17.5
 20
-80.194416224232995
 30
0.0
 40
0.5
 50
91.000000000171156
 51
180.0
  0
ARC
  8
DETAIL
  6
CONTINUOUS
 62
     5
 10
15.5
 20
-84.299803696595902
 30
0.0
 40
0.5
 50
179.99999999999841
 51
270.0
  0
LINE
  8
DETAIL
  6
CONTINUOUS
 62
     5
 10
16.5
 20
-84.799803696595902
 30
0.0
 11
15.5
 21
-84.799803696595902
 31
0.0
  0
ARC
  8
DETAIL
  6
CONTINUOUS
 62
     5
 10
16.5
 20
-84.299803696595902
 30
0.0
 40
0.5
 50
270.0
 51
0.0000000000016284
  0
LINE
  8
DETAIL
  6
CONTINUOUS
 62
     5
 10
15.0
 20
-80.246781419026732
 30
0.0
 11
15.0
 21
-84.299803696595873
 31
0.0
  0
LINE
  8
DETAIL
  6
CONTINUOUS
 62
     5
 10
17.0
 20
-80.194416224232995
 30
0.0
 11
17.0
 21
-84.299803696595873
 31
0.0
  0
ARC
  8
DETAIL
  6
CONTINUOUS
 62
     5
 10
14.799999999999949
 20
-83.89980369659591
 30
0.0
 40
0.399999999999998
 50
180.0
 51
270.0
  0
LINE
  8
DETAIL
  6
CONTINUOUS
 62
     5
 10
14.399999999999981
 20
-83.699803696595893
 30
0.0
 11
14.399999999999981
 21
-83.89980369659591
 31
0.0
  0
ARC
  8
DETAIL
  6
CONTINUOUS
 62
     5
 10
14.799999999999949
 20
-83.699803696595893
 30
0.0
 40
0.399999999999992
 50
90.0
 51
180.0
  0
LINE
  8
DETAIL
  6
CONTINUOUS
 62
     5
 10
15.0
 20
-83.299803696595902
 30
0.0
 11
14.799999999999949
 21
-83.299803696595902
 31
0.0
  0
LINE
  8
DETAIL
  6
CONTINUOUS
 62
     5
 10
15.0
 20
-84.299803696595902
 30
0.0
 11
14.799999999999949
 21
-84.299803696595902
 31
0.0
  0
LINE
  8
DETAIL
  6
CONTINUOUS
 62
     5
 10
27.536297795500101
 20
79.519548437575878
 30
0.0
 11
27.71409232600001
 21
52.362747330199973
 31
0.0
  0
LINE
  8
DETAIL
  6
CONTINUOUS
 62
     5
 10
27.71409232600001
 20
52.362747330199973
 30
0.0
 11
27.816936161399891
 21
26.18147050730002
 31
0.0
  0
LINE
  8
DETAIL
  6
CONTINUOUS
 62
     5
 10
27.816936161399891
 20
26.18147050730002
 30
0.0
 11
27.85121727850003
 21
0.0001963926999906
 31
0.0
  0
LINE
  8
DETAIL
  6
CONTINUOUS
 62
     5
 10
27.85121727850003
 20
0.0001963926999906
 30
0.0
 11
27.816936161700031
 21
-26.181077741700008
 31
0.0
  0
LINE
  8
DETAIL
  6
CONTINUOUS
 62
     5
 10
27.816936161700031
 20
-26.181077741700008
 30
0.0
 11
27.71409232639996
 21
-52.362354624100021
 31
0.0
  0
LINE
  8
DETAIL
  6
CONTINUOUS
 62
     5
 10
27.71409232639996
 20
-52.362354624100021
 30
0.0
 11
27.536297795923701
 21
-79.519155830566774
 31
0.0
  0
LINE
  8
DETAIL
  6
CONTINUOUS
 62
     5
 10
0.0
 20
79.491392607000023
 30
0.0
 11
0.0
 21
-79.490999999999985
 31
0.0
  0
LINE
  8
DETAIL
  6
CONTINUOUS
 62
     5
 10
28.709311964100038
 20
79.499073399100013
 30
0.0
 11
0.5087262031998989
 21
79.991316454599996
 31
0.0
  0
ARC
  8
DETAIL
  6
CONTINUOUS
 62
     5
 10
28.691859557599969
 20
78.499225704000025
 30
0.0
 40
1.000000000000014
 50
0.4517529808007539
 51
88.999999999998238
  0
ARC
  8
DETAIL
  6
CONTINUOUS
 62
     5
 10
0.5
 20
-79.490991015600002
 30
0.0
 40
0.500000000000004
 50
180.00102954320141
 51
270.9999820337955
  0
ARC
  8
DETAIL
  6
CONTINUOUS
 62
     5
 10
0.5
 20
79.491392607000023
 30
0.0
 40
0.5
 50
88.999999999998238
 51
180.0
  0
LINE
  8
DETAIL
  6
CONTINUOUS
 62
     5
 10
28.709311963999991
 20
-79.498680792099975
 30
0.0
 11
0.5087262031998989
 21
-79.990923847600016
 31
0.0
  0
ARC
  8
DETAIL
  6
CONTINUOUS
 62
     5
 10
28.691859557599969
 20
-78.498833097000016
 30
0.0
 40
1.000000000000008
 50
270.99999999929821
 51
359.54824701919932
  0
ARC
  8
DETAIL
  6
CONTINUOUS
 62
     5
 10
-9970.0
 20
0.0001963034999903
 30
0.0
 40
10000.0
 50
359.55018409010017
 51
0.4498159098998205
  0
LINE
  8
DETAIL
  6
CONTINUOUS
 62
     5
 10
-45.299999999999841
 20
16.080827398178229
 30
0.0
 11
-45.299999999999947
 21
27.030528674901401
 31
0.0
  0
ARC
  8
DETAIL
  6
CONTINUOUS
 62
     5
 10
-44.799999999999947
 20
27.030528674901401
 30
0.0
 40
0.5
 50
90.177270337308357
 51
180.0
  0
LINE
  8
DETAIL
  6
CONTINUOUS
 62
     5
 10
-43.299999999999947
 20
26.32494371160141
 30
0.0
 11
-45.299999999999947
 21
26.289342214334312
 31
0.0
  0
LINE
  8
DETAIL
  6
CONTINUOUS
 62
     5
 10
-44.801546973100017
 20
27.5305262818014
 30
0.0
 11
-43.299999999999947
 21
27.53517148520146
 31
0.0
  0
LINE
  8
DETAIL
  6
CONTINUOUS
 62
     5
 10
-43.298550658199929
 20
-23.882951086998599
 30
0.0
 11
-45.299999999999947
 21
-23.922122681832921
 31
0.0
  0
LINE
  8
DETAIL
  6
CONTINUOUS
 62
     5
 10
-45.295265616100103
 20
15.95072368060139
 30
0.0
 11
-45.299985090599989
 21
16.080417678901402
 31
0.0
  0
LINE
  8
DETAIL
  6
CONTINUOUS
 62
     5
 10
-45.271585465100088
 20
15.762893044801389
 30
0.0
 11
-45.295265616100103
 21
15.95072368060139
 31
0.0
  0
LINE
  8
DETAIL
  6
CONTINUOUS
 62
     5
 10
-23.453834890700019
 20
12.94161592249009
 30
0.0
 11
-40.939459056000032
 21
14.034719871401389
 31
0.0
  0
LINE
  8
DETAIL
  6
CONTINUOUS
 62
     5
 10
-43.299999999999947
 20
14.181638016601401
 30
0.0
 11
-43.299999999999947
 21
-44.448224262120497
 31
0.0
  0
LINE
  8
DETAIL
  6
CONTINUOUS
 62
     5
 10
-40.939459056000032
 20
14.034719871401389
 30
0.0
 11
-43.435318966400018
 21
14.190060158801399
 31
0.0
  0
LINE
  8
DETAIL
  6
CONTINUOUS
 62
     5
 10
-43.435318010999943
 20
14.190073207501401
 30
0.0
 11
-43.502049806600098
 21
14.19530194650139
 31
0.0
  0
LINE
  8
DETAIL
  6
CONTINUOUS
 62
     5
 10
-45.228166124200023
 20
15.57812821160141
 30
0.0
 11
-45.271585465100088
 21
15.762893044801389
 31
0.0
  0
LINE
  8
DETAIL
  6
CONTINUOUS
 62
     5
 10
-45.165473768100007
 20
15.398278760801389
 30
0.0
 11
-45.228166124200023
 21
15.57812821160141
 31
0.0
  0
LINE
  8
DETAIL
  6
CONTINUOUS
 62
     5
 10
-45.084129937400007
 20
15.2251519044014
 30
0.0
 11
-45.165473768100007
 21
15.398278760801389
 31
0.0
  0
LINE
  8
DETAIL
  6
CONTINUOUS
 62
     5
 10
-44.984975842299953
 20
15.060495046901391
 30
0.0
 11
-45.084129937400007
 21
15.2251519044014
 31
0.0
  0
LINE
  8
DETAIL
  6
CONTINUOUS
 62
     5
 10
-44.86896230730008
 20
14.90597430230139
 30
0.0
 11
-44.984975842299953
 21
15.060495046901391
 31
0.0
  0
LINE
  8
DETAIL
  6
CONTINUOUS
 62
     5
 10
-44.737285044200007
 20
14.763159070301411
 30
0.0
 11
-44.86896230730008
 21
14.90597430230139
 31
0.0
  0
LINE
  8
DETAIL
  6
CONTINUOUS
 62
     5
 10
-44.591222856500053
 20
14.633507014001401
 30
0.0
 11
-44.737285044200007
 21
14.763159070301411
 31
0.0
  0
LINE
  8
DETAIL
  6
CONTINUOUS
 62
     5
 10
-44.432261144800009
 20
14.51833382860141
 30
0.0
 11
-44.591222856500053
 21
14.633507014001401
 31
0.0
  0
LINE
  8
DETAIL
  6
CONTINUOUS
 62
     5
 10
-44.26197958260002
 20
14.418849219401411
 30
0.0
 11
-44.432261144800009
 21
14.51833382860141
 31
0.0
  0
LINE
  8
DETAIL
  6
CONTINUOUS
 62
     5
 10
-44.082060220800031
 20
14.336022534401391
 30
0.0
 11
-44.26197958260002
 21
14.418849219401411
 31
0.0
  0
LINE
  8
DETAIL
  6
CONTINUOUS
 62
     5
 10
-43.894233758099972
 20
14.27073288180139
 30
0.0
 11
-44.082060220800031
 21
14.336022534401391
 31
0.0
  0
LINE
  8
DETAIL
  6
CONTINUOUS
 62
     5
 10
-43.700272890499953
 20
14.22364149840141
 30
0.0
 11
-43.894233758099972
 21
14.27073288180139
 31
0.0
  0
LINE
  8
DETAIL
  6
CONTINUOUS
 62
     5
 10
-43.502049806600098
 20
14.19530194650139
 30
0.0
 11
-43.700272890499953
 21
14.22364149840141
 31
0.0
  0
LINE
  8
DETAIL
  6
CONTINUOUS
 62
     5
 10
-45.282310233500077
 20
24.376018324101409
 30
0.0
 11
-45.244909181599951
 21
24.55773944830139
 31
0.0
  0
LINE
  8
DETAIL
  6
CONTINUOUS
 62
     5
 10
-45.29902544280003
 20
24.19178872670139
 30
0.0
 11
-45.282310233500077
 21
24.376018324101409
 31
0.0
  0
LINE
  8
DETAIL
  6
CONTINUOUS
 62
     5
 10
-45.299990797700048
 20
24.1356635488014
 30
0.0
 11
-45.29902544280003
 21
24.19178872670139
 31
0.0
  0
LINE
  8
DETAIL
  6
CONTINUOUS
 62
     5
 10
-44.463484633399958
 20
25.604431025701391
 30
0.0
 11
-44.291440192399932
 21
25.703515019901459
 31
0.0
  0
LINE
  8
DETAIL
  6
CONTINUOUS
 62
     5
 10
-44.623293889500019
 20
25.49012298590139
 30
0.0
 11
-44.463484633399958
 21
25.604431025701391
 31
0.0
  0
LINE
  8
DETAIL
  6
CONTINUOUS
 62
     5
 10
-44.899813840799993
 20
25.2205900527014
 30
0.0
 11
-44.769242839700041
 21
25.361727831601399
 31
0.0
  0
LINE
  8
DETAIL
  6
CONTINUOUS
 62
     5
 10
-44.769242839700041
 20
25.361727831601399
 30
0.0
 11
-44.623293889500019
 21
25.49012298590139
 31
0.0
  0
LINE
  8
DETAIL
  6
CONTINUOUS
 62
     5
 10
-45.109893400400097
 20
24.905595911601409
 30
0.0
 11
-45.013756288600007
 21
25.068040823501409
 31
0.0
  0
LINE
  8
DETAIL
  6
CONTINUOUS
 62
     5
 10
-45.013756288600007
 20
25.068040823501409
 30
0.0
 11
-44.899813840799993
 21
25.2205900527014
 31
0.0
  0
LINE
  8
DETAIL
  6
CONTINUOUS
 62
     5
 10
-45.187226732300019
 20
24.734902999301401
 30
0.0
 11
-45.109893400400097
 21
24.905595911601409
 31
0.0
  0
LINE
  8
DETAIL
  6
CONTINUOUS
 62
     5
 10
-45.244909181599951
 20
24.55773944830139
 30
0.0
 11
-45.187226732300019
 21
24.734902999301401
 31
0.0
  0
LINE
  8
DETAIL
  6
CONTINUOUS
 62
     5
 10
-43.719536875699987
 20
25.90017807480146
 30
0.0
 11
-43.516670848900048
 21
25.929860787601399
 31
0.0
  0
LINE
  8
DETAIL
  6
CONTINUOUS
 62
     5
 10
-43.434036271800103
 20
25.93655750740146
 30
0.0
 11
-23.453834890700019
 21
27.176497592915641
 31
0.0
  0
LINE
  8
DETAIL
  6
CONTINUOUS
 62
     5
 10
-43.516670848900048
 20
25.929860787601399
 30
0.0
 11
-43.434035841900027
 21
25.936545602301411
 31
0.0
  0
LINE
  8
DETAIL
  6
CONTINUOUS
 62
     5
 10
-43.917594519100021
 20
25.852163857901392
 30
0.0
 11
-43.719536875699987
 21
25.90017807480146
 31
0.0
  0
LINE
  8
DETAIL
  6
CONTINUOUS
 62
     5
 10
-44.108857199400063
 20
25.786371061301399
 30
0.0
 11
-43.917594519100021
 21
25.852163857901392
 31
0.0
  0
LINE
  8
DETAIL
  6
CONTINUOUS
 62
     5
 10
-44.291440192399932
 20
25.703515019901459
 30
0.0
 11
-44.108857199400063
 21
25.786371061301399
 31
0.0
  0
LINE
  8
DETAIL
  6
CONTINUOUS
 62
     5
 10
-23.453834890700019
 20
-47.504089467383849
 30
0.0
 11
-23.453834890700019
 21
12.94161592249009
 31
0.0
  0
LINE
  8
DETAIL
  6
CONTINUOUS
 62
     5
 10
-36.299999999999947
 20
-44.44404010349858
 30
0.0
 11
-36.299999999999947
 21
-34.369370345998597
 31
0.0
  0
LINE
  8
DETAIL
  6
CONTINUOUS
 62
     5
 10
-36.299999999999947
 20
-44.44404010349858
 30
0.0
 11
-36.299999999999947
 21
-34.369370441998569
 31
0.0
  0
ARC
  8
DETAIL
  6
CONTINUOUS
 62
     5
 10
-33.800065575100007
 20
-34.369341473798578
 30
0.0
 40
2.4999302735000719
 50
95.215908571404341
 51
180.0006617194997
  0
ARC
  8
DETAIL
  6
CONTINUOUS
 62
     5
 10
-34.299999999999947
 20
-28.8921732410986
 30
0.0
 40
3.0
 50
275.21590856959909
 51
0.0000012254008508
  0
ARC
  8
DETAIL
  6
CONTINUOUS
 62
     5
 10
-28.299999999999951
 20
-27.703446689898581
 30
0.0
 40
3.000000000000083
 50
91.000000004698919
 51
179.58873503739969
  0
ARC
  8
DETAIL
  6
CONTINUOUS
 62
     5
 10
-27.700000000000049
 20
-17.69145037049859
 30
0.0
 40
7.0000000000000426
 50
271.0000000069009
 51
307.34534456550188
  0
LINE
  8
DETAIL
  6
CONTINUOUS
 62
     5
 10
-31.299999999999951
 20
-28.892173176898581
 30
0.0
 11
-31.299999999999951
 21
-27.681899533098569
 31
0.0
  0
LINE
  8
DETAIL
  6
CONTINUOUS
 62
     5
 10
-28.35235721959998
 20
-24.703903604498549
 30
0.0
 11
-27.577833154100059
 21
-24.6903842365986
 31
0.0
  0
LINE
  8
DETAIL
  6
CONTINUOUS
 62
     5
 10
-35.742845258899933
 20
-44.443580010098572
 30
0.0
 11
-23.453834890700019
 21
-44.426851213205182
 31
0.0
  0
LINE
  8
DETAIL
  6
CONTINUOUS
 62
     5
 10
-44.804363266699973
 20
-47.504100000000001
 30
0.0
 11
0.0
 21
-47.504077897167143
 31
0.0
  0
ARC
  8
DETAIL
  6
CONTINUOUS
 62
     5
 10
-44.800000000004843
 20
-47.004119038458732
 30
0.0
 40
0.499999999999998
 50
180.0000135731996
 51
269.50000012079153
  0
LINE
  8
DETAIL
  6
CONTINUOUS
 62
     5
 10
-45.299999999999947
 20
-44.449453362802188
 30
0.0
 11
-35.742845258899933
 21
-44.443580010098572
 31
0.0
  0
LINE
  8
DETAIL
  6
CONTINUOUS
 62
     5
 10
-23.453834890700019
 20
27.176497592915641
 30
0.0
 11
-23.453834890700019
 21
47.199803064125263
 31
0.0
  0
LINE
  8
DETAIL
  6
CONTINUOUS
 62
     5
 10
-36.299999999999947
 20
26.849293680401392
 30
0.0
 11
-36.299999999999947
 21
44.545406562337519
 31
0.0
  0
LINE
  8
DETAIL
  6
CONTINUOUS
 62
     5
 10
-36.275733257900008
 20
26.49163633680141
 30
0.0
 11
-36.256191351500092
 21
26.38301443450138
 31
0.0
  0
LINE
  8
DETAIL
  6
CONTINUOUS
 62
     5
 10
-36.296918049200031
 20
26.721488769301459
 30
0.0
 11
-36.275733257900008
 21
26.49163633680141
 31
0.0
  0
LINE
  8
DETAIL
  6
CONTINUOUS
 62
     5
 10
-36.300009055099963
 20
26.849143367801421
 30
0.0
 11
-36.296918049200031
 21
26.721488769301459
 31
0.0
  0
LINE
  8
DETAIL
  6
CONTINUOUS
 62
     5
 10
-36.299999999999947
 20
27.556826768101391
 30
0.0
 11
-23.393239159189761
 21
27.596755276091901
 31
0.0
  0
LINE
  8
DETAIL
  6
CONTINUOUS
 62
     5
 10
-23.453834890700019
 20
39.695785213832409
 30
0.0
 11
-32.8757389461
 21
40.038650619901397
 31
0.0
  0
LINE
  8
DETAIL
  6
CONTINUOUS
 62
     5
 10
-43.299999999999947
 20
44.500856091258129
 30
0.0
 11
-36.299999999999947
 21
44.545406562337519
 31
0.0
  0
LINE
  8
DETAIL
  6
CONTINUOUS
 62
     5
 10
-43.299999999999947
 20
46.654245781101423
 30
0.0
 11
-43.299999999999947
 21
25.944875589043729
 31
0.0
  0
ARC
  8
DETAIL
  6
CONTINUOUS
 62
     5
 10
-42.799999999999947
 20
46.654245781501487
 30
0.0
 40
0.5
 50
90.977751084214987
 51
180.0
  0
LINE
  8
DETAIL
  6
CONTINUOUS
 62
     5
 10
-23.5
 20
42.155115313201406
 30
0.0
 11
-36.299999999999947
 21
42.046720382201393
 31
0.0
  0
LINE
  8
DETAIL
  6
CONTINUOUS
 62
     5
 10
-36.299999999999947
 20
44.27256417010139
 30
0.0
 11
-23.5
 21
44.380959101101382
 31
0.0
  0
LINE
  8
DETAIL
  6
CONTINUOUS
 62
     5
 10
-23.5
 20
44.380959101101382
 30
0.0
 11
-23.5
 21
42.155115313201406
 31
0.0
  0
ARC
  8
DETAIL
  6
CONTINUOUS
 62
     5
 10
-35.484949529200087
 20
49.193704396701413
 30
0.0
 40
0.4999989370999721
 50
90.557192122192404
 51
114.9775528577954
  0
LINE
  8
DETAIL
  6
CONTINUOUS
 62
     5
 10
-40.976874964999979
 20
47.185008651601379
 30
0.0
 11
-35.696156664200089
 21
49.646904718901418
 31
0.0
  0
LINE
  8
DETAIL
  6
CONTINUOUS
 62
     5
 10
-35.489761730500049
 20
49.69368018360143
 30
0.0
 11
0.0
 21
49.790693832580359
 31
0.0
  0
LINE
  8
DETAIL
  6
CONTINUOUS
 62
     5
 10
-42.808532073700007
 20
47.154172979901404
 30
0.0
 11
0.0
 21
47.25509715895484
 31
0.0
  0
LINE
  8
DETAIL
  6
CONTINUOUS
 62
     5
 10
-32.8757389461
 20
40.038650619901397
 30
0.0
 11
-36.299999999999947
 21
40.160062237001398
 31
0.0
  0
ARC
  8
DETAIL
  6
CONTINUOUS
 62
     5
 10
-45.350000000000023
 20
16.619853974501378
 30
0.0
 40
0.699999999999988
 50
179.99992734129921
 51
270.0
  0
ARC
  8
DETAIL
  6
CONTINUOUS
 62
     5
 10
-45.350000000000023
 20
13.900776112101401
 30
0.0
 40
0.70000000000004
 50
90.0
 51
180.00007265870079
  0
ARC
  8
DETAIL
  6
CONTINUOUS
 62
     5
 10
-45.350000000000023
 20
13.80077611210146
 30
0.0
 40
0.699999999999988
 50
179.99992734129921
 51
270.0
  0
ARC
  8
DETAIL
  6
CONTINUOUS
 62
     5
 10
-45.350000000000023
 20
16.71985397450138
 30
0.0
 40
0.70000000000004
 50
90.0
 51
180.00007265870079
  0
LINE
  8
DETAIL
  6
CONTINUOUS
 62
     5
 10
-46.049999999999947
 20
16.719845330201391
 30
0.0
 11
-46.049999999999947
 21
16.619862618801388
 31
0.0
  0
LINE
  8
DETAIL
  6
CONTINUOUS
 62
     5
 10
-46.049999999999947
 20
13.900767467801421
 30
0.0
 11
-46.049999999999947
 21
13.800784756401381
 31
0.0
  0
ARC
  8
DETAIL
  6
CONTINUOUS
 62
     5
 10
-45.350000000000023
 20
-31.826219239698592
 30
0.0
 40
0.699999999999988
 50
179.99992734129921
 51
270.0
  0
LINE
  8
DETAIL
  6
CONTINUOUS
 62
     5
 10
-45.300000000004843
 20
-47.004103529858732
 30
0.0
 11
-45.299999999999947
 21
-32.357656458098567
 31
0.0
  0
LINE
  8
DETAIL
  6
CONTINUOUS
 62
     5
 10
-45.299999999999947
 20
-32.52621923969857
 30
0.0
 11
-45.350000000000023
 21
-32.52621923969857
 31
0.0
  0
ARC
  8
DETAIL
  6
CONTINUOUS
 62
     5
 10
-45.350000000000023
 20
-31.72621923969859
 30
0.0
 40
0.70000000000004
 50
90.0
 51
180.00007265870079
  0
LINE
  8
DETAIL
  6
CONTINUOUS
 62
     5
 10
-46.049999999999947
 20
-31.726227883998579
 30
0.0
 11
-46.049999999999947
 21
-31.826210595398589
 31
0.0
  0
LINE
  8
DETAIL
  6
CONTINUOUS
 62
     5
 10
-45.299999999999947
 20
-31.02621923969858
 30
0.0
 11
-45.350000000000023
 21
-31.02621923969858
 31
0.0
  0
LINE
  8
DETAIL
  6
CONTINUOUS
 62
     5
 10
-45.299999999999947
 20
17.41985397450139
 30
0.0
 11
-45.350000000000023
 21
17.41985397450139
 31
0.0
  0
LINE
  8
DETAIL
  6
CONTINUOUS
 62
     5
 10
-47.5
 20
-31.799999999999951
 30
0.0
 11
-47.5
 21
23.015598793201409
 31
0.0
  0
LINE
  8
DETAIL
  6
CONTINUOUS
 62
     5
 10
-46.100000000000023
 20
-31.299725809598581
 30
0.0
 11
-46.100000000000023
 21
24.000274190401399
 31
0.0
  0
LINE
  8
DETAIL
  6
CONTINUOUS
 62
     5
 10
-46.900000000000091
 20
-31.299725809598581
 30
0.0
 11
-46.900000000000198
 21
23.410455667401411
 31
0.0
  0
ARC
  8
DETAIL
  6
CONTINUOUS
 62
     5
 10
-55.5
 20
25.918790716201389
 30
0.0
 40
0.5999999999999941
 50
0.0
 51
90.0
  0
ARC
  8
DETAIL
  6
CONTINUOUS
 62
     5
 10
-69.48070061049998
 20
23.184410435101402
 30
0.0
 40
2.5980114048000398
 50
110.69507705860271
 51
119.77169782900221
  0
LINE
  8
DETAIL
  6
CONTINUOUS
 62
     5
 10
-71.083653146700044
 20
25.24734372080141
 30
0.0
 11
-70.767417780400024
 21
25.44141656110142
 31
0.0
  0
LINE
  8
DETAIL
  6
CONTINUOUS
 62
     5
 10
-71.504078277200051
 20
24.941501785501458
 30
0.0
 11
-71.083653146700044
 21
25.24734372080141
 31
0.0
  0
LINE
  8
DETAIL
  6
CONTINUOUS
 62
     5
 10
-71.893276236199995
 20
24.599428789201401
 30
0.0
 11
-71.504078277200051
 21
24.941501785501458
 31
0.0
  0
LINE
  8
DETAIL
  6
CONTINUOUS
 62
     5
 10
-72.246574502399994
 20
24.225007581001389
 30
0.0
 11
-71.893276236199995
 21
24.599428789201401
 31
0.0
  0
LINE
  8
DETAIL
  6
CONTINUOUS
 62
     5
 10
-72.559886073800044
 20
23.823673771901412
 30
0.0
 11
-72.246574502399994
 21
24.225007581001389
 31
0.0
  0
LINE
  8
DETAIL
  6
CONTINUOUS
 62
     5
 10
-70.770260043899953
 20
25.43982108190141
 30
0.0
 11
-70.770747924200009
 21
25.43954235900139
 31
0.0
  0
LINE
  8
DETAIL
  6
CONTINUOUS
 62
     5
 10
-70.398819584200055
 20
25.614773309601389
 30
0.0
 11
-70.399312470100085
 21
25.61458710030141
 31
0.0
  0
LINE
  8
DETAIL
  6
CONTINUOUS
 62
     5
 10
-69.029056642199976
 20
25.90884107180139
 30
0.0
 11
-68.716620187200078
 21
25.91879111670141
 31
0.0
  0
LINE
  8
DETAIL
  6
CONTINUOUS
 62
     5
 10
-69.339352904700036
 20
25.878921600001409
 30
0.0
 11
-69.029056642199976
 21
25.90884107180139
 31
0.0
  0
LINE
  8
DETAIL
  6
CONTINUOUS
 62
     5
 10
-69.64346593589994
 20
25.829570760301412
 30
0.0
 11
-69.339352904700036
 21
25.878921600001409
 31
0.0
  0
LINE
  8
DETAIL
  6
CONTINUOUS
 62
     5
 10
-69.940773866400036
 20
25.761309440001408
 30
0.0
 11
-69.64346593589994
 21
25.829570760301412
 31
0.0
  0
LINE
  8
DETAIL
  6
CONTINUOUS
 62
     5
 10
-70.230681538700082
 20
25.674642522101379
 30
0.0
 11
-69.940773866400036
 21
25.761309440001408
 31
0.0
  0
LINE
  8
DETAIL
  6
CONTINUOUS
 62
     5
 10
-70.399296384100012
 20
25.614592372501392
 30
0.0
 11
-70.230681538700082
 21
25.674642522101379
 31
0.0
  0
LINE
  8
DETAIL
  6
CONTINUOUS
 62
     5
 10
-56.600000000000023
 20
22.818175690801411
 30
0.0
 11
-56.600000000000023
 21
26.518608832901378
 31
0.0
  0
LINE
  8
DETAIL
  6
CONTINUOUS
 62
     5
 10
-54.900000000000091
 20
22.07167932110141
 30
0.0
 11
-54.900000000000091
 21
25.91417536780142
 31
0.0
  0
LINE
  8
DETAIL
  6
CONTINUOUS
 62
     5
 10
-56.600000000000023
 20
26.51879071620138
 30
0.0
 11
-55.5
 21
26.51879071620138
 31
0.0
  0
LINE
  8
DETAIL
  6
CONTINUOUS
 62
     5
 10
-68.716644610200092
 20
25.918790716201389
 30
0.0
 11
-56.600000000000023
 21
25.918790716201389
 31
0.0
  0
LINE
  8
DETAIL
  6
CONTINUOUS
 62
     5
 10
-45.299999999999947
 20
24.000274190401399
 30
0.0
 11
-46.100000000000023
 21
24.000274190401399
 31
0.0
  0
LINE
  8
DETAIL
  6
CONTINUOUS
 62
     5
 10
-46.100000000000023
 20
23.410455667401411
 30
0.0
 11
-46.900000000000091
 21
23.410455667401411
 31
0.0
  0
LINE
  8
DETAIL
  6
CONTINUOUS
 62
     5
 10
-47.5
 20
23.015598793201409
 30
0.0
 11
-46.900000000000091
 21
23.015598793201409
 31
0.0
  0
LINE
  8
DETAIL
  6
CONTINUOUS
 62
     5
 10
-54.900000000000091
 20
22.07167932110141
 30
0.0
 11
-47.5
 21
22.07167932110141
 31
0.0
  0
LINE
  8
DETAIL
  6
CONTINUOUS
 62
     5
 10
-45.299999999999947
 20
-32.357656458098567
 30
0.0
 11
-45.299999999999947
 21
13.100776112101389
 31
0.0
  0
LINE
  8
DETAIL
  6
CONTINUOUS
 62
     5
 10
-45.299999999999947
 20
16.0804374937014
 30
0.0
 11
-45.299999999999947
 21
13.100776112101389
 31
0.0
  0
LINE
  8
DETAIL
  6
CONTINUOUS
 62
     5
 10
-73.5
 20
-20.249591358498559
 30
0.0
 11
-73.5
 21
20.925068707201401
 31
0.0
  0
LINE
  8
DETAIL
  6
CONTINUOUS
 62
     5
 10
-72.829443509500038
 20
23.401210448101409
 30
0.0
 11
-72.559886073800044
 21
23.823673771901412
 31
0.0
  0
LINE
  8
DETAIL
  6
CONTINUOUS
 62
     5
 10
-73.053726004700025
 20
22.963509219101411
 30
0.0
 11
-72.829443509500038
 21
23.401210448101409
 31
0.0
  0
LINE
  8
DETAIL
  6
CONTINUOUS
 62
     5
 10
-73.230696816000091
 20
22.518334063901388
 30
0.0
 11
-73.053726004700025
 21
22.963509219101411
 31
0.0
  0
LINE
  8
DETAIL
  6
CONTINUOUS
 62
     5
 10
-73.361350713400043
 20
22.072093186601389
 30
0.0
 11
-73.230696816000091
 21
22.518334063901388
 31
0.0
  0
LINE
  8
DETAIL
  6
CONTINUOUS
 62
     5
 10
-73.446691661300065
 20
21.633696191601391
 30
0.0
 11
-73.361350713400043
 21
22.072093186601389
 31
0.0
  0
LINE
  8
DETAIL
  6
CONTINUOUS
 62
     5
 10
-73.490292365400023
 20
21.21240433780142
 30
0.0
 11
-73.446691661300065
 21
21.633696191601391
 31
0.0
  0
LINE
  8
DETAIL
  6
CONTINUOUS
 62
     5
 10
-73.49883833960007
 20
20.926776160001399
 30
0.0
 11
-73.490292365400023
 21
21.21240433780142
 31
0.0
  0
LINE
  8
DETAIL
  6
CONTINUOUS
 62
     5
 10
-70.900000000000091
 20
-22.84972580959861
 30
0.0
 11
-48.0
 21
-22.84972580959861
 31
0.0
  0
ARC
  8
DETAIL
  6
CONTINUOUS
 62
     5
 10
-70.900000000000091
 20
-20.249725809598569
 30
0.0
 40
2.599999999999993
 50
180.0
 51
270.0
  0
LINE
  8
DETAIL
  6
CONTINUOUS
 62
     5
 10
-45.299999999999947
 20
-16.029492343298589
 30
0.0
 11
-46.100000000000023
 21
-16.029492343298589
 31
0.0
  0
LINE
  8
DETAIL
  6
CONTINUOUS
 62
     5
 10
-45.299999999999947
 20
-7.4536802060986096
 30
0.0
 11
-46.100000000000023
 21
-7.4536802060986096
 31
0.0
  0
ARC
  8
DETAIL
  6
CONTINUOUS
 62
     5
 10
-48.0
 20
-23.34972580959861
 30
0.0
 40
0.5
 50
9.0000000000005098
 51
90.0
  0
LINE
  8
DETAIL
  6
CONTINUOUS
 62
     5
 10
-43.299999999999947
 20
-22.299725809598581
 30
0.0
 11
-44.799999999999947
 21
-22.299725809598581
 31
0.0
  0
ARC
  8
DETAIL
  6
CONTINUOUS
 62
     5
 10
-44.799999999999947
 20
-22.799725809598581
 30
0.0
 40
0.50000000000006
 50
90.0
 51
179.99993853920151
  0
LINE
  8
DETAIL
  6
CONTINUOUS
 62
     5
 10
-47.5
 20
-31.299725809598581
 30
0.0
 11
-45.905070584774187
 21
-31.299725809598581
 31
0.0
  0
LINE
  8
DETAIL
  6
CONTINUOUS
 62
     5
 10
-47.5
 20
17.400274190401401
 30
0.0
 11
-45.514402949470544
 21
17.400274190401401
 31
0.0
  0
LINE
  8
DETAIL
  6
CONTINUOUS
 62
     5
 10
-43.800000000000068
 20
27.533624679312819
 30
0.0
 11
-43.800000000000068
 21
38.406607609099893
 31
0.0
  0
ARC
  8
DETAIL
  6
CONTINUOUS
 62
     5
 10
-42.800000000000068
 20
38.406607609099893
 30
0.0
 40
1.0
 50
119.9999999999925
 51
180.0
  0
ARC
  8
DETAIL
  6
CONTINUOUS
 62
     5
 10
-41.800000000000068
 20
39.937651700994309
 30
0.0
 40
8.0
 50
113.6989531831896
 51
180.0
  0
LINE
  8
DETAIL
  6
CONTINUOUS
 62
     5
 10
-49.800000000000068
 20
27.393798587506151
 30
0.0
 11
-49.800000000000068
 21
39.937651700994309
 31
0.0
  0
LINE
  8
DETAIL
  6
CONTINUOUS
 62
     5
 10
-37.01544837653671
 20
50.774591348699687
 30
0.0
 11
-45.01544837653671
 21
47.263011196461179
 31
0.0
  0
LINE
  8
DETAIL
  6
CONTINUOUS
 62
     5
 10
-51.689090590102303
 20
25.50470799740404
 30
0.0
 11
-54.900000000000091
 21
25.50470799740404
 31
0.0
  0
ARC
  8
DETAIL
  6
CONTINUOUS
 62
     5
 10
-51.689090590102303
 20
27.393798587506151
 30
0.0
 40
1.8890905901022279
 50
269.26402476224177
 51
0.0
  0
LINE
  8
DETAIL
  6
CONTINUOUS
 62
     5
 10
-33.869812283987358
 20
51.448927237746091
 30
0.0
 11
0.0
 21
51.527696328102849
 31
0.0
  0
ARC
  8
DETAIL
  6
CONTINUOUS
 62
     5
 10
-33.800000000000068
 20
43.44923185323276
 30
0.0
 40
7.9999999999999716
 50
90.50000000000459
 51
113.6989531831896
  0
LINE
  8
DETAIL
  6
CONTINUOUS
 62
     5
 10
-47.5
 20
-23.799999999999951
 30
0.0
 11
-48.430127018900073
 21
-23.799999999999951
 31
0.0
  0
LINE
  8
DETAIL
  6
CONTINUOUS
 62
     5
 10
-50.512877669200073
 20
-27.04999999999994
 30
0.0
 11
-50.141374125000077
 21
-27.04999999999994
 31
0.0
  0
LINE
  8
DETAIL
  6
CONTINUOUS
 62
     5
 10
-50.512877669200073
 20
-28.549999999999951
 30
0.0
 11
-50.141374125000077
 21
-28.549999999999951
 31
0.0
  0
LINE
  8
DETAIL
  6
CONTINUOUS
 62
     5
 10
-47.5
 20
-31.799999999999951
 30
0.0
 11
-48.430127018900073
 21
-31.799999999999951
 31
0.0
  0
LINE
  8
DETAIL
  6
CONTINUOUS
 62
     5
 10
-50.141374125000077
 20
-30.07800322239996
 30
0.0
 11
-50.179454343299987
 21
-30.099988846700029
 31
0.0
  0
LINE
  8
DETAIL
  6
CONTINUOUS
 62
     5
 10
-49.729165124600058
 20
-24.54999999999994
 30
0.0
 11
-50.175223208000027
 21
-25.48879620699994
 31
0.0
  0
LINE
  8
DETAIL
  6
CONTINUOUS
 62
     5
 10
-50.141374125000077
 20
-28.549999999999951
 30
0.0
 11
-50.170033141500078
 21
-28.1738183935
 31
0.0
  0
LINE
  8
DETAIL
  6
CONTINUOUS
 62
     5
 10
-50.170033141500078
 20
-28.1738183935
 30
0.0
 11
-50.179473661400152
 21
-27.799999999999951
 31
0.0
  0
LINE
  8
DETAIL
  6
CONTINUOUS
 62
     5
 10
-50.179473661400152
 20
-27.799999999999951
 30
0.0
 11
-50.169926120500122
 21
-27.42407052300004
 31
0.0
  0
LINE
  8
DETAIL
  6
CONTINUOUS
 62
     5
 10
-50.169926120500122
 20
-27.42407052300004
 30
0.0
 11
-50.141374125000077
 21
-27.04999999999994
 31
0.0
  0
LINE
  8
DETAIL
  6
CONTINUOUS
 62
     5
 10
-49.729165124600058
 20
-31.049999999999951
 30
0.0
 11
-50.175223208000027
 21
-30.1112037931
 31
0.0
  0
ARC
  8
DETAIL
  6
CONTINUOUS
 62
     5
 10
-48.430127018900073
 20
-30.299999999999951
 30
0.0
 40
1.5
 50
210.00000000000199
 51
270.0
  0
ARC
  8
DETAIL
  6
CONTINUOUS
 62
     5
 10
-48.430127018900073
 20
-25.299999999999951
 30
0.0
 40
1.49999999999994
 50
90.0
 51
149.9999999999979
  0
ARC
  8
DETAIL
  6
CONTINUOUS
 62
     5
 10
-44.100000000000144
 20
-27.799999999999951
 30
0.0
 40
6.4565857850999757
 50
159.34019266889669
 51
173.3294366530001
  0
ARC
  8
DETAIL
  6
CONTINUOUS
 62
     5
 10
-44.100000000000144
 20
-27.799999999999951
 30
0.0
 40
6.4565857850999038
 50
186.67056334700001
 51
200.6598073311051
  0
LINE
  8
DETAIL
  6
CONTINUOUS
 62
     5
 10
-50.179454343299987
 20
-25.500011153299951
 30
0.0
 11
-50.141374125000077
 21
-25.521996777599941
 31
0.0
  0
LINE
  8
DETAIL
  6
CONTINUOUS
 62
     5
 10
-47.5
 20
17.900000000000031
 30
0.0
 11
-48.430127018900073
 21
17.900000000000031
 31
0.0
  0
LINE
  8
DETAIL
  6
CONTINUOUS
 62
     5
 10
-50.512877669200073
 20
14.649999999999951
 30
0.0
 11
-50.141374125000077
 21
14.649999999999951
 31
0.0
  0
LINE
  8
DETAIL
  6
CONTINUOUS
 62
     5
 10
-50.512877669200073
 20
13.149999999999951
 30
0.0
 11
-50.141374125000077
 21
13.149999999999951
 31
0.0
  0
LINE
  8
DETAIL
  6
CONTINUOUS
 62
     5
 10
-50.141374125000077
 20
11.62199677759995
 30
0.0
 11
-50.179454343299987
 21
11.60001115329996
 31
0.0
  0
LINE
  8
DETAIL
  6
CONTINUOUS
 62
     5
 10
-49.729165124600058
 20
17.149999999999949
 30
0.0
 11
-50.175223208000027
 21
16.21120379300001
 31
0.0
  0
LINE
  8
DETAIL
  6
CONTINUOUS
 62
     5
 10
-50.170033141500078
 20
13.526181606500019
 30
0.0
 11
-50.179473661400152
 21
13.899999999999951
 31
0.0
  0
LINE
  8
DETAIL
  6
CONTINUOUS
 62
     5
 10
-50.179473661400152
 20
13.899999999999951
 30
0.0
 11
-50.169926120500122
 21
14.275929477000121
 31
0.0
  0
LINE
  8
DETAIL
  6
CONTINUOUS
 62
     5
 10
-50.169926120500122
 20
14.275929477000121
 30
0.0
 11
-50.141374125000077
 21
14.649999999999951
 31
0.0
  0
LINE
  8
DETAIL
  6
CONTINUOUS
 62
     5
 10
-50.141374125000077
 20
13.149999999999951
 30
0.0
 11
-50.170033141500078
 21
13.526181606500019
 31
0.0
  0
LINE
  8
DETAIL
  6
CONTINUOUS
 62
     5
 10
-49.729165124600058
 20
10.649999999999951
 30
0.0
 11
-50.175223208000027
 21
11.588796206900099
 31
0.0
  0
ARC
  8
DETAIL
  6
CONTINUOUS
 62
     5
 10
-48.430127018900073
 20
11.399999999999951
 30
0.0
 40
1.499999999999972
 50
210.00000000000199
 51
270.0
  0
ARC
  8
DETAIL
  6
CONTINUOUS
 62
     5
 10
-48.430127018900073
 20
16.399999999999949
 30
0.0
 40
1.4999999999999261
 50
90.0
 51
149.9999999999979
  0
ARC
  8
DETAIL
  6
CONTINUOUS
 62
     5
 10
-44.100000000000144
 20
13.899999999999951
 30
0.0
 40
6.4565857850999899
 50
159.34019266889621
 51
173.3294366530001
  0
ARC
  8
DETAIL
  6
CONTINUOUS
 62
     5
 10
-44.100000000000144
 20
13.899999999999951
 30
0.0
 40
6.4565857850998531
 50
186.67056334700001
 51
200.6598073311032
  0
LINE
  8
DETAIL
  6
CONTINUOUS
 62
     5
 10
-50.179454343299987
 20
16.19998884670008
 30
0.0
 11
-50.141374125000077
 21
16.17800322239998
 31
0.0
  0
LINE
  8
DETAIL
  6
CONTINUOUS
 62
     5
 10
-47.5
 20
9.9000000000000341
 30
0.0
 11
-48.430127018900073
 21
9.9000000000000341
 31
0.0
  0
LINE
  8
DETAIL
  6
CONTINUOUS
 62
     5
 10
-56.600000000000023
 20
22.818175690801411
 30
0.0
 11
-54.900000000000091
 21
22.07167932110141
 31
0.0
  0
LINE
  8
OUTLINE
  6
CONTINUOUS
 62
     3
 10
0.0
 20
79.49139260700008
 30
0.0
 11
0.0
 21
-79.490999999999985
 31
0.0
  0
LINE
  8
OUTLINE
  6
CONTINUOUS
 62
     3
 10
28.709311964100038
 20
79.499073399099984
 30
0.0
 11
0.5087262031998989
 21
79.991316454599996
 31
0.0
  0
ARC
  8
OUTLINE
  6
CONTINUOUS
 62
     3
 10
28.691859557599969
 20
78.499225704000082
 30
0.0
 40
1.000000000000014
 50
0.4517529808040108
 51
88.999999999998238
  0
ARC
  8
OUTLINE
  6
CONTINUOUS
 62
     3
 10
0.5
 20
-79.490991015600002
 30
0.0
 40
0.500000000000004
 50
180.00102954320141
 51
270.9999820337955
  0
ARC
  8
OUTLINE
  6
CONTINUOUS
 62
     3
 10
0.5
 20
79.49139260700008
 30
0.0
 40
0.5
 50
88.999999999998238
 51
180.0
  0
LINE
  8
OUTLINE
  6
CONTINUOUS
 62
     3
 10
28.709311963999991
 20
-79.498680792100004
 30
0.0
 11
0.5087262031998989
 21
-79.990923847600016
 31
0.0
  0
ARC
  8
OUTLINE
  6
CONTINUOUS
 62
     3
 10
28.691859557599969
 20
-78.498833097000002
 30
0.0
 40
1.000000000000008
 50
270.99999999929821
 51
359.54824701920251
  0
ARC
  8
OUTLINE
  6
CONTINUOUS
 62
     3
 10
-9970.0
 20
0.0001963034999335
 30
0.0
 40
10000.0
 50
359.55018409010017
 51
0.4498159098998205
  0
LINE
  8
OUTLINE
  6
CONTINUOUS
 62
     3
 10
-44.804363266699973
 20
-47.504100000000001
 30
0.0
 11
0.0
 21
-47.504077897167143
 31
0.0
  0
ARC
  8
OUTLINE
  6
CONTINUOUS
 62
     3
 10
-44.800000000004843
 20
-47.004119038458718
 30
0.0
 40
0.499999999999998
 50
180.000013573198
 51
269.50000012079153
  0
ARC
  8
OUTLINE
  6
CONTINUOUS
 62
     3
 10
-45.350000000000023
 20
-31.82621923969862
 30
0.0
 40
0.699999999999988
 50
179.99992734129759
 51
270.0
  0
LINE
  8
OUTLINE
  6
CONTINUOUS
 62
     3
 10
-45.300000000004843
 20
-47.004103529858732
 30
0.0
 11
-45.299999999999947
 21
-32.357656458098518
 31
0.0
  0
LINE
  8
OUTLINE
  6
CONTINUOUS
 62
     3
 10
-45.299999999999947
 20
-32.526219239698563
 30
0.0
 11
-45.350000000000023
 21
-32.526219239698563
 31
0.0
  0
ARC
  8
OUTLINE
  6
CONTINUOUS
 62
     3
 10
-45.350000000000023
 20
-31.72621923969859
 30
0.0
 40
0.70000000000004
 50
90.0
 51
180.00007265870241
  0
LINE
  8
OUTLINE
  6
CONTINUOUS
 62
     3
 10
-46.049999999999947
 20
-31.7262278839986
 30
0.0
 11
-46.049999999999947
 21
-31.82621059539861
 31
0.0
  0
LINE
  8
OUTLINE
  6
CONTINUOUS
 62
     3
 10
-45.299999999999947
 20
-31.026219239698548
 30
0.0
 11
-45.350000000000023
 21
-31.026219239698548
 31
0.0
  0
ARC
  8
OUTLINE
  6
CONTINUOUS
 62
     3
 10
-55.546386581876391
 20
25.806803601122741
 30
0.0
 40
0.7134965781390563
 50
334.95046725899653
 51
86.272398112589741
  0
ARC
  8
OUTLINE
  6
CONTINUOUS
 62
     3
 10
-69.48070061049998
 20
23.18441043510143
 30
0.0
 40
2.5980114048000398
 50
110.69507705860271
 51
119.77169782900221
  0
LINE
  8
OUTLINE
  6
CONTINUOUS
 62
     3
 10
-71.083653146700044
 20
25.247343720801378
 30
0.0
 11
-70.767417780400024
 21
25.441416561101391
 31
0.0
  0
LINE
  8
OUTLINE
  6
CONTINUOUS
 62
     3
 10
-71.504078277200051
 20
24.94150178550149
 30
0.0
 11
-71.083653146700044
 21
25.247343720801378
 31
0.0
  0
LINE
  8
OUTLINE
  6
CONTINUOUS
 62
     3
 10
-71.893276236199995
 20
24.599428789201401
 30
0.0
 11
-71.504078277200051
 21
24.94150178550149
 31
0.0
  0
LINE
  8
OUTLINE
  6
CONTINUOUS
 62
     3
 10
-72.246574502399994
 20
24.225007581001361
 30
0.0
 11
-71.893276236199995
 21
24.599428789201401
 31
0.0
  0
LINE
  8
OUTLINE
  6
CONTINUOUS
 62
     3
 10
-72.559886073800044
 20
23.82367377190144
 30
0.0
 11
-72.246574502399994
 21
24.225007581001361
 31
0.0
  0
LINE
  8
OUTLINE
  6
CONTINUOUS
 62
     3
 10
-70.770260043899953
 20
25.43982108190141
 30
0.0
 11
-70.770747924200009
 21
25.43954235900139
 31
0.0
  0
LINE
  8
OUTLINE
  6
CONTINUOUS
 62
     3
 10
-70.398819584200055
 20
25.614773309601329
 30
0.0
 11
-70.399312470100085
 21
25.614587100301382
 31
0.0
  0
LINE
  8
OUTLINE
  6
CONTINUOUS
 62
     3
 10
-69.029056642199976
 20
25.908841071801358
 30
0.0
 11
-68.716620187200078
 21
25.91879111670141
 31
0.0
  0
LINE
  8
OUTLINE
  6
CONTINUOUS
 62
     3
 10
-69.339352904700036
 20
25.87892160000138
 30
0.0
 11
-69.029056642199976
 21
25.908841071801358
 31
0.0
  0
LINE
  8
OUTLINE
  6
CONTINUOUS
 62
     3
 10
-69.64346593589994
 20
25.829570760301412
 30
0.0
 11
-69.339352904700036
 21
25.87892160000138
 31
0.0
  0
LINE
  8
OUTLINE
  6
CONTINUOUS
 62
     3
 10
-69.940773866400036
 20
25.761309440001469
 30
0.0
 11
-69.64346593589994
 21
25.829570760301412
 31
0.0
  0
LINE
  8
OUTLINE
  6
CONTINUOUS
 62
     3
 10
-70.230681538700082
 20
25.674642522101411
 30
0.0
 11
-69.940773866400036
 21
25.761309440001469
 31
0.0
  0
LINE
  8
OUTLINE
  6
CONTINUOUS
 62
     3
 10
-70.399296384100012
 20
25.61459237250142
 30
0.0
 11
-70.230681538700082
 21
25.674642522101411
 31
0.0
  0
LINE
  8
OUTLINE
  6
CONTINUOUS
 62
     3
 10
-56.600000000000023
 20
26.518790716201352
 30
0.0
 11
-55.5
 21
26.518790716201352
 31
0.0
  0
LINE
  8
OUTLINE
  6
CONTINUOUS
 62
     3
 10
-68.716644610200092
 20
25.918790716201329
 30
0.0
 11
-56.600000000000023
 21
25.918790716201329
 31
0.0
  0
LINE
  8
OUTLINE
  6
CONTINUOUS
 62
     3
 10
-73.5
 20
-20.249591358498609
 30
0.0
 11
-73.5
 21
20.92506870720138
 31
0.0
  0
LINE
  8
OUTLINE
  6
CONTINUOUS
 62
     3
 10
-72.829443509500038
 20
23.401210448101441
 30
0.0
 11
-72.559886073800044
 21
23.82367377190144
 31
0.0
  0
LINE
  8
OUTLINE
  6
CONTINUOUS
 62
     3
 10
-73.053726004700025
 20
22.963509219101411
 30
0.0
 11
-72.829443509500038
 21
23.401210448101441
 31
0.0
  0
LINE
  8
OUTLINE
  6
CONTINUOUS
 62
     3
 10
-73.230696816000091
 20
22.51833406390142
 30
0.0
 11
-73.053726004700025
 21
22.963509219101411
 31
0.0
  0
LINE
  8
OUTLINE
  6
CONTINUOUS
 62
     3
 10
-73.361350713400043
 20
22.072093186601361
 30
0.0
 11
-73.230696816000091
 21
22.51833406390142
 31
0.0
  0
LINE
  8
OUTLINE
  6
CONTINUOUS
 62
     3
 10
-73.446691661300065
 20
21.63369619160142
 30
0.0
 11
-73.361350713400043
 21
22.072093186601361
 31
0.0
  0
LINE
  8
OUTLINE
  6
CONTINUOUS
 62
     3
 10
-73.490292365400023
 20
21.212404337801441
 30
0.0
 11
-73.446691661300065
 21
21.63369619160142
 31
0.0
  0
LINE
  8
OUTLINE
  6
CONTINUOUS
 62
     3
 10
-73.49883833960007
 20
20.926776160001399
 30
0.0
 11
-73.490292365400023
 21
21.212404337801441
 31
0.0
  0
LINE
  8
OUTLINE
  6
CONTINUOUS
 62
     3
 10
-70.900000000000091
 20
-22.849725809598571
 30
0.0
 11
-48.0
 21
-22.849725809598571
 31
0.0
  0
ARC
  8
OUTLINE
  6
CONTINUOUS
 62
     3
 10
-70.900000000000091
 20
-20.249725809598541
 30
0.0
 40
2.599999999999993
 50
180.0
 51
270.0
  0
ARC
  8
OUTLINE
  6
CONTINUOUS
 62
     3
 10
-48.0
 20
-23.349725809598571
 30
0.0
 40
0.5
 50
8.9999999999989022
 51
90.0
  0
LINE
  8
OUTLINE
  6
CONTINUOUS
 62
     3
 10
-47.5
 20
-31.299725809598609
 30
0.0
 11
-45.905070584774187
 21
-31.299725809598609
 31
0.0
  0
ARC
  8
OUTLINE
  6
CONTINUOUS
 62
     3
 10
-41.800000000000068
 20
39.937651700994373
 30
0.0
 40
8.0
 50
113.6989531831896
 51
180.0
  0
LINE
  8
OUTLINE
  6
CONTINUOUS
 62
     3
 10
-49.800000000000068
 20
27.393798587506129
 30
0.0
 11
-49.800000000000068
 21
39.937651700994373
 31
0.0
  0
LINE
  8
OUTLINE
  6
CONTINUOUS
 62
     3
 10
-37.01544837653671
 20
50.774591348699687
 30
0.0
 11
-45.01544837653671
 21
47.263011196461207
 31
0.0
  0
LINE
  8
OUTLINE
  6
CONTINUOUS
 62
     3
 10
-51.689090590102303
 20
25.504707997404012
 30
0.0
 11
-54.900000000000091
 21
25.504707997404012
 31
0.0
  0
ARC
  8
OUTLINE
  6
CONTINUOUS
 62
     3
 10
-51.689090590102303
 20
27.393798587506129
 30
0.0
 40
1.8890905901022279
 50
269.26402476224177
 51
0.0
  0
LINE
  8
OUTLINE
  6
CONTINUOUS
 62
     3
 10
-33.869812283987358
 20
51.448927237746148
 30
0.0
 11
0.0
 21
51.527696328102849
 31
0.0
  0
ARC
  8
OUTLINE
  6
CONTINUOUS
 62
     3
 10
-33.800000000000068
 20
43.449231853232732
 30
0.0
 40
7.9999999999999716
 50
90.50000000000459
 51
113.6989531831896
  0
LINE
  8
OUTLINE
  6
CONTINUOUS
 62
     3
 10
-47.5
 20
-23.799999999999951
 30
0.0
 11
-48.430127018900073
 21
-23.799999999999951
 31
0.0
  0
LINE
  8
OUTLINE
  6
CONTINUOUS
 62
     3
 10
-50.512877669200073
 20
-27.049999999999951
 30
0.0
 11
-50.141374125000077
 21
-27.049999999999951
 31
0.0
  0
LINE
  8
OUTLINE
  6
CONTINUOUS
 62
     3
 10
-50.512877669200073
 20
-28.549999999999951
 30
0.0
 11
-50.141374125000077
 21
-28.549999999999951
 31
0.0
  0
LINE
  8
OUTLINE
  6
CONTINUOUS
 62
     3
 10
-47.5
 20
-31.799999999999951
 30
0.0
 11
-48.430127018900073
 21
-31.799999999999951
 31
0.0
  0
LINE
  8
OUTLINE
  6
CONTINUOUS
 62
     3
 10
-50.141374125000077
 20
-30.07800322239996
 30
0.0
 11
-50.179454343299987
 21
-30.099988846700061
 31
0.0
  0
LINE
  8
OUTLINE
  6
CONTINUOUS
 62
     3
 10
-49.729165124600058
 20
-24.549999999999951
 30
0.0
 11
-50.175223208000027
 21
-25.48879620699995
 31
0.0
  0
LINE
  8
OUTLINE
  6
CONTINUOUS
 62
     3
 10
-50.141374125000077
 20
-28.549999999999951
 30
0.0
 11
-50.170033141500078
 21
-28.173818393500031
 31
0.0
  0
LINE
  8
OUTLINE
  6
CONTINUOUS
 62
     3
 10
-50.170033141500078
 20
-28.173818393500031
 30
0.0
 11
-50.179473661400152
 21
-27.799999999999951
 31
0.0
  0
LINE
  8
OUTLINE
  6
CONTINUOUS
 62
     3
 10
-50.179473661400152
 20
-27.799999999999951
 30
0.0
 11
-50.169926120500122
 21
-27.424070523000069
 31
0.0
  0
LINE
  8
OUTLINE
  6
CONTINUOUS
 62
     3
 10
-50.169926120500122
 20
-27.424070523000069
 30
0.0
 11
-50.141374125000077
 21
-27.049999999999951
 31
0.0
  0
LINE
  8
OUTLINE
  6
CONTINUOUS
 62
     3
 10
-49.729165124600058
 20
-31.049999999999951
 30
0.0
 11
-50.175223208000027
 21
-30.1112037931
 31
0.0
  0
ARC
  8
OUTLINE
  6
CONTINUOUS
 62
     3
 10
-48.430127018900073
 20
-30.299999999999951
 30
0.0
 40
1.5
 50
210.00000000000199
 51
270.0
  0
ARC
  8
OUTLINE
  6
CONTINUOUS
 62
     3
 10
-48.430127018900073
 20
-25.299999999999951
 30
0.0
 40
1.49999999999994
 50
90.0
 51
149.9999999999979
  0
ARC
  8
OUTLINE
  6
CONTINUOUS
 62
     3
 10
-44.100000000000144
 20
-27.799999999999951
 30
0.0
 40
6.4565857850999757
 50
159.34019266889939
 51
173.32943665300149
  0
ARC
  8
OUTLINE
  6
CONTINUOUS
 62
     3
 10
-44.100000000000144
 20
-27.799999999999951
 30
0.0
 40
6.4565857850999038
 50
186.67056334699839
 51
200.65980733110061
  0
LINE
  8
OUTLINE
  6
CONTINUOUS
 62
     3
 10
-50.179454343299987
 20
-25.500011153299969
 30
0.0
 11
-50.141374125000077
 21
-25.521996777599949
 31
0.0
  0
LINE
  8
OUTLINE
  6
CONTINUOUS
 62
     3
 10
-56.600000000000023
 20
26.518790716201352
 30
0.0
 11
-56.600000000000023
 21
25.918790716201329
 31
0.0
  0
LINE
  8
OUTLINE
  6
CONTINUOUS
 62
     3
 10
-47.506155829702379
 20
-23.271508577078411
 30
0.0
 11
-47.5
 21
-23.799999999999951
 31
0.0
  0
LINE
  8
OUTLINE
  6
CONTINUOUS
 62
     3
 10
-47.5
 20
-31.299725809598609
 30
0.0
 11
-47.5
 21
-31.799999999999951
 31
0.0
  0
ARC
  8
DETAIL
  6
CONTINUOUS
 62
     5
 10
0.8837262031998989
 20
89.341797401761681
 30
0.0
 40
0.7499999999999879
 50
59.999999999999957
 51
120.0
  0
ARC
  8
DETAIL
  6
CONTINUOUS
 62
     5
 10
1.6337262031998989
 20
90.640835507438339
 30
0.0
 40
0.7500000000000121
 50
239.99999999999989
 51
300.0
  0
LINE
  8
DETAIL
  6
CONTINUOUS
 62
     5
 10
5.7587262031999558
 20
117.74019624013771
 30
0.0
 11
5.7587262031999558
 21
110.24019624013771
 31
0.0
  0
LINE
  8
DETAIL
  6
CONTINUOUS
 62
     5
 10
-2.2412737968000438
 20
116.3007450187701
 30
0.0
 11
-2.2412737968000438
 21
111.6796474615053
 31
0.0
  0
LINE
  8
DETAIL
  6
CONTINUOUS
 62
     5
 10
-1.3036520829552389
 20
110.6815948830224
 30
0.0
 11
5.7587262031999558
 21
110.24019624013771
 31
0.0
  0
LINE
  8
DETAIL
  6
CONTINUOUS
 62
     5
 10
5.7587262031999558
 20
117.74019624013771
 30
0.0
 11
-1.3036520829552389
 21
117.298797597253
 31
0.0
  0
LINE
  8
DETAIL
  6
CONTINUOUS
 62
     5
 10
13.81203288278232
 20
115.56519624013769
 30
0.0
 11
5.7587262031999558
 21
115.56519624013769
 31
0.0
  0
LINE
  8
DETAIL
  6
CONTINUOUS
 62
     5
 10
13.81203288278232
 20
112.4151962401377
 30
0.0
 11
5.7587262031999558
 21
112.4151962401377
 31
0.0
  0
CIRCLE
  8
DETAIL
  6
CONTINUOUS
 62
     5
 10
11.60872620319992
 20
113.99019624013771
 30
0.0
 40
0.7749999999999989
  0
CIRCLE
  8
DETAIL
  6
CONTINUOUS
 62
     5
 10
11.60872620319992
 20
113.99019624013771
 30
0.0
 40
0.9750000000000012
  0
ARC
  8
DETAIL
  6
CONTINUOUS
 62
     5
 10
11.258726203199959
 20
113.99019624013771
 30
0.0
 40
2.9999999999999929
 50
328.33175674645992
 51
31.668243253544968
  0
LINE
  8
DETAIL
  6
CONTINUOUS
 62
     5
 10
13.81203288278232
 20
115.56519624013769
 30
0.0
 11
13.81203288278232
 21
112.4151962401377
 31
0.0
  0
ARC
  8
DETAIL
  6
CONTINUOUS
 62
     5
 10
-1.241273796800044
 20
116.3007450187701
 30
0.0
 40
1.0
 50
93.576334374998154
 51
180.0
  0
ARC
  8
DETAIL
  6
CONTINUOUS
 62
     5
 10
-1.241273796800044
 20
111.6796474615053
 30
0.0
 40
0.999999999999997
 50
180.0
 51
266.42366562500177
  0
LINE
  8
DETAIL
  6
CONTINUOUS
 62
     5
 10
-1.241273796800044
 20
110.2654338991322
 30
0.0
 11
-1.241273796800044
 21
108.74019624013771
 31
0.0
  0
LINE
  8
DETAIL
  6
CONTINUOUS
 62
     5
 10
3.7587262031999562
 20
109.8329706294539
 30
0.0
 11
3.7587262031999562
 21
108.74019624013771
 31
0.0
  0
LINE
  8
DETAIL
  6
CONTINUOUS
 62
     5
 10
2.536413809543717
 20
100.24019624013771
 30
0.0
 11
-0.0189614031438055
 21
100.24019624013771
 31
0.0
  0
LINE
  8
DETAIL
  6
CONTINUOUS
 62
     5
 10
3.7587262031999562
 20
108.74019624013771
 30
0.0
 11
-1.241273796800044
 21
108.74019624013771
 31
0.0
  0
LINE
  8
DETAIL
  6
CONTINUOUS
 62
     5
 10
-1.241273796800044
 20
108.74019624013771
 30
0.0
 11
-0.2672490542245782
 21
100.4609859282459
 31
0.0
  0
LINE
  8
DETAIL
  6
CONTINUOUS
 62
     5
 10
3.7587262031999562
 20
108.74019624013771
 30
0.0
 11
2.7847014606244329
 21
100.4609859282459
 31
0.0
  0
ARC
  8
DETAIL
  6
CONTINUOUS
 62
     5
 10
-1.741273796800044
 20
110.2654338991322
 30
0.0
 40
0.4999999999999821
 50
0.0
 51
70.528779365513927
  0
ARC
  8
DETAIL
  6
CONTINUOUS
 62
     5
 10
4.2587262031999558
 20
109.8329706294539
 30
0.0
 40
0.5
 50
86.42366562500186
 51
180.0
  0
ARC
  8
DETAIL
  6
CONTINUOUS
 62
     5
 10
-0.0189614031438055
 20
100.49019624013771
 30
0.0
 40
0.25
 50
186.70983680775299
 51
270.0
  0
ARC
  8
DETAIL
  6
CONTINUOUS
 62
     5
 10
2.536413809543717
 20
100.49019624013771
 30
0.0
 40
0.249999999999995
 50
270.0
 51
353.29016319224701
  0
LINE
  8
DETAIL
  6
CONTINUOUS
 62
     5
 10
2.8763732620234919
 20
101.24019624013771
 30
0.0
 11
1.258726203199956
 21
101.24019624013771
 31
0.0
  0
LINE
  8
DETAIL
  6
CONTINUOUS
 62
     5
 10
2.964608556141116
 20
101.99019624013771
 30
0.0
 11
1.258726203199956
 21
101.99019624013771
 31
0.0
  0
LINE
  8
DETAIL
  6
CONTINUOUS
 62
     5
 10
1.258726203199956
 20
102.74019624013771
 30
0.0
 11
-0.5353914438588845
 21
102.74019624013771
 31
0.0
  0
LINE
  8
DETAIL
  6
CONTINUOUS
 62
     5
 10
1.258726203199956
 20
103.49019624013771
 30
0.0
 11
-0.6236267379765081
 21
103.49019624013771
 31
0.0
  0
LINE
  8
DETAIL
  6
CONTINUOUS
 62
     5
 10
3.2293144384940429
 20
104.24019624013771
 30
0.0
 11
1.258726203199956
 21
104.24019624013771
 31
0.0
  0
LINE
  8
DETAIL
  6
CONTINUOUS
 62
     5
 10
3.3175497326117238
 20
104.99019624013771
 30
0.0
 11
1.258726203199956
 21
104.99019624013771
 31
0.0
  0
LINE
  8
DETAIL
  6
CONTINUOUS
 62
     5
 10
1.258726203199956
 20
105.74019624013771
 30
0.0
 11
-0.8883326203294928
 21
105.74019624013771
 31
0.0
  0
LINE
  8
DETAIL
  6
CONTINUOUS
 62
     5
 10
1.258726203199956
 20
106.49019624013771
 30
0.0
 11
-0.9765679144471164
 21
106.49019624013771
 31
0.0
  0
LINE
  8
DETAIL
  6
CONTINUOUS
 62
     5
 10
3.5822556149646521
 20
107.24019624013771
 30
0.0
 11
1.258726203199956
 21
107.24019624013771
 31
0.0
  0
LINE
  8
DETAIL
  6
CONTINUOUS
 62
     5
 10
3.6704909090822748
 20
107.99019624013771
 30
0.0
 11
1.258726203199956
 21
107.99019624013771
 31
0.0
  0
LINE
  8
DETAIL
  6
CONTINUOUS
 62
     5
 10
0.7587262031999558
 20
106.49019624013771
 30
0.0
 11
0.7587262031999558
 21
105.74019624013771
 31
0.0
  0
LINE
  8
DETAIL
  6
CONTINUOUS
 62
     5
 10
1.758726203199956
 20
107.99019624013771
 30
0.0
 11
1.758726203199956
 21
107.24019624013771
 31
0.0
  0
LINE
  8
DETAIL
  6
CONTINUOUS
 62
     5
 10
0.7587262031999558
 20
103.49019624013771
 30
0.0
 11
0.7587262031999558
 21
102.74019624013771
 31
0.0
  0
LINE
  8
DETAIL
  6
CONTINUOUS
 62
     5
 10
1.758726203199956
 20
101.99019624013771
 30
0.0
 11
1.758726203199956
 21
101.24019624013771
 31
0.0
  0
LINE
  8
DETAIL
  6
CONTINUOUS
 62
     5
 10
1.758726203199956
 20
104.99019624013771
 30
0.0
 11
1.758726203199956
 21
104.24019624013771
 31
0.0
  0
LINE
  8
DETAIL
  6
CONTINUOUS
 62
     5
 10
5.7587262031999558
 20
111.74019624013771
 30
0.0
 11
0.2587262031999558
 21
111.74019624013771
 31
0.0
  0
LINE
  8
DETAIL
  6
CONTINUOUS
 62
     5
 10
5.7587262031999558
 20
116.24019624013771
 30
0.0
 11
0.2587262031999558
 21
116.24019624013771
 31
0.0
  0
LINE
  8
DETAIL
  6
CONTINUOUS
 62
     5
 10
0.2587262031999558
 20
116.24019624013771
 30
0.0
 11
0.2587262031999558
 21
111.74019624013771
 31
0.0
  0
LINE
  8
DETAIL
  6
CONTINUOUS
 62
     5
 10
0.5087262031999558
 20
100.24019624013771
 30
0.0
 11
0.5087262031998989
 21
89.991316454599996
 31
0.0
  0
LINE
  8
DETAIL
  6
CONTINUOUS
 62
     5
 10
2.0087262031999562
 20
100.24019624013771
 30
0.0
 11
2.0087262031998989
 21
89.991316454600053
 31
0.0
  0
ARC
  8
DETAIL
  6
CONTINUOUS
 62
     5
 10
0.8837262031998989
 20
88.341797401761681
 30
0.0
 40
0.7499999999999879
 50
59.999999999999957
 51
120.0
  0
ARC
  8
DETAIL
  6
CONTINUOUS
 62
     5
 10
1.6337262031998989
 20
89.640835507438339
 30
0.0
 40
0.7500000000000121
 50
239.99999999999989
 51
300.0
  0
LINE
  8
DETAIL
  6
CONTINUOUS
 62
     5
 10
0.5087262031998989
 20
88.991316454599996
 30
0.0
 11
0.5087262031998989
 21
79.991316454599996
 31
0.0
  0
LINE
  8
DETAIL
  6
CONTINUOUS
 62
     5
 10
2.0087262031998989
 20
88.991316454600053
 30
0.0
 11
2.0087262031998989
 21
79.965133857225624
 31
0.0
  0
ARC
  8
DETAIL
  6
CONTINUOUS
 62
     5
 10
1.258726203199956
 20
107.61519624013771
 30
0.0
 40
0.375
 50
90.0
 51
270.0
  0
ARC
  8
DETAIL
  6
CONTINUOUS
 62
     5
 10
1.258726203199956
 20
106.11519624013771
 30
0.0
 40
0.375
 50
270.0
 51
90.0
  0
ARC
  8
DETAIL
  6
CONTINUOUS
 62
     5
 10
1.258726203199956
 20
104.61519624013771
 30
0.0
 40
0.375
 50
90.0
 51
270.0
  0
ARC
  8
DETAIL
  6
CONTINUOUS
 62
     5
 10
1.258726203199956
 20
103.11519624013771
 30
0.0
 40
0.375
 50
270.0
 51
90.0
  0
ARC
  8
DETAIL
  6
CONTINUOUS
 62
     5
 10
1.258726203199956
 20
101.61519624013771
 30
0.0
 40
0.375
 50
90.0
 51
270.0
  0
ARC
  8
OUTLINE
  6
CONTINUOUS
 62
     3
 10
14.5
 20
-80.246781419026732
 30
0.0
 40
0.49999999999999
 50
0.0000000000016284
 51
91.000000000171156
  0
ARC
  8
OUTLINE
  6
CONTINUOUS
 62
     3
 10
17.5
 20
-80.194416224232995
 30
0.0
 40
0.5
 50
91.000000000171156
 51
180.0
  0
ARC
  8
OUTLINE
  6
CONTINUOUS
 62
     3
 10
15.5
 20
-84.299803696595902
 30
0.0
 40
0.5
 50
179.99999999999841
 51
270.0
  0
LINE
  8
OUTLINE
  6
CONTINUOUS
 62
     3
 10
16.5
 20
-84.799803696595902
 30
0.0
 11
15.5
 21
-84.799803696595902
 31
0.0
  0
ARC
  8
OUTLINE
  6
CONTINUOUS
 62
     3
 10
16.5
 20
-84.299803696595902
 30
0.0
 40
0.5
 50
270.0
 51
0.0000000000016284
  0
LINE
  8
OUTLINE
  6
CONTINUOUS
 62
     3
 10
15.0
 20
-80.246781419026732
 30
0.0
 11
15.0
 21
-83.299803696595902
 31
0.0
  0
LINE
  8
OUTLINE
  6
CONTINUOUS
 62
     3
 10
17.0
 20
-80.194416224232995
 30
0.0
 11
17.0
 21
-84.299803696595873
 31
0.0
  0
ARC
  8
OUTLINE
  6
CONTINUOUS
 62
     3
 10
14.799999999999949
 20
-83.89980369659591
 30
0.0
 40
0.399999999999998
 50
180.0
 51
270.0
  0
LINE
  8
OUTLINE
  6
CONTINUOUS
 62
     3
 10
14.399999999999981
 20
-83.699803696595893
 30
0.0
 11
14.399999999999981
 21
-83.89980369659591
 31
0.0
  0
ARC
  8
OUTLINE
  6
CONTINUOUS
 62
     3
 10
14.799999999999949
 20
-83.699803696595893
 30
0.0
 40
0.399999999999992
 50
90.0
 51
180.0
  0
LINE
  8
OUTLINE
  6
CONTINUOUS
 62
     3
 10
15.0
 20
-83.299803696595902
 30
0.0
 11
14.799999999999949
 21
-83.299803696595902
 31
0.0
  0
LINE
  8
OUTLINE
  6
CONTINUOUS
 62
     3
 10
15.0
 20
-84.299803696595902
 30
0.0
 11
14.799999999999949
 21
-84.299803696595902
 31
0.0
  0
ENDSEC
  0
EOF
