  0
SECTION
  2
HEADER
  9
$ACADVER
  1
AC1009
  9
$DWGCODEPAGE
  3
dos932
  9
$INSBASE
 10
0.0
 20
0.0
 30
0.0
  9
$EXTMIN
 10
-326.43121554705237
 20
-123.9815405900487
 30
0.0
  9
$EXTMAX
 10
755.33700055402653
 20
484.7502938937244
 30
50.0
  9
$LIMMIN
 10
-2970.0
 20
-2100.0
  9
$LIMMAX
 10
2970.0
 20
2100.0
  9
$ORTHOMODE
 70
     1
  9
$REGENMODE
 70
     1
  9
$FILLMODE
 70
     1
  9
$QTEXTMODE
 70
     0
  9
$MIRRTEXT
 70
     0
  9
$LTSCALE
 40
20.0
  9
$ATTMODE
 70
     1
  9
$TEXTSIZE
 40
64.0
  9
$TRACEWID
 40
0.05
  9
$TEXTSTYLE
  7
STANDARD
  9
$CLAYER
  8
SIZE
  9
$CELTYPE
  6
CONTINUOUS
  9
$CECOLOR
 62
     7
  9
$DIMSCALE
 40
1.0
  9
$DIMASZ
 40
12.0
  9
$DIMEXO
 40
20.0
  9
$DIMDLI
 40
200.0
  9
$DIMRND
 40
0.0
  9
$DIMDLE
 40
0.0
  9
$DIMEXE
 40
20.0
  9
$DIMTP
 40
0.0
  9
$DIMTM
 40
0.0
  9
$DIMTXT
 40
64.0
  9
$DIMCEN
 40
0.09
  9
$DIMTSZ
 40
0.0
  9
$DIMTOL
 70
     0
  9
$DIMLIM
 70
     0
  9
$DIMTIH
 70
     0
  9
$DIMTOH
 70
     0
  9
$DIMSE1
 70
     0
  9
$DIMSE2
 70
     0
  9
$DIMTAD
 70
     1
  9
$DIMZIN
 70
     8
  9
$DIMBLK
  1

  9
$DIMASO
 70
     1
  9
$DIMSHO
 70
     0
  9
$DIMPOST
  1

  9
$DIMAPOST
  1

  9
$DIMALT
 70
     0
  9
$DIMALTD
 70
     2
  9
$DIMALTF
 40
25.399999999999999
  9
$DIMLFAC
 40
1.0
  9
$DIMTOFL
 70
     1
  9
$DIMTVP
 40
0.0
  9
$DIMTIX
 70
     1
  9
$DIMSOXD
 70
     0
  9
$DIMSAH
 70
     0
  9
$DIMBLK1
  1

  9
$DIMBLK2
  1

  9
$DIMSTYLE
  2
STANDARD
  9
$DIMCLRD
 70
     7
  9
$DIMCLRE
 70
     7
  9
$DIMCLRT
 70
     7
  9
$DIMTFAC
 40
1.0
  9
$DIMGAP
 40
25.0
  9
$LUNITS
 70
     2
  9
$LUPREC
 70
     4
  9
$SKETCHINC
 40
0.1
  9
$FILLETRAD
 40
3.0
  9
$AUNITS
 70
     1
  9
$AUPREC
 70
     3
  9
$MENU
  1
ACAD
  9
$ELEVATION
 40
0.0
  9
$PELEVATION
 40
0.0
  9
$THICKNESS
 40
50.0
  9
$LIMCHECK
 70
     0
  9
$CHAMFERA
 40
0.0
  9
$CHAMFERB
 40
0.0
  9
$SKPOLY
 70
     0
  9
$TDCREATE
 40
2453019.623009259
  9
$TDUPDATE
 40
2459356.645313542
  9
$TDINDWG
 40
1.7664324306
  9
$TDUSRTIMER
 40
1.7664324306
  9
$USRTIMER
 70
     1
  9
$ANGBASE
 50
0.0
  9
$ANGDIR
 70
     0
  9
$PDMODE
 70
     3
  9
$PDSIZE
 40
-2.0
  9
$PLINEWID
 40
0.0
  9
$SPLFRAME
 70
     0
  9
$SPLINETYPE
 70
     6
  9
$SPLINESEGS
 70
     8
  9
$SURFTAB1
 70
     6
  9
$SURFTAB2
 70
     6
  9
$SURFTYPE
 70
     6
  9
$SURFU
 70
     6
  9
$SURFV
 70
     6
  9
$UCSNAME
  2

  9
$UCSORG
 10
0.0
 20
0.0
 30
0.0
  9
$UCSXDIR
 10
1.0
 20
0.0
 30
0.0
  9
$UCSYDIR
 10
0.0
 20
1.0
 30
0.0
  9
$PUCSNAME
  2

  9
$PUCSORG
 10
0.0
 20
0.0
 30
0.0
  9
$PUCSXDIR
 10
1.0
 20
0.0
 30
0.0
  9
$PUCSYDIR
 10
0.0
 20
1.0
 30
0.0
  9
$USERI1
 70
     0
  9
$USERI2
 70
     0
  9
$USERI3
 70
     0
  9
$USERI4
 70
     0
  9
$USERI5
 70
     0
  9
$USERR1
 40
20.0
  9
$USERR2
 40
0.0
  9
$USERR3
 40
0.0
  9
$USERR4
 40
0.0
  9
$USERR5
 40
0.0
  9
$WORLDVIEW
 70
     1
  9
$SHADEDGE
 70
     3
  9
$SHADEDIF
 70
    70
  9
$TILEMODE
 70
     1
  9
$MAXACTVP
 70
    48
  9
$PINSBASE
 10
0.0
 20
0.0
 30
0.0
  9
$PLIMCHECK
 70
     0
  9
$PEXTMIN
 10
-100000000000000000000.0
 20
-100000000000000000000.0
 30
-100000000000000000000.0
  9
$PEXTMAX
 10
100000000000000000000.0
 20
100000000000000000000.0
 30
100000000000000000000.0
  9
$PLIMMIN
 10
0.0
 20
0.0
  9
$PLIMMAX
 10
12.0
 20
9.0
  9
$UNITMODE
 70
     0
  9
$VISRETAIN
 70
     0
  9
$PLINEGEN
 70
     0
  9
$PSLTSCALE
 70
     0
  9
$TREEDEPTH
 70
  3020
  9
$ATTDIA
 70
     0
  9
$ATTREQ
 70
     1
  9
$BLIPMODE
 70
     1
  9
$COORDS
 70
     1
  9
$DRAGMODE
 70
     2
  9
$OSMODE
 70
     0
  9
$HANDLING
 70
     0
  9
$HANDSEED
  5
4E7
  0
ENDSEC
  0
SECTION
  2
TABLES
  0
TABLE
  2
LTYPE
 70
     2
  0
LTYPE
  2
CONTINUOUS
 70
     0
  3
実線
 72
    65
 73
     0
 40
0.0
  0
LTYPE
  2
DASHDOT
 70
     0
  3
____ _ ____ _ ____ _ ____ _ ____ _ ____ _ ____
 72
    65
 73
     4
 40
5.5
 49
4.0
 49
-0.6
 49
0.3
 49
-0.6
  0
ENDTAB
  0
TABLE
  2
LAYER
 70
    12
  0
LAYER
  2
SIZE
 70
     0
 62
    30
  6
CONTINUOUS
  0
LAYER
  2
BASIS
 70
     0
 62
     6
  6
DASHDOT
  0
LAYER
  2
OUTLINE
 70
     0
 62
     3
  6
CONTINUOUS
  0
LAYER
  2
DETAIL
 70
     0
 62
     5
  6
CONTINUOUS
  0
LAYER
  2
ARRANGE
 70
     4
 62
     1
  6
CONTINUOUS
  0
LAYER
  2
DEFPOINTS
 70
     0
 62
     7
  6
CONTINUOUS
  0
LAYER
  2
ETC
 70
     0
 62
    61
  6
CONTINUOUS
  0
LAYER
  2
0
 70
    64
 62
     7
  6
CONTINUOUS
  0
LAYER
  2
FIX
 70
    64
 62
    11
  6
CONTINUOUS
  0
LAYER
  2
NOTE
 70
    64
 62
     4
  6
CONTINUOUS
  0
LAYER
  2
SERVICESPACE
 70
    64
 62
     2
  6
DASHDOT
  0
LAYER
  2
SYMBOLLINE
 70
    64
 62
    15
  6
CONTINUOUS
  0
ENDTAB
  0
TABLE
  2
STYLE
 70
     1
  0
STYLE
  2
STANDARD
 70
     0
 40
64.0
 41
0.9
 50
0.0
 71
     0
 42
64.0
  3
SIMPLEX.shx
  4
BIGFONT.shx
  0
ENDTAB
  0
TABLE
  2
APPID
 70
    18
  0
APPID
  2
ACAD
 70
     0
  0
APPID
  2
ACADANNOTATIVE
 70
     0
  0
APPID
  2
AUTOCAD_POSTSCRIPT_FIGURE
 70
     0
  0
APPID
  2
ACAD_EXEMPT_FROM_CAD_STANDARDS
 70
     0
  0
APPID
  2
ACAD_PSEXT
 70
     0
  0
APPID
  2
ACAUTHENVIRON
 70
     0
  0
APPID
  2
GENIUS_GENOENT_13
 70
     0
  0
APPID
  2
GENIUS_GENCFG_13
 70
     0
  0
APPID
  2
GENIUS_GENCFG0_13
 70
     0
  0
APPID
  2
GENIUS_GENCFG1_13
 70
     0
  0
APPID
  2
GENIUS_GENCFG2_13
 70
     0
  0
APPID
  2
GENIUS_GENCFG3_13
 70
     0
  0
APPID
  2
GENIUS_GENCFG4_13
 70
     0
  0
APPID
  2
GENIUS_GEVCFG0_13
 70
     0
  0
APPID
  2
CONTENTBLOCKICON
 70
     0
  0
APPID
  2
CONTENTBLOCKDESCRIPTION
 70
     0
  0
APPID
  2
ACAD_NAV_VCDISPLAY
 70
     0
  0
APPID
  2
ACAD_MLEADERVER
 70
     0
  0
ENDTAB
  0
TABLE
  2
DIMSTYLE
 70
     1
  0
DIMSTYLE
  2
STANDARD
 70
     0
  3

  4

  5

  6

  7

 40
1.0
 41
12.0
 42
20.0
 43
200.0
 44
20.0
 45
0.0
 46
0.0
 47
0.0
 48
0.0
140
64.0
141
0.09
142
0.0
143
25.399999999999999
144
1.0
145
0.0
146
1.0
147
25.0
 71
     0
 72
     0
 73
     0
 74
     0
 75
     0
 76
     0
 77
     1
 78
     8
170
     0
171
     2
172
     1
173
     0
174
     1
175
     0
176
     7
177
     7
178
     7
  0
ENDTAB
  0
TABLE
  2
VIEW
 70
     1
  0
VIEW
  2
ALL
 70
     0
 40
4282.6198079999986
 10
0.0
 20
41.309904000000003
 41
5940.0
 11
0.0
 21
0.0
 31
1.0
 12
0.0
 22
0.0
 32
0.0
 42
50.0
 43
0.0
 44
0.0
 50
0.0
 71
     0
  0
ENDTAB
  0
TABLE
  2
UCS
 70
     0
  0
ENDTAB
  0
TABLE
  2
VPORT
 70
     1
  0
VPORT
  2
*ACTIVE
 70
     0
 10
0.0
 20
0.0
 11
1.0
 21
1.0
 12
439.87603662942098
 22
159.2559914095973
 13
0.0
 23
0.0
 14
1.0
 24
1.0
 15
0.0
 25
0.0
 16
0.0
 26
0.0
 36
1.0
 17
0.0
 27
0.0
 37
0.0
 40
871.30525216478532
 41
1.767337807606264
 42
50.0
 43
0.0
 44
0.0
 50
0.0
 51
0.0
 71
     0
 72
  1000
 73
     1
 74
     0
 75
     0
 76
     0
 77
     0
 78
     0
  0
ENDTAB
  0
ENDSEC
  0
SECTION
  2
BLOCKS
  0
ENDSEC
  0
SECTION
  2
ENTITIES
  0
TEXT
  8
ETC
  6
CONTINUOUS
 62
    61
 10
129.96557198259819
 20
420.75029389372418
 30
0.0
 40
64.0
  1
V-08PASD8_2
 41
0.9
  0
TEXT
  8
ETC
  6
CONTINUOUS
 62
    61
 10
125.7795779825979
 20
302.79498387889322
 30
0.0
 40
64.0
  1
換気扇
 41
0.9
  0
CIRCLE
  8
ARRANGE
  6
CONTINUOUS
 62
     1
 10
0.0
 20
0.0
 30
0.0
 40
40.0
  0
POINT
  8
ARRANGE
  6
CONTINUOUS
 62
     1
 10
0.0
 20
0.0
 30
0.0
 39
50.0
  0
LINE
  8
BASIS
  6
DASHDOT
 62
     6
 10
0.0
 20
-109.2854010143142
 30
0.0
 11
0.0
 21
109.2854010143142
 31
0.0
  0
LINE
  8
BASIS
  6
DASHDOT
 62
     6
 10
125.4561247050906
 20
0.0
 30
0.0
 11
-125.4561247050906
 21
0.0
 31
0.0
  0
TEXT
  8
ETC
  6
CONTINUOUS
 62
    61
 10
176.48097623115379
 20
194.6462109926679
 30
0.0
 40
40.0
  1
V-08PASD8
 41
0.9
  0
LINE
  8
DETAIL
  6
CONTINUOUS
 62
     5
 10
-74.215060916700835
 20
-66.969153552000193
 30
0.0
 11
-74.215060916700835
 21
75.034309547372217
 31
0.0
  0
LINE
  8
DETAIL
  6
CONTINUOUS
 62
     5
 10
74.215060916700907
 20
-66.969153552000193
 30
0.0
 11
74.215060916700907
 21
75.034309547372217
 31
0.0
  0
LINE
  8
DETAIL
  6
CONTINUOUS
 62
     5
 10
-74.215060916700835
 20
-94.965605247372068
 30
0.0
 11
-74.215060916700835
 21
-67.766405380000037
 31
0.0
  0
LINE
  8
DETAIL
  6
CONTINUOUS
 62
     5
 10
74.215060916700907
 20
-94.965605247372068
 30
0.0
 11
74.215060916700907
 21
-67.766405380000037
 31
0.0
  0
LINE
  8
DETAIL
  6
CONTINUOUS
 62
     5
 10
84.003368174960869
 20
-94.965605247372068
 30
0.0
 11
-84.003392612372224
 21
-94.965605247372068
 31
0.0
  0
ARC
  8
DETAIL
  6
CONTINUOUS
 62
     5
 10
66.022417006250009
 20
-62.356491133716752
 30
0.0
 40
0.996564785
 50
180.0
 51
270.0
  0
LINE
  8
DETAIL
  6
CONTINUOUS
 62
     5
 10
65.025852221249977
 20
61.356988074613348
 30
0.0
 11
65.025852221249977
 21
-62.356491133716752
 31
0.0
  0
LINE
  8
DETAIL
  6
CONTINUOUS
 62
     5
 10
-65.025852221250034
 20
59.793887099999893
 30
0.0
 11
-60.541310688750073
 21
59.793887099999893
 31
0.0
  0
ARC
  8
DETAIL
  6
CONTINUOUS
 62
     5
 10
-66.022417006250038
 20
61.356988074613348
 30
0.0
 40
0.996564785
 50
0.0
 51
90.0
  0
LINE
  8
DETAIL
  6
CONTINUOUS
 62
     5
 10
-66.022417006250038
 20
62.353552859613288
 30
0.0
 11
-59.626622489648639
 21
62.353552859613288
 31
0.0
  0
ARC
  8
DETAIL
  6
CONTINUOUS
 62
     5
 10
66.022417006250009
 20
61.356988074613348
 30
0.0
 40
0.996564785
 50
90.0
 51
180.0
  0
LINE
  8
DETAIL
  6
CONTINUOUS
 62
     5
 10
-58.964586925351369
 20
62.353552859613288
 30
0.0
 11
-52.65066899464864
 21
62.353552859613288
 31
0.0
  0
LINE
  8
DETAIL
  6
CONTINUOUS
 62
     5
 10
-58.049898726250021
 20
59.793887099999893
 30
0.0
 11
-53.56345883449135
 21
59.793887099999893
 31
0.0
  0
LINE
  8
DETAIL
  6
CONTINUOUS
 62
     5
 10
-51.988633430351371
 20
62.353552859613288
 30
0.0
 11
-45.674715499648627
 21
62.353552859613288
 31
0.0
  0
LINE
  8
DETAIL
  6
CONTINUOUS
 62
     5
 10
-51.073945231250043
 20
59.793887099999893
 30
0.0
 11
-46.587505339491351
 21
59.793887099999893
 31
0.0
  0
LINE
  8
DETAIL
  6
CONTINUOUS
 62
     5
 10
-45.012679935351372
 20
62.353552859613288
 30
0.0
 11
-38.698762004648643
 21
62.353552859613288
 31
0.0
  0
LINE
  8
DETAIL
  6
CONTINUOUS
 62
     5
 10
-44.097991736250037
 20
59.793887099999893
 30
0.0
 11
-39.611551844491331
 21
59.793887099999893
 31
0.0
  0
LINE
  8
DETAIL
  6
CONTINUOUS
 62
     5
 10
-38.036726440351373
 20
62.353552859613288
 30
0.0
 11
-31.72280850964864
 21
62.353552859613288
 31
0.0
  0
LINE
  8
DETAIL
  6
CONTINUOUS
 62
     5
 10
-37.122038241250038
 20
59.793887099999893
 30
0.0
 11
-32.635598349491367
 21
59.793887099999893
 31
0.0
  0
LINE
  8
DETAIL
  6
CONTINUOUS
 62
     5
 10
-31.060772945351399
 20
62.353552859613288
 30
0.0
 11
-24.746855014648649
 21
62.353552859613288
 31
0.0
  0
LINE
  8
DETAIL
  6
CONTINUOUS
 62
     5
 10
-30.14608474625004
 20
59.793887099999893
 30
0.0
 11
-25.659644854491379
 21
59.793887099999893
 31
0.0
  0
LINE
  8
DETAIL
  6
CONTINUOUS
 62
     5
 10
-24.0848194503514
 20
62.353552859613288
 30
0.0
 11
-17.77090151964865
 21
62.353552859613288
 31
0.0
  0
LINE
  8
DETAIL
  6
CONTINUOUS
 62
     5
 10
-23.170131251250041
 20
59.793887099999893
 30
0.0
 11
-18.68369135949132
 21
59.793887099999893
 31
0.0
  0
LINE
  8
DETAIL
  6
CONTINUOUS
 62
     5
 10
-17.108865955351401
 20
62.353552859613288
 30
0.0
 11
-10.794948024648701
 21
62.353552859613288
 31
0.0
  0
LINE
  8
DETAIL
  6
CONTINUOUS
 62
     5
 10
-16.194177756250038
 20
59.793887099999893
 30
0.0
 11
-11.707737864491319
 21
59.793887099999893
 31
0.0
  0
LINE
  8
DETAIL
  6
CONTINUOUS
 62
     5
 10
-10.13291246035141
 20
62.353552859613288
 30
0.0
 11
-3.8189945296487049
 21
62.353552859613288
 31
0.0
  0
LINE
  8
DETAIL
  6
CONTINUOUS
 62
     5
 10
-9.2182242612500449
 20
59.793887099999893
 30
0.0
 11
-4.7317843694913213
 21
59.793887099999893
 31
0.0
  0
LINE
  8
DETAIL
  6
CONTINUOUS
 62
     5
 10
-3.1569589653514072
 20
62.353552859613288
 30
0.0
 11
3.1569589653512939
 21
62.353552859613288
 31
0.0
  0
LINE
  8
DETAIL
  6
CONTINUOUS
 62
     5
 10
-2.242270766249987
 20
59.793887099999893
 30
0.0
 11
2.2441691255086771
 21
59.793887099999893
 31
0.0
  0
LINE
  8
DETAIL
  6
CONTINUOUS
 62
     5
 10
3.8189945296485921
 20
62.353552859613288
 30
0.0
 11
10.132912460351291
 21
62.353552859613288
 31
0.0
  0
LINE
  8
DETAIL
  6
CONTINUOUS
 62
     5
 10
4.7336827287500114
 20
59.793887099999893
 30
0.0
 11
9.2201226205086755
 21
59.793887099999893
 31
0.0
  0
LINE
  8
DETAIL
  6
CONTINUOUS
 62
     5
 10
10.79494802464859
 20
62.353552859613288
 30
0.0
 11
17.108865955351291
 21
62.353552859613288
 31
0.0
  0
LINE
  8
DETAIL
  6
CONTINUOUS
 62
     5
 10
11.70963622375001
 20
59.793887099999893
 30
0.0
 11
16.196076115508671
 21
59.793887099999893
 31
0.0
  0
LINE
  8
DETAIL
  6
CONTINUOUS
 62
     5
 10
17.770901519648589
 20
62.353552859613288
 30
0.0
 11
24.08481945035129
 21
62.353552859613288
 31
0.0
  0
LINE
  8
DETAIL
  6
CONTINUOUS
 62
     5
 10
18.685589718750009
 20
59.793887099999893
 30
0.0
 11
23.17202961050873
 21
59.793887099999893
 31
0.0
  0
LINE
  8
DETAIL
  6
CONTINUOUS
 62
     5
 10
24.746855014648592
 20
62.353552859613288
 30
0.0
 11
31.060772945351289
 21
62.353552859613288
 31
0.0
  0
LINE
  8
DETAIL
  6
CONTINUOUS
 62
     5
 10
25.661543213750011
 20
59.793887099999893
 30
0.0
 11
30.147983105508729
 21
59.793887099999893
 31
0.0
  0
LINE
  8
DETAIL
  6
CONTINUOUS
 62
     5
 10
31.722808509648591
 20
62.353552859613288
 30
0.0
 11
38.03672644035133
 21
62.353552859613288
 31
0.0
  0
LINE
  8
DETAIL
  6
CONTINUOUS
 62
     5
 10
32.637496708750007
 20
59.793887099999893
 30
0.0
 11
37.123936600508728
 21
59.793887099999893
 31
0.0
  0
LINE
  8
DETAIL
  6
CONTINUOUS
 62
     5
 10
38.698762004648593
 20
62.353552859613288
 30
0.0
 11
45.012679935351343
 21
62.353552859613288
 31
0.0
  0
LINE
  8
DETAIL
  6
CONTINUOUS
 62
     5
 10
39.613450203750013
 20
59.793887099999893
 30
0.0
 11
44.099890095508727
 21
59.793887099999893
 31
0.0
  0
LINE
  8
DETAIL
  6
CONTINUOUS
 62
     5
 10
45.674715499648578
 20
62.353552859613288
 30
0.0
 11
51.988633430351342
 21
62.353552859613288
 31
0.0
  0
LINE
  8
DETAIL
  6
CONTINUOUS
 62
     5
 10
46.589403698749997
 20
59.793887099999893
 30
0.0
 11
51.075843590508732
 21
59.793887099999893
 31
0.0
  0
LINE
  8
DETAIL
  6
CONTINUOUS
 62
     5
 10
52.65066899464864
 20
62.353552859613288
 30
0.0
 11
58.964586925351341
 21
62.353552859613288
 31
0.0
  0
LINE
  8
DETAIL
  6
CONTINUOUS
 62
     5
 10
53.565357193750003
 20
59.793887099999893
 30
0.0
 11
58.051797085508717
 21
59.793887099999893
 31
0.0
  0
LINE
  8
DETAIL
  6
CONTINUOUS
 62
     5
 10
59.626622489648639
 20
62.353552859613288
 30
0.0
 11
65.94054042035134
 21
62.353552859613288
 31
0.0
  0
LINE
  8
DETAIL
  6
CONTINUOUS
 62
     5
 10
60.541310688750002
 20
59.793887099999893
 30
0.0
 11
65.027750580508723
 21
59.793887099999893
 31
0.0
  0
LINE
  8
DETAIL
  6
CONTINUOUS
 62
     5
 10
-65.025852221250034
 20
61.356988074613348
 30
0.0
 11
-65.025852221250034
 21
-62.356491133716752
 31
0.0
  0
LINE
  8
DETAIL
  6
CONTINUOUS
 62
     5
 10
-60.541310688750073
 20
-60.922242132486303
 30
0.0
 11
-60.541310688750073
 21
59.925677347486499
 31
0.0
  0
LINE
  8
DETAIL
  6
CONTINUOUS
 62
     5
 10
-58.049898726250021
 20
59.925677347486499
 30
0.0
 11
-58.049898726250021
 21
-60.922242132486303
 31
0.0
  0
LINE
  8
DETAIL
  6
CONTINUOUS
 62
     5
 10
-53.565357193750067
 20
-60.922242132486303
 30
0.0
 11
-53.565357193750067
 21
59.925677347486499
 31
0.0
  0
LINE
  8
DETAIL
  6
CONTINUOUS
 62
     5
 10
-51.073945231250043
 20
59.925677347486499
 30
0.0
 11
-51.073945231250043
 21
-60.922242132486303
 31
0.0
  0
LINE
  8
DETAIL
  6
CONTINUOUS
 62
     5
 10
-46.589403698750033
 20
-60.922242132486303
 30
0.0
 11
-46.589403698750033
 21
59.925677347486499
 31
0.0
  0
LINE
  8
DETAIL
  6
CONTINUOUS
 62
     5
 10
-44.097991736250037
 20
59.925677347486499
 30
0.0
 11
-44.097991736250037
 21
-60.922242132486303
 31
0.0
  0
LINE
  8
DETAIL
  6
CONTINUOUS
 62
     5
 10
-39.613450203750027
 20
-60.922242132486303
 30
0.0
 11
-39.613450203750027
 21
59.925677347486499
 31
0.0
  0
LINE
  8
DETAIL
  6
CONTINUOUS
 62
     5
 10
-37.122038241250038
 20
59.925677347486499
 30
0.0
 11
-37.122038241250038
 21
-60.922242132486303
 31
0.0
  0
LINE
  8
DETAIL
  6
CONTINUOUS
 62
     5
 10
-32.637496708750049
 20
-60.922242132486303
 30
0.0
 11
-32.637496708750049
 21
59.925677347486499
 31
0.0
  0
LINE
  8
DETAIL
  6
CONTINUOUS
 62
     5
 10
-30.14608474625004
 20
59.925677347486499
 30
0.0
 11
-30.14608474625004
 21
-60.922242132486303
 31
0.0
  0
LINE
  8
DETAIL
  6
CONTINUOUS
 62
     5
 10
-25.661543213750061
 20
-60.922242132486303
 30
0.0
 11
-25.661543213750061
 21
59.925677347486499
 31
0.0
  0
LINE
  8
DETAIL
  6
CONTINUOUS
 62
     5
 10
-23.170131251250041
 20
59.925677347486499
 30
0.0
 11
-23.170131251250041
 21
-60.922242132486303
 31
0.0
  0
LINE
  8
DETAIL
  6
CONTINUOUS
 62
     5
 10
-18.685589718750069
 20
-60.922242132486303
 30
0.0
 11
-18.685589718750069
 21
59.925677347486499
 31
0.0
  0
LINE
  8
DETAIL
  6
CONTINUOUS
 62
     5
 10
-16.194177756250038
 20
59.925677347486499
 30
0.0
 11
-16.194177756250038
 21
-60.922242132486303
 31
0.0
  0
LINE
  8
DETAIL
  6
CONTINUOUS
 62
     5
 10
-11.709636223750071
 20
-60.922242132486303
 30
0.0
 11
-11.709636223750071
 21
59.925677347486499
 31
0.0
  0
LINE
  8
DETAIL
  6
CONTINUOUS
 62
     5
 10
-9.2182242612499863
 20
59.925677347486499
 30
0.0
 11
-9.2182242612499863
 21
-60.922242132486303
 31
0.0
  0
LINE
  8
DETAIL
  6
CONTINUOUS
 62
     5
 10
-4.7336827287500114
 20
-60.922242132486303
 30
0.0
 11
-4.7336827287500114
 21
59.925677347486499
 31
0.0
  0
LINE
  8
DETAIL
  6
CONTINUOUS
 62
     5
 10
-2.242270766249987
 20
59.925677347486499
 30
0.0
 11
-2.242270766249987
 21
-60.922242132486303
 31
0.0
  0
LINE
  8
DETAIL
  6
CONTINUOUS
 62
     5
 10
2.242270766249987
 20
-60.922242132486303
 30
0.0
 11
2.242270766249987
 21
59.925677347486499
 31
0.0
  0
LINE
  8
DETAIL
  6
CONTINUOUS
 62
     5
 10
4.7336827287500114
 20
59.925677347486499
 30
0.0
 11
4.7336827287500114
 21
-60.922242132486303
 31
0.0
  0
LINE
  8
DETAIL
  6
CONTINUOUS
 62
     5
 10
9.2182242612499863
 20
-60.922242132486303
 30
0.0
 11
9.2182242612499863
 21
59.925677347486499
 31
0.0
  0
LINE
  8
DETAIL
  6
CONTINUOUS
 62
     5
 10
11.70963622375001
 20
59.925677347486499
 30
0.0
 11
11.70963622375001
 21
-60.922242132486303
 31
0.0
  0
LINE
  8
DETAIL
  6
CONTINUOUS
 62
     5
 10
16.194177756249989
 20
-60.922242132486303
 30
0.0
 11
16.194177756249989
 21
59.925677347486499
 31
0.0
  0
LINE
  8
DETAIL
  6
CONTINUOUS
 62
     5
 10
18.685589718750009
 20
59.925677347486499
 30
0.0
 11
18.685589718750009
 21
-60.922242132486303
 31
0.0
  0
LINE
  8
DETAIL
  6
CONTINUOUS
 62
     5
 10
23.17013125124998
 20
-60.922242132486303
 30
0.0
 11
23.17013125124998
 21
59.925677347486499
 31
0.0
  0
LINE
  8
DETAIL
  6
CONTINUOUS
 62
     5
 10
25.661543213750011
 20
59.925677347486499
 30
0.0
 11
25.661543213750011
 21
-60.922242132486303
 31
0.0
  0
LINE
  8
DETAIL
  6
CONTINUOUS
 62
     5
 10
30.146084746249979
 20
-60.922242132486303
 30
0.0
 11
30.146084746249979
 21
59.925677347486499
 31
0.0
  0
LINE
  8
DETAIL
  6
CONTINUOUS
 62
     5
 10
32.637496708750007
 20
59.925677347486499
 30
0.0
 11
32.637496708750007
 21
-60.922242132486303
 31
0.0
  0
LINE
  8
DETAIL
  6
CONTINUOUS
 62
     5
 10
37.122038241249989
 20
-60.922242132486303
 30
0.0
 11
37.122038241249989
 21
59.925677347486499
 31
0.0
  0
LINE
  8
DETAIL
  6
CONTINUOUS
 62
     5
 10
39.613450203750013
 20
59.925677347486499
 30
0.0
 11
39.613450203750013
 21
-60.922242132486303
 31
0.0
  0
LINE
  8
DETAIL
  6
CONTINUOUS
 62
     5
 10
44.09799173624998
 20
-60.922242132486303
 30
0.0
 11
44.09799173624998
 21
59.925677347486499
 31
0.0
  0
LINE
  8
DETAIL
  6
CONTINUOUS
 62
     5
 10
46.589403698749997
 20
59.925677347486499
 30
0.0
 11
46.589403698749997
 21
-60.922242132486303
 31
0.0
  0
LINE
  8
DETAIL
  6
CONTINUOUS
 62
     5
 10
51.073945231249979
 20
-60.922242132486303
 30
0.0
 11
51.073945231249979
 21
59.925677347486499
 31
0.0
  0
LINE
  8
DETAIL
  6
CONTINUOUS
 62
     5
 10
53.565357193750003
 20
59.925677347486499
 30
0.0
 11
53.565357193750003
 21
-60.922242132486303
 31
0.0
  0
LINE
  8
DETAIL
  6
CONTINUOUS
 62
     5
 10
58.049898726249978
 20
-60.922242132486303
 30
0.0
 11
58.049898726249978
 21
59.925677347486499
 31
0.0
  0
LINE
  8
DETAIL
  6
CONTINUOUS
 62
     5
 10
60.541310688750002
 20
59.925677347486499
 30
0.0
 11
60.541310688750002
 21
-60.922242132486303
 31
0.0
  0
LINE
  8
DETAIL
  6
CONTINUOUS
 62
     5
 10
60.541310688750002
 20
-60.790451885000152
 30
0.0
 11
65.025852221249977
 21
-60.790451885000152
 31
0.0
  0
LINE
  8
DETAIL
  6
CONTINUOUS
 62
     5
 10
59.516297806046353
 20
-63.353055918716677
 30
0.0
 11
66.022417006250009
 21
-63.353055918716677
 31
0.0
  0
LINE
  8
DETAIL
  6
CONTINUOUS
 62
     5
 10
53.565357193750003
 20
-60.790451885000152
 30
0.0
 11
58.049898726249978
 21
-60.790451885000152
 31
0.0
  0
LINE
  8
DETAIL
  6
CONTINUOUS
 62
     5
 10
52.54034431104634
 20
-63.353055918716677
 30
0.0
 11
58.968422105656487
 21
-63.353055918716677
 31
0.0
  0
LINE
  8
DETAIL
  6
CONTINUOUS
 62
     5
 10
46.589403698749997
 20
-60.790451885000152
 30
0.0
 11
51.073945231249979
 21
-60.790451885000152
 31
0.0
  0
LINE
  8
DETAIL
  6
CONTINUOUS
 62
     5
 10
45.564390816046341
 20
-63.353055918716677
 30
0.0
 11
51.992468610656431
 21
-63.353055918716677
 31
0.0
  0
LINE
  8
DETAIL
  6
CONTINUOUS
 62
     5
 10
39.613450203750013
 20
-60.790451885000152
 30
0.0
 11
44.09799173624998
 21
-60.790451885000152
 31
0.0
  0
LINE
  8
DETAIL
  6
CONTINUOUS
 62
     5
 10
38.588437321046342
 20
-63.353055918716677
 30
0.0
 11
45.016515115656432
 21
-63.353055918716677
 31
0.0
  0
LINE
  8
DETAIL
  6
CONTINUOUS
 62
     5
 10
32.637496708750007
 20
-60.790451885000152
 30
0.0
 11
37.122038241249989
 21
-60.790451885000152
 31
0.0
  0
LINE
  8
DETAIL
  6
CONTINUOUS
 62
     5
 10
31.61248382604634
 20
-63.353055918716677
 30
0.0
 11
38.040561620656433
 21
-63.353055918716677
 31
0.0
  0
LINE
  8
DETAIL
  6
CONTINUOUS
 62
     5
 10
25.661543213750011
 20
-60.790451885000152
 30
0.0
 11
30.146084746249979
 21
-60.790451885000152
 31
0.0
  0
LINE
  8
DETAIL
  6
CONTINUOUS
 62
     5
 10
24.636530331046341
 20
-63.353055918716677
 30
0.0
 11
31.064608125656431
 21
-63.353055918716677
 31
0.0
  0
LINE
  8
DETAIL
  6
CONTINUOUS
 62
     5
 10
18.685589718750009
 20
-60.790451885000152
 30
0.0
 11
23.17013125124998
 21
-60.790451885000152
 31
0.0
  0
LINE
  8
DETAIL
  6
CONTINUOUS
 62
     5
 10
17.660576836046349
 20
-63.353055918716677
 30
0.0
 11
24.088654630656439
 21
-63.353055918716677
 31
0.0
  0
LINE
  8
DETAIL
  6
CONTINUOUS
 62
     5
 10
11.70963622375001
 20
-60.790451885000152
 30
0.0
 11
16.194177756249989
 21
-60.790451885000152
 31
0.0
  0
LINE
  8
DETAIL
  6
CONTINUOUS
 62
     5
 10
10.68462334104635
 20
-63.353055918716677
 30
0.0
 11
17.11270113565644
 21
-63.353055918716677
 31
0.0
  0
LINE
  8
DETAIL
  6
CONTINUOUS
 62
     5
 10
4.7336827287500114
 20
-60.790451885000152
 30
0.0
 11
9.2182242612499863
 21
-60.790451885000152
 31
0.0
  0
LINE
  8
DETAIL
  6
CONTINUOUS
 62
     5
 10
3.7086698460463481
 20
-63.353055918716677
 30
0.0
 11
10.13674764065644
 21
-63.353055918716677
 31
0.0
  0
LINE
  8
DETAIL
  6
CONTINUOUS
 62
     5
 10
-2.242270766249987
 20
-60.790451885000152
 30
0.0
 11
2.242270766249987
 21
-60.790451885000152
 31
0.0
  0
LINE
  8
DETAIL
  6
CONTINUOUS
 62
     5
 10
-3.2672836489536512
 20
-63.353055918716677
 30
0.0
 11
3.160794145656439
 21
-63.353055918716677
 31
0.0
  0
LINE
  8
DETAIL
  6
CONTINUOUS
 62
     5
 10
-9.2182242612500449
 20
-60.790451885000152
 30
0.0
 11
-4.7336827287500114
 21
-60.790451885000152
 31
0.0
  0
LINE
  8
DETAIL
  6
CONTINUOUS
 62
     5
 10
-10.24323714395365
 20
-63.353055918716677
 30
0.0
 11
-3.8151593493435598
 21
-63.353055918716677
 31
0.0
  0
LINE
  8
DETAIL
  6
CONTINUOUS
 62
     5
 10
-16.194177756250038
 20
-60.790451885000152
 30
0.0
 11
-11.709636223750071
 21
-60.790451885000152
 31
0.0
  0
LINE
  8
DETAIL
  6
CONTINUOUS
 62
     5
 10
-17.219190638953648
 20
-63.353055918716677
 30
0.0
 11
-10.79111284434356
 21
-63.353055918716677
 31
0.0
  0
LINE
  8
DETAIL
  6
CONTINUOUS
 62
     5
 10
-23.170131251250041
 20
-60.790451885000152
 30
0.0
 11
-18.685589718750069
 21
-60.790451885000152
 31
0.0
  0
LINE
  8
DETAIL
  6
CONTINUOUS
 62
     5
 10
-24.195144133953651
 20
-63.353055918716677
 30
0.0
 11
-17.767066339343561
 21
-63.353055918716677
 31
0.0
  0
LINE
  8
DETAIL
  6
CONTINUOUS
 62
     5
 10
-30.14608474625004
 20
-60.790451885000152
 30
0.0
 11
-25.661543213750061
 21
-60.790451885000152
 31
0.0
  0
LINE
  8
DETAIL
  6
CONTINUOUS
 62
     5
 10
-31.17109762895365
 20
-63.353055918716677
 30
0.0
 11
-24.74301983434356
 21
-63.353055918716677
 31
0.0
  0
LINE
  8
DETAIL
  6
CONTINUOUS
 62
     5
 10
-37.122038241250038
 20
-60.790451885000152
 30
0.0
 11
-32.637496708750049
 21
-60.790451885000152
 31
0.0
  0
LINE
  8
DETAIL
  6
CONTINUOUS
 62
     5
 10
-38.147051123953673
 20
-63.353055918716677
 30
0.0
 11
-31.718973329343559
 21
-63.353055918716677
 31
0.0
  0
LINE
  8
DETAIL
  6
CONTINUOUS
 62
     5
 10
-44.097991736250037
 20
-60.790451885000152
 30
0.0
 11
-39.613450203750027
 21
-60.790451885000152
 31
0.0
  0
LINE
  8
DETAIL
  6
CONTINUOUS
 62
     5
 10
-45.123004618953679
 20
-63.353055918716677
 30
0.0
 11
-38.694926824343547
 21
-63.353055918716677
 31
0.0
  0
LINE
  8
DETAIL
  6
CONTINUOUS
 62
     5
 10
-51.073945231250043
 20
-60.790451885000152
 30
0.0
 11
-46.589403698750033
 21
-60.790451885000152
 31
0.0
  0
LINE
  8
DETAIL
  6
CONTINUOUS
 62
     5
 10
-52.098958113953678
 20
-63.353055918716677
 30
0.0
 11
-45.670880319343553
 21
-63.353055918716677
 31
0.0
  0
ARC
  8
DETAIL
  6
CONTINUOUS
 62
     5
 10
-66.022417006250038
 20
-62.356491133716752
 30
0.0
 40
0.996564785
 50
270.0
 51
0.0
  0
LINE
  8
DETAIL
  6
CONTINUOUS
 62
     5
 10
-84.999896684752116
 20
-66.969153552000193
 30
0.0
 11
84.999896684752002
 21
-66.969153552000193
 31
0.0
  0
LINE
  8
DETAIL
  6
CONTINUOUS
 62
     5
 10
-58.049898726250021
 20
-60.790451885000152
 30
0.0
 11
-53.565357193750067
 21
-60.790451885000152
 31
0.0
  0
LINE
  8
DETAIL
  6
CONTINUOUS
 62
     5
 10
-59.074911608953677
 20
-63.353055918716677
 30
0.0
 11
-52.646833814343537
 21
-63.353055918716677
 31
0.0
  0
LINE
  8
DETAIL
  6
CONTINUOUS
 62
     5
 10
-66.022417006250038
 20
-63.353055918716677
 30
0.0
 11
-59.622787309343551
 21
-63.353055918716677
 31
0.0
  0
LINE
  8
DETAIL
  6
CONTINUOUS
 62
     5
 10
-65.025852221250034
 20
-60.790451885000152
 30
0.0
 11
-60.541310688750073
 21
-60.790451885000152
 31
0.0
  0
LINE
  8
DETAIL
  6
CONTINUOUS
 62
     5
 10
12.483152657358289
 20
-94.965635331525959
 30
0.0
 11
12.48315246704863
 21
-98.985127586649128
 31
0.0
  0
ARC
  8
DETAIL
  6
CONTINUOUS
 62
     5
 10
11.486544446683411
 20
-98.984932569683806
 30
0.0
 40
0.9966098936081126
 50
270.01121007949848
 51
359.98878992469957
  0
ARC
  8
DETAIL
  6
CONTINUOUS
 62
     5
 10
-84.003392612372224
 20
74.037744762372299
 30
0.0
 40
0.996564785
 50
90.0
 51
180.0
  0
ARC
  8
DETAIL
  6
CONTINUOUS
 62
     5
 10
84.003392612372224
 20
74.037744762372299
 30
0.0
 40
0.996564785
 50
0.0
 51
90.0
  0
ARC
  8
DETAIL
  6
CONTINUOUS
 62
     5
 10
-84.003392612372224
 20
-93.969040462372149
 30
0.0
 40
0.996564785
 50
180.0
 51
270.0
  0
LINE
  8
DETAIL
  6
CONTINUOUS
 62
     5
 10
0.0
 20
-94.965605247372068
 30
0.0
 11
0.0
 21
-67.766405380000037
 31
0.0
  0
LINE
  8
DETAIL
  6
CONTINUOUS
 62
     5
 10
84.604810503991985
 20
-66.969153552000193
 30
0.0
 11
84.601331483372178
 21
-67.766405380000037
 31
0.0
  0
ARC
  8
DETAIL
  6
CONTINUOUS
 62
     5
 10
84.003392612372224
 20
-93.96904045983969
 30
0.0
 40
0.99656478500001
 50
269.99859501303581
 51
0.0
  0
LINE
  8
DETAIL
  6
CONTINUOUS
 62
     5
 10
84.99995739737227
 20
-67.766405380000037
 30
0.0
 11
84.99995739737227
 21
-93.96904045983969
 31
0.0
  0
LINE
  8
DETAIL
  6
CONTINUOUS
 62
     5
 10
-84.999896684752116
 20
-67.766405380000037
 30
0.0
 11
84.99995739737227
 21
-67.766405380000037
 31
0.0
  0
LINE
  8
DETAIL
  6
CONTINUOUS
 62
     5
 10
-84.604810503992027
 20
-67.766405380000037
 30
0.0
 11
-84.601331483372221
 21
-66.969153552000193
 31
0.0
  0
LINE
  8
DETAIL
  6
CONTINUOUS
 62
     5
 10
-84.999957397372214
 20
-66.969153552000193
 30
0.0
 11
-84.999957397372214
 21
74.037744762372299
 31
0.0
  0
LINE
  8
DETAIL
  6
CONTINUOUS
 62
     5
 10
-84.999957397372214
 20
-93.969040462372149
 30
0.0
 11
-84.999957397372214
 21
-67.766405380000037
 31
0.0
  0
ARC
  8
DETAIL
  6
CONTINUOUS
 62
     5
 10
-11.486587682048709
 20
-98.984975805048734
 30
0.0
 40
0.996564785
 50
180.00000003310299
 51
270.0
  0
LINE
  8
DETAIL
  6
CONTINUOUS
 62
     5
 10
-12.48315246704874
 20
-98.985127586649128
 30
0.0
 11
-12.4831526574651
 21
-94.965605247372068
 31
0.0
  0
LINE
  8
DETAIL
  6
CONTINUOUS
 62
     5
 10
-15.60212329356284
 20
-94.965544534752198
 30
0.0
 11
-15.60224723612583
 21
-94.965578274250319
 31
0.0
  0
LINE
  8
DETAIL
  6
CONTINUOUS
 62
     5
 10
11.486587682048651
 20
-99.981540590048652
 30
0.0
 11
-11.486587682048709
 21
-99.981540590048652
 31
0.0
  0
LINE
  8
DETAIL
  6
CONTINUOUS
 62
     5
 10
84.99995739737227
 20
74.037744762372299
 30
0.0
 11
84.99995739737227
 21
-66.969153552000193
 31
0.0
  0
LINE
  8
DETAIL
  6
CONTINUOUS
 62
     5
 10
-84.003392612372224
 20
75.034309547372217
 30
0.0
 11
84.003392612372224
 21
75.034309547372217
 31
0.0
  0
LINE
  8
DETAIL
  6
CONTINUOUS
 62
     5
 10
41.085695584019327
 20
-10.150264615999051
 30
0.0
 11
41.109995832692157
 21
-10.19018531460028
 31
0.0
  0
ARC
  8
DETAIL
  6
CONTINUOUS
 62
     5
 10
0.0
 20
0.0
 30
0.0
 40
44.845415324999998
 50
294.62431835216142
 51
301.10892251052388
  0
ARC
  8
DETAIL
  6
CONTINUOUS
 62
     5
 10
0.0
 20
0.0
 30
0.0
 40
44.845415324999998
 50
285.1360017560159
 51
291.16844884583418
  0
ARC
  8
DETAIL
  6
CONTINUOUS
 62
     5
 10
0.0
 20
0.0
 30
0.0
 40
44.845415324999998
 50
276.05917542713041
 51
281.86202266886448
  0
ARC
  8
DETAIL
  6
CONTINUOUS
 62
     5
 10
0.0
 20
0.0
 30
0.0
 40
44.845415324999998
 50
267.13401601740043
 51
272.86598398259957
  0
ARC
  8
DETAIL
  6
CONTINUOUS
 62
     5
 10
0.0
 20
0.0
 30
0.0
 40
44.845415324999998
 50
258.13797733113552
 51
263.94082457286959
  0
ARC
  8
DETAIL
  6
CONTINUOUS
 62
     5
 10
0.0
 20
0.0
 30
0.0
 40
44.845415324999998
 50
248.83155115416579
 51
254.8639982439841
  0
ARC
  8
DETAIL
  6
CONTINUOUS
 62
     5
 10
0.0
 20
0.0
 30
0.0
 40
44.845415324999998
 50
238.89107748947171
 51
245.3756816478386
  0
ARC
  8
DETAIL
  6
CONTINUOUS
 62
     5
 10
0.0
 20
0.0
 30
0.0
 40
44.845415324999998
 50
227.76119046863329
 51
235.09466610409291
  0
ARC
  8
DETAIL
  6
CONTINUOUS
 62
     5
 10
0.0
 20
0.0
 30
0.0
 40
44.845415324999998
 50
214.12886580206131
 51
223.2995805990949
  0
ARC
  8
DETAIL
  6
CONTINUOUS
 62
     5
 10
0.0
 20
0.0
 30
0.0
 40
44.845415324999998
 50
190.47531384323591
 51
207.9528865891352
  0
ARC
  8
DETAIL
  6
CONTINUOUS
 62
     5
 10
0.0
 20
0.0
 30
0.0
 40
44.845415324999998
 50
152.0471134108648
 51
169.52468615676409
  0
ARC
  8
DETAIL
  6
CONTINUOUS
 62
     5
 10
0.0
 20
0.0
 30
0.0
 40
44.845415324999998
 50
136.7004194009051
 51
145.87113419793869
  0
ARC
  8
DETAIL
  6
CONTINUOUS
 62
     5
 10
0.0
 20
0.0
 30
0.0
 40
44.845415324999998
 50
124.90533389590701
 51
132.23880953136671
  0
ARC
  8
DETAIL
  6
CONTINUOUS
 62
     5
 10
0.0
 20
0.0
 30
0.0
 40
44.845415324999998
 50
114.6243183521614
 51
121.1089225105283
  0
ARC
  8
DETAIL
  6
CONTINUOUS
 62
     5
 10
0.0
 20
0.0
 30
0.0
 40
44.845415324999998
 50
105.1360017560159
 51
111.16844884583421
  0
ARC
  8
DETAIL
  6
CONTINUOUS
 62
     5
 10
0.0
 20
0.0
 30
0.0
 40
44.845415325000019
 50
96.059175427130413
 51
101.8620226688645
  0
ARC
  8
DETAIL
  6
CONTINUOUS
 62
     5
 10
0.0
 20
0.0
 30
0.0
 40
44.845415324999998
 50
87.134016017400469
 51
92.865983982599559
  0
ARC
  8
DETAIL
  6
CONTINUOUS
 62
     5
 10
0.0
 20
0.0
 30
0.0
 40
44.845415324999998
 50
78.137977331135474
 51
83.940824572869602
  0
ARC
  8
DETAIL
  6
CONTINUOUS
 62
     5
 10
0.0
 20
0.0
 30
0.0
 40
44.845415324999998
 50
68.83155115416578
 51
74.863998243984113
  0
ARC
  8
DETAIL
  6
CONTINUOUS
 62
     5
 10
0.0
 20
0.0
 30
0.0
 40
44.845415324999998
 50
58.891077489476139
 51
65.375681647838562
  0
ARC
  8
DETAIL
  6
CONTINUOUS
 62
     5
 10
0.0
 20
0.0
 30
0.0
 40
44.845415324999998
 50
47.761190468633281
 51
55.094666104092987
  0
ARC
  8
DETAIL
  6
CONTINUOUS
 62
     5
 10
0.0
 20
0.0
 30
0.0
 40
44.845415324999998
 50
34.128865802061313
 51
43.299580599094902
  0
ARC
  8
DETAIL
  6
CONTINUOUS
 62
     5
 10
0.0
 20
0.0
 30
0.0
 40
44.845415324999998
 50
10.47531384323595
 51
27.952886589135229
  0
ARC
  8
DETAIL
  6
CONTINUOUS
 62
     5
 10
0.0
 20
0.0
 30
0.0
 40
44.845415324999998
 50
332.04711341086482
 51
349.52468615676412
  0
ARC
  8
DETAIL
  6
CONTINUOUS
 62
     5
 10
0.0
 20
0.0
 30
0.0
 40
44.845415324999998
 50
316.7004194009051
 51
325.87113419793877
  0
ARC
  8
DETAIL
  6
CONTINUOUS
 62
     5
 10
0.0
 20
0.0
 30
0.0
 40
44.845415324999998
 50
304.90533389590701
 51
312.23880953136683
  0
LINE
  8
DETAIL
  6
CONTINUOUS
 62
     5
 10
18.90856235809105
 20
-56.538854298883621
 30
0.0
 11
19.406768859790869
 21
-56.040647797183837
 31
0.0
  0
ARC
  8
DETAIL
  6
CONTINUOUS
 62
     5
 10
13.194643410652301
 20
-55.607910485893292
 30
0.0
 40
1.9927228070348699
 50
89.998122716501257
 51
138.1809889804984
  0
ARC
  8
DETAIL
  6
CONTINUOUS
 62
     5
 10
17.440252692391649
 20
-55.607913725226908
 30
0.0
 40
1.9927580820399611
 50
359.99719051740487
 51
51.298126334497823
  0
ARC
  8
DETAIL
  6
CONTINUOUS
 62
     5
 10
-63.633767744207503
 20
-55.63009105696807
 30
0.0
 40
0.4458911805614954
 50
177.17143041259229
 51
272.82798844939953
  0
ARC
  8
DETAIL
  6
CONTINUOUS
 62
     5
 10
-63.581301464850817
 20
-55.608655185073182
 30
0.0
 40
2.4910692663927771
 50
234.5433893215972
 51
270.00204077959847
  0
ARC
  8
DETAIL
  6
CONTINUOUS
 62
     5
 10
0.7026676730148438
 20
-51.347955327698962
 30
0.0
 40
64.781771642765221
 50
179.2609437814011
 51
180.03774813289451
  0
LINE
  8
DETAIL
  6
CONTINUOUS
 62
     5
 10
19.406768859790869
 20
-56.040647797183837
 30
0.0
 11
19.406920652353278
 21
-56.040571906981427
 31
0.0
  0
LINE
  8
DETAIL
  6
CONTINUOUS
 62
     5
 10
21.884416533071931
 20
-60.092856535499891
 30
0.0
 11
21.884416533071828
 21
-56.040571906383718
 31
0.0
  0
LINE
  8
DETAIL
  6
CONTINUOUS
 62
     5
 10
19.433013307500001
 20
-58.045299654110863
 30
0.0
 11
19.433013307500001
 21
-60.092856535499891
 31
0.0
  0
LINE
  8
DETAIL
  6
CONTINUOUS
 62
     5
 10
19.433013307500001
 20
-55.608011439699681
 30
0.0
 11
19.433013307500001
 21
-56.040571906383427
 31
0.0
  0
LINE
  8
DETAIL
  6
CONTINUOUS
 62
     5
 10
13.19470870188974
 20
-53.615185433000192
 30
0.0
 11
16.194177756249989
 21
-53.615185433000192
 31
0.0
  0
LINE
  8
DETAIL
  6
CONTINUOUS
 62
     5
 10
19.406920652951332
 20
-56.040571906383427
 30
0.0
 11
21.884416533071828
 21
-56.040571906383718
 31
0.0
  0
LINE
  8
DETAIL
  6
CONTINUOUS
 62
     5
 10
-60.541310688750073
 20
-56.075362112481457
 30
0.0
 11
-63.611764979597979
 21
-56.075362112481457
 31
0.0
  0
LINE
  8
DETAIL
  6
CONTINUOUS
 62
     5
 10
-53.565357193750067
 20
-56.075362112481457
 30
0.0
 11
-58.049898726250021
 21
-56.075362112481457
 31
0.0
  0
LINE
  8
DETAIL
  6
CONTINUOUS
 62
     5
 10
-46.589403698750033
 20
-56.075362112481457
 30
0.0
 11
-51.073945231250043
 21
-56.075362112481457
 31
0.0
  0
LINE
  8
DETAIL
  6
CONTINUOUS
 62
     5
 10
-39.613450203750027
 20
-56.075362112481457
 30
0.0
 11
-44.097991736250037
 21
-56.075362112481457
 31
0.0
  0
LINE
  8
DETAIL
  6
CONTINUOUS
 62
     5
 10
-32.637496708750049
 20
-56.075362112481457
 30
0.0
 11
-37.122038241250038
 21
-56.075362112481457
 31
0.0
  0
LINE
  8
DETAIL
  6
CONTINUOUS
 62
     5
 10
-25.661543213750061
 20
-56.075362112481457
 30
0.0
 11
-30.14608474625004
 21
-56.075362112481457
 31
0.0
  0
LINE
  8
DETAIL
  6
CONTINUOUS
 62
     5
 10
-18.685589718750069
 20
-56.075362112481457
 30
0.0
 11
-23.170131251250041
 21
-56.075362112481457
 31
0.0
  0
LINE
  8
DETAIL
  6
CONTINUOUS
 62
     5
 10
-11.70963622375001
 20
-56.075362112481457
 30
0.0
 11
-16.194177756250038
 21
-56.075362112481457
 31
0.0
  0
LINE
  8
DETAIL
  6
CONTINUOUS
 62
     5
 10
-4.7336827287500114
 20
-56.075362112481457
 30
0.0
 11
-9.2182242612499863
 21
-56.075362112481457
 31
0.0
  0
LINE
  8
DETAIL
  6
CONTINUOUS
 62
     5
 10
2.242270766249987
 20
-56.075362112481457
 30
0.0
 11
-2.242270766249987
 21
-56.075362112481457
 31
0.0
  0
LINE
  8
DETAIL
  6
CONTINUOUS
 62
     5
 10
9.2182242612499863
 20
-56.075362112481457
 30
0.0
 11
4.7336827287500114
 21
-56.075362112481457
 31
0.0
  0
LINE
  8
DETAIL
  6
CONTINUOUS
 62
     5
 10
23.17013125124998
 20
-56.075362112481457
 30
0.0
 11
21.541490171972729
 21
-56.075362112481457
 31
0.0
  0
LINE
  8
DETAIL
  6
CONTINUOUS
 62
     5
 10
30.146084746249979
 20
-56.075362112481457
 30
0.0
 11
25.661543213750011
 21
-56.075362112481457
 31
0.0
  0
LINE
  8
DETAIL
  6
CONTINUOUS
 62
     5
 10
37.122038241249989
 20
-56.075362112481457
 30
0.0
 11
32.637496708750007
 21
-56.075362112481457
 31
0.0
  0
LINE
  8
DETAIL
  6
CONTINUOUS
 62
     5
 10
44.09799173624998
 20
-56.075362112481457
 30
0.0
 11
39.613450203750013
 21
-56.075362112481457
 31
0.0
  0
LINE
  8
DETAIL
  6
CONTINUOUS
 62
     5
 10
51.073945231249979
 20
-56.075362112481457
 30
0.0
 11
46.589403698749997
 21
-56.075362112481457
 31
0.0
  0
LINE
  8
DETAIL
  6
CONTINUOUS
 62
     5
 10
-60.541310688750073
 20
-58.099726965500047
 30
0.0
 11
-63.581212737100373
 21
-58.099726965500047
 31
0.0
  0
LINE
  8
DETAIL
  6
CONTINUOUS
 62
     5
 10
-53.565357193750067
 20
-58.099726965500047
 30
0.0
 11
-58.049898726250021
 21
-58.099726965500047
 31
0.0
  0
LINE
  8
DETAIL
  6
CONTINUOUS
 62
     5
 10
-46.589403698750033
 20
-58.099726965500047
 30
0.0
 11
-51.073945231250043
 21
-58.099726965500047
 31
0.0
  0
LINE
  8
DETAIL
  6
CONTINUOUS
 62
     5
 10
-39.613450203750027
 20
-58.099726965500047
 30
0.0
 11
-44.097991736250037
 21
-58.099726965500047
 31
0.0
  0
LINE
  8
DETAIL
  6
CONTINUOUS
 62
     5
 10
-32.637496708750049
 20
-58.099726965500047
 30
0.0
 11
-37.122038241250038
 21
-58.099726965500047
 31
0.0
  0
LINE
  8
DETAIL
  6
CONTINUOUS
 62
     5
 10
-25.661543213750061
 20
-58.099726965500047
 30
0.0
 11
-30.14608474625004
 21
-58.099726965500047
 31
0.0
  0
LINE
  8
DETAIL
  6
CONTINUOUS
 62
     5
 10
-18.685589718750069
 20
-58.099726965500047
 30
0.0
 11
-23.170131251250041
 21
-58.099726965500047
 31
0.0
  0
LINE
  8
DETAIL
  6
CONTINUOUS
 62
     5
 10
-11.70963622375001
 20
-58.099726965500047
 30
0.0
 11
-16.194177756250038
 21
-58.099726965500047
 31
0.0
  0
LINE
  8
DETAIL
  6
CONTINUOUS
 62
     5
 10
-4.7336827287500114
 20
-58.099726965500047
 30
0.0
 11
-9.2182242612499863
 21
-58.099726965500047
 31
0.0
  0
LINE
  8
DETAIL
  6
CONTINUOUS
 62
     5
 10
2.242270766249987
 20
-58.099726965500047
 30
0.0
 11
-2.242270766249987
 21
-58.099726965500047
 31
0.0
  0
LINE
  8
DETAIL
  6
CONTINUOUS
 62
     5
 10
9.2182242612499863
 20
-58.099726965500047
 30
0.0
 11
4.7336827287500114
 21
-58.099726965500047
 31
0.0
  0
LINE
  8
DETAIL
  6
CONTINUOUS
 62
     5
 10
16.194177756249989
 20
-58.099726965500047
 30
0.0
 11
11.70963622375001
 21
-58.099726965500047
 31
0.0
  0
LINE
  8
DETAIL
  6
CONTINUOUS
 62
     5
 10
19.433013307500001
 20
-58.099726965500047
 30
0.0
 11
18.685589718750009
 21
-58.099726965500047
 31
0.0
  0
LINE
  8
DETAIL
  6
CONTINUOUS
 62
     5
 10
23.17013125124998
 20
-58.099726965500047
 30
0.0
 11
21.924425269999961
 21
-58.099726965500047
 31
0.0
  0
LINE
  8
DETAIL
  6
CONTINUOUS
 62
     5
 10
30.146084746249979
 20
-58.099726965500047
 30
0.0
 11
25.661543213750011
 21
-58.099726965500047
 31
0.0
  0
LINE
  8
DETAIL
  6
CONTINUOUS
 62
     5
 10
37.122038241249989
 20
-58.099726965500047
 30
0.0
 11
32.637496708750007
 21
-58.099726965500047
 31
0.0
  0
LINE
  8
DETAIL
  6
CONTINUOUS
 62
     5
 10
44.09799173624998
 20
-58.099726965500047
 30
0.0
 11
39.613450203750013
 21
-58.099726965500047
 31
0.0
  0
LINE
  8
DETAIL
  6
CONTINUOUS
 62
     5
 10
51.073945231249979
 20
-58.099726965500047
 30
0.0
 11
46.589403698749997
 21
-58.099726965500047
 31
0.0
  0
LINE
  8
DETAIL
  6
CONTINUOUS
 62
     5
 10
19.433013307500001
 20
-60.092856535499891
 30
0.0
 11
21.884416533071931
 21
-60.092856535499891
 31
0.0
  0
LINE
  8
DETAIL
  6
CONTINUOUS
 62
     5
 10
-64.079115675500049
 20
-51.390635464760287
 30
0.0
 11
-64.079115675500049
 21
-55.608087307379378
 31
0.0
  0
LINE
  8
DETAIL
  6
CONTINUOUS
 62
     5
 10
58.049898726249978
 20
-58.099726965500047
 30
0.0
 11
53.565357193750003
 21
-58.099726965500047
 31
0.0
  0
LINE
  8
DETAIL
  6
CONTINUOUS
 62
     5
 10
58.049898726249978
 20
-56.075362112481457
 30
0.0
 11
53.565357193750003
 21
-56.075362112481457
 31
0.0
  0
LINE
  8
DETAIL
  6
CONTINUOUS
 62
     5
 10
65.025852222545439
 20
-58.099726965500047
 30
0.0
 11
60.541310688750002
 21
-58.099726965500047
 31
0.0
  0
LINE
  8
DETAIL
  6
CONTINUOUS
 62
     5
 10
65.025852223542131
 20
-56.075362112481457
 30
0.0
 11
60.541310688750002
 21
-56.075362112481457
 31
0.0
  0
ARC
  8
DETAIL
  6
CONTINUOUS
 62
     5
 10
0.000402289749502
 20
0.0013962766090572
 30
0.0
 40
42.352646503170611
 50
44.620236125669642
 51
52.706924032328807
  0
ARC
  8
DETAIL
  6
CONTINUOUS
 62
     5
 10
0.000402289749502
 20
0.0013962766090572
 30
0.0
 40
42.352646503170597
 50
56.833981519216593
 51
63.820735343793217
  0
ARC
  8
DETAIL
  6
CONTINUOUS
 62
     5
 10
0.000402289749502
 20
0.0013962766090572
 30
0.0
 40
42.352646503170611
 50
67.520323812339029
 51
73.950367426084483
  0
ARC
  8
DETAIL
  6
CONTINUOUS
 62
     5
 10
0.000402289749502
 20
0.0013962766090572
 30
0.0
 40
42.352646503170597
 50
77.429277346421372
 51
83.5832880681006
  0
ARC
  8
DETAIL
  6
CONTINUOUS
 62
     5
 10
0.000402289749502
 20
0.0013962766090572
 30
0.0
 40
42.352646503170597
 50
86.965722970793578
 51
93.035367014270747
  0
ARC
  8
DETAIL
  6
CONTINUOUS
 62
     5
 10
0.000402289749502
 20
0.0013962766090572
 30
0.0
 40
42.352646503170611
 50
96.41780725125669
 51
102.57183784562341
  0
ARC
  8
DETAIL
  6
CONTINUOUS
 62
     5
 10
-0.0014103558887655
 20
-0.0003497451618841
 30
0.0
 40
42.352646503170611
 50
224.62217762110461
 51
226.07939212630069
  0
ARC
  8
DETAIL
  6
CONTINUOUS
 62
     5
 10
-0.0014103558887655
 20
-0.0003497451618841
 30
0.0
 40
42.352646503170611
 50
208.78112136515151
 51
219.59403298966981
  0
ARC
  8
DETAIL
  6
CONTINUOUS
 62
     5
 10
0.0
 20
0.0
 30
0.0
 40
12.45705981250001
 50
292.33368265780553
 51
317.73141557042987
  0
ARC
  8
DETAIL
  6
CONTINUOUS
 62
     5
 10
0.0
 20
0.0
 30
0.0
 40
12.45705981249999
 50
259.63024019452189
 51
280.36975980547811
  0
ARC
  8
DETAIL
  6
CONTINUOUS
 62
     5
 10
0.0
 20
0.0
 30
0.0
 40
12.45705981249999
 50
222.26858442957021
 51
247.66631734219439
  0
ARC
  8
DETAIL
  6
CONTINUOUS
 62
     5
 10
0.0
 20
0.0
 30
0.0
 40
12.457059812500001
 50
160.05155641119731
 51
199.94844358880269
  0
ARC
  8
DETAIL
  6
CONTINUOUS
 62
     5
 10
0.0
 20
0.0
 30
0.0
 40
12.457059812500001
 50
112.3336826578056
 51
137.73141557042979
  0
ARC
  8
DETAIL
  6
CONTINUOUS
 62
     5
 10
0.0
 20
0.0
 30
0.0
 40
12.45705981250001
 50
79.630240194521903
 51
100.3697598054781
  0
ARC
  8
DETAIL
  6
CONTINUOUS
 62
     5
 10
0.0
 20
0.0
 30
0.0
 40
12.457059812499979
 50
42.268584429570147
 51
67.666317342194461
  0
ARC
  8
DETAIL
  6
CONTINUOUS
 62
     5
 10
0.0010080661392067
 20
-0.001046531447173
 30
0.0
 40
42.352646503170611
 50
339.27671154589262
 51
346.07939212630203
  0
ARC
  8
DETAIL
  6
CONTINUOUS
 62
     5
 10
0.0010080661392067
 20
-0.001046531447173
 30
0.0
 40
42.352646503170611
 50
320.40682091862618
 51
331.22000901417272
  0
ARC
  8
DETAIL
  6
CONTINUOUS
 62
     5
 10
0.0010080661392067
 20
-0.001046531447173
 30
0.0
 40
42.352646503170611
 50
307.29204585254769
 51
315.37859716501981
  0
ARC
  8
DETAIL
  6
CONTINUOUS
 62
     5
 10
0.0010080661392067
 20
-0.001046531447173
 30
0.0
 40
42.352646503170597
 50
296.1783514730289
 51
303.16503948594021
  0
ARC
  8
DETAIL
  6
CONTINUOUS
 62
     5
 10
0.0010080661392067
 20
-0.001046531447173
 30
0.0
 40
42.352646503170618
 50
286.04877982748877
 51
292.47878928918823
  0
ARC
  8
DETAIL
  6
CONTINUOUS
 62
     5
 10
4.7178129339275188
 20
-38.879648701799063
 30
0.0
 40
3.1890073119999132
 50
270.28512823242801
 51
276.92204759210358
  0
ARC
  8
DETAIL
  6
CONTINUOUS
 62
     5
 10
0.0010080661392067
 20
-0.001046531447173
 30
0.0
 40
42.352646503170611
 50
276.91774560169881
 51
282.56988301692559
  0
ARC
  8
DETAIL
  6
CONTINUOUS
 62
     5
 10
4.7178129339275188
 20
-38.879648701799063
 30
0.0
 40
3.189007312000006
 50
140.92064411565181
 51
219.0793558843481
  0
ARC
  8
DETAIL
  6
CONTINUOUS
 62
     5
 10
7.0829754265679981
 20
-13.16390016355831
 30
0.0
 40
2.4914119625
 50
31.01375140508285
 51
118.28294214919519
  0
ARC
  8
DETAIL
  6
CONTINUOUS
 62
     5
 10
7.8587842412397881
 20
12.715986735567871
 30
0.0
 40
2.491411962500039
 50
116.6153477142998
 51
238.28294214919859
  0
ARC
  8
DETAIL
  6
CONTINUOUS
 62
     5
 10
31.311856999008739
 20
23.525570201983331
 30
0.0
 40
3.1890073119999922
 50
294.56280148077423
 51
36.922047592102707
  0
ARC
  8
DETAIL
  6
CONTINUOUS
 62
     5
 10
0.000402289749502
 20
0.0013962766090572
 30
0.0
 40
42.352646503170597
 50
36.917745601693632
 51
39.591893219223692
  0
ARC
  8
DETAIL
  6
CONTINUOUS
 62
     5
 10
-14.94175966780756
 20
0.4479134279904429
 30
0.0
 40
2.4914119624999902
 50
239.82159928994579
 51
358.28294214919367
  0
ARC
  8
DETAIL
  6
CONTINUOUS
 62
     5
 10
-36.029669932936088
 20
15.35407849981539
 30
0.0
 40
3.1890073119998532
 50
17.761983926200351
 51
110.0318101992043
  0
ARC
  8
DETAIL
  6
CONTINUOUS
 62
     5
 10
-0.0014103558887655
 20
-0.0003497451618841
 30
0.0
 40
42.352646503170611
 50
159.27517360282769
 51
200.72482639717231
  0
ARC
  8
DETAIL
  6
CONTINUOUS
 62
     5
 10
0.0787588013635627
 20
-13.65271038725837
 30
0.0
 40
1.195877741999958
 50
90.330520221599784
 51
157.74261550709679
  0
ARC
  8
DETAIL
  6
CONTINUOUS
 62
     5
 10
0.0
 20
0.0
 30
0.0
 40
12.457059812500001
 50
340.05155641119723
 51
19.94844358880265
  0
LINE
  8
DETAIL
  6
CONTINUOUS
 62
     5
 10
39.274612836320557
 20
-94.964557296550197
 30
0.0
 11
39.268341681184381
 21
-95.323831535361123
 31
0.0
  0
ARC
  8
DETAIL
  6
CONTINUOUS
 62
     5
 10
38.969417780124729
 20
-95.318613799291228
 30
0.0
 40
0.2989694355
 50
293.47953016359799
 51
358.99999999999818
  0
ARC
  8
DETAIL
  6
CONTINUOUS
 62
     5
 10
34.879767474999987
 20
-85.903884467000012
 30
0.0
 40
10.56358672100002
 50
273.94163660659927
 51
293.47957169290248
  0
ARC
  8
DETAIL
  6
CONTINUOUS
 62
     5
 10
35.626462152946658
 20
-96.740746250353013
 30
0.0
 40
0.2989694355000039
 50
93.883043485394609
 51
168.81861544860121
  0
ARC
  8
DETAIL
  6
CONTINUOUS
 62
     5
 10
34.933079299734452
 20
-97.165066537500138
 30
0.0
 40
0.2989694355000119
 50
270.0
 51
348.81861544858782
  0
LINE
  8
DETAIL
  6
CONTINUOUS
 62
     5
 10
35.333167692388031
 20
-96.682771404515407
 30
0.0
 11
35.226373760292972
 21
-97.223041383238183
 31
0.0
  0
LINE
  8
DETAIL
  6
CONTINUOUS
 62
     5
 10
34.933079299734452
 20
-97.464035973000236
 30
0.0
 11
34.82645565026553
 21
-97.464035973000236
 31
0.0
  0
ARC
  8
DETAIL
  6
CONTINUOUS
 62
     5
 10
34.82645565026553
 20
-97.165066537500138
 30
0.0
 40
0.2989694355000458
 50
191.18138455139879
 51
270.0
  0
LINE
  8
DETAIL
  6
CONTINUOUS
 62
     5
 10
34.533161189706959
 20
-97.223041383238183
 30
0.0
 11
34.426367257611901
 21
-96.682771404515407
 31
0.0
  0
ARC
  8
DETAIL
  6
CONTINUOUS
 62
     5
 10
34.13307279705333
 20
-96.740746250353013
 30
0.0
 40
0.2989694354999363
 50
11.18138455141219
 51
86.116944724203208
  0
ARC
  8
DETAIL
  6
CONTINUOUS
 62
     5
 10
34.879767474999987
 20
-85.903884467000012
 30
0.0
 40
10.563586721000039
 50
246.52042829790079
 51
266.05670834530218
  0
ARC
  8
DETAIL
  6
CONTINUOUS
 62
     5
 10
30.790117169875369
 20
-95.318613799291228
 30
0.0
 40
0.2989694355000259
 50
181.00000000000179
 51
246.52046951258851
  0
LINE
  8
DETAIL
  6
CONTINUOUS
 62
     5
 10
30.49119326891525
 20
-95.323831535361123
 30
0.0
 11
30.484918351475471
 21
-94.964341758752312
 31
0.0
  0
LINE
  8
SIZE
  6
CONTINUOUS
 62
    30
 10
-84.999957397372214
 20
94.037744762372299
 30
0.0
 11
-84.999957397372214
 21
219.84854425930939
 31
0.0
  0
LINE
  8
SIZE
  6
CONTINUOUS
 62
    30
 10
84.99995739737227
 20
94.037744762372299
 30
0.0
 11
84.999957397372299
 21
219.84854425930939
 31
0.0
  0
LINE
  8
SIZE
  6
CONTINUOUS
 62
    30
 10
-72.999957397372214
 20
199.84854425930939
 30
0.0
 11
72.999957397372299
 21
199.84854425930939
 31
0.0
  0
CIRCLE
  8
SIZE
  6
CONTINUOUS
 62
    30
 10
-84.999957397372214
 20
199.84854425930939
 30
0.0
 40
6.0
  0
LINE
  8
SIZE
  6
CONTINUOUS
 62
    30
 10
-84.999957397372214
 20
199.84854425930939
 30
0.0
 11
-72.999957397372214
 21
199.84854425930939
 31
0.0
  0
CIRCLE
  8
SIZE
  6
CONTINUOUS
 62
    30
 10
84.999957397372299
 20
199.84854425930939
 30
0.0
 40
6.0
  0
LINE
  8
SIZE
  6
CONTINUOUS
 62
    30
 10
84.999957397372299
 20
199.84854425930939
 30
0.0
 11
72.999957397372299
 21
199.84854425930939
 31
0.0
  0
TEXT
  8
SIZE
  6
CONTINUOUS
 62
    30
 10
-105.0514285714285
 20
224.84854425930939
 30
0.0
 40
64.0
  1
□170
 41
0.9
 72
     1
 11
0.0000000000000426
 21
224.84854425930939
 31
0.0
  0
POINT
  8
DEFPOINTS
  6
CONTINUOUS
 62
    30
 10
-84.999957397372214
 20
74.037744762372299
 30
0.0
  0
POINT
  8
DEFPOINTS
  6
CONTINUOUS
 62
    30
 10
84.99995739737227
 20
74.037744762372299
 30
0.0
  0
POINT
  8
DEFPOINTS
  6
CONTINUOUS
 62
    30
 10
84.999957397372299
 20
199.84854425930939
 30
0.0
  0
ARC
  8
DETAIL
  6
CONTINUOUS
 62
     5
 10
-56.1411268123382
 20
59.654172791195307
 30
0.0
 40
4.4085522419862357
 50
142.24361881212869
 51
176.4691547879923
  0
ARC
  8
DETAIL
  6
CONTINUOUS
 62
     5
 10
-62.280564782934142
 20
59.718037659253163
 30
0.0
 40
4.2357584354290827
 50
2.809803223293907
 51
38.477423176579933
  0
ARC
  8
DETAIL
  6
CONTINUOUS
 62
     5
 10
-49.165172260508712
 20
59.654173991588607
 30
0.0
 40
4.4085522419862357
 50
142.24361881212869
 51
176.4691547879923
  0
ARC
  8
DETAIL
  6
CONTINUOUS
 62
     5
 10
-55.304610231104647
 20
59.718038859646427
 30
0.0
 40
4.2357584354290827
 50
2.8098032232971599
 51
38.477423176579933
  0
ARC
  8
DETAIL
  6
CONTINUOUS
 62
     5
 10
-42.189218765508677
 20
59.654173991588607
 30
0.0
 40
4.4085522419862357
 50
142.24361881212869
 51
176.4691547879923
  0
ARC
  8
DETAIL
  6
CONTINUOUS
 62
     5
 10
-48.32865673610462
 20
59.718038859646427
 30
0.0
 40
4.2357584354290827
 50
2.8098032232971599
 51
38.477423176579933
  0
ARC
  8
DETAIL
  6
CONTINUOUS
 62
     5
 10
-35.213265270508657
 20
59.654173991588607
 30
0.0
 40
4.4085522419862357
 50
142.24361881212869
 51
176.4691547879923
  0
ARC
  8
DETAIL
  6
CONTINUOUS
 62
     5
 10
-41.352703241104628
 20
59.718038859646427
 30
0.0
 40
4.2357584354290827
 50
2.8098032232971599
 51
38.477423176579933
  0
ARC
  8
DETAIL
  6
CONTINUOUS
 62
     5
 10
-28.237311775508719
 20
59.654173991588607
 30
0.0
 40
4.4085522419862357
 50
142.2436188121313
 51
176.4691547879923
  0
ARC
  8
DETAIL
  6
CONTINUOUS
 62
     5
 10
-34.376749746104629
 20
59.718038859646427
 30
0.0
 40
4.2357584354290827
 50
2.809803223293907
 51
38.477423176579933
  0
ARC
  8
DETAIL
  6
CONTINUOUS
 62
     5
 10
-21.26135828050872
 20
59.654173991588607
 30
0.0
 40
4.4085522419862357
 50
142.2436188121313
 51
176.4691547879923
  0
ARC
  8
DETAIL
  6
CONTINUOUS
 62
     5
 10
-27.400796251104609
 20
59.718038859646427
 30
0.0
 40
4.2357584354290827
 50
2.809803223293907
 51
38.477423176579933
  0
ARC
  8
DETAIL
  6
CONTINUOUS
 62
     5
 10
-14.285404785508719
 20
59.654173991588607
 30
0.0
 40
4.4085522419862357
 50
142.2436188121313
 51
176.4691547879923
  0
ARC
  8
DETAIL
  6
CONTINUOUS
 62
     5
 10
-20.424842756104621
 20
59.718038859646427
 30
0.0
 40
4.2357584354290827
 50
2.809803223293907
 51
38.477423176579933
  0
ARC
  8
DETAIL
  6
CONTINUOUS
 62
     5
 10
-7.3094512905087186
 20
59.654173991588607
 30
0.0
 40
4.4085522419862357
 50
142.2436188121313
 51
176.4691547879923
  0
ARC
  8
DETAIL
  6
CONTINUOUS
 62
     5
 10
-13.448889261104631
 20
59.718038859646427
 30
0.0
 40
4.2357584354290827
 50
2.809803223293907
 51
38.477423176579933
  0
ARC
  8
DETAIL
  6
CONTINUOUS
 62
     5
 10
-0.3334977955086629
 20
59.654173991588607
 30
0.0
 40
4.4085522419862357
 50
142.2436188121313
 51
176.4691547879923
  0
ARC
  8
DETAIL
  6
CONTINUOUS
 62
     5
 10
-6.4729357661046274
 20
59.718038859646427
 30
0.0
 40
4.2357584354290827
 50
2.809803223293907
 51
38.477423176579933
  0
ARC
  8
DETAIL
  6
CONTINUOUS
 62
     5
 10
6.642455699491336
 20
59.654173991588607
 30
0.0
 40
4.4085522419862357
 50
142.2436188121313
 51
176.4691547879923
  0
ARC
  8
DETAIL
  6
CONTINUOUS
 62
     5
 10
0.5030177288953723
 20
59.718038859646427
 30
0.0
 40
4.2357584354290827
 50
2.809803223293907
 51
38.477423176579933
  0
ARC
  8
DETAIL
  6
CONTINUOUS
 62
     5
 10
13.618409194491329
 20
59.654173991588607
 30
0.0
 40
4.4085522419862357
 50
142.2436188121313
 51
176.4691547879923
  0
ARC
  8
DETAIL
  6
CONTINUOUS
 62
     5
 10
7.4789712238953712
 20
59.718038859646427
 30
0.0
 40
4.2357584354290827
 50
2.809803223293907
 51
38.477423176579933
  0
ARC
  8
DETAIL
  6
CONTINUOUS
 62
     5
 10
20.59436268949133
 20
59.654173991588607
 30
0.0
 40
4.4085522419862357
 50
142.2436188121313
 51
176.4691547879923
  0
ARC
  8
DETAIL
  6
CONTINUOUS
 62
     5
 10
14.45492471889537
 20
59.718038859646427
 30
0.0
 40
4.2357584354290827
 50
2.809803223293907
 51
38.477423176579933
  0
ARC
  8
DETAIL
  6
CONTINUOUS
 62
     5
 10
27.570316184491329
 20
59.654173991588607
 30
0.0
 40
4.4085522419862357
 50
142.2436188121313
 51
176.4691547879923
  0
ARC
  8
DETAIL
  6
CONTINUOUS
 62
     5
 10
21.430878213895369
 20
59.718038859646427
 30
0.0
 40
4.2357584354290827
 50
2.809803223293907
 51
38.477423176579933
  0
ARC
  8
DETAIL
  6
CONTINUOUS
 62
     5
 10
34.546269679491331
 20
59.654173991588607
 30
0.0
 40
4.4085522419862357
 50
142.2436188121313
 51
176.4691547879923
  0
ARC
  8
DETAIL
  6
CONTINUOUS
 62
     5
 10
28.406831708895371
 20
59.718038859646427
 30
0.0
 40
4.2357584354290827
 50
2.809803223293907
 51
38.477423176579933
  0
ARC
  8
DETAIL
  6
CONTINUOUS
 62
     5
 10
41.52222317449133
 20
59.654173991588607
 30
0.0
 40
4.4085522419862357
 50
142.2436188121313
 51
176.4691547879923
  0
ARC
  8
DETAIL
  6
CONTINUOUS
 62
     5
 10
35.382785203895367
 20
59.718038859646427
 30
0.0
 40
4.2357584354290827
 50
2.809803223293907
 51
38.477423176579933
  0
ARC
  8
DETAIL
  6
CONTINUOUS
 62
     5
 10
48.498176669491329
 20
59.654173991588607
 30
0.0
 40
4.4085522419862357
 50
142.2436188121313
 51
176.4691547879923
  0
ARC
  8
DETAIL
  6
CONTINUOUS
 62
     5
 10
42.358738698895372
 20
59.718038859646427
 30
0.0
 40
4.2357584354290827
 50
2.809803223293907
 51
38.477423176579933
  0
ARC
  8
DETAIL
  6
CONTINUOUS
 62
     5
 10
55.474130164491328
 20
59.654173991588607
 30
0.0
 40
4.4085522419862357
 50
142.2436188121313
 51
176.4691547879923
  0
ARC
  8
DETAIL
  6
CONTINUOUS
 62
     5
 10
49.334692193895357
 20
59.718038859646427
 30
0.0
 40
4.2357584354290827
 50
2.809803223293907
 51
38.477423176579933
  0
ARC
  8
DETAIL
  6
CONTINUOUS
 62
     5
 10
62.450083659491327
 20
59.654173991588607
 30
0.0
 40
4.4085522419862357
 50
142.2436188121313
 51
176.4691547879923
  0
ARC
  8
DETAIL
  6
CONTINUOUS
 62
     5
 10
56.310645688895363
 20
59.718038859646427
 30
0.0
 40
4.2357584354290827
 50
2.809803223293907
 51
38.477423176579933
  0
ARC
  8
DETAIL
  6
CONTINUOUS
 62
     5
 10
-56.1411268123382
 20
-60.650737576195013
 30
0.0
 40
4.4085522419862357
 50
183.530845212011
 51
217.7563811878733
  0
ARC
  8
DETAIL
  6
CONTINUOUS
 62
     5
 10
-62.280564782934142
 20
-60.714602444252833
 30
0.0
 40
4.2357584354290827
 50
321.52257682341752
 51
357.19019677670281
  0
ARC
  8
DETAIL
  6
CONTINUOUS
 62
     5
 10
-49.165172260508712
 20
-60.650738776588298
 30
0.0
 40
4.4085522419862357
 50
183.530845212011
 51
217.7563811878733
  0
ARC
  8
DETAIL
  6
CONTINUOUS
 62
     5
 10
-55.304610231104647
 20
-60.714603644646097
 30
0.0
 40
4.2357584354290827
 50
321.52257682341752
 51
357.19019677670281
  0
ARC
  8
DETAIL
  6
CONTINUOUS
 62
     5
 10
-42.189218765508677
 20
-60.650738776588298
 30
0.0
 40
4.4085522419862357
 50
183.530845212011
 51
217.7563811878733
  0
ARC
  8
DETAIL
  6
CONTINUOUS
 62
     5
 10
-48.32865673610462
 20
-60.714603644646097
 30
0.0
 40
4.2357584354290827
 50
321.52257682341752
 51
357.19019677670281
  0
ARC
  8
DETAIL
  6
CONTINUOUS
 62
     5
 10
-35.213265270508657
 20
-60.650738776588298
 30
0.0
 40
4.4085522419862357
 50
183.530845212011
 51
217.7563811878733
  0
ARC
  8
DETAIL
  6
CONTINUOUS
 62
     5
 10
-41.352703241104628
 20
-60.714603644646097
 30
0.0
 40
4.2357584354290827
 50
321.52257682341752
 51
357.19019677670281
  0
ARC
  8
DETAIL
  6
CONTINUOUS
 62
     5
 10
-28.237311775508719
 20
-60.650738776588298
 30
0.0
 40
4.4085522419862357
 50
183.530845212011
 51
217.7563811878733
  0
ARC
  8
DETAIL
  6
CONTINUOUS
 62
     5
 10
-34.376749746104629
 20
-60.714603644646097
 30
0.0
 40
4.2357584354290827
 50
321.52257682341752
 51
357.19019677670281
  0
ARC
  8
DETAIL
  6
CONTINUOUS
 62
     5
 10
-21.26135828050872
 20
-60.650738776588298
 30
0.0
 40
4.4085522419862357
 50
183.530845212011
 51
217.7563811878733
  0
ARC
  8
DETAIL
  6
CONTINUOUS
 62
     5
 10
-27.400796251104609
 20
-60.714603644646097
 30
0.0
 40
4.2357584354290827
 50
321.52257682341752
 51
357.19019677670281
  0
ARC
  8
DETAIL
  6
CONTINUOUS
 62
     5
 10
-14.285404785508719
 20
-60.650738776588298
 30
0.0
 40
4.4085522419862357
 50
183.530845212011
 51
217.7563811878733
  0
ARC
  8
DETAIL
  6
CONTINUOUS
 62
     5
 10
-20.424842756104621
 20
-60.714603644646097
 30
0.0
 40
4.2357584354290827
 50
321.52257682341752
 51
357.19019677670281
  0
ARC
  8
DETAIL
  6
CONTINUOUS
 62
     5
 10
-7.3094512905087186
 20
-60.650738776588298
 30
0.0
 40
4.4085522419862357
 50
183.530845212011
 51
217.7563811878733
  0
ARC
  8
DETAIL
  6
CONTINUOUS
 62
     5
 10
-13.448889261104631
 20
-60.714603644646097
 30
0.0
 40
4.2357584354290827
 50
321.52257682341752
 51
357.19019677670281
  0
ARC
  8
DETAIL
  6
CONTINUOUS
 62
     5
 10
-0.3334977955086629
 20
-60.650738776588298
 30
0.0
 40
4.4085522419862357
 50
183.530845212011
 51
217.7563811878733
  0
ARC
  8
DETAIL
  6
CONTINUOUS
 62
     5
 10
-6.4729357661046274
 20
-60.714603644646097
 30
0.0
 40
4.2357584354290827
 50
321.52257682341752
 51
357.19019677670281
  0
ARC
  8
DETAIL
  6
CONTINUOUS
 62
     5
 10
6.642455699491336
 20
-60.650738776588298
 30
0.0
 40
4.4085522419862357
 50
183.530845212011
 51
217.7563811878733
  0
ARC
  8
DETAIL
  6
CONTINUOUS
 62
     5
 10
0.5030177288953723
 20
-60.714603644646097
 30
0.0
 40
4.2357584354290827
 50
321.52257682341752
 51
357.19019677670281
  0
ARC
  8
DETAIL
  6
CONTINUOUS
 62
     5
 10
13.618409194491329
 20
-60.650738776588298
 30
0.0
 40
4.4085522419862357
 50
183.530845212011
 51
217.7563811878733
  0
ARC
  8
DETAIL
  6
CONTINUOUS
 62
     5
 10
7.4789712238953712
 20
-60.714603644646097
 30
0.0
 40
4.2357584354290827
 50
321.52257682341752
 51
357.19019677670281
  0
ARC
  8
DETAIL
  6
CONTINUOUS
 62
     5
 10
20.59436268949133
 20
-60.650738776588298
 30
0.0
 40
4.4085522419862357
 50
183.530845212011
 51
217.7563811878733
  0
ARC
  8
DETAIL
  6
CONTINUOUS
 62
     5
 10
14.45492471889537
 20
-60.714603644646097
 30
0.0
 40
4.2357584354290827
 50
321.52257682341752
 51
357.19019677670281
  0
ARC
  8
DETAIL
  6
CONTINUOUS
 62
     5
 10
27.570316184491329
 20
-60.650738776588298
 30
0.0
 40
4.4085522419862357
 50
183.530845212011
 51
217.7563811878733
  0
ARC
  8
DETAIL
  6
CONTINUOUS
 62
     5
 10
21.430878213895369
 20
-60.714603644646097
 30
0.0
 40
4.2357584354290827
 50
321.52257682341752
 51
357.19019677670281
  0
ARC
  8
DETAIL
  6
CONTINUOUS
 62
     5
 10
34.546269679491331
 20
-60.650738776588298
 30
0.0
 40
4.4085522419862357
 50
183.530845212011
 51
217.7563811878733
  0
ARC
  8
DETAIL
  6
CONTINUOUS
 62
     5
 10
28.406831708895371
 20
-60.714603644646097
 30
0.0
 40
4.2357584354290827
 50
321.52257682341752
 51
357.19019677670281
  0
ARC
  8
DETAIL
  6
CONTINUOUS
 62
     5
 10
41.52222317449133
 20
-60.650738776588298
 30
0.0
 40
4.4085522419862357
 50
183.530845212011
 51
217.7563811878733
  0
ARC
  8
DETAIL
  6
CONTINUOUS
 62
     5
 10
35.382785203895367
 20
-60.714603644646097
 30
0.0
 40
4.2357584354290827
 50
321.52257682341752
 51
357.19019677670281
  0
ARC
  8
DETAIL
  6
CONTINUOUS
 62
     5
 10
48.498176669491329
 20
-60.650738776588298
 30
0.0
 40
4.4085522419862357
 50
183.530845212011
 51
217.7563811878733
  0
ARC
  8
DETAIL
  6
CONTINUOUS
 62
     5
 10
42.358738698895372
 20
-60.714603644646097
 30
0.0
 40
4.2357584354290827
 50
321.52257682341752
 51
357.19019677670281
  0
ARC
  8
DETAIL
  6
CONTINUOUS
 62
     5
 10
55.474130164491328
 20
-60.650738776588298
 30
0.0
 40
4.4085522419862357
 50
183.530845212011
 51
217.7563811878733
  0
ARC
  8
DETAIL
  6
CONTINUOUS
 62
     5
 10
49.334692193895357
 20
-60.714603644646097
 30
0.0
 40
4.2357584354290827
 50
321.52257682341752
 51
357.19019677670281
  0
ARC
  8
DETAIL
  6
CONTINUOUS
 62
     5
 10
62.450083659491327
 20
-60.650738776588298
 30
0.0
 40
4.4085522419862357
 50
183.530845212011
 51
217.7563811878733
  0
ARC
  8
DETAIL
  6
CONTINUOUS
 62
     5
 10
56.310645688895363
 20
-60.714603644646097
 30
0.0
 40
4.2357584354290827
 50
321.52257682341752
 51
357.19019677670281
  0
ARC
  8
DETAIL
  6
CONTINUOUS
 62
     5
 10
19.87447676640636
 20
23.138839634637751
 30
0.0
 40
36.154220968401781
 50
151.0187797227114
 51
176.05728337868339
  0
ARC
  8
DETAIL
  6
CONTINUOUS
 62
     5
 10
10.14596327343401
 20
23.32579763488036
 30
0.0
 40
26.37136115335419
 50
182.78824878334021
 51
213.32541335755189
  0
ARC
  8
DETAIL
  6
CONTINUOUS
 62
     5
 10
20.97192483243299
 20
-31.23832506170243
 30
0.0
 40
52.5543210022065
 50
79.946638740364207
 51
84.880473998818701
  0
ARC
  8
DETAIL
  6
CONTINUOUS
 62
     5
 10
22.446059409199169
 20
8.9646471363294609
 30
0.0
 40
12.250946313928299
 50
86.611653424089852
 51
107.8757241230049
  0
ARC
  8
DETAIL
  6
CONTINUOUS
 62
     5
 10
17.996169224540889
 20
-4.4016158549278543
 30
0.0
 40
23.986975052659929
 50
94.308332599781806
 51
105.19358363917409
  0
ARC
  8
DETAIL
  6
CONTINUOUS
 62
     5
 10
4.9067460080682386
 20
20.454774973249641
 30
0.0
 40
5.8091139592571679
 50
288.42336806141378
 51
317.91848169412827
  0
ARC
  8
DETAIL
  6
CONTINUOUS
 62
     5
 10
-10.71631947385305
 20
23.49856473912007
 30
0.0
 40
23.40231694605383
 50
197.84541165249669
 51
200.49386251962099
  0
ARC
  8
DETAIL
  6
CONTINUOUS
 62
     5
 10
-20.2269123814512
 20
14.170011175987041
 30
0.0
 40
10.82637480526199
 50
203.62264727570411
 51
239.8688734650795
  0
ARC
  8
DETAIL
  6
CONTINUOUS
 62
     5
 10
-17.574710563658751
 20
6.9678990362928062
 30
0.0
 40
7.5907965509292286
 50
222.51230597978241
 51
261.58479629947868
  0
ARC
  8
DETAIL
  6
CONTINUOUS
 62
     5
 10
-30.33525482354457
 20
8.944647053990364
 30
0.0
 40
39.463247003117033
 50
271.38735690191368
 51
276.77083993482682
  0
ARC
  8
DETAIL
  6
CONTINUOUS
 62
     5
 10
-29.7097630472432
 20
5.2453646112630281
 30
0.0
 40
35.709426570673109
 50
280.55239530467168
 51
287.98203977812398
  0
ARC
  8
DETAIL
  6
CONTINUOUS
 62
     5
 10
-28.195036142486291
 20
1.189888034480703
 30
0.0
 40
31.374299584399019
 50
292.52878925843271
 51
301.69805732426238
  0
ARC
  8
DETAIL
  6
CONTINUOUS
 62
     5
 10
-25.74242039584357
 20
-2.2967257471867129
 30
0.0
 40
27.102285016404529
 50
307.56763536764822
 51
320.46711498839551
  0
ARC
  8
DETAIL
  6
CONTINUOUS
 62
     5
 10
2.8051812480529752
 20
-16.782186740094179
 30
0.0
 40
5.1551687435261044
 50
122.9665460745379
 51
168.2667887065474
  0
ARC
  8
DETAIL
  6
CONTINUOUS
 62
     5
 10
16.555448057843989
 20
-25.93668563182047
 30
0.0
 40
8.0272708596862703
 50
156.06935785352479
 51
183.01767231172229
  0
ARC
  8
DETAIL
  6
CONTINUOUS
 62
     5
 10
-10.622950972518369
 20
-21.231124530900221
 30
0.0
 40
19.836584532627271
 50
320.72867904966199
 51
345.01775360939217
  0
ARC
  8
DETAIL
  6
CONTINUOUS
 62
     5
 10
8.0776541056471256
 20
-30.31215525717511
 30
0.0
 40
38.678365174308659
 50
31.348345017766771
 51
35.379574205414968
  0
ARC
  8
DETAIL
  6
CONTINUOUS
 62
     5
 10
10.980335272286251
 20
-27.695129311825781
 30
0.0
 40
34.773585304755009
 50
41.256153850296243
 51
51.478741837934727
  0
ARC
  8
DETAIL
  6
CONTINUOUS
 62
     5
 10
13.752247389949501
 20
-23.849788150972589
 30
0.0
 40
30.02576519827419
 50
56.90749822322622
 51
66.496637971507937
  0
ARC
  8
DETAIL
  6
CONTINUOUS
 62
     5
 10
14.976765781739291
 20
-20.650995492778861
 30
0.0
 40
26.595291898550649
 50
72.056693348728729
 51
81.983738256845896
  0
ARC
  8
DETAIL
  6
CONTINUOUS
 62
     5
 10
15.21833316625964
 20
-21.532140600242659
 30
0.0
 40
27.458251423819569
 50
87.96332431886681
 51
97.341497400203394
  0
LINE
  8
OUTLINE
  6
CONTINUOUS
 62
     3
 10
84.003368174960869
 20
-94.965605247372068
 30
0.0
 11
-84.003392612372224
 21
-94.965605247372068
 31
0.0
  0
LINE
  8
OUTLINE
  6
CONTINUOUS
 62
     3
 10
12.483152657358289
 20
-94.965635331525959
 30
0.0
 11
12.48315246704863
 21
-98.985127586649128
 31
0.0
  0
ARC
  8
OUTLINE
  6
CONTINUOUS
 62
     3
 10
11.486544446683411
 20
-98.984932569683806
 30
0.0
 40
0.9966098936081126
 50
270.01121007949848
 51
359.98878992469957
  0
ARC
  8
OUTLINE
  6
CONTINUOUS
 62
     3
 10
-84.003392612372224
 20
74.037744762372299
 30
0.0
 40
0.996564785
 50
90.0
 51
180.0
  0
ARC
  8
OUTLINE
  6
CONTINUOUS
 62
     3
 10
84.003392612372224
 20
74.037744762372299
 30
0.0
 40
0.996564785
 50
0.0
 51
90.0
  0
ARC
  8
OUTLINE
  6
CONTINUOUS
 62
     3
 10
-84.003392612372224
 20
-93.969040462372149
 30
0.0
 40
0.996564785
 50
180.0
 51
270.0
  0
LINE
  8
OUTLINE
  6
CONTINUOUS
 62
     3
 10
84.604810503991985
 20
-66.969153552000193
 30
0.0
 11
84.601331483372178
 21
-67.766405380000037
 31
0.0
  0
ARC
  8
OUTLINE
  6
CONTINUOUS
 62
     3
 10
84.003392612372224
 20
-93.96904045983969
 30
0.0
 40
0.99656478500001
 50
269.99859501303581
 51
0.0
  0
LINE
  8
OUTLINE
  6
CONTINUOUS
 62
     3
 10
84.99995739737227
 20
-67.766405380000037
 30
0.0
 11
84.99995739737227
 21
-93.96904045983969
 31
0.0
  0
LINE
  8
OUTLINE
  6
CONTINUOUS
 62
     3
 10
-84.604810503992027
 20
-67.766405380000037
 30
0.0
 11
-84.601331483372221
 21
-66.969153552000193
 31
0.0
  0
LINE
  8
OUTLINE
  6
CONTINUOUS
 62
     3
 10
-84.999957397372214
 20
-66.969153552000193
 30
0.0
 11
-84.999957397372214
 21
74.037744762372299
 31
0.0
  0
LINE
  8
OUTLINE
  6
CONTINUOUS
 62
     3
 10
-84.999957397372214
 20
-93.969040462372149
 30
0.0
 11
-84.999957397372214
 21
-67.766405380000037
 31
0.0
  0
ARC
  8
OUTLINE
  6
CONTINUOUS
 62
     3
 10
-11.486587682048709
 20
-98.984975805048734
 30
0.0
 40
0.996564785
 50
180.00000003310299
 51
270.0
  0
LINE
  8
OUTLINE
  6
CONTINUOUS
 62
     3
 10
-12.48315246704874
 20
-98.985127586649128
 30
0.0
 11
-12.4831526574651
 21
-94.965605247372068
 31
0.0
  0
LINE
  8
OUTLINE
  6
CONTINUOUS
 62
     3
 10
-15.60212329356284
 20
-94.965544534752198
 30
0.0
 11
-15.60224723612583
 21
-94.965578274250319
 31
0.0
  0
LINE
  8
OUTLINE
  6
CONTINUOUS
 62
     3
 10
11.486587682048651
 20
-99.981540590048652
 30
0.0
 11
-11.486587682048709
 21
-99.981540590048652
 31
0.0
  0
LINE
  8
OUTLINE
  6
CONTINUOUS
 62
     3
 10
84.99995739737227
 20
74.037744762372299
 30
0.0
 11
84.99995739737227
 21
-66.969153552000193
 31
0.0
  0
LINE
  8
OUTLINE
  6
CONTINUOUS
 62
     3
 10
-84.003392612372224
 20
75.034309547372217
 30
0.0
 11
84.003392612372224
 21
75.034309547372217
 31
0.0
  0
LINE
  8
BASIS
  6
DASHDOT
 62
     6
 10
-125.4561247050906
 20
-9.9656478500000958
 30
0.0
 11
125.4561247050906
 21
-9.965647850000094
 31
0.0
  0
LINE
  8
SIZE
  6
CONTINUOUS
 62
    30
 10
-104.0033926123722
 20
75.034309547372345
 30
0.0
 11
-257.43121554705237
 21
75.034309547372374
 31
0.0
  0
LINE
  8
SIZE
  6
CONTINUOUS
 62
    30
 10
-145.45612470509059
 20
0.0000000000000057
 30
0.0
 11
-257.43121554705237
 21
0.0000000000000374
 31
0.0
  0
LINE
  8
SIZE
  6
CONTINUOUS
 62
    30
 10
-237.43121554705249
 20
87.034309547372374
 30
0.0
 11
-237.43121554705249
 21
99.034309547372359
 31
0.0
  0
LINE
  8
SIZE
  6
CONTINUOUS
 62
    30
 10
-237.43121554705249
 20
-11.99999999999997
 30
0.0
 11
-237.43121554705249
 21
-23.999999999999972
 31
0.0
  0
LINE
  8
SIZE
  6
CONTINUOUS
 62
    30
 10
-237.43121554705249
 20
75.034309547372374
 30
0.0
 11
-237.43121554705249
 21
0.0000000000000317
 31
0.0
  0
CIRCLE
  8
SIZE
  6
CONTINUOUS
 62
    30
 10
-237.43121554705249
 20
75.034309547372374
 30
0.0
 40
6.0
  0
LINE
  8
SIZE
  6
CONTINUOUS
 62
    30
 10
-237.43121554705249
 20
75.034309547372374
 30
0.0
 11
-237.43121554705249
 21
87.034309547372374
 31
0.0
  0
CIRCLE
  8
SIZE
  6
CONTINUOUS
 62
    30
 10
-237.43121554705249
 20
0.0000000000000317
 30
0.0
 40
6.0
  0
LINE
  8
SIZE
  6
CONTINUOUS
 62
    30
 10
-237.43121554705249
 20
0.0000000000000317
 30
0.0
 11
-237.43121554705249
 21
-11.99999999999997
 31
0.0
  0
TEXT
  8
SIZE
  6
CONTINUOUS
 62
    30
 10
-262.43121554705237
 20
-9.1114166548852538
 30
0.0
 40
64.0
  1
75
 50
90.0
 41
0.9
 72
     1
 11
-262.43121554705237
 21
37.517154773686173
 31
0.0
  0
POINT
  8
DEFPOINTS
  6
CONTINUOUS
 62
    30
 10
-84.003392612372224
 20
75.034309547372288
 30
0.0
  0
POINT
  8
DEFPOINTS
  6
CONTINUOUS
 62
    30
 10
-125.4561247050906
 20
0.0
 30
0.0
  0
POINT
  8
DEFPOINTS
  6
CONTINUOUS
 62
    30
 10
-237.43121554705249
 20
0.0000000000000317
 30
0.0
  0
LINE
  8
SIZE
  6
CONTINUOUS
 62
    30
 10
-104.0033926123722
 20
-94.965605247372054
 30
0.0
 11
-143.46487921124759
 21
-94.965605247372054
 31
0.0
  0
LINE
  8
SIZE
  6
CONTINUOUS
 62
    30
 10
-31.486587682048711
 20
-99.981540590048766
 30
0.0
 11
-143.46487921124751
 21
-99.981540590048709
 31
0.0
  0
LINE
  8
SIZE
  6
CONTINUOUS
 62
    30
 10
-123.46487921124751
 20
-82.965605247372068
 30
0.0
 11
-123.46487921124751
 21
-70.965605247372068
 31
0.0
  0
LINE
  8
SIZE
  6
CONTINUOUS
 62
    30
 10
-123.46487921124751
 20
-111.9815405900487
 30
0.0
 11
-123.46487921124751
 21
-123.9815405900487
 31
0.0
  0
LINE
  8
SIZE
  6
CONTINUOUS
 62
    30
 10
-123.46487921124751
 20
-94.965605247372054
 30
0.0
 11
-123.46487921124751
 21
-99.981540590048709
 31
0.0
  0
CIRCLE
  8
SIZE
  6
CONTINUOUS
 62
    30
 10
-123.46487921124751
 20
-94.965605247372054
 30
0.0
 40
6.0
  0
LINE
  8
SIZE
  6
CONTINUOUS
 62
    30
 10
-123.46487921124751
 20
-94.965605247372054
 30
0.0
 11
-123.46487921124751
 21
-82.965605247372068
 31
0.0
  0
CIRCLE
  8
SIZE
  6
CONTINUOUS
 62
    30
 10
-123.46487921124751
 20
-99.981540590048709
 30
0.0
 40
6.0
  0
LINE
  8
SIZE
  6
CONTINUOUS
 62
    30
 10
-123.46487921124751
 20
-99.981540590048709
 30
0.0
 11
-123.46487921124751
 21
-111.9815405900487
 31
0.0
  0
TEXT
  8
SIZE
  6
CONTINUOUS
 62
    30
 10
-148.46487921124739
 20
-116.67357291871041
 30
0.0
 40
64.0
  1
5
 50
90.0
 41
0.9
 72
     1
 11
-148.46487921124739
 21
-97.473572918710403
 31
0.0
  0
POINT
  8
DEFPOINTS
  6
CONTINUOUS
 62
    30
 10
-84.003392612372224
 20
-94.965605247372068
 30
0.0
  0
POINT
  8
DEFPOINTS
  6
CONTINUOUS
 62
    30
 10
-11.486587682048709
 20
-99.981540590048766
 30
0.0
  0
POINT
  8
DEFPOINTS
  6
CONTINUOUS
 62
    30
 10
-123.46487921124751
 20
-99.981540590048709
 30
0.0
  0
LINE
  8
DETAIL
  6
CONTINUOUS
 62
     5
 10
-46.589403698749933
 20
56.405566830999973
 30
0.0
 11
-47.840737425244697
 21
56.405566830999973
 31
0.0
  0
LINE
  8
DETAIL
  6
CONTINUOUS
 62
     5
 10
-46.589403698749933
 20
59.195948229000003
 30
0.0
 11
-46.838544894999814
 21
59.195948229000003
 31
0.0
  0
LINE
  8
DETAIL
  6
CONTINUOUS
 62
     5
 10
11.709636223750071
 20
56.405566830999973
 30
0.0
 11
16.194177756250159
 21
56.405566830999973
 31
0.0
  0
LINE
  8
DETAIL
  6
CONTINUOUS
 62
     5
 10
11.709636223750071
 20
58.398696401000038
 30
0.0
 11
16.194177756250159
 21
58.398696401000038
 31
0.0
  0
LINE
  8
DETAIL
  6
CONTINUOUS
 62
     5
 10
11.709636223750071
 20
57.402131616000013
 30
0.0
 11
16.194177756250159
 21
57.402131616000013
 31
0.0
  0
LINE
  8
DETAIL
  6
CONTINUOUS
 62
     5
 10
4.7336827287501819
 20
56.405566830999973
 30
0.0
 11
9.2182242612500449
 21
56.405566830999973
 31
0.0
  0
LINE
  8
DETAIL
  6
CONTINUOUS
 62
     5
 10
4.7336827287501819
 20
58.398696401000038
 30
0.0
 11
9.2182242612500449
 21
58.398696401000038
 31
0.0
  0
LINE
  8
DETAIL
  6
CONTINUOUS
 62
     5
 10
4.7336827287501819
 20
57.402131616000013
 30
0.0
 11
9.2182242612500449
 21
57.402131616000013
 31
0.0
  0
LINE
  8
DETAIL
  6
CONTINUOUS
 62
     5
 10
-2.242270766249931
 20
56.405566830999973
 30
0.0
 11
2.242270766250158
 21
56.405566830999973
 31
0.0
  0
LINE
  8
DETAIL
  6
CONTINUOUS
 62
     5
 10
-2.242270766249931
 20
58.398696401000038
 30
0.0
 11
2.242270766250158
 21
58.398696401000038
 31
0.0
  0
LINE
  8
DETAIL
  6
CONTINUOUS
 62
     5
 10
-2.242270766249931
 20
57.402131616000013
 30
0.0
 11
2.242270766250158
 21
57.402131616000013
 31
0.0
  0
LINE
  8
DETAIL
  6
CONTINUOUS
 62
     5
 10
-9.2182242612498175
 20
56.405566830999973
 30
0.0
 11
-4.7336827287499554
 21
56.405566830999973
 31
0.0
  0
LINE
  8
DETAIL
  6
CONTINUOUS
 62
     5
 10
-9.2182242612498175
 20
58.398696401000038
 30
0.0
 11
-4.7336827287499554
 21
58.398696401000038
 31
0.0
  0
LINE
  8
DETAIL
  6
CONTINUOUS
 62
     5
 10
-9.2182242612498175
 20
57.402131616000013
 30
0.0
 11
-4.7336827287499554
 21
57.402131616000013
 31
0.0
  0
LINE
  8
DETAIL
  6
CONTINUOUS
 62
     5
 10
-16.194177756249928
 20
56.405566830999973
 30
0.0
 11
-11.70963622374984
 21
56.405566830999973
 31
0.0
  0
LINE
  8
DETAIL
  6
CONTINUOUS
 62
     5
 10
-16.194177756249928
 20
58.398696401000038
 30
0.0
 11
-11.70963622374984
 21
58.398696401000038
 31
0.0
  0
LINE
  8
DETAIL
  6
CONTINUOUS
 62
     5
 10
-16.194177756249928
 20
57.402131616000013
 30
0.0
 11
-11.70963622374984
 21
57.402131616000013
 31
0.0
  0
LINE
  8
DETAIL
  6
CONTINUOUS
 62
     5
 10
-23.17013125124981
 20
56.405566830999973
 30
0.0
 11
-18.685589718749949
 21
56.405566830999973
 31
0.0
  0
LINE
  8
DETAIL
  6
CONTINUOUS
 62
     5
 10
-23.17013125124981
 20
58.398696401000038
 30
0.0
 11
-18.685589718749949
 21
58.398696401000038
 31
0.0
  0
LINE
  8
DETAIL
  6
CONTINUOUS
 62
     5
 10
-23.17013125124981
 20
57.402131616000013
 30
0.0
 11
-18.685589718749949
 21
57.402131616000013
 31
0.0
  0
LINE
  8
DETAIL
  6
CONTINUOUS
 62
     5
 10
-30.14608474624993
 20
56.405566830999973
 30
0.0
 11
-25.661543213749841
 21
56.405566830999973
 31
0.0
  0
LINE
  8
DETAIL
  6
CONTINUOUS
 62
     5
 10
-30.14608474624993
 20
58.398696401000038
 30
0.0
 11
-25.661543213749841
 21
58.398696401000038
 31
0.0
  0
LINE
  8
DETAIL
  6
CONTINUOUS
 62
     5
 10
-30.14608474624993
 20
57.402131616000013
 30
0.0
 11
-25.661543213749841
 21
57.402131616000013
 31
0.0
  0
LINE
  8
DETAIL
  6
CONTINUOUS
 62
     5
 10
-37.122038241249811
 20
56.405566830999973
 30
0.0
 11
-32.63749670874995
 21
56.405566830999973
 31
0.0
  0
LINE
  8
DETAIL
  6
CONTINUOUS
 62
     5
 10
-37.122038241249811
 20
58.398696401000038
 30
0.0
 11
-32.63749670874995
 21
58.398696401000038
 31
0.0
  0
LINE
  8
DETAIL
  6
CONTINUOUS
 62
     5
 10
-37.122038241249811
 20
57.402131616000013
 30
0.0
 11
-32.63749670874995
 21
57.402131616000013
 31
0.0
  0
LINE
  8
DETAIL
  6
CONTINUOUS
 62
     5
 10
-44.097991736249917
 20
56.405566830999973
 30
0.0
 11
-39.613450203749842
 21
56.405566830999973
 31
0.0
  0
LINE
  8
DETAIL
  6
CONTINUOUS
 62
     5
 10
-44.097991736249917
 20
58.398696401000038
 30
0.0
 11
-39.613450203749842
 21
58.398696401000038
 31
0.0
  0
LINE
  8
DETAIL
  6
CONTINUOUS
 62
     5
 10
-44.097991736249917
 20
57.402131616000013
 30
0.0
 11
-39.613450203749842
 21
57.402131616000013
 31
0.0
  0
LINE
  8
DETAIL
  6
CONTINUOUS
 62
     5
 10
18.68558971875018
 20
56.405566830999973
 30
0.0
 11
23.170131251250041
 21
56.405566830999973
 31
0.0
  0
LINE
  8
DETAIL
  6
CONTINUOUS
 62
     5
 10
18.68558971875018
 20
57.402131616000013
 30
0.0
 11
23.170131251250041
 21
57.402131616000013
 31
0.0
  0
LINE
  8
DETAIL
  6
CONTINUOUS
 62
     5
 10
18.68558971875018
 20
58.398696401000038
 30
0.0
 11
23.170131251250041
 21
58.398696401000038
 31
0.0
  0
LINE
  8
DETAIL
  6
CONTINUOUS
 62
     5
 10
25.661543213750061
 20
56.405566830999973
 30
0.0
 11
30.14608474625015
 21
56.405566830999973
 31
0.0
  0
LINE
  8
DETAIL
  6
CONTINUOUS
 62
     5
 10
25.661543213750061
 20
58.398696401000038
 30
0.0
 11
30.14608474625015
 21
58.398696401000038
 31
0.0
  0
LINE
  8
DETAIL
  6
CONTINUOUS
 62
     5
 10
25.661543213750061
 20
57.402131616000013
 30
0.0
 11
30.14608474625015
 21
57.402131616000013
 31
0.0
  0
LINE
  8
DETAIL
  6
CONTINUOUS
 62
     5
 10
32.637496708750177
 20
56.405566830999973
 30
0.0
 11
37.122038241250038
 21
56.405566830999973
 31
0.0
  0
LINE
  8
DETAIL
  6
CONTINUOUS
 62
     5
 10
32.637496708750177
 20
58.398696401000038
 30
0.0
 11
37.122038241250038
 21
58.398696401000038
 31
0.0
  0
LINE
  8
DETAIL
  6
CONTINUOUS
 62
     5
 10
32.637496708750177
 20
57.402131616000013
 30
0.0
 11
37.122038241250038
 21
57.402131616000013
 31
0.0
  0
LINE
  8
DETAIL
  6
CONTINUOUS
 62
     5
 10
39.613450203750062
 20
56.405566830999973
 30
0.0
 11
44.097991736250151
 21
56.405566830999973
 31
0.0
  0
LINE
  8
DETAIL
  6
CONTINUOUS
 62
     5
 10
39.613450203750062
 20
58.398696401000038
 30
0.0
 11
44.097991736250151
 21
58.398696401000038
 31
0.0
  0
LINE
  8
DETAIL
  6
CONTINUOUS
 62
     5
 10
39.613450203750062
 20
57.402131616000013
 30
0.0
 11
44.097991736250151
 21
57.402131616000013
 31
0.0
  0
ARC
  8
DETAIL
  6
CONTINUOUS
 62
     5
 10
49.52926981450014
 20
56.704536266499957
 30
0.0
 40
0.2989694355000119
 50
270.0
 51
0.0
  0
ARC
  8
DETAIL
  6
CONTINUOUS
 62
     5
 10
49.52926981450014
 20
57.103162180499893
 30
0.0
 40
0.2989694355000119
 50
0.0
 51
90.0
  0
ARC
  8
DETAIL
  6
CONTINUOUS
 62
     5
 10
50.027552207000113
 20
58.996635272000027
 30
0.0
 40
0.199312956999988
 50
90.0
 51
180.0
  0
LINE
  8
DETAIL
  6
CONTINUOUS
 62
     5
 10
50.027552207000113
 20
59.195948229000003
 30
0.0
 11
51.073945231250043
 21
59.195948229000003
 31
0.0
  0
LINE
  8
DETAIL
  6
CONTINUOUS
 62
     5
 10
46.589403698750168
 20
56.405566830999973
 30
0.0
 11
51.073945231250043
 21
56.405566830999973
 31
0.0
  0
LINE
  8
DETAIL
  6
CONTINUOUS
 62
     5
 10
48.350787175563028
 20
58.398696401000038
 30
0.0
 11
48.371661299170462
 21
59.594574142999917
 31
0.0
  0
LINE
  8
DETAIL
  6
CONTINUOUS
 62
     5
 10
46.589403698750168
 20
58.398696401000038
 30
0.0
 11
49.828239250000017
 21
58.398696401000038
 31
0.0
  0
LINE
  8
DETAIL
  6
CONTINUOUS
 62
     5
 10
46.589403698750168
 20
57.402131616000013
 30
0.0
 11
49.52926981450014
 21
57.402131616000013
 31
0.0
  0
LINE
  8
DETAIL
  6
CONTINUOUS
 62
     5
 10
49.828239250000017
 20
58.996635272000027
 30
0.0
 11
49.828239250000017
 21
56.704536266499957
 31
0.0
  0
LINE
  8
DETAIL
  6
CONTINUOUS
 62
     5
 10
-46.589403698749933
 20
44.446789410999934
 30
0.0
 11
-47.840737425244697
 21
44.446789410999934
 31
0.0
  0
LINE
  8
DETAIL
  6
CONTINUOUS
 62
     5
 10
-46.589403698749933
 20
47.237170808999942
 30
0.0
 11
-47.835109663755929
 21
47.237170808999942
 31
0.0
  0
LINE
  8
DETAIL
  6
CONTINUOUS
 62
     5
 10
-47.840737425244697
 20
48.336010571386723
 30
0.0
 11
-46.589403698749933
 21
48.336010571386723
 31
0.0
  0
LINE
  8
DETAIL
  6
CONTINUOUS
 62
     5
 10
11.709636223750071
 20
44.446789410999934
 30
0.0
 11
16.194177756250159
 21
44.446789410999934
 31
0.0
  0
LINE
  8
DETAIL
  6
CONTINUOUS
 62
     5
 10
11.709636223750071
 20
46.439918980999877
 30
0.0
 11
16.194177756250159
 21
46.439918980999877
 31
0.0
  0
LINE
  8
DETAIL
  6
CONTINUOUS
 62
     5
 10
11.709636223750071
 20
45.443354195999852
 30
0.0
 11
16.194177756250159
 21
45.443354195999852
 31
0.0
  0
LINE
  8
DETAIL
  6
CONTINUOUS
 62
     5
 10
4.7336827287501819
 20
44.446789410999934
 30
0.0
 11
9.2182242612500449
 21
44.446789410999934
 31
0.0
  0
LINE
  8
DETAIL
  6
CONTINUOUS
 62
     5
 10
4.7336827287501819
 20
46.439918980999877
 30
0.0
 11
9.2182242612500449
 21
46.439918980999877
 31
0.0
  0
LINE
  8
DETAIL
  6
CONTINUOUS
 62
     5
 10
4.7336827287501819
 20
45.443354195999852
 30
0.0
 11
9.2182242612500449
 21
45.443354195999852
 31
0.0
  0
LINE
  8
DETAIL
  6
CONTINUOUS
 62
     5
 10
-2.242270766249931
 20
44.446789410999934
 30
0.0
 11
2.242270766250158
 21
44.446789410999934
 31
0.0
  0
LINE
  8
DETAIL
  6
CONTINUOUS
 62
     5
 10
-2.242270766249931
 20
46.439918980999877
 30
0.0
 11
2.242270766250158
 21
46.439918980999877
 31
0.0
  0
LINE
  8
DETAIL
  6
CONTINUOUS
 62
     5
 10
-2.242270766249931
 20
45.443354195999852
 30
0.0
 11
2.242270766250158
 21
45.443354195999852
 31
0.0
  0
LINE
  8
DETAIL
  6
CONTINUOUS
 62
     5
 10
-9.2182242612498175
 20
44.446789410999934
 30
0.0
 11
-4.7336827287499554
 21
44.446789410999934
 31
0.0
  0
LINE
  8
DETAIL
  6
CONTINUOUS
 62
     5
 10
-9.2182242612498175
 20
46.439918980999877
 30
0.0
 11
-4.7336827287499554
 21
46.439918980999877
 31
0.0
  0
LINE
  8
DETAIL
  6
CONTINUOUS
 62
     5
 10
-9.2182242612498175
 20
45.443354195999852
 30
0.0
 11
-4.7336827287499554
 21
45.443354195999852
 31
0.0
  0
LINE
  8
DETAIL
  6
CONTINUOUS
 62
     5
 10
-16.194177756249928
 20
44.446789410999934
 30
0.0
 11
-11.70963622374984
 21
44.446789410999934
 31
0.0
  0
LINE
  8
DETAIL
  6
CONTINUOUS
 62
     5
 10
-16.194177756249928
 20
46.439918980999877
 30
0.0
 11
-11.70963622374984
 21
46.439918980999877
 31
0.0
  0
LINE
  8
DETAIL
  6
CONTINUOUS
 62
     5
 10
-16.194177756249928
 20
45.443354195999852
 30
0.0
 11
-11.70963622374984
 21
45.443354195999852
 31
0.0
  0
LINE
  8
DETAIL
  6
CONTINUOUS
 62
     5
 10
-23.17013125124981
 20
44.446789410999934
 30
0.0
 11
-18.685589718749949
 21
44.446789410999934
 31
0.0
  0
LINE
  8
DETAIL
  6
CONTINUOUS
 62
     5
 10
-23.17013125124981
 20
46.439918980999877
 30
0.0
 11
-18.685589718749949
 21
46.439918980999877
 31
0.0
  0
LINE
  8
DETAIL
  6
CONTINUOUS
 62
     5
 10
-23.17013125124981
 20
45.443354195999852
 30
0.0
 11
-18.685589718749949
 21
45.443354195999852
 31
0.0
  0
LINE
  8
DETAIL
  6
CONTINUOUS
 62
     5
 10
-30.14608474624993
 20
44.446789410999934
 30
0.0
 11
-25.661543213749841
 21
44.446789410999934
 31
0.0
  0
LINE
  8
DETAIL
  6
CONTINUOUS
 62
     5
 10
-30.14608474624993
 20
46.439918980999877
 30
0.0
 11
-25.661543213749841
 21
46.439918980999877
 31
0.0
  0
LINE
  8
DETAIL
  6
CONTINUOUS
 62
     5
 10
-30.14608474624993
 20
45.443354195999852
 30
0.0
 11
-25.661543213749841
 21
45.443354195999852
 31
0.0
  0
LINE
  8
DETAIL
  6
CONTINUOUS
 62
     5
 10
-37.122038241249811
 20
44.446789410999934
 30
0.0
 11
-32.63749670874995
 21
44.446789410999934
 31
0.0
  0
LINE
  8
DETAIL
  6
CONTINUOUS
 62
     5
 10
-37.122038241249811
 20
46.439918980999877
 30
0.0
 11
-32.63749670874995
 21
46.439918980999877
 31
0.0
  0
LINE
  8
DETAIL
  6
CONTINUOUS
 62
     5
 10
-37.122038241249811
 20
45.443354195999852
 30
0.0
 11
-32.63749670874995
 21
45.443354195999852
 31
0.0
  0
LINE
  8
DETAIL
  6
CONTINUOUS
 62
     5
 10
-44.097991736249917
 20
44.446789410999934
 30
0.0
 11
-39.613450203749842
 21
44.446789410999934
 31
0.0
  0
LINE
  8
DETAIL
  6
CONTINUOUS
 62
     5
 10
-44.097991736249917
 20
46.439918980999877
 30
0.0
 11
-39.613450203749842
 21
46.439918980999877
 31
0.0
  0
LINE
  8
DETAIL
  6
CONTINUOUS
 62
     5
 10
-44.097991736249917
 20
45.443354195999852
 30
0.0
 11
-39.613450203749842
 21
45.443354195999852
 31
0.0
  0
LINE
  8
DETAIL
  6
CONTINUOUS
 62
     5
 10
18.68558971875018
 20
44.446789410999934
 30
0.0
 11
23.170131251250041
 21
44.446789410999934
 31
0.0
  0
LINE
  8
DETAIL
  6
CONTINUOUS
 62
     5
 10
18.68558971875018
 20
45.443354195999852
 30
0.0
 11
23.170131251250041
 21
45.443354195999852
 31
0.0
  0
LINE
  8
DETAIL
  6
CONTINUOUS
 62
     5
 10
18.68558971875018
 20
46.439918980999877
 30
0.0
 11
23.170131251250041
 21
46.439918980999877
 31
0.0
  0
LINE
  8
DETAIL
  6
CONTINUOUS
 62
     5
 10
25.661543213750061
 20
44.446789410999934
 30
0.0
 11
30.14608474625015
 21
44.446789410999934
 31
0.0
  0
LINE
  8
DETAIL
  6
CONTINUOUS
 62
     5
 10
25.661543213750061
 20
46.439918980999877
 30
0.0
 11
30.14608474625015
 21
46.439918980999877
 31
0.0
  0
LINE
  8
DETAIL
  6
CONTINUOUS
 62
     5
 10
25.661543213750061
 20
45.443354195999852
 30
0.0
 11
30.14608474625015
 21
45.443354195999852
 31
0.0
  0
LINE
  8
DETAIL
  6
CONTINUOUS
 62
     5
 10
32.637496708750177
 20
44.446789410999934
 30
0.0
 11
37.122038241250038
 21
44.446789410999934
 31
0.0
  0
LINE
  8
DETAIL
  6
CONTINUOUS
 62
     5
 10
32.637496708750177
 20
46.439918980999877
 30
0.0
 11
37.122038241250038
 21
46.439918980999877
 31
0.0
  0
LINE
  8
DETAIL
  6
CONTINUOUS
 62
     5
 10
32.637496708750177
 20
45.443354195999852
 30
0.0
 11
37.122038241250038
 21
45.443354195999852
 31
0.0
  0
LINE
  8
DETAIL
  6
CONTINUOUS
 62
     5
 10
39.613450203750062
 20
44.446789410999934
 30
0.0
 11
44.097991736250151
 21
44.446789410999934
 31
0.0
  0
LINE
  8
DETAIL
  6
CONTINUOUS
 62
     5
 10
39.613450203750062
 20
46.439918980999877
 30
0.0
 11
44.097991736250151
 21
46.439918980999877
 31
0.0
  0
LINE
  8
DETAIL
  6
CONTINUOUS
 62
     5
 10
39.613450203750062
 20
45.443354195999852
 30
0.0
 11
44.097991736250151
 21
45.443354195999852
 31
0.0
  0
ARC
  8
DETAIL
  6
CONTINUOUS
 62
     5
 10
49.52926981450014
 20
44.745758846499918
 30
0.0
 40
0.2989694355000119
 50
270.0
 51
0.0
  0
ARC
  8
DETAIL
  6
CONTINUOUS
 62
     5
 10
49.52926981450014
 20
45.14438476049996
 30
0.0
 40
0.2989694355000119
 50
0.0
 51
90.0
  0
ARC
  8
DETAIL
  6
CONTINUOUS
 62
     5
 10
48.677405932927741
 20
48.037677909392499
 30
0.0
 40
0.2982790457125354
 50
90.02400465880001
 51
178.99963553680431
  0
LINE
  8
DETAIL
  6
CONTINUOUS
 62
     5
 10
51.073945231250043
 20
48.336010571386723
 30
0.0
 11
48.677679907820902
 21
48.336010571386723
 31
0.0
  0
ARC
  8
DETAIL
  6
CONTINUOUS
 62
     5
 10
50.027552207000113
 20
47.037857851999988
 30
0.0
 40
0.199312956999988
 50
90.0
 51
180.0
  0
LINE
  8
DETAIL
  6
CONTINUOUS
 62
     5
 10
50.027552207000113
 20
47.237170808999942
 30
0.0
 11
51.073945231250043
 21
47.237170808999942
 31
0.0
  0
LINE
  8
DETAIL
  6
CONTINUOUS
 62
     5
 10
46.589403698750168
 20
44.446789410999934
 30
0.0
 11
51.073945231250043
 21
44.446789410999934
 31
0.0
  0
LINE
  8
DETAIL
  6
CONTINUOUS
 62
     5
 10
48.350787175563028
 20
46.439918980999877
 30
0.0
 11
48.378756122362567
 21
48.04225887195625
 31
0.0
  0
LINE
  8
DETAIL
  6
CONTINUOUS
 62
     5
 10
46.589403698750168
 20
46.439918980999877
 30
0.0
 11
49.828239250000017
 21
46.439918980999877
 31
0.0
  0
LINE
  8
DETAIL
  6
CONTINUOUS
 62
     5
 10
46.589403698750168
 20
45.443354195999852
 30
0.0
 11
49.52926981450014
 21
45.443354195999852
 31
0.0
  0
LINE
  8
DETAIL
  6
CONTINUOUS
 62
     5
 10
49.828239250000017
 20
47.037857851999988
 30
0.0
 11
49.828239250000017
 21
44.745758846499918
 31
0.0
  0
LINE
  8
DETAIL
  6
CONTINUOUS
 62
     5
 10
-46.589403698749933
 20
32.48801199099988
 30
0.0
 11
-47.840737425244697
 21
32.48801199099988
 31
0.0
  0
LINE
  8
DETAIL
  6
CONTINUOUS
 62
     5
 10
-46.589403698749933
 20
35.278393389000023
 30
0.0
 11
-47.835109663755929
 21
35.278393389000023
 31
0.0
  0
LINE
  8
DETAIL
  6
CONTINUOUS
 62
     5
 10
-47.840737425244697
 20
36.377233151386683
 30
0.0
 11
-46.589403698749933
 21
36.377233151386683
 31
0.0
  0
LINE
  8
DETAIL
  6
CONTINUOUS
 62
     5
 10
11.709636223750071
 20
32.48801199099988
 30
0.0
 11
16.194177756250159
 21
32.48801199099988
 31
0.0
  0
LINE
  8
DETAIL
  6
CONTINUOUS
 62
     5
 10
11.709636223750071
 20
34.48114156099993
 30
0.0
 11
16.194177756250159
 21
34.48114156099993
 31
0.0
  0
LINE
  8
DETAIL
  6
CONTINUOUS
 62
     5
 10
11.709636223750071
 20
33.484576775999898
 30
0.0
 11
16.194177756250159
 21
33.484576775999898
 31
0.0
  0
LINE
  8
DETAIL
  6
CONTINUOUS
 62
     5
 10
4.7336827287501819
 20
32.48801199099988
 30
0.0
 11
9.2182242612500449
 21
32.48801199099988
 31
0.0
  0
LINE
  8
DETAIL
  6
CONTINUOUS
 62
     5
 10
4.7336827287501819
 20
34.48114156099993
 30
0.0
 11
9.2182242612500449
 21
34.48114156099993
 31
0.0
  0
LINE
  8
DETAIL
  6
CONTINUOUS
 62
     5
 10
4.7336827287501819
 20
33.484576775999898
 30
0.0
 11
9.2182242612500449
 21
33.484576775999898
 31
0.0
  0
LINE
  8
DETAIL
  6
CONTINUOUS
 62
     5
 10
-2.242270766249931
 20
32.48801199099988
 30
0.0
 11
2.242270766250158
 21
32.48801199099988
 31
0.0
  0
LINE
  8
DETAIL
  6
CONTINUOUS
 62
     5
 10
-2.242270766249931
 20
34.48114156099993
 30
0.0
 11
2.242270766250158
 21
34.48114156099993
 31
0.0
  0
LINE
  8
DETAIL
  6
CONTINUOUS
 62
     5
 10
-2.242270766249931
 20
33.484576775999898
 30
0.0
 11
2.242270766250158
 21
33.484576775999898
 31
0.0
  0
LINE
  8
DETAIL
  6
CONTINUOUS
 62
     5
 10
-9.2182242612498175
 20
32.48801199099988
 30
0.0
 11
-4.7336827287499554
 21
32.48801199099988
 31
0.0
  0
LINE
  8
DETAIL
  6
CONTINUOUS
 62
     5
 10
-9.2182242612498175
 20
34.48114156099993
 30
0.0
 11
-4.7336827287499554
 21
34.48114156099993
 31
0.0
  0
LINE
  8
DETAIL
  6
CONTINUOUS
 62
     5
 10
-9.2182242612498175
 20
33.484576775999898
 30
0.0
 11
-4.7336827287499554
 21
33.484576775999898
 31
0.0
  0
LINE
  8
DETAIL
  6
CONTINUOUS
 62
     5
 10
-16.194177756249928
 20
32.48801199099988
 30
0.0
 11
-11.70963622374984
 21
32.48801199099988
 31
0.0
  0
LINE
  8
DETAIL
  6
CONTINUOUS
 62
     5
 10
-16.194177756249928
 20
34.48114156099993
 30
0.0
 11
-11.70963622374984
 21
34.48114156099993
 31
0.0
  0
LINE
  8
DETAIL
  6
CONTINUOUS
 62
     5
 10
-16.194177756249928
 20
33.484576775999898
 30
0.0
 11
-11.70963622374984
 21
33.484576775999898
 31
0.0
  0
LINE
  8
DETAIL
  6
CONTINUOUS
 62
     5
 10
-23.17013125124981
 20
32.48801199099988
 30
0.0
 11
-18.685589718749949
 21
32.48801199099988
 31
0.0
  0
LINE
  8
DETAIL
  6
CONTINUOUS
 62
     5
 10
-23.17013125124981
 20
34.48114156099993
 30
0.0
 11
-18.685589718749949
 21
34.48114156099993
 31
0.0
  0
LINE
  8
DETAIL
  6
CONTINUOUS
 62
     5
 10
-23.17013125124981
 20
33.484576775999898
 30
0.0
 11
-18.685589718749949
 21
33.484576775999898
 31
0.0
  0
LINE
  8
DETAIL
  6
CONTINUOUS
 62
     5
 10
-30.14608474624993
 20
32.48801199099988
 30
0.0
 11
-25.661543213749841
 21
32.48801199099988
 31
0.0
  0
LINE
  8
DETAIL
  6
CONTINUOUS
 62
     5
 10
-30.14608474624993
 20
34.48114156099993
 30
0.0
 11
-25.661543213749841
 21
34.48114156099993
 31
0.0
  0
LINE
  8
DETAIL
  6
CONTINUOUS
 62
     5
 10
-30.14608474624993
 20
33.484576775999898
 30
0.0
 11
-25.661543213749841
 21
33.484576775999898
 31
0.0
  0
LINE
  8
DETAIL
  6
CONTINUOUS
 62
     5
 10
-37.122038241249811
 20
32.48801199099988
 30
0.0
 11
-32.63749670874995
 21
32.48801199099988
 31
0.0
  0
LINE
  8
DETAIL
  6
CONTINUOUS
 62
     5
 10
-37.122038241249811
 20
34.48114156099993
 30
0.0
 11
-32.63749670874995
 21
34.48114156099993
 31
0.0
  0
LINE
  8
DETAIL
  6
CONTINUOUS
 62
     5
 10
-37.122038241249811
 20
33.484576775999898
 30
0.0
 11
-32.63749670874995
 21
33.484576775999898
 31
0.0
  0
LINE
  8
DETAIL
  6
CONTINUOUS
 62
     5
 10
-44.097991736249917
 20
32.48801199099988
 30
0.0
 11
-39.613450203749842
 21
32.48801199099988
 31
0.0
  0
LINE
  8
DETAIL
  6
CONTINUOUS
 62
     5
 10
-44.097991736249917
 20
34.48114156099993
 30
0.0
 11
-39.613450203749842
 21
34.48114156099993
 31
0.0
  0
LINE
  8
DETAIL
  6
CONTINUOUS
 62
     5
 10
-44.097991736249917
 20
33.484576775999898
 30
0.0
 11
-39.613450203749842
 21
33.484576775999898
 31
0.0
  0
LINE
  8
DETAIL
  6
CONTINUOUS
 62
     5
 10
18.68558971875018
 20
32.48801199099988
 30
0.0
 11
23.170131251250041
 21
32.48801199099988
 31
0.0
  0
LINE
  8
DETAIL
  6
CONTINUOUS
 62
     5
 10
18.68558971875018
 20
33.484576775999898
 30
0.0
 11
23.170131251250041
 21
33.484576775999898
 31
0.0
  0
LINE
  8
DETAIL
  6
CONTINUOUS
 62
     5
 10
18.68558971875018
 20
34.48114156099993
 30
0.0
 11
23.170131251250041
 21
34.48114156099993
 31
0.0
  0
LINE
  8
DETAIL
  6
CONTINUOUS
 62
     5
 10
25.661543213750061
 20
32.48801199099988
 30
0.0
 11
30.14608474625015
 21
32.48801199099988
 31
0.0
  0
LINE
  8
DETAIL
  6
CONTINUOUS
 62
     5
 10
25.661543213750061
 20
34.48114156099993
 30
0.0
 11
30.14608474625015
 21
34.48114156099993
 31
0.0
  0
LINE
  8
DETAIL
  6
CONTINUOUS
 62
     5
 10
25.661543213750061
 20
33.484576775999898
 30
0.0
 11
30.14608474625015
 21
33.484576775999898
 31
0.0
  0
LINE
  8
DETAIL
  6
CONTINUOUS
 62
     5
 10
32.637496708750177
 20
32.48801199099988
 30
0.0
 11
37.122038241250038
 21
32.48801199099988
 31
0.0
  0
LINE
  8
DETAIL
  6
CONTINUOUS
 62
     5
 10
32.637496708750177
 20
34.48114156099993
 30
0.0
 11
37.122038241250038
 21
34.48114156099993
 31
0.0
  0
LINE
  8
DETAIL
  6
CONTINUOUS
 62
     5
 10
32.637496708750177
 20
33.484576775999898
 30
0.0
 11
37.122038241250038
 21
33.484576775999898
 31
0.0
  0
LINE
  8
DETAIL
  6
CONTINUOUS
 62
     5
 10
39.613450203750062
 20
32.48801199099988
 30
0.0
 11
44.097991736250151
 21
32.48801199099988
 31
0.0
  0
LINE
  8
DETAIL
  6
CONTINUOUS
 62
     5
 10
39.613450203750062
 20
34.48114156099993
 30
0.0
 11
44.097991736250151
 21
34.48114156099993
 31
0.0
  0
LINE
  8
DETAIL
  6
CONTINUOUS
 62
     5
 10
39.613450203750062
 20
33.484576775999898
 30
0.0
 11
44.097991736250151
 21
33.484576775999898
 31
0.0
  0
ARC
  8
DETAIL
  6
CONTINUOUS
 62
     5
 10
49.52926981450014
 20
32.786981426499977
 30
0.0
 40
0.2989694355000119
 50
270.0
 51
0.0
  0
ARC
  8
DETAIL
  6
CONTINUOUS
 62
     5
 10
49.52926981450014
 20
33.185607340499907
 30
0.0
 40
0.2989694355000119
 50
0.0
 51
90.0
  0
ARC
  8
DETAIL
  6
CONTINUOUS
 62
     5
 10
48.677405932927741
 20
36.078900489392467
 30
0.0
 40
0.2982790457125354
 50
90.02400465880001
 51
178.99963553680431
  0
LINE
  8
DETAIL
  6
CONTINUOUS
 62
     5
 10
51.073945231250043
 20
36.377233151386683
 30
0.0
 11
48.677679907820902
 21
36.377233151386683
 31
0.0
  0
ARC
  8
DETAIL
  6
CONTINUOUS
 62
     5
 10
50.027552207000113
 20
35.079080432000048
 30
0.0
 40
0.199312956999988
 50
90.0
 51
180.0
  0
LINE
  8
DETAIL
  6
CONTINUOUS
 62
     5
 10
50.027552207000113
 20
35.278393389000023
 30
0.0
 11
51.073945231250043
 21
35.278393389000023
 31
0.0
  0
LINE
  8
DETAIL
  6
CONTINUOUS
 62
     5
 10
46.589403698750168
 20
32.48801199099988
 30
0.0
 11
51.073945231250043
 21
32.48801199099988
 31
0.0
  0
LINE
  8
DETAIL
  6
CONTINUOUS
 62
     5
 10
48.350787175563028
 20
34.48114156099993
 30
0.0
 11
48.378756122362567
 21
36.083481451956217
 31
0.0
  0
LINE
  8
DETAIL
  6
CONTINUOUS
 62
     5
 10
46.589403698750168
 20
34.48114156099993
 30
0.0
 11
49.828239250000017
 21
34.48114156099993
 31
0.0
  0
LINE
  8
DETAIL
  6
CONTINUOUS
 62
     5
 10
46.589403698750168
 20
33.484576775999898
 30
0.0
 11
49.52926981450014
 21
33.484576775999898
 31
0.0
  0
LINE
  8
DETAIL
  6
CONTINUOUS
 62
     5
 10
49.828239250000017
 20
35.079080432000048
 30
0.0
 11
49.828239250000017
 21
32.786981426499977
 31
0.0
  0
LINE
  8
DETAIL
  6
CONTINUOUS
 62
     5
 10
-46.589403698749933
 20
20.52923457099995
 30
0.0
 11
-47.840737425244697
 21
20.52923457099995
 31
0.0
  0
LINE
  8
DETAIL
  6
CONTINUOUS
 62
     5
 10
-46.589403698749933
 20
23.319615968999969
 30
0.0
 11
-47.835109663755929
 21
23.319615968999969
 31
0.0
  0
LINE
  8
DETAIL
  6
CONTINUOUS
 62
     5
 10
-47.840737425244697
 20
24.418455731386629
 30
0.0
 11
-46.589403698749933
 21
24.418455731386629
 31
0.0
  0
LINE
  8
DETAIL
  6
CONTINUOUS
 62
     5
 10
11.709636223750071
 20
20.52923457099995
 30
0.0
 11
16.194177756250159
 21
20.52923457099995
 31
0.0
  0
LINE
  8
DETAIL
  6
CONTINUOUS
 62
     5
 10
11.709636223750071
 20
22.522364140999901
 30
0.0
 11
16.194177756250159
 21
22.522364140999901
 31
0.0
  0
LINE
  8
DETAIL
  6
CONTINUOUS
 62
     5
 10
11.709636223750071
 20
21.525799355999869
 30
0.0
 11
16.194177756250159
 21
21.525799355999869
 31
0.0
  0
LINE
  8
DETAIL
  6
CONTINUOUS
 62
     5
 10
4.7336827287501819
 20
20.52923457099995
 30
0.0
 11
9.2182242612500449
 21
20.52923457099995
 31
0.0
  0
LINE
  8
DETAIL
  6
CONTINUOUS
 62
     5
 10
4.7336827287501819
 20
22.522364140999901
 30
0.0
 11
9.2182242612500449
 21
22.522364140999901
 31
0.0
  0
LINE
  8
DETAIL
  6
CONTINUOUS
 62
     5
 10
4.7336827287501819
 20
21.525799355999869
 30
0.0
 11
9.2182242612500449
 21
21.525799355999869
 31
0.0
  0
LINE
  8
DETAIL
  6
CONTINUOUS
 62
     5
 10
-2.242270766249931
 20
20.52923457099995
 30
0.0
 11
2.242270766250158
 21
20.52923457099995
 31
0.0
  0
LINE
  8
DETAIL
  6
CONTINUOUS
 62
     5
 10
-2.242270766249931
 20
22.522364140999901
 30
0.0
 11
2.242270766250158
 21
22.522364140999901
 31
0.0
  0
LINE
  8
DETAIL
  6
CONTINUOUS
 62
     5
 10
-2.242270766249931
 20
21.525799355999869
 30
0.0
 11
2.242270766250158
 21
21.525799355999869
 31
0.0
  0
LINE
  8
DETAIL
  6
CONTINUOUS
 62
     5
 10
-9.2182242612498175
 20
20.52923457099995
 30
0.0
 11
-4.7336827287499554
 21
20.52923457099995
 31
0.0
  0
LINE
  8
DETAIL
  6
CONTINUOUS
 62
     5
 10
-9.2182242612498175
 20
22.522364140999901
 30
0.0
 11
-4.7336827287499554
 21
22.522364140999901
 31
0.0
  0
LINE
  8
DETAIL
  6
CONTINUOUS
 62
     5
 10
-9.2182242612498175
 20
21.525799355999869
 30
0.0
 11
-4.7336827287499554
 21
21.525799355999869
 31
0.0
  0
LINE
  8
DETAIL
  6
CONTINUOUS
 62
     5
 10
-16.194177756249928
 20
20.52923457099995
 30
0.0
 11
-11.70963622374984
 21
20.52923457099995
 31
0.0
  0
LINE
  8
DETAIL
  6
CONTINUOUS
 62
     5
 10
-16.194177756249928
 20
22.522364140999901
 30
0.0
 11
-11.70963622374984
 21
22.522364140999901
 31
0.0
  0
LINE
  8
DETAIL
  6
CONTINUOUS
 62
     5
 10
-16.194177756249928
 20
21.525799355999869
 30
0.0
 11
-11.70963622374984
 21
21.525799355999869
 31
0.0
  0
LINE
  8
DETAIL
  6
CONTINUOUS
 62
     5
 10
-23.17013125124981
 20
20.52923457099995
 30
0.0
 11
-18.685589718749949
 21
20.52923457099995
 31
0.0
  0
LINE
  8
DETAIL
  6
CONTINUOUS
 62
     5
 10
-23.17013125124981
 20
22.522364140999901
 30
0.0
 11
-18.685589718749949
 21
22.522364140999901
 31
0.0
  0
LINE
  8
DETAIL
  6
CONTINUOUS
 62
     5
 10
-23.17013125124981
 20
21.525799355999869
 30
0.0
 11
-18.685589718749949
 21
21.525799355999869
 31
0.0
  0
LINE
  8
DETAIL
  6
CONTINUOUS
 62
     5
 10
-30.14608474624993
 20
20.52923457099995
 30
0.0
 11
-25.661543213749841
 21
20.52923457099995
 31
0.0
  0
LINE
  8
DETAIL
  6
CONTINUOUS
 62
     5
 10
-30.14608474624993
 20
22.522364140999901
 30
0.0
 11
-25.661543213749841
 21
22.522364140999901
 31
0.0
  0
LINE
  8
DETAIL
  6
CONTINUOUS
 62
     5
 10
-30.14608474624993
 20
21.525799355999869
 30
0.0
 11
-25.661543213749841
 21
21.525799355999869
 31
0.0
  0
LINE
  8
DETAIL
  6
CONTINUOUS
 62
     5
 10
-37.122038241249811
 20
20.52923457099995
 30
0.0
 11
-32.63749670874995
 21
20.52923457099995
 31
0.0
  0
LINE
  8
DETAIL
  6
CONTINUOUS
 62
     5
 10
-37.122038241249811
 20
22.522364140999901
 30
0.0
 11
-32.63749670874995
 21
22.522364140999901
 31
0.0
  0
LINE
  8
DETAIL
  6
CONTINUOUS
 62
     5
 10
-37.122038241249811
 20
21.525799355999869
 30
0.0
 11
-32.63749670874995
 21
21.525799355999869
 31
0.0
  0
LINE
  8
DETAIL
  6
CONTINUOUS
 62
     5
 10
-44.097991736249917
 20
20.52923457099995
 30
0.0
 11
-39.613450203749842
 21
20.52923457099995
 31
0.0
  0
LINE
  8
DETAIL
  6
CONTINUOUS
 62
     5
 10
-44.097991736249917
 20
22.522364140999901
 30
0.0
 11
-39.613450203749842
 21
22.522364140999901
 31
0.0
  0
LINE
  8
DETAIL
  6
CONTINUOUS
 62
     5
 10
-44.097991736249917
 20
21.525799355999869
 30
0.0
 11
-39.613450203749842
 21
21.525799355999869
 31
0.0
  0
LINE
  8
DETAIL
  6
CONTINUOUS
 62
     5
 10
18.68558971875018
 20
20.52923457099995
 30
0.0
 11
23.170131251250041
 21
20.52923457099995
 31
0.0
  0
LINE
  8
DETAIL
  6
CONTINUOUS
 62
     5
 10
18.68558971875018
 20
21.525799355999869
 30
0.0
 11
23.170131251250041
 21
21.525799355999869
 31
0.0
  0
LINE
  8
DETAIL
  6
CONTINUOUS
 62
     5
 10
18.68558971875018
 20
22.522364140999901
 30
0.0
 11
23.170131251250041
 21
22.522364140999901
 31
0.0
  0
LINE
  8
DETAIL
  6
CONTINUOUS
 62
     5
 10
25.661543213750061
 20
20.52923457099995
 30
0.0
 11
30.14608474625015
 21
20.52923457099995
 31
0.0
  0
LINE
  8
DETAIL
  6
CONTINUOUS
 62
     5
 10
25.661543213750061
 20
22.522364140999901
 30
0.0
 11
30.14608474625015
 21
22.522364140999901
 31
0.0
  0
LINE
  8
DETAIL
  6
CONTINUOUS
 62
     5
 10
25.661543213750061
 20
21.525799355999869
 30
0.0
 11
30.14608474625015
 21
21.525799355999869
 31
0.0
  0
LINE
  8
DETAIL
  6
CONTINUOUS
 62
     5
 10
32.637496708750177
 20
20.52923457099995
 30
0.0
 11
37.122038241250038
 21
20.52923457099995
 31
0.0
  0
LINE
  8
DETAIL
  6
CONTINUOUS
 62
     5
 10
32.637496708750177
 20
22.522364140999901
 30
0.0
 11
37.122038241250038
 21
22.522364140999901
 31
0.0
  0
LINE
  8
DETAIL
  6
CONTINUOUS
 62
     5
 10
32.637496708750177
 20
21.525799355999869
 30
0.0
 11
37.122038241250038
 21
21.525799355999869
 31
0.0
  0
LINE
  8
DETAIL
  6
CONTINUOUS
 62
     5
 10
39.613450203750062
 20
20.52923457099995
 30
0.0
 11
44.097991736250151
 21
20.52923457099995
 31
0.0
  0
LINE
  8
DETAIL
  6
CONTINUOUS
 62
     5
 10
39.613450203750062
 20
22.522364140999901
 30
0.0
 11
44.097991736250151
 21
22.522364140999901
 31
0.0
  0
LINE
  8
DETAIL
  6
CONTINUOUS
 62
     5
 10
39.613450203750062
 20
21.525799355999869
 30
0.0
 11
44.097991736250151
 21
21.525799355999869
 31
0.0
  0
ARC
  8
DETAIL
  6
CONTINUOUS
 62
     5
 10
49.52926981450014
 20
20.828204006499941
 30
0.0
 40
0.2989694355000119
 50
270.0
 51
0.0
  0
ARC
  8
DETAIL
  6
CONTINUOUS
 62
     5
 10
49.52926981450014
 20
21.226829920499981
 30
0.0
 40
0.2989694355000119
 50
0.0
 51
90.0
  0
ARC
  8
DETAIL
  6
CONTINUOUS
 62
     5
 10
48.677405932927741
 20
24.12012306939253
 30
0.0
 40
0.2982790457125354
 50
90.02400465880001
 51
178.99963553680431
  0
LINE
  8
DETAIL
  6
CONTINUOUS
 62
     5
 10
51.073945231250043
 20
24.418455731386629
 30
0.0
 11
48.677679907820902
 21
24.418455731386629
 31
0.0
  0
ARC
  8
DETAIL
  6
CONTINUOUS
 62
     5
 10
50.027552207000113
 20
23.120303012000011
 30
0.0
 40
0.199312956999988
 50
90.0
 51
180.0
  0
LINE
  8
DETAIL
  6
CONTINUOUS
 62
     5
 10
50.027552207000113
 20
23.319615968999969
 30
0.0
 11
51.073945231250043
 21
23.319615968999969
 31
0.0
  0
LINE
  8
DETAIL
  6
CONTINUOUS
 62
     5
 10
46.589403698750168
 20
20.52923457099995
 30
0.0
 11
51.073945231250043
 21
20.52923457099995
 31
0.0
  0
LINE
  8
DETAIL
  6
CONTINUOUS
 62
     5
 10
48.350787175563028
 20
22.522364140999901
 30
0.0
 11
48.378756122362567
 21
24.124704031956171
 31
0.0
  0
LINE
  8
DETAIL
  6
CONTINUOUS
 62
     5
 10
46.589403698750168
 20
22.522364140999901
 30
0.0
 11
49.828239250000017
 21
22.522364140999901
 31
0.0
  0
LINE
  8
DETAIL
  6
CONTINUOUS
 62
     5
 10
46.589403698750168
 20
21.525799355999869
 30
0.0
 11
49.52926981450014
 21
21.525799355999869
 31
0.0
  0
LINE
  8
DETAIL
  6
CONTINUOUS
 62
     5
 10
49.828239250000017
 20
23.120303012000011
 30
0.0
 11
49.828239250000017
 21
20.828204006499941
 31
0.0
  0
LINE
  8
DETAIL
  6
CONTINUOUS
 62
     5
 10
-46.589403698749933
 20
8.5704571509999017
 30
0.0
 11
-47.840737425244697
 21
8.5704571509999017
 31
0.0
  0
LINE
  8
DETAIL
  6
CONTINUOUS
 62
     5
 10
-46.589403698749933
 20
11.36083854899992
 30
0.0
 11
-47.835109663755929
 21
11.36083854899992
 31
0.0
  0
LINE
  8
DETAIL
  6
CONTINUOUS
 62
     5
 10
-47.840737425244697
 20
12.4596783113867
 30
0.0
 11
-46.589403698749933
 21
12.4596783113867
 31
0.0
  0
LINE
  8
DETAIL
  6
CONTINUOUS
 62
     5
 10
11.709636223750071
 20
8.5704571509999017
 30
0.0
 11
16.194177756250159
 21
8.5704571509999017
 31
0.0
  0
LINE
  8
DETAIL
  6
CONTINUOUS
 62
     5
 10
11.709636223750071
 20
10.563586720999851
 30
0.0
 11
16.194177756250159
 21
10.563586720999851
 31
0.0
  0
LINE
  8
DETAIL
  6
CONTINUOUS
 62
     5
 10
11.709636223750071
 20
9.5670219359999322
 30
0.0
 11
16.194177756250159
 21
9.5670219359999322
 31
0.0
  0
LINE
  8
DETAIL
  6
CONTINUOUS
 62
     5
 10
4.7336827287501819
 20
8.5704571509999017
 30
0.0
 11
9.2182242612500449
 21
8.5704571509999017
 31
0.0
  0
LINE
  8
DETAIL
  6
CONTINUOUS
 62
     5
 10
4.7336827287501819
 20
10.563586720999851
 30
0.0
 11
9.2182242612500449
 21
10.563586720999851
 31
0.0
  0
LINE
  8
DETAIL
  6
CONTINUOUS
 62
     5
 10
4.7336827287501819
 20
9.5670219359999322
 30
0.0
 11
9.2182242612500449
 21
9.5670219359999322
 31
0.0
  0
LINE
  8
DETAIL
  6
CONTINUOUS
 62
     5
 10
-2.242270766249931
 20
8.5704571509999017
 30
0.0
 11
2.242270766250158
 21
8.5704571509999017
 31
0.0
  0
LINE
  8
DETAIL
  6
CONTINUOUS
 62
     5
 10
-2.242270766249931
 20
10.563586720999851
 30
0.0
 11
2.242270766250158
 21
10.563586720999851
 31
0.0
  0
LINE
  8
DETAIL
  6
CONTINUOUS
 62
     5
 10
-2.242270766249931
 20
9.5670219359999322
 30
0.0
 11
2.242270766250158
 21
9.5670219359999322
 31
0.0
  0
LINE
  8
DETAIL
  6
CONTINUOUS
 62
     5
 10
-9.2182242612498175
 20
8.5704571509999017
 30
0.0
 11
-4.7336827287499554
 21
8.5704571509999017
 31
0.0
  0
LINE
  8
DETAIL
  6
CONTINUOUS
 62
     5
 10
-9.2182242612498175
 20
10.563586720999851
 30
0.0
 11
-4.7336827287499554
 21
10.563586720999851
 31
0.0
  0
LINE
  8
DETAIL
  6
CONTINUOUS
 62
     5
 10
-9.2182242612498175
 20
9.5670219359999322
 30
0.0
 11
-4.7336827287499554
 21
9.5670219359999322
 31
0.0
  0
LINE
  8
DETAIL
  6
CONTINUOUS
 62
     5
 10
-16.194177756249928
 20
8.5704571509999017
 30
0.0
 11
-11.70963622374984
 21
8.5704571509999017
 31
0.0
  0
LINE
  8
DETAIL
  6
CONTINUOUS
 62
     5
 10
-16.194177756249928
 20
10.563586720999851
 30
0.0
 11
-11.70963622374984
 21
10.563586720999851
 31
0.0
  0
LINE
  8
DETAIL
  6
CONTINUOUS
 62
     5
 10
-16.194177756249928
 20
9.5670219359999322
 30
0.0
 11
-11.70963622374984
 21
9.5670219359999322
 31
0.0
  0
LINE
  8
DETAIL
  6
CONTINUOUS
 62
     5
 10
-23.17013125124981
 20
8.5704571509999017
 30
0.0
 11
-18.685589718749949
 21
8.5704571509999017
 31
0.0
  0
LINE
  8
DETAIL
  6
CONTINUOUS
 62
     5
 10
-23.17013125124981
 20
10.563586720999851
 30
0.0
 11
-18.685589718749949
 21
10.563586720999851
 31
0.0
  0
LINE
  8
DETAIL
  6
CONTINUOUS
 62
     5
 10
-23.17013125124981
 20
9.5670219359999322
 30
0.0
 11
-18.685589718749949
 21
9.5670219359999322
 31
0.0
  0
LINE
  8
DETAIL
  6
CONTINUOUS
 62
     5
 10
-30.14608474624993
 20
8.5704571509999017
 30
0.0
 11
-25.661543213749841
 21
8.5704571509999017
 31
0.0
  0
LINE
  8
DETAIL
  6
CONTINUOUS
 62
     5
 10
-30.14608474624993
 20
10.563586720999851
 30
0.0
 11
-25.661543213749841
 21
10.563586720999851
 31
0.0
  0
LINE
  8
DETAIL
  6
CONTINUOUS
 62
     5
 10
-30.14608474624993
 20
9.5670219359999322
 30
0.0
 11
-25.661543213749841
 21
9.5670219359999322
 31
0.0
  0
LINE
  8
DETAIL
  6
CONTINUOUS
 62
     5
 10
-37.122038241249811
 20
8.5704571509999017
 30
0.0
 11
-32.63749670874995
 21
8.5704571509999017
 31
0.0
  0
LINE
  8
DETAIL
  6
CONTINUOUS
 62
     5
 10
-37.122038241249811
 20
10.563586720999851
 30
0.0
 11
-32.63749670874995
 21
10.563586720999851
 31
0.0
  0
LINE
  8
DETAIL
  6
CONTINUOUS
 62
     5
 10
-37.122038241249811
 20
9.5670219359999322
 30
0.0
 11
-32.63749670874995
 21
9.5670219359999322
 31
0.0
  0
LINE
  8
DETAIL
  6
CONTINUOUS
 62
     5
 10
-44.097991736249917
 20
8.5704571509999017
 30
0.0
 11
-39.613450203749842
 21
8.5704571509999017
 31
0.0
  0
LINE
  8
DETAIL
  6
CONTINUOUS
 62
     5
 10
-44.097991736249917
 20
10.563586720999851
 30
0.0
 11
-39.613450203749842
 21
10.563586720999851
 31
0.0
  0
LINE
  8
DETAIL
  6
CONTINUOUS
 62
     5
 10
-44.097991736249917
 20
9.5670219359999322
 30
0.0
 11
-39.613450203749842
 21
9.5670219359999322
 31
0.0
  0
LINE
  8
DETAIL
  6
CONTINUOUS
 62
     5
 10
18.68558971875018
 20
8.5704571509999017
 30
0.0
 11
23.170131251250041
 21
8.5704571509999017
 31
0.0
  0
LINE
  8
DETAIL
  6
CONTINUOUS
 62
     5
 10
18.68558971875018
 20
9.5670219359999322
 30
0.0
 11
23.170131251250041
 21
9.5670219359999322
 31
0.0
  0
LINE
  8
DETAIL
  6
CONTINUOUS
 62
     5
 10
18.68558971875018
 20
10.563586720999851
 30
0.0
 11
23.170131251250041
 21
10.563586720999851
 31
0.0
  0
LINE
  8
DETAIL
  6
CONTINUOUS
 62
     5
 10
25.661543213750061
 20
8.5704571509999017
 30
0.0
 11
30.14608474625015
 21
8.5704571509999017
 31
0.0
  0
LINE
  8
DETAIL
  6
CONTINUOUS
 62
     5
 10
25.661543213750061
 20
10.563586720999851
 30
0.0
 11
30.14608474625015
 21
10.563586720999851
 31
0.0
  0
LINE
  8
DETAIL
  6
CONTINUOUS
 62
     5
 10
25.661543213750061
 20
9.5670219359999322
 30
0.0
 11
30.14608474625015
 21
9.5670219359999322
 31
0.0
  0
LINE
  8
DETAIL
  6
CONTINUOUS
 62
     5
 10
32.637496708750177
 20
8.5704571509999017
 30
0.0
 11
37.122038241250038
 21
8.5704571509999017
 31
0.0
  0
LINE
  8
DETAIL
  6
CONTINUOUS
 62
     5
 10
32.637496708750177
 20
10.563586720999851
 30
0.0
 11
37.122038241250038
 21
10.563586720999851
 31
0.0
  0
LINE
  8
DETAIL
  6
CONTINUOUS
 62
     5
 10
32.637496708750177
 20
9.5670219359999322
 30
0.0
 11
37.122038241250038
 21
9.5670219359999322
 31
0.0
  0
LINE
  8
DETAIL
  6
CONTINUOUS
 62
     5
 10
39.613450203750062
 20
8.5704571509999017
 30
0.0
 11
44.097991736250151
 21
8.5704571509999017
 31
0.0
  0
LINE
  8
DETAIL
  6
CONTINUOUS
 62
     5
 10
39.613450203750062
 20
10.563586720999851
 30
0.0
 11
44.097991736250151
 21
10.563586720999851
 31
0.0
  0
LINE
  8
DETAIL
  6
CONTINUOUS
 62
     5
 10
39.613450203750062
 20
9.5670219359999322
 30
0.0
 11
44.097991736250151
 21
9.5670219359999322
 31
0.0
  0
ARC
  8
DETAIL
  6
CONTINUOUS
 62
     5
 10
49.52926981450014
 20
8.8694265865000119
 30
0.0
 40
0.2989694355000119
 50
270.0
 51
0.0
  0
ARC
  8
DETAIL
  6
CONTINUOUS
 62
     5
 10
49.52926981450014
 20
9.2680525004999339
 30
0.0
 40
0.2989694355000119
 50
0.0
 51
90.0
  0
ARC
  8
DETAIL
  6
CONTINUOUS
 62
     5
 10
48.677405932927741
 20
12.161345649392491
 30
0.0
 40
0.2982790457125354
 50
90.02400465880001
 51
178.99963553680431
  0
LINE
  8
DETAIL
  6
CONTINUOUS
 62
     5
 10
51.073945231250043
 20
12.4596783113867
 30
0.0
 11
48.677679907820902
 21
12.4596783113867
 31
0.0
  0
ARC
  8
DETAIL
  6
CONTINUOUS
 62
     5
 10
50.027552207000113
 20
11.16152559200007
 30
0.0
 40
0.199312956999988
 50
90.0
 51
180.0
  0
LINE
  8
DETAIL
  6
CONTINUOUS
 62
     5
 10
50.027552207000113
 20
11.36083854899992
 30
0.0
 11
51.073945231250043
 21
11.36083854899992
 31
0.0
  0
LINE
  8
DETAIL
  6
CONTINUOUS
 62
     5
 10
46.589403698750168
 20
8.5704571509999017
 30
0.0
 11
51.073945231250043
 21
8.5704571509999017
 31
0.0
  0
LINE
  8
DETAIL
  6
CONTINUOUS
 62
     5
 10
48.350787175563028
 20
10.563586720999851
 30
0.0
 11
48.378756122362567
 21
12.165926611956349
 31
0.0
  0
LINE
  8
DETAIL
  6
CONTINUOUS
 62
     5
 10
46.589403698750168
 20
10.563586720999851
 30
0.0
 11
49.828239250000017
 21
10.563586720999851
 31
0.0
  0
LINE
  8
DETAIL
  6
CONTINUOUS
 62
     5
 10
46.589403698750168
 20
9.5670219359999322
 30
0.0
 11
49.52926981450014
 21
9.5670219359999322
 31
0.0
  0
LINE
  8
DETAIL
  6
CONTINUOUS
 62
     5
 10
49.828239250000017
 20
11.16152559200007
 30
0.0
 11
49.828239250000017
 21
8.8694265865000119
 31
0.0
  0
LINE
  8
DETAIL
  6
CONTINUOUS
 62
     5
 10
-46.589403698749933
 20
-3.3883202690001468
 30
0.0
 11
-47.840737425244697
 21
-3.3883202690001468
 31
0.0
  0
LINE
  8
DETAIL
  6
CONTINUOUS
 62
     5
 10
-46.589403698749933
 20
-0.5979388710000109
 30
0.0
 11
-47.835109663755929
 21
-0.5979388710000109
 31
0.0
  0
LINE
  8
DETAIL
  6
CONTINUOUS
 62
     5
 10
-47.840737425244697
 20
0.5009008913866495
 30
0.0
 11
-46.589403698749933
 21
0.5009008913866495
 31
0.0
  0
LINE
  8
DETAIL
  6
CONTINUOUS
 62
     5
 10
11.709636223750071
 20
-3.3883202690001468
 30
0.0
 11
16.194177756250159
 21
-3.3883202690001468
 31
0.0
  0
LINE
  8
DETAIL
  6
CONTINUOUS
 62
     5
 10
11.709636223750071
 20
-1.395190699000082
 30
0.0
 11
16.194177756250159
 21
-1.395190699000082
 31
0.0
  0
LINE
  8
DETAIL
  6
CONTINUOUS
 62
     5
 10
11.709636223750071
 20
-2.391755484000115
 30
0.0
 11
16.194177756250159
 21
-2.391755484000115
 31
0.0
  0
LINE
  8
DETAIL
  6
CONTINUOUS
 62
     5
 10
4.7336827287501819
 20
-3.3883202690001468
 30
0.0
 11
9.2182242612500449
 21
-3.3883202690001468
 31
0.0
  0
LINE
  8
DETAIL
  6
CONTINUOUS
 62
     5
 10
4.7336827287501819
 20
-1.395190699000082
 30
0.0
 11
9.2182242612500449
 21
-1.395190699000082
 31
0.0
  0
LINE
  8
DETAIL
  6
CONTINUOUS
 62
     5
 10
4.7336827287501819
 20
-2.391755484000115
 30
0.0
 11
9.2182242612500449
 21
-2.391755484000115
 31
0.0
  0
LINE
  8
DETAIL
  6
CONTINUOUS
 62
     5
 10
-2.242270766249931
 20
-3.3883202690001468
 30
0.0
 11
2.242270766250158
 21
-3.3883202690001468
 31
0.0
  0
LINE
  8
DETAIL
  6
CONTINUOUS
 62
     5
 10
-2.242270766249931
 20
-1.395190699000082
 30
0.0
 11
2.242270766250158
 21
-1.395190699000082
 31
0.0
  0
LINE
  8
DETAIL
  6
CONTINUOUS
 62
     5
 10
-2.242270766249931
 20
-2.391755484000115
 30
0.0
 11
2.242270766250158
 21
-2.391755484000115
 31
0.0
  0
LINE
  8
DETAIL
  6
CONTINUOUS
 62
     5
 10
-9.2182242612498175
 20
-3.3883202690001468
 30
0.0
 11
-4.7336827287499554
 21
-3.3883202690001468
 31
0.0
  0
LINE
  8
DETAIL
  6
CONTINUOUS
 62
     5
 10
-9.2182242612498175
 20
-1.395190699000082
 30
0.0
 11
-4.7336827287499554
 21
-1.395190699000082
 31
0.0
  0
LINE
  8
DETAIL
  6
CONTINUOUS
 62
     5
 10
-9.2182242612498175
 20
-2.391755484000115
 30
0.0
 11
-4.7336827287499554
 21
-2.391755484000115
 31
0.0
  0
LINE
  8
DETAIL
  6
CONTINUOUS
 62
     5
 10
-16.194177756249928
 20
-3.3883202690001468
 30
0.0
 11
-11.70963622374984
 21
-3.3883202690001468
 31
0.0
  0
LINE
  8
DETAIL
  6
CONTINUOUS
 62
     5
 10
-16.194177756249928
 20
-1.395190699000082
 30
0.0
 11
-11.70963622374984
 21
-1.395190699000082
 31
0.0
  0
LINE
  8
DETAIL
  6
CONTINUOUS
 62
     5
 10
-16.194177756249928
 20
-2.391755484000115
 30
0.0
 11
-11.70963622374984
 21
-2.391755484000115
 31
0.0
  0
LINE
  8
DETAIL
  6
CONTINUOUS
 62
     5
 10
-23.17013125124981
 20
-3.3883202690001468
 30
0.0
 11
-18.685589718749949
 21
-3.3883202690001468
 31
0.0
  0
LINE
  8
DETAIL
  6
CONTINUOUS
 62
     5
 10
-23.17013125124981
 20
-1.395190699000082
 30
0.0
 11
-18.685589718749949
 21
-1.395190699000082
 31
0.0
  0
LINE
  8
DETAIL
  6
CONTINUOUS
 62
     5
 10
-23.17013125124981
 20
-2.391755484000115
 30
0.0
 11
-18.685589718749949
 21
-2.391755484000115
 31
0.0
  0
LINE
  8
DETAIL
  6
CONTINUOUS
 62
     5
 10
-30.14608474624993
 20
-3.3883202690001468
 30
0.0
 11
-25.661543213749841
 21
-3.3883202690001468
 31
0.0
  0
LINE
  8
DETAIL
  6
CONTINUOUS
 62
     5
 10
-30.14608474624993
 20
-1.395190699000082
 30
0.0
 11
-25.661543213749841
 21
-1.395190699000082
 31
0.0
  0
LINE
  8
DETAIL
  6
CONTINUOUS
 62
     5
 10
-30.14608474624993
 20
-2.391755484000115
 30
0.0
 11
-25.661543213749841
 21
-2.391755484000115
 31
0.0
  0
LINE
  8
DETAIL
  6
CONTINUOUS
 62
     5
 10
-37.122038241249811
 20
-3.3883202690001468
 30
0.0
 11
-32.63749670874995
 21
-3.3883202690001468
 31
0.0
  0
LINE
  8
DETAIL
  6
CONTINUOUS
 62
     5
 10
-37.122038241249811
 20
-1.395190699000082
 30
0.0
 11
-32.63749670874995
 21
-1.395190699000082
 31
0.0
  0
LINE
  8
DETAIL
  6
CONTINUOUS
 62
     5
 10
-37.122038241249811
 20
-2.391755484000115
 30
0.0
 11
-32.63749670874995
 21
-2.391755484000115
 31
0.0
  0
LINE
  8
DETAIL
  6
CONTINUOUS
 62
     5
 10
-44.097991736249917
 20
-3.3883202690001468
 30
0.0
 11
-39.613450203749842
 21
-3.3883202690001468
 31
0.0
  0
LINE
  8
DETAIL
  6
CONTINUOUS
 62
     5
 10
-44.097991736249917
 20
-1.395190699000082
 30
0.0
 11
-39.613450203749842
 21
-1.395190699000082
 31
0.0
  0
LINE
  8
DETAIL
  6
CONTINUOUS
 62
     5
 10
-44.097991736249917
 20
-2.391755484000115
 30
0.0
 11
-39.613450203749842
 21
-2.391755484000115
 31
0.0
  0
LINE
  8
DETAIL
  6
CONTINUOUS
 62
     5
 10
18.68558971875018
 20
-3.3883202690001468
 30
0.0
 11
23.170131251250041
 21
-3.3883202690001468
 31
0.0
  0
LINE
  8
DETAIL
  6
CONTINUOUS
 62
     5
 10
18.68558971875018
 20
-2.391755484000115
 30
0.0
 11
23.170131251250041
 21
-2.391755484000115
 31
0.0
  0
LINE
  8
DETAIL
  6
CONTINUOUS
 62
     5
 10
18.68558971875018
 20
-1.395190699000082
 30
0.0
 11
23.170131251250041
 21
-1.395190699000082
 31
0.0
  0
LINE
  8
DETAIL
  6
CONTINUOUS
 62
     5
 10
25.661543213750061
 20
-3.3883202690001468
 30
0.0
 11
30.14608474625015
 21
-3.3883202690001468
 31
0.0
  0
LINE
  8
DETAIL
  6
CONTINUOUS
 62
     5
 10
25.661543213750061
 20
-1.395190699000082
 30
0.0
 11
30.14608474625015
 21
-1.395190699000082
 31
0.0
  0
LINE
  8
DETAIL
  6
CONTINUOUS
 62
     5
 10
25.661543213750061
 20
-2.391755484000115
 30
0.0
 11
30.14608474625015
 21
-2.391755484000115
 31
0.0
  0
LINE
  8
DETAIL
  6
CONTINUOUS
 62
     5
 10
32.637496708750177
 20
-3.3883202690001468
 30
0.0
 11
37.122038241250038
 21
-3.3883202690001468
 31
0.0
  0
LINE
  8
DETAIL
  6
CONTINUOUS
 62
     5
 10
32.637496708750177
 20
-1.395190699000082
 30
0.0
 11
37.122038241250038
 21
-1.395190699000082
 31
0.0
  0
LINE
  8
DETAIL
  6
CONTINUOUS
 62
     5
 10
32.637496708750177
 20
-2.391755484000115
 30
0.0
 11
37.122038241250038
 21
-2.391755484000115
 31
0.0
  0
LINE
  8
DETAIL
  6
CONTINUOUS
 62
     5
 10
39.613450203750062
 20
-3.3883202690001468
 30
0.0
 11
44.097991736250151
 21
-3.3883202690001468
 31
0.0
  0
LINE
  8
DETAIL
  6
CONTINUOUS
 62
     5
 10
39.613450203750062
 20
-1.395190699000082
 30
0.0
 11
44.097991736250151
 21
-1.395190699000082
 31
0.0
  0
LINE
  8
DETAIL
  6
CONTINUOUS
 62
     5
 10
39.613450203750062
 20
-2.391755484000115
 30
0.0
 11
44.097991736250151
 21
-2.391755484000115
 31
0.0
  0
ARC
  8
DETAIL
  6
CONTINUOUS
 62
     5
 10
49.52926981450014
 20
-3.0893508335000348
 30
0.0
 40
0.2989694355000119
 50
270.0
 51
0.0
  0
ARC
  8
DETAIL
  6
CONTINUOUS
 62
     5
 10
49.52926981450014
 20
-2.6907249195001128
 30
0.0
 40
0.2989694355000119
 50
0.0
 51
90.0
  0
ARC
  8
DETAIL
  6
CONTINUOUS
 62
     5
 10
48.677405932927741
 20
0.2025682293925541
 30
0.0
 40
0.2982790457125354
 50
90.02400465880001
 51
178.99963553680431
  0
LINE
  8
DETAIL
  6
CONTINUOUS
 62
     5
 10
51.073945231250043
 20
0.5009008913866495
 30
0.0
 11
48.677679907820902
 21
0.5009008913866495
 31
0.0
  0
ARC
  8
DETAIL
  6
CONTINUOUS
 62
     5
 10
50.027552207000113
 20
-0.7972518279999719
 30
0.0
 40
0.199312956999988
 50
90.0
 51
180.0
  0
LINE
  8
DETAIL
  6
CONTINUOUS
 62
     5
 10
50.027552207000113
 20
-0.5979388710000109
 30
0.0
 11
51.073945231250043
 21
-0.5979388710000109
 31
0.0
  0
LINE
  8
DETAIL
  6
CONTINUOUS
 62
     5
 10
46.589403698750168
 20
-3.3883202690001468
 30
0.0
 11
51.073945231250043
 21
-3.3883202690001468
 31
0.0
  0
LINE
  8
DETAIL
  6
CONTINUOUS
 62
     5
 10
48.350787175563028
 20
-1.395190699000082
 30
0.0
 11
48.378756122362567
 21
0.2071491919563044
 31
0.0
  0
LINE
  8
DETAIL
  6
CONTINUOUS
 62
     5
 10
46.589403698750168
 20
-1.395190699000082
 30
0.0
 11
49.828239250000017
 21
-1.395190699000082
 31
0.0
  0
LINE
  8
DETAIL
  6
CONTINUOUS
 62
     5
 10
46.589403698750168
 20
-2.391755484000115
 30
0.0
 11
49.52926981450014
 21
-2.391755484000115
 31
0.0
  0
LINE
  8
DETAIL
  6
CONTINUOUS
 62
     5
 10
49.828239250000017
 20
-0.7972518279999719
 30
0.0
 11
49.828239250000017
 21
-3.0893508335000348
 31
0.0
  0
LINE
  8
DETAIL
  6
CONTINUOUS
 62
     5
 10
-46.589403698749933
 20
-15.34709768900008
 30
0.0
 11
-47.840737425244697
 21
-15.34709768900008
 31
0.0
  0
LINE
  8
DETAIL
  6
CONTINUOUS
 62
     5
 10
-46.589403698749933
 20
-12.556716291000059
 30
0.0
 11
-47.835109663755929
 21
-12.556716291000059
 31
0.0
  0
LINE
  8
DETAIL
  6
CONTINUOUS
 62
     5
 10
-47.840737425244697
 20
-11.45787652861328
 30
0.0
 11
-46.589403698749933
 21
-11.45787652861328
 31
0.0
  0
LINE
  8
DETAIL
  6
CONTINUOUS
 62
     5
 10
11.709636223750071
 20
-15.34709768900008
 30
0.0
 11
16.194177756250159
 21
-15.34709768900008
 31
0.0
  0
LINE
  8
DETAIL
  6
CONTINUOUS
 62
     5
 10
11.709636223750071
 20
-13.353968119000131
 30
0.0
 11
16.194177756250159
 21
-13.353968119000131
 31
0.0
  0
LINE
  8
DETAIL
  6
CONTINUOUS
 62
     5
 10
11.709636223750071
 20
-14.350532904000049
 30
0.0
 11
16.194177756250159
 21
-14.350532904000049
 31
0.0
  0
LINE
  8
DETAIL
  6
CONTINUOUS
 62
     5
 10
4.7336827287501819
 20
-15.34709768900008
 30
0.0
 11
9.2182242612500449
 21
-15.34709768900008
 31
0.0
  0
LINE
  8
DETAIL
  6
CONTINUOUS
 62
     5
 10
4.7336827287501819
 20
-13.353968119000131
 30
0.0
 11
9.2182242612500449
 21
-13.353968119000131
 31
0.0
  0
LINE
  8
DETAIL
  6
CONTINUOUS
 62
     5
 10
4.7336827287501819
 20
-14.350532904000049
 30
0.0
 11
9.2182242612500449
 21
-14.350532904000049
 31
0.0
  0
LINE
  8
DETAIL
  6
CONTINUOUS
 62
     5
 10
-2.242270766249931
 20
-15.34709768900008
 30
0.0
 11
2.242270766250158
 21
-15.34709768900008
 31
0.0
  0
LINE
  8
DETAIL
  6
CONTINUOUS
 62
     5
 10
-2.242270766249931
 20
-13.353968119000131
 30
0.0
 11
2.242270766250158
 21
-13.353968119000131
 31
0.0
  0
LINE
  8
DETAIL
  6
CONTINUOUS
 62
     5
 10
-2.242270766249931
 20
-14.350532904000049
 30
0.0
 11
2.242270766250158
 21
-14.350532904000049
 31
0.0
  0
LINE
  8
DETAIL
  6
CONTINUOUS
 62
     5
 10
-9.2182242612498175
 20
-15.34709768900008
 30
0.0
 11
-4.7336827287499554
 21
-15.34709768900008
 31
0.0
  0
LINE
  8
DETAIL
  6
CONTINUOUS
 62
     5
 10
-9.2182242612498175
 20
-13.353968119000131
 30
0.0
 11
-4.7336827287499554
 21
-13.353968119000131
 31
0.0
  0
LINE
  8
DETAIL
  6
CONTINUOUS
 62
     5
 10
-9.2182242612498175
 20
-14.350532904000049
 30
0.0
 11
-4.7336827287499554
 21
-14.350532904000049
 31
0.0
  0
LINE
  8
DETAIL
  6
CONTINUOUS
 62
     5
 10
-16.194177756249928
 20
-15.34709768900008
 30
0.0
 11
-11.70963622374984
 21
-15.34709768900008
 31
0.0
  0
LINE
  8
DETAIL
  6
CONTINUOUS
 62
     5
 10
-16.194177756249928
 20
-13.353968119000131
 30
0.0
 11
-11.70963622374984
 21
-13.353968119000131
 31
0.0
  0
LINE
  8
DETAIL
  6
CONTINUOUS
 62
     5
 10
-16.194177756249928
 20
-14.350532904000049
 30
0.0
 11
-11.70963622374984
 21
-14.350532904000049
 31
0.0
  0
LINE
  8
DETAIL
  6
CONTINUOUS
 62
     5
 10
-23.17013125124981
 20
-15.34709768900008
 30
0.0
 11
-18.685589718749949
 21
-15.34709768900008
 31
0.0
  0
LINE
  8
DETAIL
  6
CONTINUOUS
 62
     5
 10
-23.17013125124981
 20
-13.353968119000131
 30
0.0
 11
-18.685589718749949
 21
-13.353968119000131
 31
0.0
  0
LINE
  8
DETAIL
  6
CONTINUOUS
 62
     5
 10
-23.17013125124981
 20
-14.350532904000049
 30
0.0
 11
-18.685589718749949
 21
-14.350532904000049
 31
0.0
  0
LINE
  8
DETAIL
  6
CONTINUOUS
 62
     5
 10
-30.14608474624993
 20
-15.34709768900008
 30
0.0
 11
-25.661543213749841
 21
-15.34709768900008
 31
0.0
  0
LINE
  8
DETAIL
  6
CONTINUOUS
 62
     5
 10
-30.14608474624993
 20
-13.353968119000131
 30
0.0
 11
-25.661543213749841
 21
-13.353968119000131
 31
0.0
  0
LINE
  8
DETAIL
  6
CONTINUOUS
 62
     5
 10
-30.14608474624993
 20
-14.350532904000049
 30
0.0
 11
-25.661543213749841
 21
-14.350532904000049
 31
0.0
  0
LINE
  8
DETAIL
  6
CONTINUOUS
 62
     5
 10
-37.122038241249811
 20
-15.34709768900008
 30
0.0
 11
-32.63749670874995
 21
-15.34709768900008
 31
0.0
  0
LINE
  8
DETAIL
  6
CONTINUOUS
 62
     5
 10
-37.122038241249811
 20
-13.353968119000131
 30
0.0
 11
-32.63749670874995
 21
-13.353968119000131
 31
0.0
  0
LINE
  8
DETAIL
  6
CONTINUOUS
 62
     5
 10
-37.122038241249811
 20
-14.350532904000049
 30
0.0
 11
-32.63749670874995
 21
-14.350532904000049
 31
0.0
  0
LINE
  8
DETAIL
  6
CONTINUOUS
 62
     5
 10
-44.097991736249917
 20
-15.34709768900008
 30
0.0
 11
-39.613450203749842
 21
-15.34709768900008
 31
0.0
  0
LINE
  8
DETAIL
  6
CONTINUOUS
 62
     5
 10
-44.097991736249917
 20
-13.353968119000131
 30
0.0
 11
-39.613450203749842
 21
-13.353968119000131
 31
0.0
  0
LINE
  8
DETAIL
  6
CONTINUOUS
 62
     5
 10
-44.097991736249917
 20
-14.350532904000049
 30
0.0
 11
-39.613450203749842
 21
-14.350532904000049
 31
0.0
  0
LINE
  8
DETAIL
  6
CONTINUOUS
 62
     5
 10
18.68558971875018
 20
-15.34709768900008
 30
0.0
 11
23.170131251250041
 21
-15.34709768900008
 31
0.0
  0
LINE
  8
DETAIL
  6
CONTINUOUS
 62
     5
 10
18.68558971875018
 20
-14.350532904000049
 30
0.0
 11
23.170131251250041
 21
-14.350532904000049
 31
0.0
  0
LINE
  8
DETAIL
  6
CONTINUOUS
 62
     5
 10
18.68558971875018
 20
-13.353968119000131
 30
0.0
 11
23.170131251250041
 21
-13.353968119000131
 31
0.0
  0
LINE
  8
DETAIL
  6
CONTINUOUS
 62
     5
 10
25.661543213750061
 20
-15.34709768900008
 30
0.0
 11
30.14608474625015
 21
-15.34709768900008
 31
0.0
  0
LINE
  8
DETAIL
  6
CONTINUOUS
 62
     5
 10
25.661543213750061
 20
-13.353968119000131
 30
0.0
 11
30.14608474625015
 21
-13.353968119000131
 31
0.0
  0
LINE
  8
DETAIL
  6
CONTINUOUS
 62
     5
 10
25.661543213750061
 20
-14.350532904000049
 30
0.0
 11
30.14608474625015
 21
-14.350532904000049
 31
0.0
  0
LINE
  8
DETAIL
  6
CONTINUOUS
 62
     5
 10
32.637496708750177
 20
-15.34709768900008
 30
0.0
 11
37.122038241250038
 21
-15.34709768900008
 31
0.0
  0
LINE
  8
DETAIL
  6
CONTINUOUS
 62
     5
 10
32.637496708750177
 20
-13.353968119000131
 30
0.0
 11
37.122038241250038
 21
-13.353968119000131
 31
0.0
  0
LINE
  8
DETAIL
  6
CONTINUOUS
 62
     5
 10
32.637496708750177
 20
-14.350532904000049
 30
0.0
 11
37.122038241250038
 21
-14.350532904000049
 31
0.0
  0
LINE
  8
DETAIL
  6
CONTINUOUS
 62
     5
 10
39.613450203750062
 20
-15.34709768900008
 30
0.0
 11
44.097991736250151
 21
-15.34709768900008
 31
0.0
  0
LINE
  8
DETAIL
  6
CONTINUOUS
 62
     5
 10
39.613450203750062
 20
-13.353968119000131
 30
0.0
 11
44.097991736250151
 21
-13.353968119000131
 31
0.0
  0
LINE
  8
DETAIL
  6
CONTINUOUS
 62
     5
 10
39.613450203750062
 20
-14.350532904000049
 30
0.0
 11
44.097991736250151
 21
-14.350532904000049
 31
0.0
  0
ARC
  8
DETAIL
  6
CONTINUOUS
 62
     5
 10
49.52926981450014
 20
-15.04812825350008
 30
0.0
 40
0.2989694355000119
 50
270.0
 51
0.0
  0
ARC
  8
DETAIL
  6
CONTINUOUS
 62
     5
 10
49.52926981450014
 20
-14.649502339500049
 30
0.0
 40
0.2989694355000119
 50
0.0
 51
90.0
  0
ARC
  8
DETAIL
  6
CONTINUOUS
 62
     5
 10
48.677405932927741
 20
-11.756209190607491
 30
0.0
 40
0.2982790457125354
 50
90.02400465880001
 51
178.99963553680431
  0
LINE
  8
DETAIL
  6
CONTINUOUS
 62
     5
 10
51.073945231250043
 20
-11.45787652861328
 30
0.0
 11
48.677679907820902
 21
-11.45787652861328
 31
0.0
  0
ARC
  8
DETAIL
  6
CONTINUOUS
 62
     5
 10
50.027552207000113
 20
-12.75602924800002
 30
0.0
 40
0.199312956999988
 50
90.0
 51
180.0
  0
LINE
  8
DETAIL
  6
CONTINUOUS
 62
     5
 10
50.027552207000113
 20
-12.556716291000059
 30
0.0
 11
51.073945231250043
 21
-12.556716291000059
 31
0.0
  0
LINE
  8
DETAIL
  6
CONTINUOUS
 62
     5
 10
46.589403698750168
 20
-15.34709768900008
 30
0.0
 11
51.073945231250043
 21
-15.34709768900008
 31
0.0
  0
LINE
  8
DETAIL
  6
CONTINUOUS
 62
     5
 10
48.350787175563028
 20
-13.353968119000131
 30
0.0
 11
48.378756122362567
 21
-11.75162822804363
 31
0.0
  0
LINE
  8
DETAIL
  6
CONTINUOUS
 62
     5
 10
46.589403698750168
 20
-13.353968119000131
 30
0.0
 11
49.828239250000017
 21
-13.353968119000131
 31
0.0
  0
LINE
  8
DETAIL
  6
CONTINUOUS
 62
     5
 10
46.589403698750168
 20
-14.350532904000049
 30
0.0
 11
49.52926981450014
 21
-14.350532904000049
 31
0.0
  0
LINE
  8
DETAIL
  6
CONTINUOUS
 62
     5
 10
49.828239250000017
 20
-12.75602924800002
 30
0.0
 11
49.828239250000017
 21
-15.04812825350008
 31
0.0
  0
LINE
  8
DETAIL
  6
CONTINUOUS
 62
     5
 10
-46.589403698749933
 20
-27.30587510900013
 30
0.0
 11
-47.840737425244697
 21
-27.30587510900013
 31
0.0
  0
LINE
  8
DETAIL
  6
CONTINUOUS
 62
     5
 10
-46.589403698749933
 20
-24.515493710999991
 30
0.0
 11
-47.835109663755929
 21
-24.515493710999991
 31
0.0
  0
LINE
  8
DETAIL
  6
CONTINUOUS
 62
     5
 10
-47.840737425244697
 20
-23.41665394861333
 30
0.0
 11
-46.589403698749933
 21
-23.41665394861333
 31
0.0
  0
LINE
  8
DETAIL
  6
CONTINUOUS
 62
     5
 10
11.709636223750071
 20
-27.30587510900013
 30
0.0
 11
16.194177756250159
 21
-27.30587510900013
 31
0.0
  0
LINE
  8
DETAIL
  6
CONTINUOUS
 62
     5
 10
11.709636223750071
 20
-25.312745539000051
 30
0.0
 11
16.194177756250159
 21
-25.312745539000051
 31
0.0
  0
LINE
  8
DETAIL
  6
CONTINUOUS
 62
     5
 10
11.709636223750071
 20
-26.309310324000091
 30
0.0
 11
16.194177756250159
 21
-26.309310324000091
 31
0.0
  0
LINE
  8
DETAIL
  6
CONTINUOUS
 62
     5
 10
4.7336827287501819
 20
-27.30587510900013
 30
0.0
 11
9.2182242612500449
 21
-27.30587510900013
 31
0.0
  0
LINE
  8
DETAIL
  6
CONTINUOUS
 62
     5
 10
4.7336827287501819
 20
-25.312745539000051
 30
0.0
 11
9.2182242612500449
 21
-25.312745539000051
 31
0.0
  0
LINE
  8
DETAIL
  6
CONTINUOUS
 62
     5
 10
4.7336827287501819
 20
-26.309310324000091
 30
0.0
 11
9.2182242612500449
 21
-26.309310324000091
 31
0.0
  0
LINE
  8
DETAIL
  6
CONTINUOUS
 62
     5
 10
-2.242270766249931
 20
-27.30587510900013
 30
0.0
 11
2.242270766250158
 21
-27.30587510900013
 31
0.0
  0
LINE
  8
DETAIL
  6
CONTINUOUS
 62
     5
 10
-2.242270766249931
 20
-25.312745539000051
 30
0.0
 11
2.242270766250158
 21
-25.312745539000051
 31
0.0
  0
LINE
  8
DETAIL
  6
CONTINUOUS
 62
     5
 10
-2.242270766249931
 20
-26.309310324000091
 30
0.0
 11
2.242270766250158
 21
-26.309310324000091
 31
0.0
  0
LINE
  8
DETAIL
  6
CONTINUOUS
 62
     5
 10
-9.2182242612498175
 20
-27.30587510900013
 30
0.0
 11
-4.7336827287499554
 21
-27.30587510900013
 31
0.0
  0
LINE
  8
DETAIL
  6
CONTINUOUS
 62
     5
 10
-9.2182242612498175
 20
-25.312745539000051
 30
0.0
 11
-4.7336827287499554
 21
-25.312745539000051
 31
0.0
  0
LINE
  8
DETAIL
  6
CONTINUOUS
 62
     5
 10
-9.2182242612498175
 20
-26.309310324000091
 30
0.0
 11
-4.7336827287499554
 21
-26.309310324000091
 31
0.0
  0
LINE
  8
DETAIL
  6
CONTINUOUS
 62
     5
 10
-16.194177756249928
 20
-27.30587510900013
 30
0.0
 11
-11.70963622374984
 21
-27.30587510900013
 31
0.0
  0
LINE
  8
DETAIL
  6
CONTINUOUS
 62
     5
 10
-16.194177756249928
 20
-25.312745539000051
 30
0.0
 11
-11.70963622374984
 21
-25.312745539000051
 31
0.0
  0
LINE
  8
DETAIL
  6
CONTINUOUS
 62
     5
 10
-16.194177756249928
 20
-26.309310324000091
 30
0.0
 11
-11.70963622374984
 21
-26.309310324000091
 31
0.0
  0
LINE
  8
DETAIL
  6
CONTINUOUS
 62
     5
 10
-23.17013125124981
 20
-27.30587510900013
 30
0.0
 11
-18.685589718749949
 21
-27.30587510900013
 31
0.0
  0
LINE
  8
DETAIL
  6
CONTINUOUS
 62
     5
 10
-23.17013125124981
 20
-25.312745539000051
 30
0.0
 11
-18.685589718749949
 21
-25.312745539000051
 31
0.0
  0
LINE
  8
DETAIL
  6
CONTINUOUS
 62
     5
 10
-23.17013125124981
 20
-26.309310324000091
 30
0.0
 11
-18.685589718749949
 21
-26.309310324000091
 31
0.0
  0
LINE
  8
DETAIL
  6
CONTINUOUS
 62
     5
 10
-30.14608474624993
 20
-27.30587510900013
 30
0.0
 11
-25.661543213749841
 21
-27.30587510900013
 31
0.0
  0
LINE
  8
DETAIL
  6
CONTINUOUS
 62
     5
 10
-30.14608474624993
 20
-25.312745539000051
 30
0.0
 11
-25.661543213749841
 21
-25.312745539000051
 31
0.0
  0
LINE
  8
DETAIL
  6
CONTINUOUS
 62
     5
 10
-30.14608474624993
 20
-26.309310324000091
 30
0.0
 11
-25.661543213749841
 21
-26.309310324000091
 31
0.0
  0
LINE
  8
DETAIL
  6
CONTINUOUS
 62
     5
 10
-37.122038241249811
 20
-27.30587510900013
 30
0.0
 11
-32.63749670874995
 21
-27.30587510900013
 31
0.0
  0
LINE
  8
DETAIL
  6
CONTINUOUS
 62
     5
 10
-37.122038241249811
 20
-25.312745539000051
 30
0.0
 11
-32.63749670874995
 21
-25.312745539000051
 31
0.0
  0
LINE
  8
DETAIL
  6
CONTINUOUS
 62
     5
 10
-37.122038241249811
 20
-26.309310324000091
 30
0.0
 11
-32.63749670874995
 21
-26.309310324000091
 31
0.0
  0
LINE
  8
DETAIL
  6
CONTINUOUS
 62
     5
 10
-44.097991736249917
 20
-27.30587510900013
 30
0.0
 11
-39.613450203749842
 21
-27.30587510900013
 31
0.0
  0
LINE
  8
DETAIL
  6
CONTINUOUS
 62
     5
 10
-44.097991736249917
 20
-25.312745539000051
 30
0.0
 11
-39.613450203749842
 21
-25.312745539000051
 31
0.0
  0
LINE
  8
DETAIL
  6
CONTINUOUS
 62
     5
 10
-44.097991736249917
 20
-26.309310324000091
 30
0.0
 11
-39.613450203749842
 21
-26.309310324000091
 31
0.0
  0
LINE
  8
DETAIL
  6
CONTINUOUS
 62
     5
 10
18.68558971875018
 20
-27.30587510900013
 30
0.0
 11
23.170131251250041
 21
-27.30587510900013
 31
0.0
  0
LINE
  8
DETAIL
  6
CONTINUOUS
 62
     5
 10
18.68558971875018
 20
-26.309310324000091
 30
0.0
 11
23.170131251250041
 21
-26.309310324000091
 31
0.0
  0
LINE
  8
DETAIL
  6
CONTINUOUS
 62
     5
 10
18.68558971875018
 20
-25.312745539000051
 30
0.0
 11
23.170131251250041
 21
-25.312745539000051
 31
0.0
  0
LINE
  8
DETAIL
  6
CONTINUOUS
 62
     5
 10
25.661543213750061
 20
-27.30587510900013
 30
0.0
 11
30.14608474625015
 21
-27.30587510900013
 31
0.0
  0
LINE
  8
DETAIL
  6
CONTINUOUS
 62
     5
 10
25.661543213750061
 20
-25.312745539000051
 30
0.0
 11
30.14608474625015
 21
-25.312745539000051
 31
0.0
  0
LINE
  8
DETAIL
  6
CONTINUOUS
 62
     5
 10
25.661543213750061
 20
-26.309310324000091
 30
0.0
 11
30.14608474625015
 21
-26.309310324000091
 31
0.0
  0
LINE
  8
DETAIL
  6
CONTINUOUS
 62
     5
 10
32.637496708750177
 20
-27.30587510900013
 30
0.0
 11
37.122038241250038
 21
-27.30587510900013
 31
0.0
  0
LINE
  8
DETAIL
  6
CONTINUOUS
 62
     5
 10
32.637496708750177
 20
-25.312745539000051
 30
0.0
 11
37.122038241250038
 21
-25.312745539000051
 31
0.0
  0
LINE
  8
DETAIL
  6
CONTINUOUS
 62
     5
 10
32.637496708750177
 20
-26.309310324000091
 30
0.0
 11
37.122038241250038
 21
-26.309310324000091
 31
0.0
  0
LINE
  8
DETAIL
  6
CONTINUOUS
 62
     5
 10
39.613450203750062
 20
-27.30587510900013
 30
0.0
 11
44.097991736250151
 21
-27.30587510900013
 31
0.0
  0
LINE
  8
DETAIL
  6
CONTINUOUS
 62
     5
 10
39.613450203750062
 20
-25.312745539000051
 30
0.0
 11
44.097991736250151
 21
-25.312745539000051
 31
0.0
  0
LINE
  8
DETAIL
  6
CONTINUOUS
 62
     5
 10
39.613450203750062
 20
-26.309310324000091
 30
0.0
 11
44.097991736250151
 21
-26.309310324000091
 31
0.0
  0
ARC
  8
DETAIL
  6
CONTINUOUS
 62
     5
 10
49.52926981450014
 20
-27.006905673500011
 30
0.0
 40
0.2989694355000119
 50
270.0
 51
0.0
  0
ARC
  8
DETAIL
  6
CONTINUOUS
 62
     5
 10
49.52926981450014
 20
-26.608279759500089
 30
0.0
 40
0.2989694355000119
 50
0.0
 51
90.0
  0
ARC
  8
DETAIL
  6
CONTINUOUS
 62
     5
 10
48.677405932927741
 20
-23.714986610607529
 30
0.0
 40
0.2982790457125354
 50
90.02400465880001
 51
178.99963553680431
  0
LINE
  8
DETAIL
  6
CONTINUOUS
 62
     5
 10
51.073945231250043
 20
-23.41665394861333
 30
0.0
 11
48.677679907820902
 21
-23.41665394861333
 31
0.0
  0
ARC
  8
DETAIL
  6
CONTINUOUS
 62
     5
 10
50.027552207000113
 20
-24.714806667999952
 30
0.0
 40
0.199312956999988
 50
90.0
 51
180.0
  0
LINE
  8
DETAIL
  6
CONTINUOUS
 62
     5
 10
50.027552207000113
 20
-24.515493710999991
 30
0.0
 11
51.073945231250043
 21
-24.515493710999991
 31
0.0
  0
LINE
  8
DETAIL
  6
CONTINUOUS
 62
     5
 10
46.589403698750168
 20
-27.30587510900013
 30
0.0
 11
51.073945231250043
 21
-27.30587510900013
 31
0.0
  0
LINE
  8
DETAIL
  6
CONTINUOUS
 62
     5
 10
48.350787175563028
 20
-25.312745539000051
 30
0.0
 11
48.378756122362567
 21
-23.710405648043679
 31
0.0
  0
LINE
  8
DETAIL
  6
CONTINUOUS
 62
     5
 10
46.589403698750168
 20
-25.312745539000051
 30
0.0
 11
49.828239250000017
 21
-25.312745539000051
 31
0.0
  0
LINE
  8
DETAIL
  6
CONTINUOUS
 62
     5
 10
46.589403698750168
 20
-26.309310324000091
 30
0.0
 11
49.52926981450014
 21
-26.309310324000091
 31
0.0
  0
LINE
  8
DETAIL
  6
CONTINUOUS
 62
     5
 10
49.828239250000017
 20
-24.714806667999952
 30
0.0
 11
49.828239250000017
 21
-27.006905673500011
 31
0.0
  0
LINE
  8
DETAIL
  6
CONTINUOUS
 62
     5
 10
51.073945231250043
 20
59.594574142999917
 30
0.0
 11
46.589403698750168
 21
59.594574142999917
 31
0.0
  0
LINE
  8
DETAIL
  6
CONTINUOUS
 62
     5
 10
44.097991736250151
 20
59.594574142999917
 30
0.0
 11
39.613450203750062
 21
59.594574142999917
 31
0.0
  0
LINE
  8
DETAIL
  6
CONTINUOUS
 62
     5
 10
37.122038241250038
 20
59.594574142999917
 30
0.0
 11
32.637496708750177
 21
59.594574142999917
 31
0.0
  0
LINE
  8
DETAIL
  6
CONTINUOUS
 62
     5
 10
30.14608474625015
 20
59.594574142999917
 30
0.0
 11
25.661543213750061
 21
59.594574142999917
 31
0.0
  0
LINE
  8
DETAIL
  6
CONTINUOUS
 62
     5
 10
23.170131251250041
 20
59.594574142999917
 30
0.0
 11
18.68558971875018
 21
59.594574142999917
 31
0.0
  0
LINE
  8
DETAIL
  6
CONTINUOUS
 62
     5
 10
16.194177756250159
 20
59.594574142999917
 30
0.0
 11
11.709636223750071
 21
59.594574142999917
 31
0.0
  0
LINE
  8
DETAIL
  6
CONTINUOUS
 62
     5
 10
9.2182242612500449
 20
59.594574142999917
 30
0.0
 11
4.7336827287501819
 21
59.594574142999917
 31
0.0
  0
LINE
  8
DETAIL
  6
CONTINUOUS
 62
     5
 10
2.242270766250158
 20
59.594574142999917
 30
0.0
 11
-2.242270766249931
 21
59.594574142999917
 31
0.0
  0
LINE
  8
DETAIL
  6
CONTINUOUS
 62
     5
 10
-4.7336827287499554
 20
59.594574142999917
 30
0.0
 11
-9.2182242612498175
 21
59.594574142999917
 31
0.0
  0
LINE
  8
DETAIL
  6
CONTINUOUS
 62
     5
 10
-11.70963622374984
 20
59.594574142999917
 30
0.0
 11
-16.194177756249928
 21
59.594574142999917
 31
0.0
  0
LINE
  8
DETAIL
  6
CONTINUOUS
 62
     5
 10
-18.685589718749949
 20
59.594574142999917
 30
0.0
 11
-23.17013125124981
 21
59.594574142999917
 31
0.0
  0
LINE
  8
DETAIL
  6
CONTINUOUS
 62
     5
 10
-25.661543213749841
 20
59.594574142999917
 30
0.0
 11
-30.14608474624993
 21
59.594574142999917
 31
0.0
  0
LINE
  8
DETAIL
  6
CONTINUOUS
 62
     5
 10
-32.63749670874995
 20
59.594574142999917
 30
0.0
 11
-37.122038241249811
 21
59.594574142999917
 31
0.0
  0
LINE
  8
DETAIL
  6
CONTINUOUS
 62
     5
 10
-47.840737425244697
 20
-35.375431368613377
 30
0.0
 11
-46.589403698749933
 21
-35.375431368613377
 31
0.0
  0
LINE
  8
DETAIL
  6
CONTINUOUS
 62
     5
 10
-46.589403698749933
 20
-39.26465252900006
 30
0.0
 11
-47.840737425244697
 21
-39.26465252900006
 31
0.0
  0
LINE
  8
DETAIL
  6
CONTINUOUS
 62
     5
 10
-46.589403698749933
 20
-36.474271131000037
 30
0.0
 11
-47.835109663755929
 21
-36.474271131000037
 31
0.0
  0
LINE
  8
DETAIL
  6
CONTINUOUS
 62
     5
 10
-46.589403698749933
 20
59.594574142999917
 30
0.0
 11
-46.838544894999814
 21
59.594574142999917
 31
0.0
  0
ARC
  8
DETAIL
  6
CONTINUOUS
 62
     5
 10
-47.3368272875
 20
59.096291750499972
 30
0.0
 40
0.4982823925
 50
270.0
 51
0.0
  0
LINE
  8
DETAIL
  6
CONTINUOUS
 62
     5
 10
-46.838544894999814
 20
59.096291750499972
 30
0.0
 11
-46.838544894999814
 21
59.594574142999917
 31
0.0
  0
LINE
  8
DETAIL
  6
CONTINUOUS
 62
     5
 10
-39.613450203749842
 20
59.594574142999917
 30
0.0
 11
-44.097991736249917
 21
59.594574142999917
 31
0.0
  0
LINE
  8
DETAIL
  6
CONTINUOUS
 62
     5
 10
-47.3368272875
 20
58.598009357999999
 30
0.0
 11
-47.840737425244697
 21
58.598009357999999
 31
0.0
  0
LINE
  8
DETAIL
  6
CONTINUOUS
 62
     5
 10
-44.097991736249917
 20
-39.26465252900006
 30
0.0
 11
-39.613450203749842
 21
-39.26465252900006
 31
0.0
  0
LINE
  8
DETAIL
  6
CONTINUOUS
 62
     5
 10
-44.097991736249917
 20
-37.271522959000102
 30
0.0
 11
-39.613450203749842
 21
-37.271522959000102
 31
0.0
  0
LINE
  8
DETAIL
  6
CONTINUOUS
 62
     5
 10
-44.097991736249917
 20
-38.268087744000148
 30
0.0
 11
-39.613450203749842
 21
-38.268087744000148
 31
0.0
  0
LINE
  8
DETAIL
  6
CONTINUOUS
 62
     5
 10
-37.122038241249811
 20
-39.26465252900006
 30
0.0
 11
-32.63749670874995
 21
-39.26465252900006
 31
0.0
  0
LINE
  8
DETAIL
  6
CONTINUOUS
 62
     5
 10
-37.122038241249811
 20
-37.271522959000102
 30
0.0
 11
-32.63749670874995
 21
-37.271522959000102
 31
0.0
  0
LINE
  8
DETAIL
  6
CONTINUOUS
 62
     5
 10
-37.122038241249811
 20
-38.268087744000148
 30
0.0
 11
-32.63749670874995
 21
-38.268087744000148
 31
0.0
  0
LINE
  8
DETAIL
  6
CONTINUOUS
 62
     5
 10
-30.14608474624993
 20
-39.26465252900006
 30
0.0
 11
-25.661543213749841
 21
-39.26465252900006
 31
0.0
  0
LINE
  8
DETAIL
  6
CONTINUOUS
 62
     5
 10
-30.14608474624993
 20
-37.271522959000102
 30
0.0
 11
-25.661543213749841
 21
-37.271522959000102
 31
0.0
  0
LINE
  8
DETAIL
  6
CONTINUOUS
 62
     5
 10
-30.14608474624993
 20
-38.268087744000148
 30
0.0
 11
-25.661543213749841
 21
-38.268087744000148
 31
0.0
  0
LINE
  8
DETAIL
  6
CONTINUOUS
 62
     5
 10
-23.17013125124981
 20
-39.26465252900006
 30
0.0
 11
-18.685589718749949
 21
-39.26465252900006
 31
0.0
  0
LINE
  8
DETAIL
  6
CONTINUOUS
 62
     5
 10
-23.17013125124981
 20
-37.271522959000102
 30
0.0
 11
-18.685589718749949
 21
-37.271522959000102
 31
0.0
  0
LINE
  8
DETAIL
  6
CONTINUOUS
 62
     5
 10
-23.17013125124981
 20
-38.268087744000148
 30
0.0
 11
-18.685589718749949
 21
-38.268087744000148
 31
0.0
  0
LINE
  8
DETAIL
  6
CONTINUOUS
 62
     5
 10
-16.194177756249928
 20
-39.26465252900006
 30
0.0
 11
-11.70963622374984
 21
-39.26465252900006
 31
0.0
  0
LINE
  8
DETAIL
  6
CONTINUOUS
 62
     5
 10
-16.194177756249928
 20
-37.271522959000102
 30
0.0
 11
-11.70963622374984
 21
-37.271522959000102
 31
0.0
  0
LINE
  8
DETAIL
  6
CONTINUOUS
 62
     5
 10
-16.194177756249928
 20
-38.268087744000148
 30
0.0
 11
-11.70963622374984
 21
-38.268087744000148
 31
0.0
  0
LINE
  8
DETAIL
  6
CONTINUOUS
 62
     5
 10
-9.2182242612498175
 20
-39.26465252900006
 30
0.0
 11
-4.7336827287499554
 21
-39.26465252900006
 31
0.0
  0
LINE
  8
DETAIL
  6
CONTINUOUS
 62
     5
 10
-9.2182242612498175
 20
-37.271522959000102
 30
0.0
 11
-4.7336827287499554
 21
-37.271522959000102
 31
0.0
  0
LINE
  8
DETAIL
  6
CONTINUOUS
 62
     5
 10
-9.2182242612498175
 20
-38.268087744000148
 30
0.0
 11
-4.7336827287499554
 21
-38.268087744000148
 31
0.0
  0
LINE
  8
DETAIL
  6
CONTINUOUS
 62
     5
 10
-2.242270766249931
 20
-39.26465252900006
 30
0.0
 11
2.242270766250158
 21
-39.26465252900006
 31
0.0
  0
LINE
  8
DETAIL
  6
CONTINUOUS
 62
     5
 10
-2.242270766249931
 20
-37.271522959000102
 30
0.0
 11
2.242270766250158
 21
-37.271522959000102
 31
0.0
  0
LINE
  8
DETAIL
  6
CONTINUOUS
 62
     5
 10
-2.242270766249931
 20
-38.268087744000148
 30
0.0
 11
2.242270766250158
 21
-38.268087744000148
 31
0.0
  0
LINE
  8
DETAIL
  6
CONTINUOUS
 62
     5
 10
4.7336827287501819
 20
-39.26465252900006
 30
0.0
 11
9.2182242612500449
 21
-39.26465252900006
 31
0.0
  0
LINE
  8
DETAIL
  6
CONTINUOUS
 62
     5
 10
4.7336827287501819
 20
-37.271522959000102
 30
0.0
 11
9.2182242612500449
 21
-37.271522959000102
 31
0.0
  0
LINE
  8
DETAIL
  6
CONTINUOUS
 62
     5
 10
4.7336827287501819
 20
-38.268087744000148
 30
0.0
 11
9.2182242612500449
 21
-38.268087744000148
 31
0.0
  0
LINE
  8
DETAIL
  6
CONTINUOUS
 62
     5
 10
11.709636223750071
 20
-39.26465252900006
 30
0.0
 11
16.194177756250159
 21
-39.26465252900006
 31
0.0
  0
LINE
  8
DETAIL
  6
CONTINUOUS
 62
     5
 10
11.709636223750071
 20
-37.271522959000102
 30
0.0
 11
16.194177756250159
 21
-37.271522959000102
 31
0.0
  0
LINE
  8
DETAIL
  6
CONTINUOUS
 62
     5
 10
11.709636223750071
 20
-38.268087744000148
 30
0.0
 11
16.194177756250159
 21
-38.268087744000148
 31
0.0
  0
LINE
  8
DETAIL
  6
CONTINUOUS
 62
     5
 10
18.68558971875018
 20
-39.26465252900006
 30
0.0
 11
23.170131251250041
 21
-39.26465252900006
 31
0.0
  0
LINE
  8
DETAIL
  6
CONTINUOUS
 62
     5
 10
18.68558971875018
 20
-37.271522959000102
 30
0.0
 11
23.170131251250041
 21
-37.271522959000102
 31
0.0
  0
LINE
  8
DETAIL
  6
CONTINUOUS
 62
     5
 10
18.68558971875018
 20
-38.268087744000148
 30
0.0
 11
23.170131251250041
 21
-38.268087744000148
 31
0.0
  0
LINE
  8
DETAIL
  6
CONTINUOUS
 62
     5
 10
25.661543213750061
 20
-39.26465252900006
 30
0.0
 11
30.14608474625015
 21
-39.26465252900006
 31
0.0
  0
LINE
  8
DETAIL
  6
CONTINUOUS
 62
     5
 10
25.661543213750061
 20
-37.271522959000102
 30
0.0
 11
30.14608474625015
 21
-37.271522959000102
 31
0.0
  0
LINE
  8
DETAIL
  6
CONTINUOUS
 62
     5
 10
25.661543213750061
 20
-38.268087744000148
 30
0.0
 11
30.14608474625015
 21
-38.268087744000148
 31
0.0
  0
LINE
  8
DETAIL
  6
CONTINUOUS
 62
     5
 10
32.637496708750177
 20
-39.26465252900006
 30
0.0
 11
37.122038241250038
 21
-39.26465252900006
 31
0.0
  0
LINE
  8
DETAIL
  6
CONTINUOUS
 62
     5
 10
32.637496708750177
 20
-37.271522959000102
 30
0.0
 11
37.122038241250038
 21
-37.271522959000102
 31
0.0
  0
LINE
  8
DETAIL
  6
CONTINUOUS
 62
     5
 10
32.637496708750177
 20
-38.268087744000148
 30
0.0
 11
37.122038241250038
 21
-38.268087744000148
 31
0.0
  0
ARC
  8
DETAIL
  6
CONTINUOUS
 62
     5
 10
49.52926981450014
 20
-38.965683093500061
 30
0.0
 40
0.2989694355000119
 50
270.0
 51
0.0
  0
ARC
  8
DETAIL
  6
CONTINUOUS
 62
     5
 10
49.52926981450014
 20
-38.567057179500033
 30
0.0
 40
0.2989694355000119
 50
0.0
 51
90.0
  0
ARC
  8
DETAIL
  6
CONTINUOUS
 62
     5
 10
48.677405932927741
 20
-35.673764030607472
 30
0.0
 40
0.2982790457125354
 50
90.02400465880001
 51
178.99963553680431
  0
LINE
  8
DETAIL
  6
CONTINUOUS
 62
     5
 10
51.073945231250043
 20
-35.375431368613377
 30
0.0
 11
48.677679907820902
 21
-35.375431368613377
 31
0.0
  0
ARC
  8
DETAIL
  6
CONTINUOUS
 62
     5
 10
50.027552207000113
 20
-36.673584087999998
 30
0.0
 40
0.199312956999988
 50
90.0
 51
180.0
  0
LINE
  8
DETAIL
  6
CONTINUOUS
 62
     5
 10
50.027552207000113
 20
-36.474271131000037
 30
0.0
 11
51.073945231250043
 21
-36.474271131000037
 31
0.0
  0
LINE
  8
DETAIL
  6
CONTINUOUS
 62
     5
 10
46.589403698750168
 20
-39.26465252900006
 30
0.0
 11
51.073945231250043
 21
-39.26465252900006
 31
0.0
  0
LINE
  8
DETAIL
  6
CONTINUOUS
 62
     5
 10
48.350787175563028
 20
-37.271522959000102
 30
0.0
 11
48.378756122362567
 21
-35.669183068043708
 31
0.0
  0
LINE
  8
DETAIL
  6
CONTINUOUS
 62
     5
 10
46.589403698750168
 20
-37.271522959000102
 30
0.0
 11
49.828239250000017
 21
-37.271522959000102
 31
0.0
  0
LINE
  8
DETAIL
  6
CONTINUOUS
 62
     5
 10
46.589403698750168
 20
-38.268087744000148
 30
0.0
 11
49.52926981450014
 21
-38.268087744000148
 31
0.0
  0
LINE
  8
DETAIL
  6
CONTINUOUS
 62
     5
 10
49.828239250000017
 20
-36.673584087999998
 30
0.0
 11
49.828239250000017
 21
-38.965683093500061
 31
0.0
  0
LINE
  8
DETAIL
  6
CONTINUOUS
 62
     5
 10
-47.840737425244697
 20
-41.861546031385068
 30
0.0
 11
-47.840737425244697
 21
58.598009357999999
 31
0.0
  0
ARC
  8
DETAIL
  6
CONTINUOUS
 62
     5
 10
-46.844299151054877
 20
-41.861750876572167
 30
0.0
 40
0.9964709768619052
 50
179.99971955279781
 51
264.55349717219741
  0
LINE
  8
DETAIL
  6
CONTINUOUS
 62
     5
 10
-46.589403698749933
 20
-42.852285755085873
 30
0.0
 11
-46.952904225410741
 21
-42.852285755085873
 31
0.0
  0
LINE
  8
DETAIL
  6
CONTINUOUS
 62
     5
 10
-39.613450203749842
 20
-42.852285755085873
 30
0.0
 11
-44.097991736249917
 21
-42.852285755085873
 31
0.0
  0
LINE
  8
DETAIL
  6
CONTINUOUS
 62
     5
 10
-32.63749670874995
 20
-42.852285755085873
 30
0.0
 11
-37.122038241249811
 21
-42.852285755085873
 31
0.0
  0
LINE
  8
DETAIL
  6
CONTINUOUS
 62
     5
 10
-25.661543213749841
 20
-42.852285755085873
 30
0.0
 11
-30.14608474624993
 21
-42.852285755085873
 31
0.0
  0
LINE
  8
DETAIL
  6
CONTINUOUS
 62
     5
 10
-18.685589718749949
 20
-42.852285755085873
 30
0.0
 11
-23.17013125124981
 21
-42.852285755085873
 31
0.0
  0
LINE
  8
DETAIL
  6
CONTINUOUS
 62
     5
 10
-11.70963622374984
 20
-42.852285755085873
 30
0.0
 11
-16.194177756249928
 21
-42.852285755085873
 31
0.0
  0
LINE
  8
DETAIL
  6
CONTINUOUS
 62
     5
 10
-4.7336827287499554
 20
-42.852285755085873
 30
0.0
 11
-9.2182242612498175
 21
-42.852285755085873
 31
0.0
  0
LINE
  8
DETAIL
  6
CONTINUOUS
 62
     5
 10
2.242270766250158
 20
-42.852285755085873
 30
0.0
 11
-2.242270766249931
 21
-42.852285755085873
 31
0.0
  0
LINE
  8
DETAIL
  6
CONTINUOUS
 62
     5
 10
9.2182242612500449
 20
-42.852285755085873
 30
0.0
 11
4.7336827287501819
 21
-42.852285755085873
 31
0.0
  0
LINE
  8
DETAIL
  6
CONTINUOUS
 62
     5
 10
16.194177756250159
 20
-42.852285755085873
 30
0.0
 11
11.709636223750071
 21
-42.852285755085873
 31
0.0
  0
LINE
  8
DETAIL
  6
CONTINUOUS
 62
     5
 10
23.170131251250041
 20
-42.852285755085873
 30
0.0
 11
18.68558971875018
 21
-42.852285755085873
 31
0.0
  0
LINE
  8
DETAIL
  6
CONTINUOUS
 62
     5
 10
30.14608474625015
 20
-42.852285755085873
 30
0.0
 11
25.661543213750061
 21
-42.852285755085873
 31
0.0
  0
LINE
  8
DETAIL
  6
CONTINUOUS
 62
     5
 10
37.122038241250038
 20
-42.852285755085873
 30
0.0
 11
32.637496708750177
 21
-42.852285755085873
 31
0.0
  0
LINE
  8
DETAIL
  6
CONTINUOUS
 62
     5
 10
44.097991736250151
 20
-42.852285755085873
 30
0.0
 11
39.613450203750062
 21
-42.852285755085873
 31
0.0
  0
LINE
  8
DETAIL
  6
CONTINUOUS
 62
     5
 10
51.073945231250043
 20
-42.852285755085873
 30
0.0
 11
46.589403698750168
 21
-42.852285755085873
 31
0.0
  0
LINE
  8
DETAIL
  6
CONTINUOUS
 62
     5
 10
39.613450203750062
 20
-37.271522959000102
 30
0.0
 11
44.097991736250151
 21
-37.271522959000102
 31
0.0
  0
LINE
  8
DETAIL
  6
CONTINUOUS
 62
     5
 10
39.613450203750062
 20
-39.26465252900006
 30
0.0
 11
44.097991736250151
 21
-39.26465252900006
 31
0.0
  0
LINE
  8
DETAIL
  6
CONTINUOUS
 62
     5
 10
39.613450203750062
 20
-38.268087744000148
 30
0.0
 11
44.097991736250151
 21
-38.268087744000148
 31
0.0
  0
ENDSEC
  0
EOF
